  0
SECTION
  2
HEADER
  9
$ACADVER
  1
AC1021
  9
$DWGCODEPAGE
  3
ANSI_1252
  9
$EXTMAX
 10
297.0
 20
210.0
 30
0.0
  9
$EXTMIN
 10
0.0
 20
0.0
 30
0.0
  9
$LIMMIN
 10
0.0
 20
0.0
  9
$LIMMAX
 10
297.0
 20
210.0
  9
$VIEWCTR
 10
148.5
 20
105.0
  9
$VIEWSIZE
 40
210.0
  9
$CLAYER
  8
0
  9
$LTSCALE
 40
16.335
  9
$CELTYPE
  6
BYLAYER
  9
$DIMSCALE
 40
1.0
  9
$DIMASZ
 40
3.0
  9
$DIMEXO
 40
0.5
  9
$DIMDLI
 40
11.286
  9
$DIMEXE
 40
1.5
  9
$DIMCEN
 40
2.673
  9
$DIMLFAC
 40
1.0
  9
$DIMBLK
  1
_FILLED
  9
$DIMALT
 70
0
  9
$DIMALTF
 40
25.4
  9
$DIMTXT
 40
3.0
  9
$DIMTOL
 70
1
  9
$DIMLIM
 70
0
  9
$DIMTFAC
 40
1.0
  9
$DIMTP
 40
0.01
  9
$DIMTM
 40
0.01
  9
$DIMGAP
 40
0.625
  9
$DIMDSEP
 70
44
  9
$AUNITS
 70
0
  9
$PDMODE
 70
3
  9
$PDSIZE
 40
3.0
  9
$HANDSEED
  5
3F1
  9
$TILEMODE
 70
1
  9
$MEASUREMENT
 70
1
  9
$INSUNITS
 70
4
  0
ENDSEC
  0
SECTION
  2
CLASSES
  0
CLASS
  1
ACDBDICTIONARYWDFLT
  2
AcDbDictionaryWithDefault
  3
AutoCAD 2000
 90
0
 91
1
280
0
281
0
  0
CLASS
  1
ACDBPLACEHOLDER
  2
AcDbPlaceHolder
  3
AutoCAD 2000
 90
0
 91
1
280
0
281
0
  0
CLASS
  1
LAYOUT
  2
AcDbLayout
  3
AutoCAD 2000
 90
0
 91
0
280
0
281
0
  0
ENDSEC
  0
SECTION
  2
TABLES
  0
TABLE
  2
VPORT
  5
8
100
AcDbSymbolTable
 70
2
  0
VPORT
  5
1F4
100
AcDbSymbolTableRecord
100
AcDbViewportTableRecord
  2
*ACTIVE
 70
0
 10
0.0
 20
0.0
 11
1.0
 21
1.0
 12
148.5
 22
105.0
 13
0.0
 23
0.0
 14
1.0
 24
1.0
 15
0.0
 25
0.0
 16
0.0
 26
0.0
 36
1.0
 17
0.0
 27
0.0
 37
0.0
 40
210.0
 41
1.4142857143
 42
50.0
 43
0.0
 44
0.0
 50
0.0
 51
0.0
 71
0
 72
100
 73
1
 74
1
 75
0
 76
0
 77
0
 78
0
  0
ENDTAB
  0
TABLE
  2
LTYPE
  5
5
100
AcDbSymbolTable
 70
6
  0
LTYPE
  5
14
100
AcDbSymbolTableRecord
100
AcDbLinetypeTableRecord
  2
BYBLOCK
 70
0
  3

 72
65
 73
0
 40
0.0
  0
LTYPE
  5
15
100
AcDbSymbolTableRecord
100
AcDbLinetypeTableRecord
  2
BYLAYER
 70
0
  3

 72
65
 73
0
 40
0.0
  0
LTYPE
  5
16
100
AcDbSymbolTableRecord
100
AcDbLinetypeTableRecord
  2
CONTINUOUS
 70
64
  3
Solid line
 72
65
 73
0
 40
0.0
  0
LTYPE
  5
1F5
100
AcDbSymbolTableRecord
100
AcDbLinetypeTableRecord
  2
CENTER
 70
64
  3
____ _ ____ _ ____ _ ____ _ ____ _ ____ _ ____
 72
65
 73
4
 40
0.6
 49
0.375
 74
0
 49
-0.075
 74
0
 49
0.075
 74
0
 49
-0.075
 74
0
  0
LTYPE
  5
1F6
100
AcDbSymbolTableRecord
100
AcDbLinetypeTableRecord
  2
HIDDEN
 70
64
  3
- - - - - - - - - - - - - - - - - - - -
 72
65
 73
2
 40
0.2
 49
0.1
 74
0
 49
-0.1
 74
0
  0
LTYPE
  5
1F7
100
AcDbSymbolTableRecord
100
AcDbLinetypeTableRecord
  2
PHANTOM
 70
64
  3
_____ _ _ _____ _ _ _____ _ _ _____
 72
65
 73
6
 40
0.8
 49
0.45
 74
0
 49
-0.05
 74
0
 49
0.1
 74
0
 49
-0.05
 74
0
 49
0.1
 74
0
 49
-0.05
 74
0
  0
LTYPE
  5
1F8
100
AcDbSymbolTableRecord
100
AcDbLinetypeTableRecord
  2
DOT
 70
64
  3
. . . . . . . . . . . . . . . . . . . .
 72
65
 73
2
 40
0.2
 49
0.1
 74
0
 49
-0.1
 74
0
  0
LTYPE
  5
1F9
100
AcDbSymbolTableRecord
100
AcDbLinetypeTableRecord
  2
DASHED
 70
64
  3
- - - - - - - - - - - - - - - - - - - -
 72
65
 73
2
 40
0.2
 49
0.1
 74
0
 49
-0.1
 74
0
  0
ENDTAB
  0
TABLE
  2
LAYER
  5
2
100
AcDbSymbolTable
 70
36
  0
LAYER
  5
10
100
AcDbSymbolTableRecord
100
AcDbLayerTableRecord
  2
0
 70
0
 62
7
  6
CONTINUOUS
370
-3
390
F
  0
LAYER
  5
1FA
100
AcDbSymbolTableRecord
100
AcDbLayerTableRecord
  2
DEFAULT_1
 70
0
 62
7
  6
CENTER
370
-3
390
F
  0
LAYER
  5
1FB
100
AcDbSymbolTableRecord
100
AcDbLayerTableRecord
  2
DEFAULT_2
 70
0
 62
7
  6
HIDDEN
370
-3
390
F
  0
LAYER
  5
1FC
100
AcDbSymbolTableRecord
100
AcDbLayerTableRecord
  2
DEFAULT_3
 70
0
 62
7
  6
PHANTOM
370
-3
390
F
  0
LAYER
  5
1FD
100
AcDbSymbolTableRecord
100
AcDbLayerTableRecord
  2
ASSI
 70
0
 62
7
  6
CONTINUOUS
370
-3
390
F
  0
LAYER
  5
1FE
100
AcDbSymbolTableRecord
100
AcDbLayerTableRecord
  2
COORDINATE
 70
0
 62
7
  6
CONTINUOUS
370
-3
390
F
  0
LAYER
  5
1FF
100
AcDbSymbolTableRecord
100
AcDbLayerTableRecord
  2
COORD_ORIGINE
 70
0
 62
7
  6
CONTINUOUS
370
-3
390
F
  0
LAYER
  5
200
100
AcDbSymbolTableRecord
100
AcDbLayerTableRecord
  2
COPY_PUBLISH
 70
0
 62
7
  6
CONTINUOUS
370
-3
390
F
  0
LAYER
  5
201
100
AcDbSymbolTableRecord
100
AcDbLayerTableRecord
  2
COSMETIC
 70
0
 62
7
  6
CONTINUOUS
370
-3
390
F
  0
LAYER
  5
202
100
AcDbSymbolTableRecord
100
AcDbLayerTableRecord
  2
COSMETICI
 70
0
 62
7
  6
CONTINUOUS
370
-3
390
F
  0
LAYER
  5
203
100
AcDbSymbolTableRecord
100
AcDbLayerTableRecord
  2
CURVA_TASSELLO
 70
0
 62
7
  6
CONTINUOUS
370
-3
390
F
  0
LAYER
  5
204
100
AcDbSymbolTableRecord
100
AcDbLayerTableRecord
  2
CURVE
 70
0
 62
7
  6
CONTINUOUS
370
-3
390
F
  0
LAYER
  5
205
100
AcDbSymbolTableRecord
100
AcDbLayerTableRecord
  2
DRAFT
 70
0
 62
7
  6
CONTINUOUS
370
-3
390
F
  0
LAYER
  5
206
100
AcDbSymbolTableRecord
100
AcDbLayerTableRecord
  2
IMPORT_IGES
 70
0
 62
7
  6
CONTINUOUS
370
-3
390
F
  0
LAYER
  5
207
100
AcDbSymbolTableRecord
100
AcDbLayerTableRecord
  2
INTFCLR_2
 70
0
 62
7
  6
CONTINUOUS
370
-3
390
F
  0
LAYER
  5
208
100
AcDbSymbolTableRecord
100
AcDbLayerTableRecord
  2
INTF_1
 70
0
 62
7
  6
CONTINUOUS
370
-3
390
F
  0
LAYER
  5
209
100
AcDbSymbolTableRecord
100
AcDbLayerTableRecord
  2
INTF_7
 70
0
 62
7
  6
CONTINUOUS
370
-3
390
F
  0
LAYER
  5
20A
100
AcDbSymbolTableRecord
100
AcDbLayerTableRecord
  2
LINEA_CHIUSURA
 70
0
 62
7
  6
CONTINUOUS
370
-3
390
F
  0
LAYER
  5
20B
100
AcDbSymbolTableRecord
100
AcDbLayerTableRecord
  2
NOTE
 70
0
 62
7
  6
CONTINUOUS
370
-3
390
F
  0
LAYER
  5
20C
100
AcDbSymbolTableRecord
100
AcDbLayerTableRecord
  2
PIANI
 70
0
 62
7
  6
CONTINUOUS
370
-3
390
F
  0
LAYER
  5
20D
100
AcDbSymbolTableRecord
100
AcDbLayerTableRecord
  2
PIANI_ORIGINE
 70
0
 62
7
  6
CONTINUOUS
370
-3
390
F
  0
LAYER
  5
20E
100
AcDbSymbolTableRecord
100
AcDbLayerTableRecord
  2
PIANI_RIFERIMENTO
 70
0
 62
7
  6
CONTINUOUS
370
-3
390
F
  0
LAYER
  5
20F
100
AcDbSymbolTableRecord
100
AcDbLayerTableRecord
  2
PUNTI
 70
0
 62
7
  6
CONTINUOUS
370
-3
390
F
  0
LAYER
  5
210
100
AcDbSymbolTableRecord
100
AcDbLayerTableRecord
  2
RACCORDO
 70
0
 62
7
  6
CONTINUOUS
370
-3
390
F
  0
LAYER
  5
211
100
AcDbSymbolTableRecord
100
AcDbLayerTableRecord
  2
RGB__255__255__255__
 70
0
 62
7
  6
CONTINUOUS
370
-3
390
F
  0
LAYER
  5
212
100
AcDbSymbolTableRecord
100
AcDbLayerTableRecord
  2
RGB____0____0____0__
 70
0
 62
7
  6
CONTINUOUS
370
-3
390
F
  0
LAYER
  5
213
100
AcDbSymbolTableRecord
100
AcDbLayerTableRecord
  2
SIMBOLI
 70
0
 62
7
  6
CONTINUOUS
370
-3
390
F
  0
LAYER
  5
214
100
AcDbSymbolTableRecord
100
AcDbLayerTableRecord
  2
SMUSSO
 70
0
 62
7
  6
CONTINUOUS
370
-3
390
F
  0
LAYER
  5
215
100
AcDbSymbolTableRecord
100
AcDbLayerTableRecord
  2
SNAPLINE
 70
0
 62
7
  6
CONTINUOUS
370
-3
390
F
  0
LAYER
  5
216
100
AcDbSymbolTableRecord
100
AcDbLayerTableRecord
  2
SUPERFICI
 70
0
 62
7
  6
CONTINUOUS
370
-3
390
F
  0
LAYER
  5
217
100
AcDbSymbolTableRecord
100
AcDbLayerTableRecord
  2
TRASH
 70
0
 62
7
  6
CONTINUOUS
370
-3
390
F
  0
LAYER
  5
218
100
AcDbSymbolTableRecord
100
AcDbLayerTableRecord
  2
WHITE
 70
0
 62
7
  6
CONTINUOUS
370
-3
390
F
  0
LAYER
  5
219
100
AcDbSymbolTableRecord
100
AcDbLayerTableRecord
  2
XSEC_DATUMS
 70
0
 62
7
  6
CONTINUOUS
370
-3
390
F
  0
ENDTAB
  0
TABLE
  2
STYLE
  5
3
100
AcDbSymbolTable
 70
1
  0
STYLE
  5
11
100
AcDbSymbolTableRecord
100
AcDbTextStyleTableRecord
  2
STANDARD
 70
0
 40
0.0
 41
0.8
 50
0.0
 71
0
 42
0.2
  3
txt
  4

  0
STYLE
  5
21A
100
AcDbSymbolTableRecord
100
AcDbTextStyleTableRecord
  2
TEXTSTYLE_1
 70
0
 40
0.0
 41
0.8
 50
0.0
 71
0
 42
0.2
  3
gdt
  4

  0
ENDTAB
  0
TABLE
  2
VIEW
  5
6
100
AcDbSymbolTable
 70
0
  0
ENDTAB
  0
TABLE
  2
UCS
  5
7
100
AcDbSymbolTable
 70
0
  0
ENDTAB
  0
TABLE
  2
APPID
  5
9
100
AcDbSymbolTable
 70
1
  0
APPID
  5
21B
100
AcDbSymbolTableRecord
100
AcDbRegAppTableRecord
  2
ACAD
 70
0
  0
ENDTAB
  0
TABLE
  2
BLOCK_RECORD
  5
1
100
AcDbSymbolTable
 70
0
  0
BLOCK_RECORD
  5
21C
100
AcDbSymbolTableRecord
100
AcDbBlockTableRecord
  2
*Model_Space
  0
BLOCK_RECORD
  5
21D
100
AcDbSymbolTableRecord
100
AcDbBlockTableRecord
  2
*Paper_Space
  0
BLOCK_RECORD
  5
21E
100
AcDbSymbolTableRecord
100
AcDbBlockTableRecord
  2
_FILLED
  0
ENDTAB
  0
TABLE
  2
DIMSTYLE
  5
A
100
AcDbSymbolTable
 70
1
100
AcDbDimStyleTable
 71
0
  0
DIMSTYLE
105
21F
100
AcDbSymbolTableRecord
100
AcDbDimStyleTableRecord
  2
STANDARD
 70
0
  3

  4

 40
1.0
 41
3.0
 42
0.5
 43
0.38
 44
1.5
 45
0.0
 46
0.0
 47
0.01
 48
0.01
140
3.0
141
0.09
142
0.0
143
25.4
144
1.0
145
0.0
146
1.0
147
0.625
 71
1.0
 72
0.0
 73
0
 74
0
 75
0
 76
0
 77
1
 78
8
 79
2
170
0
171
1
172
0
173
0
174
0
175
0
176
0
177
0
178
0
270
2
179
2
271
2
272
2
273
2
274
2
275
0
280
0
281
0
282
0
283
1
284
8
285
0
286
0
287
3
288
0
340
11
278
44
341
21E
342
21E
343
21E
344
21E
  0
ENDTAB
  0
ENDSEC
  0
SECTION
  2
BLOCKS
  0
BLOCK
  5
20
100
AcDbEntity
  8
0
100
AcDbBlockBegin
  2
*Model_Space
 70
0
 10
0.0
 20
0.0
 30
0.0
  3
*Model_Space
  1

  0
ENDBLK
  5
21
100
AcDbEntity
  8
0
100
AcDbBlockEnd
  0
BLOCK
  5
1C
100
AcDbEntity
  8
0
100
AcDbBlockBegin
  2
*Paper_Space
 70
0
 10
0.0
 20
0.0
 30
0.0
  3
*Paper_Space
  1

  0
ENDBLK
  5
1D
100
AcDbEntity
  8
0
100
AcDbBlockEnd
  0
BLOCK
  5
220
100
AcDbEntity
  8
0
100
AcDbBlockBegin
  2
_FILLED
 70
64
 10
0.0
 20
0.0
  3
_FILLED
  1

  0
SOLID
  5
221
100
AcDbEntity
  8
0
  6
BYBLOCK
 62
0
100
AcDbTrace
 10
0.0
 20
0.0
 11
-1.0
 21
0.3166666667
 12
-1.0
 22
-0.3166666667
 13
-1.0
 23
-0.3166666667
  0
ENDBLK
  5
222
100
AcDbEntity
  8
0
  6
BYBLOCK
 62
0
100
AcDbBlockEnd
  0
ENDSEC
  0
SECTION
  2
ENTITIES
  0
LWPOLYLINE
  5
223
100
AcDbEntity
  8
SMUSSO
100
AcDbPolyline
 62
7
  6
CONTINUOUS
 90
15
 70
0
 10
92.901106061
 20
176.6815037626
 10
92.8867993352
 20
176.6727563562
 10
92.8594549075
 20
176.6530657154
 10
92.833943499
 20
176.6305410846
 10
92.8103513579
 20
176.605258637
 10
92.7887580586
 20
176.5773037738
 10
92.7692360944
 20
176.5467707554
 10
92.751852091
 20
176.5137632247
 10
92.7366663288
 20
176.4783937107
 10
92.7237318636
 20
176.4407828579
 10
92.7130908027
 20
176.4010569718
 10
92.704775618
 20
176.359348432
 10
92.6988132705
 20
176.3157976888
 10
92.6952251147
 20
176.2705527853
 10
92.6940232806
 20
176.2237668095
  0
LINE
  5
224
100
AcDbEntity
  8
RACCORDO
100
AcDbLine
 62
7
  6
CONTINUOUS
 10
92.9011059016
 20
176.6815036706
 11
93.9617660734
 21
177.2939155606
  0
LINE
  5
225
100
AcDbEntity
  8
SMUSSO
100
AcDbLine
 62
250
  6
CONTINUOUS
 10
93.4011300618
 20
176.6319624929
 11
94.4617902336
 21
177.2443743829
  0
LINE
  5
226
100
AcDbEntity
  8
0
100
AcDbLine
 62
7
  6
CONTINUOUS
 10
96.9896475352
 20
177.8984383128
 11
95.0943258992
 21
176.879195672
  0
LINE
  5
227
100
AcDbEntity
  8
ASSI
100
AcDbLine
 62
7
  6
CONTINUOUS
 10
96.9896475352
 20
177.8984383128
 11
95.0943258992
 21
176.879195672
  0
LINE
  5
228
100
AcDbEntity
  8
0
100
AcDbLine
 62
250
  6
CONTINUOUS
 10
97.4668863578
 20
177.8364899624
 11
95.3804831675
 21
176.7144898453
  0
LINE
  5
229
100
AcDbEntity
  8
ASSI
100
AcDbLine
 62
250
  6
CONTINUOUS
 10
97.4668863578
 20
177.8364899624
 11
95.3804831675
 21
176.7144898453
  0
LWPOLYLINE
  5
22A
100
AcDbEntity
  8
SMUSSO
100
AcDbPolyline
 62
7
  6
CONTINUOUS
 90
13
 70
0
 10
93.9617660734
 20
177.2939155606
 10
93.9955648593
 20
177.3109542044
 10
94.0313361023
 20
177.3241969581
 10
94.068950543
 20
177.3336010535
 10
94.1082470686
 20
177.3391263165
 10
94.1490573261
 20
177.3407491776
 10
94.1912060722
 20
177.3384628298
 10
94.2345126958
 20
177.3322772913
 10
94.2787917313
 20
177.3222192677
 10
94.3238532
 20
177.3083321566
 10
94.369503994
 20
177.2906757616
 10
94.4155487241
 20
177.2693259406
 10
94.4617902336
 20
177.2443743829
  0
LINE
  5
22B
100
AcDbEntity
  8
SMUSSO
100
AcDbLine
 62
250
  6
CONTINUOUS
 10
92.6940232806
 20
175.4072176228
 11
93.4011300618
 21
176.6319624929
  0
LINE
  5
22C
100
AcDbEntity
  8
0
100
AcDbLine
 62
250
  6
CONTINUOUS
 10
196.2923895754
 20
52.6935347756
 11
197.2009486815
 21
52.9320510476
  0
LINE
  5
22D
100
AcDbEntity
  8
0
100
AcDbLine
 62
250
  6
CONTINUOUS
 10
197.6123345359
 20
53.307693824
 11
196.2923895754
 21
53.0171027628
  0
LINE
  5
22E
100
AcDbEntity
  8
0
100
AcDbLine
 62
250
  6
CONTINUOUS
 10
197.1449249818
 20
56.2449410623
 11
196.6550766288
 21
56.113279863
  0
LINE
  5
22F
100
AcDbEntity
  8
0
100
AcDbLine
 62
250
  6
CONTINUOUS
 10
197.6123345359
 20
56.3688278634
 11
197.3488264595
 21
56.3006213242
  0
LINE
  5
230
100
AcDbEntity
  8
0
100
AcDbLine
 62
250
  6
CONTINUOUS
 10
196.2923895754
 20
55.7458982913
 11
197.6123345359
 21
56.0485510679
  0
LINE
  5
231
100
AcDbEntity
  8
0
100
AcDbLine
 62
250
  6
CONTINUOUS
 10
196.2923895754
 20
54.7430996997
 11
197.0252268392
 21
54.8574754796
  0
LINE
  5
232
100
AcDbEntity
  8
0
100
AcDbLine
 62
250
  6
CONTINUOUS
 10
197.6123345359
 20
55.2294460415
 11
196.7540284181
 21
55.1012490513
  0
LINE
  5
233
100
AcDbEntity
  8
SMUSSO
100
AcDbLine
 62
250
  6
CONTINUOUS
 10
193.4567395997
 20
45.3787037159
 11
194.870953162
 21
45.3787037159
  0
LINE
  5
234
100
AcDbEntity
  8
SMUSSO
100
AcDbLine
 62
7
  6
CONTINUOUS
 10
92.6940232806
 20
103.5578332651
 11
92.6940232806
 21
176.2237668095
  0
LINE
  5
235
100
AcDbEntity
  8
RACCORDO
100
AcDbLine
 62
250
  6
CONTINUOUS
 10
111.1848656086
 20
146.2786087518
 11
112.033352742
 21
146.7685145885
  0
LWPOLYLINE
  5
236
100
AcDbEntity
  8
RACCORDO
100
AcDbPolyline
 62
7
  6
CONTINUOUS
 90
13
 70
0
 10
111.4333647539
 20
146.8278929851
 10
111.4738758056
 20
146.8482829411
 10
111.5169198277
 20
146.8642187096
 10
111.561976771
 20
146.8755137623
 10
111.6090724205
 20
146.8821086527
 10
111.6581809912
 20
146.8840628274
 10
111.708676086
 20
146.8813513602
 10
111.760575466
 20
146.8739144852
 10
111.8138613703
 20
146.8618119683
 10
111.8678541185
 20
146.8451981813
 10
111.9223271504
 20
146.8241245816
 10
111.9775070263
 20
146.7985397118
 10
112.033393746
 20
146.7684435719
  0
LINE
  5
237
100
AcDbEntity
  8
RACCORDO
100
AcDbLine
 62
7
  6
CONTINUOUS
 10
111.1848656086
 20
146.2786087518
 11
111.1848656086
 21
111.3336809051
  0
LWPOLYLINE
  5
238
100
AcDbEntity
  8
RACCORDO
100
AcDbPolyline
 62
7
  6
CONTINUOUS
 90
13
 70
0
 10
111.1848656086
 20
146.2786087518
 10
111.1867468078
 20
146.3420529174
 10
111.1921815512
 20
146.4026291443
 10
111.2011698388
 20
146.4603374327
 10
111.213780397
 20
146.5153997013
 10
111.2299444993
 20
146.5675940313
 10
111.2494559671
 20
146.6162546658
 10
111.2723576795
 20
146.6613363389
 10
111.2986067574
 20
146.7028843164
 10
111.3278683846
 20
146.7403686395
 10
111.3601811513
 20
146.7737372535
 10
111.3955064674
 20
146.8030422131
 10
111.4333647539
 20
146.8278929851
  0
LWPOLYLINE
  5
239
100
AcDbEntity
  8
SMUSSO
100
AcDbPolyline
 62
7
  6
CONTINUOUS
 90
15
 70
0
 10
194.1638463809
 20
44.9705080324
 10
194.2049669783
 20
44.9481537755
 10
194.2459460628
 20
44.9286364648
 10
194.2866449863
 20
44.9120221477
 10
194.3269247747
 20
44.8983663132
 10
194.3666503915
 20
44.8877158944
 10
194.4056911995
 20
44.8801091124
 10
194.4439169439
 20
44.8755727725
 10
194.4811964217
 20
44.8741211507
 10
194.5174017183
 20
44.8757581355
 10
194.5524095737
 20
44.8804777532
 10
194.5861022871
 20
44.8882644698
 10
194.6183663402
 20
44.8990922189
 10
194.649092733
 20
44.9129244616
 10
194.6638707003
 20
44.9209669467
  0
LWPOLYLINE
  5
23A
100
AcDbEntity
  8
RACCORDO
100
AcDbPolyline
 62
7
  6
CONTINUOUS
 90
25
 70
0
 10
113.3061859522
 20
112.558504685
 10
113.3080671514
 20
112.4928881578
 10
113.3135018948
 20
112.4260360254
 10
113.3224901824
 20
112.3579482878
 10
113.3351007405
 20
112.2883236627
 10
113.3512648429
 20
112.2174634325
 10
113.3707763107
 20
112.146271444
 10
113.3936780231
 20
112.0747434475
 10
113.4199271009
 20
112.0028836928
 10
113.4491887281
 20
111.9316087761
 10
113.4815014949
 20
111.860926189
 10
113.5168268109
 20
111.7908284399
 10
113.5547140896
 20
111.7222096501
 10
113.5951961491
 20
111.6550887645
 10
113.6382401713
 20
111.5894468382
 10
113.6832971146
 20
111.5261211568
 10
113.7303927641
 20
111.4651413908
 10
113.7795013347
 20
111.4064778697
 10
113.8299964295
 20
111.3508788672
 10
113.8818958096
 20
111.298383639
 10
113.9351817139
 20
111.2489529293
 10
113.989174462
 20
111.2032172441
 10
114.043647494
 20
111.1613867519
 10
114.0988273698
 20
111.1232512842
 10
114.1547140896
 20
111.0888108409
  0
LINE
  5
23B
100
AcDbEntity
  8
RACCORDO
100
AcDbLine
 62
7
  6
CONTINUOUS
 10
113.3061859522
 20
146.033549304
 11
113.3061859522
 21
112.558504685
  0
LINE
  5
23C
100
AcDbEntity
  8
0
100
AcDbLine
 62
250
  6
CONTINUOUS
 10
113.8985217135
 20
145.6915420591
 11
113.8985217135
 21
111.2829606066
  0
LINE
  5
23D
100
AcDbEntity
  8
ASSI
100
AcDbLine
 62
250
  6
CONTINUOUS
 10
113.8985217135
 20
145.6915420591
 11
113.8985217135
 21
111.2829606066
  0
LINE
  5
23E
100
AcDbEntity
  8
0
100
AcDbLine
 62
7
  6
CONTINUOUS
 10
113.9827197734
 20
145.6429271545
 11
113.9827197734
 21
111.2086848229
  0
LINE
  5
23F
100
AcDbEntity
  8
ASSI
100
AcDbLine
 62
7
  6
CONTINUOUS
 10
113.9827197734
 20
145.6429271545
 11
113.9827197734
 21
111.2086848229
  0
LINE
  5
240
100
AcDbEntity
  8
SMUSSO
100
AcDbLine
 62
7
  6
CONTINUOUS
 10
193.4567395997
 20
45.3787037159
 11
194.1638463809
 21
44.9705080324
  0
LINE
  5
241
100
AcDbEntity
  8
SMUSSO
100
AcDbLine
 62
7
  6
CONTINUOUS
 10
92.6940232806
 20
103.5578332651
 11
193.4567395997
 21
45.3787037159
  0
LINE
  5
242
100
AcDbEntity
  8
0
100
AcDbLine
 62
250
  6
CONTINUOUS
 10
128.5907124207
 20
106.4931878439
 11
128.5907124207
 21
106.0858182061
  0
LINE
  5
243
100
AcDbEntity
  8
ASSI
100
AcDbLine
 62
250
  6
CONTINUOUS
 10
128.5907124207
 20
106.4931878439
 11
128.5907124207
 21
106.0858182061
  0
LINE
  5
244
100
AcDbEntity
  8
0
100
AcDbLine
 62
7
  6
CONTINUOUS
 10
128.6420834556
 20
106.5597653508
 11
128.6420834556
 21
106.1163635008
  0
LINE
  5
245
100
AcDbEntity
  8
ASSI
100
AcDbLine
 62
7
  6
CONTINUOUS
 10
128.6420834556
 20
106.5597653508
 11
128.6420834556
 21
106.1163635008
  0
LINE
  5
246
100
AcDbEntity
  8
0
100
AcDbLine
 62
7
  6
CONTINUOUS
 10
121.137308987
 20
107.0571480596
 11
121.1550712233
 21
107.0879131554
  0
LINE
  5
247
100
AcDbEntity
  8
ASSI
100
AcDbLine
 62
7
  6
CONTINUOUS
 10
121.137308987
 20
107.0571480596
 11
121.1550712233
 21
107.0879131554
  0
LINE
  5
248
100
AcDbEntity
  8
0
100
AcDbLine
 62
7
  6
CONTINUOUS
 10
121.4025585968
 20
107.1083387216
 11
121.5086246139
 21
107.2920504521
  0
LINE
  5
249
100
AcDbEntity
  8
ASSI
100
AcDbLine
 62
7
  6
CONTINUOUS
 10
121.4025585968
 20
107.1083387216
 11
121.5086246139
 21
107.2920504521
  0
LINE
  5
24A
100
AcDbEntity
  8
0
100
AcDbLine
 62
7
  6
CONTINUOUS
 10
121.7561119874
 20
107.3124760183
 11
121.8621780045
 21
107.4961877488
  0
LINE
  5
24B
100
AcDbEntity
  8
ASSI
100
AcDbLine
 62
7
  6
CONTINUOUS
 10
121.7561119874
 20
107.3124760183
 11
121.8621780045
 21
107.4961877488
  0
LINE
  5
24C
100
AcDbEntity
  8
0
100
AcDbLine
 62
7
  6
CONTINUOUS
 10
122.1096653779
 20
107.5166133149
 11
122.2157313951
 21
107.7003250454
  0
LINE
  5
24D
100
AcDbEntity
  8
ASSI
100
AcDbLine
 62
7
  6
CONTINUOUS
 10
122.1096653779
 20
107.5166133149
 11
122.2157313951
 21
107.7003250454
  0
LINE
  5
24E
100
AcDbEntity
  8
0
100
AcDbLine
 62
7
  6
CONTINUOUS
 10
122.4632187685
 20
107.7207506116
 11
122.5692847857
 21
107.9044623421
  0
LINE
  5
24F
100
AcDbEntity
  8
ASSI
100
AcDbLine
 62
7
  6
CONTINUOUS
 10
122.4632187685
 20
107.7207506116
 11
122.5692847857
 21
107.9044623421
  0
LINE
  5
250
100
AcDbEntity
  8
0
100
AcDbLine
 62
7
  6
CONTINUOUS
 10
122.8167721591
 20
107.9248879082
 11
122.9228381763
 21
108.1085996388
  0
LINE
  5
251
100
AcDbEntity
  8
ASSI
100
AcDbLine
 62
7
  6
CONTINUOUS
 10
122.8167721591
 20
107.9248879082
 11
122.9228381763
 21
108.1085996388
  0
LINE
  5
252
100
AcDbEntity
  8
RACCORDO
100
AcDbLine
 62
250
  6
CONTINUOUS
 10
111.1848656086
 20
111.3336809051
 11
113.3061859522
 21
112.558504685
  0
LINE
  5
253
100
AcDbEntity
  8
RACCORDO
100
AcDbLine
 62
7
  6
CONTINUOUS
 10
112.033393746
 20
109.8639870609
 11
174.1173691342
 21
74.0174777667
  0
LWPOLYLINE
  5
254
100
AcDbEntity
  8
RACCORDO
100
AcDbPolyline
 62
7
  6
CONTINUOUS
 90
25
 70
0
 10
112.033393746
 20
109.8639870609
 10
111.9775070263
 20
109.8984275042
 10
111.9223271504
 20
109.9365629719
 10
111.8678541185
 20
109.9783934641
 10
111.8138613703
 20
110.0241291493
 10
111.760575466
 20
110.073559859
 10
111.708676086
 20
110.1260550872
 10
111.6581809912
 20
110.1816540898
 10
111.6090724205
 20
110.2403176109
 10
111.561976771
 20
110.3012973768
 10
111.5169198277
 20
110.3646230583
 10
111.4738758056
 20
110.4302649846
 10
111.433393746
 20
110.4973858701
 10
111.3955064674
 20
110.56600466
 10
111.3601811513
 20
110.6361024091
 10
111.3278683846
 20
110.7067849961
 10
111.2986067574
 20
110.7780599129
 10
111.2723576795
 20
110.8499196676
 10
111.2494559671
 20
110.921447664
 10
111.2299444993
 20
110.9926396525
 10
111.213780397
 20
111.0634998827
 10
111.2011698388
 20
111.1331245078
 10
111.1921815512
 20
111.2012122454
 10
111.1867468078
 20
111.2680643778
 10
111.1848656086
 20
111.3336809051
  0
LWPOLYLINE
  5
255
100
AcDbEntity
  8
0
100
AcDbPolyline
 62
250
  6
CONTINUOUS
 90
10
 70
0
 10
126.6462330077
 20
104.8141805525
 10
126.6484881822
 20
104.8088785863
 10
126.650342708
 20
104.8038580715
 10
126.6517627689
 20
104.7991570419
 10
126.6527099235
 20
104.7948344852
 10
126.653160163
 20
104.7909054809
 10
126.6530780979
 20
104.787365944
 10
126.6524056827
 20
104.7842771471
 10
126.6510839819
 20
104.7817128984
 10
126.6501575502
 20
104.7806450454
  0
LWPOLYLINE
  5
256
100
AcDbEntity
  8
ASSI
100
AcDbPolyline
 62
250
  6
CONTINUOUS
 90
10
 70
0
 10
126.6462330077
 20
104.8141805525
 10
126.6484881822
 20
104.8088785863
 10
126.650342708
 20
104.8038580715
 10
126.6517627689
 20
104.7991570419
 10
126.6527099235
 20
104.7948344852
 10
126.653160163
 20
104.7909054809
 10
126.6530780979
 20
104.787365944
 10
126.6524056827
 20
104.7842771471
 10
126.6510839819
 20
104.7817128984
 10
126.6501575502
 20
104.7806450454
  0
LINE
  5
257
100
AcDbEntity
  8
0
100
AcDbLine
 62
250
  6
CONTINUOUS
 10
126.6406854718
 20
104.7970171593
 11
126.6462330077
 21
104.8141805525
  0
LINE
  5
258
100
AcDbEntity
  8
ASSI
100
AcDbLine
 62
250
  6
CONTINUOUS
 10
126.6406854718
 20
104.7970171593
 11
126.6462330077
 21
104.8141805525
  0
LINE
  5
259
100
AcDbEntity
  8
0
100
AcDbLine
 62
7
  6
CONTINUOUS
 10
125.0263962835
 20
104.8116377963
 11
125.0441585199
 21
104.8424028921
  0
LINE
  5
25A
100
AcDbEntity
  8
ASSI
100
AcDbLine
 62
7
  6
CONTINUOUS
 10
125.0263962835
 20
104.8116377963
 11
125.0441585199
 21
104.8424028921
  0
LINE
  5
25B
100
AcDbEntity
  8
0
100
AcDbLine
 62
7
  6
CONTINUOUS
 10
125.2916458933
 20
104.8628284583
 11
125.3977119105
 21
105.0465401888
  0
LINE
  5
25C
100
AcDbEntity
  8
ASSI
100
AcDbLine
 62
7
  6
CONTINUOUS
 10
125.2916458933
 20
104.8628284583
 11
125.3977119105
 21
105.0465401888
  0
LINE
  5
25D
100
AcDbEntity
  8
0
100
AcDbLine
 62
7
  6
CONTINUOUS
 10
125.6451992839
 20
105.066965755
 11
125.7512653011
 21
105.2506774855
  0
LINE
  5
25E
100
AcDbEntity
  8
ASSI
100
AcDbLine
 62
7
  6
CONTINUOUS
 10
125.6451992839
 20
105.066965755
 11
125.7512653011
 21
105.2506774855
  0
LINE
  5
25F
100
AcDbEntity
  8
0
100
AcDbLine
 62
7
  6
CONTINUOUS
 10
125.9987526745
 20
105.2711030516
 11
126.1048186917
 21
105.4548147821
  0
LINE
  5
260
100
AcDbEntity
  8
ASSI
100
AcDbLine
 62
7
  6
CONTINUOUS
 10
125.9987526745
 20
105.2711030516
 11
126.1048186917
 21
105.4548147821
  0
LINE
  5
261
100
AcDbEntity
  8
0
100
AcDbLine
 62
7
  6
CONTINUOUS
 10
126.3523060651
 20
105.4752403483
 11
126.4583720822
 21
105.6589520788
  0
LINE
  5
262
100
AcDbEntity
  8
ASSI
100
AcDbLine
 62
7
  6
CONTINUOUS
 10
126.3523060651
 20
105.4752403483
 11
126.4583720822
 21
105.6589520788
  0
LINE
  5
263
100
AcDbEntity
  8
0
100
AcDbLine
 62
7
  6
CONTINUOUS
 10
126.7058594557
 20
105.6793776449
 11
126.8119254728
 21
105.8630893755
  0
LINE
  5
264
100
AcDbEntity
  8
ASSI
100
AcDbLine
 62
7
  6
CONTINUOUS
 10
126.7058594557
 20
105.6793776449
 11
126.8119254728
 21
105.8630893755
  0
LINE
  5
265
100
AcDbEntity
  8
RACCORDO
100
AcDbLine
 62
250
  6
CONTINUOUS
 10
112.033393746
 20
109.8639870609
 11
114.1547140896
 21
111.0888108409
  0
LINE
  5
266
100
AcDbEntity
  8
RACCORDO
100
AcDbLine
 62
7
  6
CONTINUOUS
 10
114.1547140896
 20
111.0888108409
 11
174.9658972716
 21
75.9771958147
  0
LINE
  5
267
100
AcDbEntity
  8
0
100
AcDbLine
 62
7
  6
CONTINUOUS
 10
172.77386625
 20
77.2838678425
 11
168.8847789534
 21
79.5293781058
  0
LINE
  5
268
100
AcDbEntity
  8
ASSI
100
AcDbLine
 62
7
  6
CONTINUOUS
 10
172.77386625
 20
77.2838678425
 11
168.8847789534
 21
79.5293781058
  0
LINE
  5
269
100
AcDbEntity
  8
0
100
AcDbLine
 62
7
  6
CONTINUOUS
 10
125.0441585199
 20
104.8424028921
 11
121.1550712233
 21
107.0879131554
  0
LINE
  5
26A
100
AcDbEntity
  8
ASSI
100
AcDbLine
 62
7
  6
CONTINUOUS
 10
125.0441585199
 20
104.8424028921
 11
121.1550712233
 21
107.0879131554
  0
LINE
  5
26B
100
AcDbEntity
  8
0
100
AcDbLine
 62
7
  6
CONTINUOUS
 10
173.0213536234
 20
77.3042934087
 11
169.0262003097
 21
79.6110330245
  0
LINE
  5
26C
100
AcDbEntity
  8
ASSI
100
AcDbLine
 62
7
  6
CONTINUOUS
 10
173.0213536234
 20
77.3042934087
 11
169.0262003097
 21
79.6110330245
  0
LINE
  5
26D
100
AcDbEntity
  8
0
100
AcDbLine
 62
7
  6
CONTINUOUS
 10
121.2964925796
 20
107.1695680741
 11
125.2916458933
 21
104.8628284583
  0
LINE
  5
26E
100
AcDbEntity
  8
ASSI
100
AcDbLine
 62
7
  6
CONTINUOUS
 10
121.2964925796
 20
107.1695680741
 11
125.2916458933
 21
104.8628284583
  0
LINE
  5
26F
100
AcDbEntity
  8
0
100
AcDbLine
 62
7
  6
CONTINUOUS
 10
173.1274196406
 20
77.4880051392
 11
169.238332344
 21
79.7335154025
  0
LINE
  5
270
100
AcDbEntity
  8
ASSI
100
AcDbLine
 62
7
  6
CONTINUOUS
 10
173.1274196406
 20
77.4880051392
 11
169.238332344
 21
79.7335154025
  0
LINE
  5
271
100
AcDbEntity
  8
0
100
AcDbLine
 62
7
  6
CONTINUOUS
 10
125.3977119105
 20
105.0465401888
 11
121.5086246139
 21
107.2920504521
  0
LINE
  5
272
100
AcDbEntity
  8
ASSI
100
AcDbLine
 62
7
  6
CONTINUOUS
 10
125.3977119105
 20
105.0465401888
 11
121.5086246139
 21
107.2920504521
  0
LINE
  5
273
100
AcDbEntity
  8
0
100
AcDbLine
 62
7
  6
CONTINUOUS
 10
173.374907014
 20
77.5084307053
 11
169.3797537003
 21
79.8151703212
  0
LINE
  5
274
100
AcDbEntity
  8
ASSI
100
AcDbLine
 62
7
  6
CONTINUOUS
 10
173.374907014
 20
77.5084307053
 11
169.3797537003
 21
79.8151703212
  0
LINE
  5
275
100
AcDbEntity
  8
0
100
AcDbLine
 62
7
  6
CONTINUOUS
 10
121.6500459702
 20
107.3737053708
 11
125.6451992839
 21
105.066965755
  0
LINE
  5
276
100
AcDbEntity
  8
ASSI
100
AcDbLine
 62
7
  6
CONTINUOUS
 10
121.6500459702
 20
107.3737053708
 11
125.6451992839
 21
105.066965755
  0
LINE
  5
277
100
AcDbEntity
  8
0
100
AcDbLine
 62
7
  6
CONTINUOUS
 10
173.4809730312
 20
77.6921424359
 11
169.5918857346
 21
79.9376526992
  0
LINE
  5
278
100
AcDbEntity
  8
ASSI
100
AcDbLine
 62
7
  6
CONTINUOUS
 10
173.4809730312
 20
77.6921424359
 11
169.5918857346
 21
79.9376526992
  0
LINE
  5
279
100
AcDbEntity
  8
0
100
AcDbLine
 62
7
  6
CONTINUOUS
 10
125.7512653011
 20
105.2506774855
 11
121.8621780045
 21
107.4961877488
  0
LINE
  5
27A
100
AcDbEntity
  8
ASSI
100
AcDbLine
 62
7
  6
CONTINUOUS
 10
125.7512653011
 20
105.2506774855
 11
121.8621780045
 21
107.4961877488
  0
LINE
  5
27B
100
AcDbEntity
  8
0
100
AcDbLine
 62
7
  6
CONTINUOUS
 10
173.7284604046
 20
77.712568002
 11
169.7333070909
 21
80.0193076178
  0
LINE
  5
27C
100
AcDbEntity
  8
ASSI
100
AcDbLine
 62
7
  6
CONTINUOUS
 10
173.7284604046
 20
77.712568002
 11
169.7333070909
 21
80.0193076178
  0
LINE
  5
27D
100
AcDbEntity
  8
0
100
AcDbLine
 62
7
  6
CONTINUOUS
 10
122.0035993608
 20
107.5778426674
 11
125.9987526745
 21
105.2711030516
  0
LINE
  5
27E
100
AcDbEntity
  8
ASSI
100
AcDbLine
 62
7
  6
CONTINUOUS
 10
122.0035993608
 20
107.5778426674
 11
125.9987526745
 21
105.2711030516
  0
LINE
  5
27F
100
AcDbEntity
  8
0
100
AcDbLine
 62
7
  6
CONTINUOUS
 10
173.8345264217
 20
77.8962797325
 11
169.9454391252
 21
80.1417899958
  0
LINE
  5
280
100
AcDbEntity
  8
ASSI
100
AcDbLine
 62
7
  6
CONTINUOUS
 10
173.8345264217
 20
77.8962797325
 11
169.9454391252
 21
80.1417899958
  0
LINE
  5
281
100
AcDbEntity
  8
0
100
AcDbLine
 62
7
  6
CONTINUOUS
 10
126.1048186917
 20
105.4548147821
 11
122.2157313951
 21
107.7003250454
  0
LINE
  5
282
100
AcDbEntity
  8
ASSI
100
AcDbLine
 62
7
  6
CONTINUOUS
 10
126.1048186917
 20
105.4548147821
 11
122.2157313951
 21
107.7003250454
  0
LINE
  5
283
100
AcDbEntity
  8
0
100
AcDbLine
 62
7
  6
CONTINUOUS
 10
174.0820137952
 20
77.9167052987
 11
170.0868604815
 21
80.2234449145
  0
LINE
  5
284
100
AcDbEntity
  8
ASSI
100
AcDbLine
 62
7
  6
CONTINUOUS
 10
174.0820137952
 20
77.9167052987
 11
170.0868604815
 21
80.2234449145
  0
LINE
  5
285
100
AcDbEntity
  8
0
100
AcDbLine
 62
7
  6
CONTINUOUS
 10
122.3571527514
 20
107.7819799641
 11
126.3523060651
 21
105.4752403483
  0
LINE
  5
286
100
AcDbEntity
  8
ASSI
100
AcDbLine
 62
7
  6
CONTINUOUS
 10
122.3571527514
 20
107.7819799641
 11
126.3523060651
 21
105.4752403483
  0
LINE
  5
287
100
AcDbEntity
  8
0
100
AcDbLine
 62
7
  6
CONTINUOUS
 10
174.1880798123
 20
78.1004170292
 11
170.2989925158
 21
80.3459272925
  0
LINE
  5
288
100
AcDbEntity
  8
ASSI
100
AcDbLine
 62
7
  6
CONTINUOUS
 10
174.1880798123
 20
78.1004170292
 11
170.2989925158
 21
80.3459272925
  0
LINE
  5
289
100
AcDbEntity
  8
0
100
AcDbLine
 62
7
  6
CONTINUOUS
 10
126.4583720822
 20
105.6589520788
 11
122.5692847857
 21
107.9044623421
  0
LINE
  5
28A
100
AcDbEntity
  8
ASSI
100
AcDbLine
 62
7
  6
CONTINUOUS
 10
126.4583720822
 20
105.6589520788
 11
122.5692847857
 21
107.9044623421
  0
LINE
  5
28B
100
AcDbEntity
  8
0
100
AcDbLine
 62
7
  6
CONTINUOUS
 10
174.4355671858
 20
78.1208425953
 11
170.440413872
 21
80.4275822111
  0
LINE
  5
28C
100
AcDbEntity
  8
ASSI
100
AcDbLine
 62
7
  6
CONTINUOUS
 10
174.4355671858
 20
78.1208425953
 11
170.440413872
 21
80.4275822111
  0
LINE
  5
28D
100
AcDbEntity
  8
0
100
AcDbLine
 62
7
  6
CONTINUOUS
 10
122.710706142
 20
107.9861172608
 11
126.7058594557
 21
105.6793776449
  0
LINE
  5
28E
100
AcDbEntity
  8
ASSI
100
AcDbLine
 62
7
  6
CONTINUOUS
 10
122.710706142
 20
107.9861172608
 11
126.7058594557
 21
105.6793776449
  0
LINE
  5
28F
100
AcDbEntity
  8
0
100
AcDbLine
 62
7
  6
CONTINUOUS
 10
174.5416332029
 20
78.3045543258
 11
170.6525459064
 21
80.5500645891
  0
LINE
  5
290
100
AcDbEntity
  8
ASSI
100
AcDbLine
 62
7
  6
CONTINUOUS
 10
174.5416332029
 20
78.3045543258
 11
170.6525459064
 21
80.5500645891
  0
LINE
  5
291
100
AcDbEntity
  8
0
100
AcDbLine
 62
7
  6
CONTINUOUS
 10
126.8119254728
 20
105.8630893755
 11
122.9228381763
 21
108.1085996388
  0
LINE
  5
292
100
AcDbEntity
  8
ASSI
100
AcDbLine
 62
7
  6
CONTINUOUS
 10
126.8119254728
 20
105.8630893755
 11
122.9228381763
 21
108.1085996388
  0
LINE
  5
293
100
AcDbEntity
  8
0
100
AcDbLine
 62
7
  6
CONTINUOUS
 10
174.7891205763
 20
78.324979892
 11
170.7939672626
 21
80.6317195078
  0
LINE
  5
294
100
AcDbEntity
  8
ASSI
100
AcDbLine
 62
7
  6
CONTINUOUS
 10
174.7891205763
 20
78.324979892
 11
170.7939672626
 21
80.6317195078
  0
LINE
  5
295
100
AcDbEntity
  8
0
100
AcDbLine
 62
7
  6
CONTINUOUS
 10
123.0642595326
 20
108.1902545574
 11
127.0594128463
 21
105.8835149416
  0
LINE
  5
296
100
AcDbEntity
  8
ASSI
100
AcDbLine
 62
7
  6
CONTINUOUS
 10
123.0642595326
 20
108.1902545574
 11
127.0594128463
 21
105.8835149416
  0
LINE
  5
297
100
AcDbEntity
  8
0
100
AcDbLine
 62
250
  6
CONTINUOUS
 10
174.9658972716
 20
78.3454951831
 11
170.8275622653
 21
80.7349179503
  0
LINE
  5
298
100
AcDbEntity
  8
ASSI
100
AcDbLine
 62
250
  6
CONTINUOUS
 10
174.9658972716
 20
78.3454951831
 11
170.8275622653
 21
80.7349179503
  0
LINE
  5
299
100
AcDbEntity
  8
0
100
AcDbLine
 62
250
  6
CONTINUOUS
 10
127.3441917935
 20
105.8416710861
 11
123.0978545352
 21
108.2934529999
  0
LINE
  5
29A
100
AcDbEntity
  8
ASSI
100
AcDbLine
 62
250
  6
CONTINUOUS
 10
127.3441917935
 20
105.8416710861
 11
123.0978545352
 21
108.2934529999
  0
LINE
  5
29B
100
AcDbEntity
  8
0
100
AcDbLine
 62
250
  6
CONTINUOUS
 10
174.9658972716
 20
78.4226928773
 11
170.9016094182
 21
80.7693617464
  0
LINE
  5
29C
100
AcDbEntity
  8
ASSI
100
AcDbLine
 62
250
  6
CONTINUOUS
 10
174.9658972716
 20
78.4226928773
 11
170.9016094182
 21
80.7693617464
  0
LINE
  5
29D
100
AcDbEntity
  8
0
100
AcDbLine
 62
250
  6
CONTINUOUS
 10
127.4108641495
 20
105.8803729975
 11
123.1719016881
 21
108.327896796
  0
LINE
  5
29E
100
AcDbEntity
  8
ASSI
100
AcDbLine
 62
250
  6
CONTINUOUS
 10
127.4108641495
 20
105.8803729975
 11
123.1719016881
 21
108.327896796
  0
LINE
  5
29F
100
AcDbEntity
  8
0
100
AcDbLine
 62
7
  6
CONTINUOUS
 10
124.7575034213
 20
108.8457227491
 11
128.5835048119
 21
106.6366374973
  0
LINE
  5
2A0
100
AcDbEntity
  8
ASSI
100
AcDbLine
 62
7
  6
CONTINUOUS
 10
124.7575034213
 20
108.8457227491
 11
128.5835048119
 21
106.6366374973
  0
LINE
  5
2A1
100
AcDbEntity
  8
0
100
AcDbLine
 62
7
  6
CONTINUOUS
 10
172.4872111514
 20
81.2871876995
 11
174.9658972716
 21
79.8560253989
  0
LINE
  5
2A2
100
AcDbEntity
  8
ASSI
100
AcDbLine
 62
7
  6
CONTINUOUS
 10
172.4872111514
 20
81.2871876995
 11
174.9658972716
 21
79.8560253989
  0
LINE
  5
2A3
100
AcDbEntity
  8
0
100
AcDbLine
 62
7
  6
CONTINUOUS
 10
140.734507926
 20
99.6596962457
 11
144.4263054606
 21
97.5280986184
  0
LINE
  5
2A4
100
AcDbEntity
  8
ASSI
100
AcDbLine
 62
7
  6
CONTINUOUS
 10
140.734507926
 20
99.6596962457
 11
144.4263054606
 21
97.5280986184
  0
LINE
  5
2A5
100
AcDbEntity
  8
0
100
AcDbLine
 62
7
  6
CONTINUOUS
 10
156.6444105027
 20
90.4735178959
 11
160.3362080373
 21
88.3419202685
  0
LINE
  5
2A6
100
AcDbEntity
  8
ASSI
100
AcDbLine
 62
7
  6
CONTINUOUS
 10
156.6444105027
 20
90.4735178959
 11
160.3362080373
 21
88.3419202685
  0
LINE
  5
2A7
100
AcDbEntity
  8
0
100
AcDbLine
 62
250
  6
CONTINUOUS
 10
126.6462330077
 20
104.8141805525
 11
126.9821779727
 21
105.1409341423
  0
LINE
  5
2A8
100
AcDbEntity
  8
ASSI
100
AcDbLine
 62
250
  6
CONTINUOUS
 10
126.6462330077
 20
104.8141805525
 11
126.9821779727
 21
105.1409341423
  0
LINE
  5
2A9
100
AcDbEntity
  8
0
100
AcDbLine
 62
7
  6
CONTINUOUS
 10
126.6501579024
 20
104.7806453879
 11
127.079142246
 21
105.1978928208
  0
LINE
  5
2AA
100
AcDbEntity
  8
ASSI
100
AcDbLine
 62
7
  6
CONTINUOUS
 10
126.6501579024
 20
104.7806453879
 11
127.079142246
 21
105.1978928208
  0
LWPOLYLINE
  5
2AB
100
AcDbEntity
  8
0
100
AcDbPolyline
 62
250
  6
CONTINUOUS
 90
6
 70
0
 10
126.5915436117
 20
104.7361813971
 10
126.6038545378
 20
104.744605217
 10
126.6151289326
 20
104.7550590268
 10
126.6250748283
 20
104.7673438974
 10
126.6336147752
 20
104.7813651945
 10
126.6406854718
 20
104.7970171593
  0
LWPOLYLINE
  5
2AC
100
AcDbEntity
  8
ASSI
100
AcDbPolyline
 62
250
  6
CONTINUOUS
 90
6
 70
0
 10
126.5915436117
 20
104.7361813971
 10
126.6038545378
 20
104.744605217
 10
126.6151289326
 20
104.7550590268
 10
126.6250748283
 20
104.7673438974
 10
126.6336147752
 20
104.7813651945
 10
126.6406854718
 20
104.7970171593
  0
LINE
  5
2AD
100
AcDbEntity
  8
0
100
AcDbLine
 62
7
  6
CONTINUOUS
 10
127.3441917935
 20
105.8416710861
 11
125.4007983308
 21
104.5954627466
  0
LINE
  5
2AE
100
AcDbEntity
  8
ASSI
100
AcDbLine
 62
7
  6
CONTINUOUS
 10
127.3441917935
 20
105.8416710861
 11
125.4007983308
 21
104.5954627466
  0
LINE
  5
2AF
100
AcDbEntity
  8
0
100
AcDbLine
 62
7
  6
CONTINUOUS
 10
121.1550712233
 20
107.0879131554
 11
121.2964925796
 21
107.1695680741
  0
LINE
  5
2B0
100
AcDbEntity
  8
ASSI
100
AcDbLine
 62
7
  6
CONTINUOUS
 10
121.1550712233
 20
107.0879131554
 11
121.2964925796
 21
107.1695680741
  0
LINE
  5
2B1
100
AcDbEntity
  8
0
100
AcDbLine
 62
7
  6
CONTINUOUS
 10
121.5086246139
 20
107.2920504521
 11
121.6500459702
 21
107.3737053708
  0
LINE
  5
2B2
100
AcDbEntity
  8
ASSI
100
AcDbLine
 62
7
  6
CONTINUOUS
 10
121.5086246139
 20
107.2920504521
 11
121.6500459702
 21
107.3737053708
  0
LINE
  5
2B3
100
AcDbEntity
  8
0
100
AcDbLine
 62
7
  6
CONTINUOUS
 10
121.8621780045
 20
107.4961877488
 11
122.0035993608
 21
107.5778426674
  0
LINE
  5
2B4
100
AcDbEntity
  8
ASSI
100
AcDbLine
 62
7
  6
CONTINUOUS
 10
121.8621780045
 20
107.4961877488
 11
122.0035993608
 21
107.5778426674
  0
LINE
  5
2B5
100
AcDbEntity
  8
0
100
AcDbLine
 62
7
  6
CONTINUOUS
 10
122.2157313951
 20
107.7003250454
 11
122.3571527514
 21
107.7819799641
  0
LINE
  5
2B6
100
AcDbEntity
  8
ASSI
100
AcDbLine
 62
7
  6
CONTINUOUS
 10
122.2157313951
 20
107.7003250454
 11
122.3571527514
 21
107.7819799641
  0
LINE
  5
2B7
100
AcDbEntity
  8
0
100
AcDbLine
 62
7
  6
CONTINUOUS
 10
122.5692847857
 20
107.9044623421
 11
122.710706142
 21
107.9861172608
  0
LINE
  5
2B8
100
AcDbEntity
  8
ASSI
100
AcDbLine
 62
7
  6
CONTINUOUS
 10
122.5692847857
 20
107.9044623421
 11
122.710706142
 21
107.9861172608
  0
LINE
  5
2B9
100
AcDbEntity
  8
0
100
AcDbLine
 62
7
  6
CONTINUOUS
 10
122.9228381763
 20
108.1085996388
 11
123.0642595326
 21
108.1902545574
  0
LINE
  5
2BA
100
AcDbEntity
  8
ASSI
100
AcDbLine
 62
7
  6
CONTINUOUS
 10
122.9228381763
 20
108.1085996388
 11
123.0642595326
 21
108.1902545574
  0
LINE
  5
2BB
100
AcDbEntity
  8
0
100
AcDbLine
 62
7
  6
CONTINUOUS
 10
120.9394974343
 20
107.171361971
 11
123.0978545352
 21
108.2934529999
  0
LINE
  5
2BC
100
AcDbEntity
  8
ASSI
100
AcDbLine
 62
7
  6
CONTINUOUS
 10
120.9394974343
 20
107.171361971
 11
123.0978545352
 21
108.2934529999
  0
LINE
  5
2BD
100
AcDbEntity
  8
0
100
AcDbLine
 62
7
  6
CONTINUOUS
 10
123.1719016881
 20
108.327896796
 11
124.4822559438
 21
108.8653591227
  0
LINE
  5
2BE
100
AcDbEntity
  8
ASSI
100
AcDbLine
 62
7
  6
CONTINUOUS
 10
123.1719016881
 20
108.327896796
 11
124.4822559438
 21
108.8653591227
  0
LWPOLYLINE
  5
2BF
100
AcDbEntity
  8
0
100
AcDbPolyline
 62
250
  6
CONTINUOUS
 90
6
 70
0
 10
142.5561355844
 20
95.6280022026
 10
142.5602066487
 20
95.6177537954
 10
142.5625728709
 20
95.6088165611
 10
142.5630065132
 20
95.6014637872
 10
142.561289867
 20
95.595977732
 10
142.5600597974
 20
95.594466375
  0
LWPOLYLINE
  5
2C0
100
AcDbEntity
  8
ASSI
100
AcDbPolyline
 62
250
  6
CONTINUOUS
 90
6
 70
0
 10
142.5561355844
 20
95.6280022026
 10
142.5602066487
 20
95.6177537954
 10
142.5625728709
 20
95.6088165611
 10
142.5630065132
 20
95.6014637872
 10
142.561289867
 20
95.595977732
 10
142.5600597974
 20
95.594466375
  0
LINE
  5
2C1
100
AcDbEntity
  8
0
100
AcDbLine
 62
250
  6
CONTINUOUS
 10
144.4371168738
 20
97.2917376494
 11
144.4371168738
 21
96.8623398374
  0
LINE
  5
2C2
100
AcDbEntity
  8
ASSI
100
AcDbLine
 62
250
  6
CONTINUOUS
 10
144.4371168738
 20
97.2917376494
 11
144.4371168738
 21
96.8623398374
  0
LINE
  5
2C3
100
AcDbEntity
  8
0
100
AcDbLine
 62
7
  6
CONTINUOUS
 10
144.5141734262
 20
97.4062423197
 11
144.5141734262
 21
96.9081577796
  0
LINE
  5
2C4
100
AcDbEntity
  8
ASSI
100
AcDbLine
 62
7
  6
CONTINUOUS
 10
144.5141734262
 20
97.4062423197
 11
144.5141734262
 21
96.9081577796
  0
LINE
  5
2C5
100
AcDbEntity
  8
0
100
AcDbLine
 62
7
  6
CONTINUOUS
 10
125.7300043823
 20
104.4053832984
 11
128.5907124207
 21
106.0858182061
  0
LINE
  5
2C6
100
AcDbEntity
  8
ASSI
100
AcDbLine
 62
7
  6
CONTINUOUS
 10
125.7300043823
 20
104.4053832984
 11
128.5907124207
 21
106.0858182061
  0
LINE
  5
2C7
100
AcDbEntity
  8
0
100
AcDbLine
 62
7
  6
CONTINUOUS
 10
126.5915435526
 20
104.7361813628
 11
125.87608095
 21
104.3210405189
  0
LINE
  5
2C8
100
AcDbEntity
  8
ASSI
100
AcDbLine
 62
7
  6
CONTINUOUS
 10
126.5915435526
 20
104.7361813628
 11
125.87608095
 21
104.3210405189
  0
LINE
  5
2C9
100
AcDbEntity
  8
0
100
AcDbLine
 62
250
  6
CONTINUOUS
 10
126.6462330077
 20
104.8141805525
 11
125.8358478532
 21
104.3442706048
  0
LINE
  5
2CA
100
AcDbEntity
  8
ASSI
100
AcDbLine
 62
250
  6
CONTINUOUS
 10
126.6462330077
 20
104.8141805525
 11
125.8358478532
 21
104.3442706048
  0
LINE
  5
2CB
100
AcDbEntity
  8
0
100
AcDbLine
 62
7
  6
CONTINUOUS
 10
125.0441585199
 20
104.8424028921
 11
125.1855798761
 21
104.9240578108
  0
LINE
  5
2CC
100
AcDbEntity
  8
ASSI
100
AcDbLine
 62
7
  6
CONTINUOUS
 10
125.0441585199
 20
104.8424028921
 11
125.1855798761
 21
104.9240578108
  0
LINE
  5
2CD
100
AcDbEntity
  8
0
100
AcDbLine
 62
7
  6
CONTINUOUS
 10
125.3977119105
 20
105.0465401888
 11
125.5391332667
 21
105.1281951075
  0
LINE
  5
2CE
100
AcDbEntity
  8
ASSI
100
AcDbLine
 62
7
  6
CONTINUOUS
 10
125.3977119105
 20
105.0465401888
 11
125.5391332667
 21
105.1281951075
  0
LINE
  5
2CF
100
AcDbEntity
  8
0
100
AcDbLine
 62
7
  6
CONTINUOUS
 10
125.7512653011
 20
105.2506774855
 11
125.8926866573
 21
105.3323324041
  0
LINE
  5
2D0
100
AcDbEntity
  8
ASSI
100
AcDbLine
 62
7
  6
CONTINUOUS
 10
125.7512653011
 20
105.2506774855
 11
125.8926866573
 21
105.3323324041
  0
LINE
  5
2D1
100
AcDbEntity
  8
0
100
AcDbLine
 62
7
  6
CONTINUOUS
 10
126.1048186917
 20
105.4548147821
 11
126.2462400479
 21
105.5364697008
  0
LINE
  5
2D2
100
AcDbEntity
  8
ASSI
100
AcDbLine
 62
7
  6
CONTINUOUS
 10
126.1048186917
 20
105.4548147821
 11
126.2462400479
 21
105.5364697008
  0
LINE
  5
2D3
100
AcDbEntity
  8
0
100
AcDbLine
 62
7
  6
CONTINUOUS
 10
126.4583720822
 20
105.6589520788
 11
126.5997934385
 21
105.7406069975
  0
LINE
  5
2D4
100
AcDbEntity
  8
ASSI
100
AcDbLine
 62
7
  6
CONTINUOUS
 10
126.4583720822
 20
105.6589520788
 11
126.5997934385
 21
105.7406069975
  0
LINE
  5
2D5
100
AcDbEntity
  8
0
100
AcDbLine
 62
7
  6
CONTINUOUS
 10
126.8119254728
 20
105.8630893755
 11
126.9533468291
 21
105.9447442941
  0
LINE
  5
2D6
100
AcDbEntity
  8
ASSI
100
AcDbLine
 62
7
  6
CONTINUOUS
 10
126.8119254728
 20
105.8630893755
 11
126.9533468291
 21
105.9447442941
  0
LINE
  5
2D7
100
AcDbEntity
  8
0
100
AcDbLine
 62
7
  6
CONTINUOUS
 10
127.0594128463
 20
105.8835149416
 11
125.1146915308
 21
104.7606572271
  0
LINE
  5
2D8
100
AcDbEntity
  8
ASSI
100
AcDbLine
 62
7
  6
CONTINUOUS
 10
127.0594128463
 20
105.8835149416
 11
125.1146915308
 21
104.7606572271
  0
LINE
  5
2D9
100
AcDbEntity
  8
0
100
AcDbLine
 62
7
  6
CONTINUOUS
 10
128.5907124207
 20
106.4931878439
 11
127.4108641495
 21
105.8803729975
  0
LINE
  5
2DA
100
AcDbEntity
  8
ASSI
100
AcDbLine
 62
7
  6
CONTINUOUS
 10
128.5907124207
 20
106.4931878439
 11
127.4108641495
 21
105.8803729975
  0
LINE
  5
2DB
100
AcDbEntity
  8
0
100
AcDbLine
 62
250
  6
CONTINUOUS
 10
142.5434964369
 20
95.5951673495
 11
142.5561355844
 21
95.6280022026
  0
LINE
  5
2DC
100
AcDbEntity
  8
ASSI
100
AcDbLine
 62
250
  6
CONTINUOUS
 10
142.5434964369
 20
95.5951673495
 11
142.5561355844
 21
95.6280022026
  0
LINE
  5
2DD
100
AcDbEntity
  8
SMUSSO
100
AcDbLine
 62
250
  6
CONTINUOUS
 10
193.4567395997
 20
117.2280880736
 11
194.870953162
 21
117.2280880736
  0
LWPOLYLINE
  5
2DE
100
AcDbEntity
  8
0
100
AcDbPolyline
 62
250
  6
CONTINUOUS
 90
6
 70
0
 10
158.4660381611
 20
86.4418238527
 10
158.4701092254
 20
86.4315754455
 10
158.4724754476
 20
86.4226382112
 10
158.4729090899
 20
86.4152854373
 10
158.4711924437
 20
86.4097993821
 10
158.4699623741
 20
86.4082880251
  0
LWPOLYLINE
  5
2DF
100
AcDbEntity
  8
ASSI
100
AcDbPolyline
 62
250
  6
CONTINUOUS
 90
6
 70
0
 10
158.4660381611
 20
86.4418238527
 10
158.4701092254
 20
86.4315754455
 10
158.4724754476
 20
86.4226382112
 10
158.4729090899
 20
86.4152854373
 10
158.4711924437
 20
86.4097993821
 10
158.4699623741
 20
86.4082880251
  0
LINE
  5
2E0
100
AcDbEntity
  8
0
100
AcDbLine
 62
250
  6
CONTINUOUS
 10
142.5561355844
 20
95.6280022026
 11
142.8920805494
 21
95.9547557924
  0
LINE
  5
2E1
100
AcDbEntity
  8
ASSI
100
AcDbLine
 62
250
  6
CONTINUOUS
 10
142.5561355844
 20
95.6280022026
 11
142.8920805494
 21
95.9547557924
  0
LINE
  5
2E2
100
AcDbEntity
  8
0
100
AcDbLine
 62
7
  6
CONTINUOUS
 10
142.5600603307
 20
95.5944668938
 11
142.9890448227
 21
96.011714471
  0
LINE
  5
2E3
100
AcDbEntity
  8
ASSI
100
AcDbLine
 62
7
  6
CONTINUOUS
 10
142.5600603307
 20
95.5944668938
 11
142.9890448227
 21
96.011714471
  0
LWPOLYLINE
  5
2E4
100
AcDbEntity
  8
0
100
AcDbPolyline
 62
250
  6
CONTINUOUS
 90
3
 70
0
 10
142.5014459644
 20
95.5500029173
 10
142.5250033814
 20
95.5688572675
 10
142.5434964369
 20
95.5951673495
  0
LWPOLYLINE
  5
2E5
100
AcDbEntity
  8
ASSI
100
AcDbPolyline
 62
250
  6
CONTINUOUS
 90
3
 70
0
 10
142.5014459644
 20
95.5500029173
 10
142.5250033814
 20
95.5688572675
 10
142.5434964369
 20
95.5951673495
  0
LINE
  5
2E6
100
AcDbEntity
  8
0
100
AcDbLine
 62
7
  6
CONTINUOUS
 10
144.4371168738
 20
97.2917376494
 11
141.3844808635
 21
95.3666847748
  0
LINE
  5
2E7
100
AcDbEntity
  8
ASSI
100
AcDbLine
 62
7
  6
CONTINUOUS
 10
144.4371168738
 20
97.2917376494
 11
141.3844808635
 21
95.3666847748
  0
LINE
  5
2E8
100
AcDbEntity
  8
0
100
AcDbLine
 62
7
  6
CONTINUOUS
 10
141.639906959
 20
95.2192049485
 11
144.4371168738
 21
96.8623398374
  0
LINE
  5
2E9
100
AcDbEntity
  8
ASSI
100
AcDbLine
 62
7
  6
CONTINUOUS
 10
141.639906959
 20
95.2192049485
 11
144.4371168738
 21
96.8623398374
  0
LINE
  5
2EA
100
AcDbEntity
  8
0
100
AcDbLine
 62
7
  6
CONTINUOUS
 10
136.9313409534
 20
97.9378719479
 11
140.3216367098
 21
99.667964317
  0
LINE
  5
2EB
100
AcDbEntity
  8
ASSI
100
AcDbLine
 62
7
  6
CONTINUOUS
 10
136.9313409534
 20
97.9378719479
 11
140.3216367098
 21
99.667964317
  0
LINE
  5
2EC
100
AcDbEntity
  8
0
100
AcDbLine
 62
250
  6
CONTINUOUS
 10
160.3470194505
 20
88.1055592995
 11
160.3470194505
 21
87.6761614876
  0
LINE
  5
2ED
100
AcDbEntity
  8
ASSI
100
AcDbLine
 62
250
  6
CONTINUOUS
 10
160.3470194505
 20
88.1055592995
 11
160.3470194505
 21
87.6761614876
  0
LINE
  5
2EE
100
AcDbEntity
  8
0
100
AcDbLine
 62
7
  6
CONTINUOUS
 10
160.4240760029
 20
88.2200639698
 11
160.4240760029
 21
87.7219794297
  0
LINE
  5
2EF
100
AcDbEntity
  8
ASSI
100
AcDbLine
 62
7
  6
CONTINUOUS
 10
160.4240760029
 20
88.2200639698
 11
160.4240760029
 21
87.7219794297
  0
LINE
  5
2F0
100
AcDbEntity
  8
0
100
AcDbLine
 62
7
  6
CONTINUOUS
 10
142.5014459974
 20
95.5500029364
 11
141.7859835267
 21
95.1348621691
  0
LINE
  5
2F1
100
AcDbEntity
  8
ASSI
100
AcDbLine
 62
7
  6
CONTINUOUS
 10
142.5014459974
 20
95.5500029364
 11
141.7859835267
 21
95.1348621691
  0
LINE
  5
2F2
100
AcDbEntity
  8
0
100
AcDbLine
 62
250
  6
CONTINUOUS
 10
142.5561355844
 20
95.6280022026
 11
141.7457504299
 21
95.1580922549
  0
LINE
  5
2F3
100
AcDbEntity
  8
ASSI
100
AcDbLine
 62
250
  6
CONTINUOUS
 10
142.5561355844
 20
95.6280022026
 11
141.7457504299
 21
95.1580922549
  0
LINE
  5
2F4
100
AcDbEntity
  8
RACCORDO
100
AcDbLine
 62
7
  6
CONTINUOUS
 10
174.1173691342
 20
110.9219342778
 11
112.033393746
 21
146.7684435719
  0
LWPOLYLINE
  5
2F5
100
AcDbEntity
  8
RACCORDO
100
AcDbPolyline
 62
7
  6
CONTINUOUS
 90
25
 70
0
 10
174.1173691342
 20
110.9219342778
 10
174.173255854
 20
110.8874938345
 10
174.2284357298
 20
110.8493583668
 10
174.2829087618
 20
110.8075278746
 10
174.33690151
 20
110.7617921894
 10
174.3901874142
 20
110.7123614797
 10
174.4420867943
 20
110.6598662515
 10
174.4925818891
 20
110.6042672489
 10
174.5416904597
 20
110.5456037278
 10
174.5887861093
 20
110.4846239619
 10
174.6338430525
 20
110.4212982804
 10
174.6768870747
 20
110.3556563541
 10
174.7173691342
 20
110.2885354686
 10
174.7552564129
 20
110.2199166787
 10
174.7905817289
 20
110.1498189296
 10
174.8228944957
 20
110.0791363425
 10
174.8521561229
 20
110.0078614258
 10
174.8784052007
 20
109.9360016711
 10
174.9013069131
 20
109.8644736747
 10
174.920818381
 20
109.7932816862
 10
174.9369824833
 20
109.7224214559
 10
174.9495930414
 20
109.6527968309
 10
174.958581329
 20
109.5847090933
 10
174.9640160725
 20
109.5178569609
 10
174.9658972716
 20
109.4522404336
  0
LWPOLYLINE
  5
2F6
100
AcDbEntity
  8
0
100
AcDbPolyline
 62
250
  6
CONTINUOUS
 90
10
 70
0
 10
174.3759407378
 20
77.2556455029
 10
174.3781959123
 20
77.2503435367
 10
174.3800504381
 20
77.2453230219
 10
174.381470499
 20
77.2406219922
 10
174.3824176535
 20
77.2362994356
 10
174.3828678931
 20
77.2323704313
 10
174.382785828
 20
77.2288308943
 10
174.3821134128
 20
77.2257420975
 10
174.380791712
 20
77.2231778487
 10
174.3798652803
 20
77.2221099957
  0
LWPOLYLINE
  5
2F7
100
AcDbEntity
  8
ASSI
100
AcDbPolyline
 62
250
  6
CONTINUOUS
 90
10
 70
0
 10
174.3759407378
 20
77.2556455029
 10
174.3781959123
 20
77.2503435367
 10
174.3800504381
 20
77.2453230219
 10
174.381470499
 20
77.2406219922
 10
174.3824176535
 20
77.2362994356
 10
174.3828678931
 20
77.2323704313
 10
174.382785828
 20
77.2288308943
 10
174.3821134128
 20
77.2257420975
 10
174.380791712
 20
77.2231778487
 10
174.3798652803
 20
77.2221099957
  0
LINE
  5
2F8
100
AcDbEntity
  8
0
100
AcDbLine
 62
250
  6
CONTINUOUS
 10
158.4533990136
 20
86.4089889997
 11
158.4660381611
 21
86.4418238527
  0
LINE
  5
2F9
100
AcDbEntity
  8
ASSI
100
AcDbLine
 62
250
  6
CONTINUOUS
 10
158.4533990136
 20
86.4089889997
 11
158.4660381611
 21
86.4418238527
  0
LINE
  5
2FA
100
AcDbEntity
  8
SMUSSO
100
AcDbLine
 62
250
  6
CONTINUOUS
 10
194.1638463809
 20
118.4528329437
 11
195.2245065526
 21
119.0652448337
  0
LINE
  5
2FB
100
AcDbEntity
  8
0
100
AcDbLine
 62
250
  6
CONTINUOUS
 10
195.2250524342
 20
119.065486897
 11
197.2398685748
 21
120.2288204794
  0
LINE
  5
2FC
100
AcDbEntity
  8
ASSI
100
AcDbLine
 62
250
  6
CONTINUOUS
 10
195.2250524342
 20
119.065486897
 11
197.2398685748
 21
120.2288204794
  0
LINE
  5
2FD
100
AcDbEntity
  8
0
100
AcDbLine
 62
250
  6
CONTINUOUS
 10
195.9320515196
 20
117.8409285615
 11
197.9468676602
 21
119.0042621439
  0
LINE
  5
2FE
100
AcDbEntity
  8
ASSI
100
AcDbLine
 62
250
  6
CONTINUOUS
 10
195.9320515196
 20
117.8409285615
 11
197.9468676602
 21
119.0042621439
  0
LINE
  5
2FF
100
AcDbEntity
  8
SMUSSO
100
AcDbLine
 62
250
  6
CONTINUOUS
 10
194.870953162
 20
117.2280880736
 11
195.9316133338
 21
117.8404999636
  0
LINE
  5
300
100
AcDbEntity
  8
0
100
AcDbLine
 62
250
  6
CONTINUOUS
 10
197.265403066
 20
120.2142074838
 11
198.1154441991
 21
119.9683335354
  0
LINE
  5
301
100
AcDbEntity
  8
ASSI
100
AcDbLine
 62
250
  6
CONTINUOUS
 10
197.265403066
 20
120.2142074838
 11
198.1154441991
 21
119.9683335354
  0
LINE
  5
302
100
AcDbEntity
  8
0
100
AcDbLine
 62
250
  6
CONTINUOUS
 10
158.4660381611
 20
86.4418238527
 11
158.8019831261
 21
86.7685774425
  0
LINE
  5
303
100
AcDbEntity
  8
ASSI
100
AcDbLine
 62
250
  6
CONTINUOUS
 10
158.4660381611
 20
86.4418238527
 11
158.8019831261
 21
86.7685774425
  0
LINE
  5
304
100
AcDbEntity
  8
0
100
AcDbLine
 62
7
  6
CONTINUOUS
 10
158.4699629074
 20
86.4082885439
 11
158.8989473994
 21
86.8255361211
  0
LINE
  5
305
100
AcDbEntity
  8
ASSI
100
AcDbLine
 62
7
  6
CONTINUOUS
 10
158.4699629074
 20
86.4082885439
 11
158.8989473994
 21
86.8255361211
  0
LWPOLYLINE
  5
306
100
AcDbEntity
  8
0
100
AcDbPolyline
 62
250
  6
CONTINUOUS
 90
3
 70
0
 10
158.4113485411
 20
86.3638245674
 10
158.434905958
 20
86.3826789176
 10
158.4533990136
 20
86.4089889997
  0
LWPOLYLINE
  5
307
100
AcDbEntity
  8
ASSI
100
AcDbPolyline
 62
250
  6
CONTINUOUS
 90
3
 70
0
 10
158.4113485411
 20
86.3638245674
 10
158.434905958
 20
86.3826789176
 10
158.4533990136
 20
86.4089889997
  0
LINE
  5
308
100
AcDbEntity
  8
0
100
AcDbLine
 62
7
  6
CONTINUOUS
 10
160.3470194505
 20
88.1055592995
 11
157.2943834402
 21
86.1805064249
  0
LINE
  5
309
100
AcDbEntity
  8
ASSI
100
AcDbLine
 62
7
  6
CONTINUOUS
 10
160.3470194505
 20
88.1055592995
 11
157.2943834402
 21
86.1805064249
  0
LINE
  5
30A
100
AcDbEntity
  8
0
100
AcDbLine
 62
7
  6
CONTINUOUS
 10
157.5498095357
 20
86.0330265986
 11
160.3470194505
 21
87.6761614876
  0
LINE
  5
30B
100
AcDbEntity
  8
ASSI
100
AcDbLine
 62
7
  6
CONTINUOUS
 10
157.5498095357
 20
86.0330265986
 11
160.3470194505
 21
87.6761614876
  0
LINE
  5
30C
100
AcDbEntity
  8
0
100
AcDbLine
 62
7
  6
CONTINUOUS
 10
158.4113485741
 20
86.3638245865
 11
157.6958861034
 21
85.9486838192
  0
LINE
  5
30D
100
AcDbEntity
  8
ASSI
100
AcDbLine
 62
7
  6
CONTINUOUS
 10
158.4113485741
 20
86.3638245865
 11
157.6958861034
 21
85.9486838192
  0
LINE
  5
30E
100
AcDbEntity
  8
0
100
AcDbLine
 62
250
  6
CONTINUOUS
 10
158.4660381611
 20
86.4418238527
 11
157.6556530066
 21
85.971913905
  0
LINE
  5
30F
100
AcDbEntity
  8
ASSI
100
AcDbLine
 62
250
  6
CONTINUOUS
 10
158.4660381611
 20
86.4418238527
 11
157.6556530066
 21
85.971913905
  0
LINE
  5
310
100
AcDbEntity
  8
0
100
AcDbLine
 62
7
  6
CONTINUOUS
 10
152.8412435301
 20
88.751693598
 11
156.2315392865
 21
90.4817859672
  0
LINE
  5
311
100
AcDbEntity
  8
ASSI
100
AcDbLine
 62
7
  6
CONTINUOUS
 10
152.8412435301
 20
88.751693598
 11
156.2315392865
 21
90.4817859672
  0
LINE
  5
312
100
AcDbEntity
  8
RACCORDO
100
AcDbLine
 62
7
  6
CONTINUOUS
 10
174.9658972716
 20
74.5073125869
 11
174.9658972716
 21
109.4522404336
  0
LWPOLYLINE
  5
313
100
AcDbEntity
  8
RACCORDO
100
AcDbPolyline
 62
7
  6
CONTINUOUS
 90
13
 70
0
 10
174.9658972716
 20
74.5073125869
 10
174.9640160725
 20
74.4438684213
 10
174.958581329
 20
74.3832921944
 10
174.9495930414
 20
74.325583906
 10
174.9369824833
 20
74.2705216374
 10
174.920818381
 20
74.2183273074
 10
174.9013069131
 20
74.1696666728
 10
174.8784052007
 20
74.1245849998
 10
174.8521561229
 20
74.0830370223
 10
174.8228944957
 20
74.0455526992
 10
174.7905817289
 20
74.0121840852
 10
174.7552564129
 20
73.9828791256
 10
174.7173981264
 20
73.9580283536
  0
LWPOLYLINE
  5
314
100
AcDbEntity
  8
SMUSSO
100
AcDbPolyline
 62
7
  6
CONTINUOUS
 90
15
 70
0
 10
93.4011300618
 20
176.6319624929
 10
93.3600214532
 20
176.654323672
 10
93.3190495695
 20
176.6738451404
 10
93.2783530587
 20
176.6904608506
 10
93.238068363
 20
176.7041138516
 10
93.1983330507
 20
176.7147586724
 10
93.1592853552
 20
176.7223614776
 10
93.121059248
 20
176.7268976081
 10
93.0837822154
 20
176.7283506417
 10
93.0475786182
 20
176.7267146381
 10
93.0125702054
 20
176.7219946986
 10
92.9788761889
 20
176.7142072296
 10
92.9466110658
 20
176.7033788627
 10
92.9158841826
 20
176.6895463368
 10
92.901106061
 20
176.6815037626
  0
LINE
  5
315
100
AcDbEntity
  8
SMUSSO
100
AcDbLine
 62
7
  6
CONTINUOUS
 10
193.4567395997
 20
117.2280880736
 11
92.6940232806
 21
175.4072176228
  0
LINE
  5
316
100
AcDbEntity
  8
SMUSSO
100
AcDbLine
 62
7
  6
CONTINUOUS
 10
194.1638463809
 20
118.4528329437
 11
93.4011300618
 21
176.6319624929
  0
LINE
  5
317
100
AcDbEntity
  8
SMUSSO
100
AcDbLine
 62
7
  6
CONTINUOUS
 10
94.4617902336
 20
177.2443743829
 11
195.5780599432
 21
118.861146992
  0
LINE
  5
318
100
AcDbEntity
  8
0
100
AcDbLine
 62
7
  6
CONTINUOUS
 10
97.4668863578
 20
177.8364899624
 11
197.2398685748
 21
120.2288204794
  0
LINE
  5
319
100
AcDbEntity
  8
ASSI
100
AcDbLine
 62
7
  6
CONTINUOUS
 10
97.4668863578
 20
177.8364899624
 11
197.2398685748
 21
120.2288204794
  0
LINE
  5
31A
100
AcDbEntity
  8
0
100
AcDbLine
 62
7
  6
CONTINUOUS
 10
98.7126310771
 20
177.3622720221
 11
198.1154441991
 21
119.9683335354
  0
LINE
  5
31B
100
AcDbEntity
  8
ASSI
100
AcDbLine
 62
7
  6
CONTINUOUS
 10
98.7126310771
 20
177.3622720221
 11
198.1154441991
 21
119.9683335354
  0
LWPOLYLINE
  5
31C
100
AcDbEntity
  8
SMUSSO
100
AcDbPolyline
 62
7
  6
CONTINUOUS
 90
25
 70
0
 10
195.2245065526
 20
119.0652448337
 10
195.2707480592
 20
119.0367978573
 10
195.3167928163
 20
119.0049763586
 10
195.3624436659
 20
118.9699163143
 10
195.4075052441
 20
118.9317674673
 10
195.4517844128
 20
118.8906930259
 10
195.4950911128
 20
118.8468690525
 10
195.5372398359
 20
118.8004830748
 10
195.5780500235
 20
118.7517336018
 10
195.6173464942
 20
118.700829738
 10
195.6549609164
 20
118.6479894276
 10
195.6907321516
 20
118.593438922
 10
195.7245066602
 20
118.5374123064
 10
195.7561397913
 20
118.4801495351
 10
195.785496072
 20
118.4218958437
 10
195.812449558
 20
118.362901223
 10
195.836884892
 20
118.30341831
 10
195.8586974771
 20
118.2437018885
 10
195.8777937878
 20
118.1840083061
 10
195.8940921863
 20
118.1245932445
 10
195.9075230591
 20
118.0657110479
 10
195.9180289926
 20
118.0076142277
 10
195.9255652164
 20
117.9505516084
 10
195.9300997235
 20
117.8947672789
 10
195.9316133338
 20
117.8404999636
  0
LWPOLYLINE
  5
31D
100
AcDbEntity
  8
SMUSSO
100
AcDbPolyline
 62
7
  6
CONTINUOUS
 90
22
 70
0
 10
195.5780599432
 20
118.861146992
 10
195.6047185787
 20
118.8445614938
 10
195.6309406661
 20
118.8260100146
 10
195.6567262054
 20
118.8054925547
 10
195.6822148099
 20
118.7828722624
 10
195.7072668663
 20
118.7582859893
 10
195.7314635344
 20
118.7321442896
 10
195.7547899301
 20
118.7044211118
 10
195.7772609375
 20
118.6751425074
 10
195.798502369
 20
118.6447971857
 10
195.8184925345
 20
118.6133695764
 10
195.8372531241
 20
118.5808752498
 10
195.8544750205
 20
118.5478496259
 10
195.8701338872
 20
118.5142817353
 10
195.8842540608
 20
118.4801825474
 10
195.896599433
 20
118.44612039
 10
195.9071400157
 20
118.4120953419
 10
195.9159057972
 20
118.3781073243
 10
195.922750634
 20
118.344724428
 10
195.9276258118
 20
118.3121360164
 10
195.9305800451
 20
118.2801527261
 10
195.9316133338
 20
118.2487745569
  0
LINE
  5
31E
100
AcDbEntity
  8
0
100
AcDbLine
 62
250
  6
CONTINUOUS
 10
174.3703932019
 20
77.2384821097
 11
174.3759407378
 21
77.2556455029
  0
LINE
  5
31F
100
AcDbEntity
  8
ASSI
100
AcDbLine
 62
250
  6
CONTINUOUS
 10
174.3703932019
 20
77.2384821097
 11
174.3759407378
 21
77.2556455029
  0
LINE
  5
320
100
AcDbEntity
  8
0
100
AcDbLine
 62
7
  6
CONTINUOUS
 10
168.8670167171
 20
79.49861301
 11
168.8847789534
 21
79.5293781058
  0
LINE
  5
321
100
AcDbEntity
  8
ASSI
100
AcDbLine
 62
7
  6
CONTINUOUS
 10
168.8670167171
 20
79.49861301
 11
168.8847789534
 21
79.5293781058
  0
LINE
  5
322
100
AcDbEntity
  8
0
100
AcDbLine
 62
7
  6
CONTINUOUS
 10
169.1322663269
 20
79.549803672
 11
169.238332344
 21
79.7335154025
  0
LINE
  5
323
100
AcDbEntity
  8
ASSI
100
AcDbLine
 62
7
  6
CONTINUOUS
 10
169.1322663269
 20
79.549803672
 11
169.238332344
 21
79.7335154025
  0
LINE
  5
324
100
AcDbEntity
  8
0
100
AcDbLine
 62
7
  6
CONTINUOUS
 10
169.4858197174
 20
79.7539409686
 11
169.5918857346
 21
79.9376526992
  0
LINE
  5
325
100
AcDbEntity
  8
ASSI
100
AcDbLine
 62
7
  6
CONTINUOUS
 10
169.4858197174
 20
79.7539409686
 11
169.5918857346
 21
79.9376526992
  0
LINE
  5
326
100
AcDbEntity
  8
0
100
AcDbLine
 62
7
  6
CONTINUOUS
 10
169.839373108
 20
79.9580782653
 11
169.9454391252
 21
80.1417899958
  0
LINE
  5
327
100
AcDbEntity
  8
ASSI
100
AcDbLine
 62
7
  6
CONTINUOUS
 10
169.839373108
 20
79.9580782653
 11
169.9454391252
 21
80.1417899958
  0
LINE
  5
328
100
AcDbEntity
  8
0
100
AcDbLine
 62
7
  6
CONTINUOUS
 10
170.1929264986
 20
80.162215562
 11
170.2989925158
 21
80.3459272925
  0
LINE
  5
329
100
AcDbEntity
  8
ASSI
100
AcDbLine
 62
7
  6
CONTINUOUS
 10
170.1929264986
 20
80.162215562
 11
170.2989925158
 21
80.3459272925
  0
LINE
  5
32A
100
AcDbEntity
  8
0
100
AcDbLine
 62
7
  6
CONTINUOUS
 10
170.5464798892
 20
80.3663528586
 11
170.6525459064
 21
80.5500645891
  0
LINE
  5
32B
100
AcDbEntity
  8
ASSI
100
AcDbLine
 62
7
  6
CONTINUOUS
 10
170.5464798892
 20
80.3663528586
 11
170.6525459064
 21
80.5500645891
  0
LINE
  5
32C
100
AcDbEntity
  8
SMUSSO
100
AcDbLine
 62
250
  6
CONTINUOUS
 10
193.4567395997
 20
117.2280880736
 11
194.1638463809
 21
118.4528329437
  0
LINE
  5
32D
100
AcDbEntity
  8
0
100
AcDbLine
 62
7
  6
CONTINUOUS
 10
168.8847789534
 20
79.5293781058
 11
169.0262003097
 21
79.6110330245
  0
LINE
  5
32E
100
AcDbEntity
  8
ASSI
100
AcDbLine
 62
7
  6
CONTINUOUS
 10
168.8847789534
 20
79.5293781058
 11
169.0262003097
 21
79.6110330245
  0
LINE
  5
32F
100
AcDbEntity
  8
0
100
AcDbLine
 62
7
  6
CONTINUOUS
 10
169.238332344
 20
79.7335154025
 11
169.3797537003
 21
79.8151703212
  0
LINE
  5
330
100
AcDbEntity
  8
ASSI
100
AcDbLine
 62
7
  6
CONTINUOUS
 10
169.238332344
 20
79.7335154025
 11
169.3797537003
 21
79.8151703212
  0
LINE
  5
331
100
AcDbEntity
  8
0
100
AcDbLine
 62
7
  6
CONTINUOUS
 10
169.5918857346
 20
79.9376526992
 11
169.7333070909
 21
80.0193076178
  0
LINE
  5
332
100
AcDbEntity
  8
ASSI
100
AcDbLine
 62
7
  6
CONTINUOUS
 10
169.5918857346
 20
79.9376526992
 11
169.7333070909
 21
80.0193076178
  0
LINE
  5
333
100
AcDbEntity
  8
0
100
AcDbLine
 62
7
  6
CONTINUOUS
 10
169.9454391252
 20
80.1417899958
 11
170.0868604815
 21
80.2234449145
  0
LINE
  5
334
100
AcDbEntity
  8
ASSI
100
AcDbLine
 62
7
  6
CONTINUOUS
 10
169.9454391252
 20
80.1417899958
 11
170.0868604815
 21
80.2234449145
  0
LINE
  5
335
100
AcDbEntity
  8
0
100
AcDbLine
 62
7
  6
CONTINUOUS
 10
170.2989925158
 20
80.3459272925
 11
170.440413872
 21
80.4275822111
  0
LINE
  5
336
100
AcDbEntity
  8
ASSI
100
AcDbLine
 62
7
  6
CONTINUOUS
 10
170.2989925158
 20
80.3459272925
 11
170.440413872
 21
80.4275822111
  0
LINE
  5
337
100
AcDbEntity
  8
0
100
AcDbLine
 62
7
  6
CONTINUOUS
 10
170.6525459064
 20
80.5500645891
 11
170.7939672626
 21
80.6317195078
  0
LINE
  5
338
100
AcDbEntity
  8
ASSI
100
AcDbLine
 62
7
  6
CONTINUOUS
 10
170.6525459064
 20
80.5500645891
 11
170.7939672626
 21
80.6317195078
  0
LINE
  5
339
100
AcDbEntity
  8
0
100
AcDbLine
 62
7
  6
CONTINUOUS
 10
168.6692051644
 20
79.6128269214
 11
170.8275622653
 21
80.7349179503
  0
LINE
  5
33A
100
AcDbEntity
  8
ASSI
100
AcDbLine
 62
7
  6
CONTINUOUS
 10
168.6692051644
 20
79.6128269214
 11
170.8275622653
 21
80.7349179503
  0
LINE
  5
33B
100
AcDbEntity
  8
0
100
AcDbLine
 62
7
  6
CONTINUOUS
 10
170.9016094182
 20
80.7693617464
 11
172.2119636739
 21
81.306824073
  0
LINE
  5
33C
100
AcDbEntity
  8
ASSI
100
AcDbLine
 62
7
  6
CONTINUOUS
 10
170.9016094182
 20
80.7693617464
 11
172.2119636739
 21
81.306824073
  0
LWPOLYLINE
  5
33D
100
AcDbEntity
  8
0
100
AcDbPolyline
 62
7
  6
CONTINUOUS
 90
4
 70
0
 10
97.4424797852
 20
177.8507123111
 10
97.4003050976
 20
177.873884545
 10
97.3582910357
 20
177.8936272866
 10
97.3384872207
 20
177.9017648874
  0
LWPOLYLINE
  5
33E
100
AcDbEntity
  8
ASSI
100
AcDbPolyline
 62
7
  6
CONTINUOUS
 90
4
 70
0
 10
97.4424797852
 20
177.8507123111
 10
97.4003050976
 20
177.873884545
 10
97.3582910357
 20
177.8936272866
 10
97.3384872207
 20
177.9017648874
  0
LINE
  5
33F
100
AcDbEntity
  8
0
100
AcDbLine
 62
7
  6
CONTINUOUS
 10
172.7561040136
 20
77.2531027467
 11
172.77386625
 21
77.2838678425
  0
LINE
  5
340
100
AcDbEntity
  8
ASSI
100
AcDbLine
 62
7
  6
CONTINUOUS
 10
172.7561040136
 20
77.2531027467
 11
172.77386625
 21
77.2838678425
  0
LINE
  5
341
100
AcDbEntity
  8
0
100
AcDbLine
 62
7
  6
CONTINUOUS
 10
173.0213536234
 20
77.3042934087
 11
173.1274196406
 21
77.4880051392
  0
LINE
  5
342
100
AcDbEntity
  8
ASSI
100
AcDbLine
 62
7
  6
CONTINUOUS
 10
173.0213536234
 20
77.3042934087
 11
173.1274196406
 21
77.4880051392
  0
LINE
  5
343
100
AcDbEntity
  8
0
100
AcDbLine
 62
7
  6
CONTINUOUS
 10
173.374907014
 20
77.5084307053
 11
173.4809730312
 21
77.6921424359
  0
LINE
  5
344
100
AcDbEntity
  8
ASSI
100
AcDbLine
 62
7
  6
CONTINUOUS
 10
173.374907014
 20
77.5084307053
 11
173.4809730312
 21
77.6921424359
  0
LINE
  5
345
100
AcDbEntity
  8
0
100
AcDbLine
 62
7
  6
CONTINUOUS
 10
173.7284604046
 20
77.712568002
 11
173.8345264217
 21
77.8962797325
  0
LINE
  5
346
100
AcDbEntity
  8
ASSI
100
AcDbLine
 62
7
  6
CONTINUOUS
 10
173.7284604046
 20
77.712568002
 11
173.8345264217
 21
77.8962797325
  0
LINE
  5
347
100
AcDbEntity
  8
0
100
AcDbLine
 62
7
  6
CONTINUOUS
 10
174.0820137952
 20
77.9167052987
 11
174.1880798123
 21
78.1004170292
  0
LINE
  5
348
100
AcDbEntity
  8
ASSI
100
AcDbLine
 62
7
  6
CONTINUOUS
 10
174.0820137952
 20
77.9167052987
 11
174.1880798123
 21
78.1004170292
  0
LINE
  5
349
100
AcDbEntity
  8
0
100
AcDbLine
 62
7
  6
CONTINUOUS
 10
174.4355671858
 20
78.1208425953
 11
174.5416332029
 21
78.3045543258
  0
LINE
  5
34A
100
AcDbEntity
  8
ASSI
100
AcDbLine
 62
7
  6
CONTINUOUS
 10
174.4355671858
 20
78.1208425953
 11
174.5416332029
 21
78.3045543258
  0
LINE
  5
34B
100
AcDbEntity
  8
0
100
AcDbLine
 62
250
  6
CONTINUOUS
 10
174.3759407378
 20
77.2556455029
 11
174.7118857028
 21
77.5823990926
  0
LINE
  5
34C
100
AcDbEntity
  8
ASSI
100
AcDbLine
 62
250
  6
CONTINUOUS
 10
174.3759407378
 20
77.2556455029
 11
174.7118857028
 21
77.5823990926
  0
LINE
  5
34D
100
AcDbEntity
  8
0
100
AcDbLine
 62
7
  6
CONTINUOUS
 10
174.3798656325
 20
77.2221103383
 11
174.8088499761
 21
77.6393577712
  0
LINE
  5
34E
100
AcDbEntity
  8
ASSI
100
AcDbLine
 62
7
  6
CONTINUOUS
 10
174.3798656325
 20
77.2221103383
 11
174.8088499761
 21
77.6393577712
  0
LWPOLYLINE
  5
34F
100
AcDbEntity
  8
0
100
AcDbPolyline
 62
250
  6
CONTINUOUS
 90
6
 70
0
 10
174.3212513418
 20
77.1776463475
 10
174.3335622679
 20
77.1860701674
 10
174.3448366627
 20
77.1965239772
 10
174.3547825584
 20
77.2088088478
 10
174.3633225053
 20
77.2228301449
 10
174.3703932019
 20
77.2384821097
  0
LWPOLYLINE
  5
350
100
AcDbEntity
  8
ASSI
100
AcDbPolyline
 62
250
  6
CONTINUOUS
 90
6
 70
0
 10
174.3212513418
 20
77.1776463475
 10
174.3335622679
 20
77.1860701674
 10
174.3448366627
 20
77.1965239772
 10
174.3547825584
 20
77.2088088478
 10
174.3633225053
 20
77.2228301449
 10
174.3703932019
 20
77.2384821097
  0
LINE
  5
351
100
AcDbEntity
  8
0
100
AcDbLine
 62
7
  6
CONTINUOUS
 10
174.9658972716
 20
78.2138791878
 11
173.1305060609
 21
77.036927697
  0
LINE
  5
352
100
AcDbEntity
  8
ASSI
100
AcDbLine
 62
7
  6
CONTINUOUS
 10
174.9658972716
 20
78.2138791878
 11
173.1305060609
 21
77.036927697
  0
LINE
  5
353
100
AcDbEntity
  8
0
100
AcDbLine
 62
7
  6
CONTINUOUS
 10
173.4597121124
 20
76.8468482487
 11
174.9658972716
 21
77.7316103723
  0
LINE
  5
354
100
AcDbEntity
  8
ASSI
100
AcDbLine
 62
7
  6
CONTINUOUS
 10
173.4597121124
 20
76.8468482487
 11
174.9658972716
 21
77.7316103723
  0
LINE
  5
355
100
AcDbEntity
  8
0
100
AcDbLine
 62
7
  6
CONTINUOUS
 10
174.3212512827
 20
77.1776463132
 11
173.6057886801
 21
76.7625054693
  0
LINE
  5
356
100
AcDbEntity
  8
ASSI
100
AcDbLine
 62
7
  6
CONTINUOUS
 10
174.3212512827
 20
77.1776463132
 11
173.6057886801
 21
76.7625054693
  0
LINE
  5
357
100
AcDbEntity
  8
0
100
AcDbLine
 62
250
  6
CONTINUOUS
 10
174.3759407378
 20
77.2556455029
 11
173.5655555833
 21
76.7857355551
  0
LINE
  5
358
100
AcDbEntity
  8
ASSI
100
AcDbLine
 62
250
  6
CONTINUOUS
 10
174.3759407378
 20
77.2556455029
 11
173.5655555833
 21
76.7857355551
  0
LINE
  5
359
100
AcDbEntity
  8
0
100
AcDbLine
 62
7
  6
CONTINUOUS
 10
172.77386625
 20
77.2838678425
 11
172.9152876062
 21
77.3655227612
  0
LINE
  5
35A
100
AcDbEntity
  8
ASSI
100
AcDbLine
 62
7
  6
CONTINUOUS
 10
172.77386625
 20
77.2838678425
 11
172.9152876062
 21
77.3655227612
  0
LINE
  5
35B
100
AcDbEntity
  8
0
100
AcDbLine
 62
7
  6
CONTINUOUS
 10
173.1274196406
 20
77.4880051392
 11
173.2688409968
 21
77.5696600579
  0
LINE
  5
35C
100
AcDbEntity
  8
ASSI
100
AcDbLine
 62
7
  6
CONTINUOUS
 10
173.1274196406
 20
77.4880051392
 11
173.2688409968
 21
77.5696600579
  0
LINE
  5
35D
100
AcDbEntity
  8
0
100
AcDbLine
 62
7
  6
CONTINUOUS
 10
173.4809730312
 20
77.6921424359
 11
173.6223943874
 21
77.7737973545
  0
LINE
  5
35E
100
AcDbEntity
  8
ASSI
100
AcDbLine
 62
7
  6
CONTINUOUS
 10
173.4809730312
 20
77.6921424359
 11
173.6223943874
 21
77.7737973545
  0
LINE
  5
35F
100
AcDbEntity
  8
0
100
AcDbLine
 62
7
  6
CONTINUOUS
 10
173.8345264217
 20
77.8962797325
 11
173.975947778
 21
77.9779346512
  0
LINE
  5
360
100
AcDbEntity
  8
ASSI
100
AcDbLine
 62
7
  6
CONTINUOUS
 10
173.8345264217
 20
77.8962797325
 11
173.975947778
 21
77.9779346512
  0
LINE
  5
361
100
AcDbEntity
  8
0
100
AcDbLine
 62
7
  6
CONTINUOUS
 10
174.1880798123
 20
78.1004170292
 11
174.3295011686
 21
78.1820719478
  0
LINE
  5
362
100
AcDbEntity
  8
ASSI
100
AcDbLine
 62
7
  6
CONTINUOUS
 10
174.1880798123
 20
78.1004170292
 11
174.3295011686
 21
78.1820719478
  0
LINE
  5
363
100
AcDbEntity
  8
0
100
AcDbLine
 62
7
  6
CONTINUOUS
 10
174.5416332029
 20
78.3045543258
 11
174.6830545592
 21
78.3862092445
  0
LINE
  5
364
100
AcDbEntity
  8
ASSI
100
AcDbLine
 62
7
  6
CONTINUOUS
 10
174.5416332029
 20
78.3045543258
 11
174.6830545592
 21
78.3862092445
  0
LINE
  5
365
100
AcDbEntity
  8
0
100
AcDbLine
 62
7
  6
CONTINUOUS
 10
174.7891205763
 20
78.324979892
 11
172.8443992609
 21
77.2021221775
  0
LINE
  5
366
100
AcDbEntity
  8
ASSI
100
AcDbLine
 62
7
  6
CONTINUOUS
 10
174.7891205763
 20
78.324979892
 11
172.8443992609
 21
77.2021221775
  0
LWPOLYLINE
  5
367
100
AcDbEntity
  8
0
100
AcDbPolyline
 62
7
  6
CONTINUOUS
 90
11
 70
0
 10
97.3384872207
 20
177.9017648874
 10
97.3166059517
 20
177.9098729356
 10
97.2754356169
 20
177.9225689489
 10
97.2349232201
 20
177.9316759762
 10
97.195170981
 20
177.9371579791
 10
97.1563265201
 20
177.9389922709
 10
97.1185556005
 20
177.9371717692
 10
97.0819846772
 20
177.931693343
 10
97.0467496174
 20
177.9225714734
 10
97.0130017477
 20
177.9098411669
 10
96.9896473775
 20
177.898438228
  0
LWPOLYLINE
  5
368
100
AcDbEntity
  8
ASSI
100
AcDbPolyline
 62
7
  6
CONTINUOUS
 90
11
 70
0
 10
97.3384872207
 20
177.9017648874
 10
97.3166059517
 20
177.9098729356
 10
97.2754356169
 20
177.9225689489
 10
97.2349232201
 20
177.9316759762
 10
97.195170981
 20
177.9371579791
 10
97.1563265201
 20
177.9389922709
 10
97.1185556005
 20
177.9371717692
 10
97.0819846772
 20
177.931693343
 10
97.0467496174
 20
177.9225714734
 10
97.0130017477
 20
177.9098411669
 10
96.9896473775
 20
177.898438228
  0
LINE
  5
369
100
AcDbEntity
  8
0
100
AcDbLine
 62
250
  6
CONTINUOUS
 10
97.4424797852
 20
177.8507123111
 11
98.7126310771
 21
177.3622720221
  0
LINE
  5
36A
100
AcDbEntity
  8
ASSI
100
AcDbLine
 62
250
  6
CONTINUOUS
 10
97.4424797852
 20
177.8507123111
 11
98.7126310771
 21
177.3622720221
  0
LINE
  5
36B
100
AcDbEntity
  8
0
100
AcDbLine
 62
7
  6
CONTINUOUS
 10
98.7056053038
 20
177.365683143
 11
97.3384796598
 21
177.9017609758
  0
LINE
  5
36C
100
AcDbEntity
  8
ASSI
100
AcDbLine
 62
7
  6
CONTINUOUS
 10
98.7056053038
 20
177.365683143
 11
97.3384796598
 21
177.9017609758
  0
LINE
  5
36D
100
AcDbEntity
  8
0
100
AcDbLine
 62
250
  6
CONTINUOUS
 10
196.3078109373
 20
56.6393630915
 11
196.3019514829
 21
56.6835342708
  0
LWPOLYLINE
  5
36E
100
AcDbEntity
  8
0
100
AcDbPolyline
 62
250
  6
CONTINUOUS
 90
33
 70
0
 10
196.3019514829
 20
56.6835342708
 10
196.2965385702
 20
56.7265171896
 10
196.2940240397
 20
56.7475573621
 10
196.2916491625
 20
56.7682991597
 10
196.289416982
 20
56.7887678942
 10
196.2873291924
 20
56.8089943948
 10
196.2853874878
 20
56.8290094906
 10
196.2835935622
 20
56.8488440108
 10
196.2815619906
 20
56.8734259709
 10
196.2797699198
 20
56.8978088335
 10
196.2782232985
 20
56.9220274799
 10
196.2769280757
 20
56.9461167913
 10
196.2758907511
 20
56.9701138337
 10
196.2751200284
 20
56.9940644116
 10
196.2746251625
 20
57.018016514
 10
196.274415408
 20
57.0420181299
 10
196.2745008955
 20
57.066112093
 10
196.2748952581
 20
57.0903206148
 10
196.2756130049
 20
57.1146607515
 10
196.2766686446
 20
57.1391495591
 10
196.2780769895
 20
57.1638019159
 10
196.2798540642
 20
57.1886239892
 10
196.2820161966
 20
57.2136197684
 10
196.2845797145
 20
57.2387932431
 10
196.2875600862
 20
57.2641474332
 10
196.2909693413
 20
57.2896814807
 10
196.29481865
 20
57.3153935583
 10
196.2991191824
 20
57.3412818387
 10
196.3028972033
 20
57.3621194985
 10
196.3070081211
 20
57.3830762084
 10
196.3114889008
 20
57.404159418
 10
196.3163765072
 20
57.4253765771
 10
196.3217079052
 20
57.4467351356
  0
LWPOLYLINE
  5
36F
100
AcDbEntity
  8
0
100
AcDbPolyline
 62
250
  6
CONTINUOUS
 90
56
 70
0
 10
196.8796058388
 20
57.4780333493
 10
196.8793517406
 20
57.4873107085
 10
196.8789533228
 20
57.4963159253
 10
196.878413537
 20
57.5050464733
 10
196.8777353346
 20
57.5134998262
 10
196.8769216671
 20
57.5216734575
 10
196.8759754861
 20
57.529564841
 10
196.8748997429
 20
57.5371714501
 10
196.8736962201
 20
57.5444929425
 10
196.8723620246
 20
57.5515377113
 10
196.870893094
 20
57.5583163335
 10
196.8692853662
 20
57.5648393864
 10
196.8675347791
 20
57.571117447
 10
196.8656372705
 20
57.5771610923
 10
196.8635887781
 20
57.5829808995
 10
196.8616693434
 20
57.5878953318
 10
196.8596287403
 20
57.5926379914
 10
196.8574645075
 20
57.5972003834
 10
196.8551741837
 20
57.6015740131
 10
196.8527538431
 20
57.6057518187
 10
196.8501937027
 20
57.6097324713
 10
196.8474825151
 20
57.6135160747
 10
196.8446090329
 20
57.6171027331
 10
196.8415638628
 20
57.6204899458
 10
196.8383450271
 20
57.623664794
 10
196.8349524025
 20
57.6266117544
 10
196.8313858656
 20
57.6293153036
 10
196.8276462078
 20
57.6317633634
 10
196.8237378813
 20
57.633957636
 10
196.8196662531
 20
57.6359032687
 10
196.8154366903
 20
57.637605409
 10
196.811054078
 20
57.6390685514
 10
196.8065213728
 20
57.6402945799
 10
196.8018410491
 20
57.6412847257
 10
196.7970155816
 20
57.6420402199
 10
196.7920480504
 20
57.6425623663
 10
196.7869439593
 20
57.642852758
 10
196.7817094175
 20
57.6429130608
 10
196.7763505345
 20
57.6427449403
 10
196.7708724036
 20
57.6423494421
 10
196.7652760544
 20
57.6417251317
 10
196.7595615002
 20
57.6408699542
 10
196.7537287546
 20
57.6397818548
 10
196.747777831
 20
57.638458779
 10
196.7417087429
 20
57.6368986718
 10
196.7355215038
 20
57.6350994786
 10
196.7292161272
 20
57.6330591446
 10
196.7235121836
 20
57.6310402144
 10
196.7177149288
 20
57.6288204885
 10
196.711824384
 20
57.6263913256
 10
196.7058405706
 20
57.6237440843
 10
196.6997635099
 20
57.6208701235
 10
196.6935932232
 20
57.6177608018
 10
196.6873297319
 20
57.6144074779
 10
196.6809730572
 20
57.6108015107
 10
196.6745232205
 20
57.6069342588
  0
LWPOLYLINE
  5
370
100
AcDbEntity
  8
SMUSSO
100
AcDbPolyline
 62
7
  6
CONTINUOUS
 90
28
 70
0
 10
194.870953162
 20
117.2280880736
 10
194.8697628437
 20
117.2762557955
 10
194.8661815538
 20
117.3256406344
 10
194.8602214223
 20
117.3760754946
 10
194.8519013547
 20
117.427388992
 10
194.8412507611
 20
117.4794082241
 10
194.8283094613
 20
117.5319593578
 10
194.8131230913
 20
117.5848656431
 10
194.795741178
 20
117.6379469884
 10
194.7762207636
 20
117.6910227598
 10
194.7546271462
 20
117.743912931
 10
194.7310341465
 20
117.7964389742
 10
194.705522083
 20
117.8484234392
 10
194.6781774518
 20
117.8996905258
 10
194.6490926044
 20
117.9500666621
 10
194.6183659247
 20
117.9993813737
 10
194.5861014567
 20
118.0474678385
 10
194.5524082987
 20
118.0941633041
 10
194.517400204
 20
118.1393096212
 10
194.4811950571
 20
118.1827536989
 10
194.4439159343
 20
118.224348865
 10
194.4056904349
 20
118.2639552171
 10
194.3666495736
 20
118.3014397052
 10
194.3269237935
 20
118.3366745356
 10
194.2866439804
 20
118.3695384439
 10
194.2459452536
 20
118.3999195507
 10
194.2049665044
 20
118.4277157373
 10
194.1638463809
 20
118.4528329437
  0
LINE
  5
371
100
AcDbEntity
  8
SMUSSO
100
AcDbLine
 62
7
  6
CONTINUOUS
 10
193.4567395997
 20
45.3787037159
 11
193.4567395997
 21
117.2280880736
  0
LINE
  5
372
100
AcDbEntity
  8
SMUSSO
100
AcDbLine
 62
7
  6
CONTINUOUS
 10
194.870953162
 20
45.3787037159
 11
194.870953162
 21
117.2280880736
  0
LINE
  5
373
100
AcDbEntity
  8
SMUSSO
100
AcDbLine
 62
7
  6
CONTINUOUS
 10
195.9316133338
 20
118.2487745569
 11
195.9316133338
 21
45.9911156058
  0
LINE
  5
374
100
AcDbEntity
  8
0
100
AcDbLine
 62
250
  6
CONTINUOUS
 10
196.2923103723
 20
53.1372145212
 11
196.2923103723
 21
53.4610037718
  0
LINE
  5
375
100
AcDbEntity
  8
0
100
AcDbLine
 62
250
  6
CONTINUOUS
 10
196.2923895754
 20
56.0591256824
 11
196.2923895754
 21
55.7458982913
  0
LINE
  5
376
100
AcDbEntity
  8
0
100
AcDbLine
 62
250
  6
CONTINUOUS
 10
196.2923895754
 20
55.0634581422
 11
196.2923895754
 21
54.7430996997
  0
LINE
  5
377
100
AcDbEntity
  8
0
100
AcDbLine
 62
250
  6
CONTINUOUS
 10
196.2923895754
 20
54.098940576
 11
196.2923895754
 21
53.7754191276
  0
LINE
  5
378
100
AcDbEntity
  8
0
100
AcDbLine
 62
250
  6
CONTINUOUS
 10
196.2923895754
 20
53.0171027628
 11
196.2923895754
 21
52.6935347756
  0
LINE
  5
379
100
AcDbEntity
  8
0
100
AcDbLine
 62
250
  6
CONTINUOUS
 10
196.2923895754
 20
52.0931409081
 11
196.2923895754
 21
51.7414055129
  0
LINE
  5
37A
100
AcDbEntity
  8
0
100
AcDbLine
 62
250
  6
CONTINUOUS
 10
196.8796058388
 20
57.2929908504
 11
196.8796058388
 21
57.4780333493
  0
LINE
  5
37B
100
AcDbEntity
  8
0
100
AcDbLine
 62
250
  6
CONTINUOUS
 10
197.0957808951
 20
57.606586974
 11
197.0957808951
 21
57.4329787708
  0
LINE
  5
37C
100
AcDbEntity
  8
0
100
AcDbLine
 62
250
  6
CONTINUOUS
 10
197.9469804521
 20
119.0336808231
 11
198.1589996946
 21
119.8928932043
  0
LINE
  5
37D
100
AcDbEntity
  8
ASSI
100
AcDbLine
 62
250
  6
CONTINUOUS
 10
197.9469804521
 20
119.0336808231
 11
198.1589996946
 21
119.8928932043
  0
LINE
  5
37E
100
AcDbEntity
  8
RACCORDO
100
AcDbLine
 62
250
  6
CONTINUOUS
 10
174.1173691342
 20
74.0174777667
 11
174.9658562676
 21
74.5073836035
  0
LWPOLYLINE
  5
37F
100
AcDbEntity
  8
RACCORDO
100
AcDbPolyline
 62
7
  6
CONTINUOUS
 90
13
 70
0
 10
174.7173981264
 20
73.9580283536
 10
174.6768870747
 20
73.9376383976
 10
174.6338430525
 20
73.9217026291
 10
174.5887861093
 20
73.9104075763
 10
174.5416904597
 20
73.903812686
 10
174.4925818891
 20
73.9018585113
 10
174.4420867943
 20
73.9045699785
 10
174.3901874142
 20
73.9120068535
 10
174.33690151
 20
73.9241093704
 10
174.2829087618
 20
73.9407231574
 10
174.2284357298
 20
73.9617967571
 10
174.173255854
 20
73.9873816269
 10
174.1173691342
 20
74.0174777667
  0
LWPOLYLINE
  5
380
100
AcDbEntity
  8
0
100
AcDbPolyline
 62
7
  6
CONTINUOUS
 90
25
 70
0
 10
197.9469804521
 20
119.0336808231
 10
197.9459599648
 20
119.0874813419
 10
197.9420507007
 20
119.1424473286
 10
197.93527752
 20
119.1983642624
 10
197.925687375
 20
119.2550014744
 10
197.9133168465
 20
119.3121514054
 10
197.8981836951
 20
119.3696319667
 10
197.8803367185
 20
119.4272432927
 10
197.8598544941
 20
119.4847400921
 10
197.8368097392
 20
119.5418721493
 10
197.8112938706
 20
119.5984092444
 10
197.7834087173
 20
119.6541396394
 10
197.7532586178
 20
119.7088440177
 10
197.7209582077
 20
119.7623070597
 10
197.6866366498
 20
119.8143218127
 10
197.6504317247
 20
119.8646882377
 10
197.6124759004
 20
119.9132122684
 10
197.5729228398
 20
119.9596996375
 10
197.5319528698
 20
120.003962274
 10
197.4897391431
 20
120.0458094692
 10
197.4464303426
 20
120.085099038
 10
197.402175239
 20
120.1217245879
 10
197.3571352794
 20
120.1555506581
 10
197.3114867704
 20
120.1864212253
 10
197.265403066
 20
120.2142074838
  0
LWPOLYLINE
  5
381
100
AcDbEntity
  8
ASSI
100
AcDbPolyline
 62
7
  6
CONTINUOUS
 90
25
 70
0
 10
197.9469804521
 20
119.0336808231
 10
197.9459599648
 20
119.0874813419
 10
197.9420507007
 20
119.1424473286
 10
197.93527752
 20
119.1983642624
 10
197.925687375
 20
119.2550014744
 10
197.9133168465
 20
119.3121514054
 10
197.8981836951
 20
119.3696319667
 10
197.8803367185
 20
119.4272432927
 10
197.8598544941
 20
119.4847400921
 10
197.8368097392
 20
119.5418721493
 10
197.8112938706
 20
119.5984092444
 10
197.7834087173
 20
119.6541396394
 10
197.7532586178
 20
119.7088440177
 10
197.7209582077
 20
119.7623070597
 10
197.6866366498
 20
119.8143218127
 10
197.6504317247
 20
119.8646882377
 10
197.6124759004
 20
119.9132122684
 10
197.5729228398
 20
119.9596996375
 10
197.5319528698
 20
120.003962274
 10
197.4897391431
 20
120.0458094692
 10
197.4464303426
 20
120.085099038
 10
197.402175239
 20
120.1217245879
 10
197.3571352794
 20
120.1555506581
 10
197.3114867704
 20
120.1864212253
 10
197.265403066
 20
120.2142074838
  0
LINE
  5
382
100
AcDbEntity
  8
0
100
AcDbLine
 62
250
  6
CONTINUOUS
 10
197.1449249818
 20
56.5549466617
 11
197.1449249818
 21
56.2449410623
  0
LINE
  5
383
100
AcDbEntity
  8
0
100
AcDbLine
 62
250
  6
CONTINUOUS
 10
197.3488264595
 20
56.3006213242
 11
197.3488264595
 21
56.7415691607
  0
LINE
  5
384
100
AcDbEntity
  8
0
100
AcDbLine
 62
250
  6
CONTINUOUS
 10
197.6123343594
 20
58.549114105
 11
197.6123343594
 21
58.237666223
  0
LINE
  5
385
100
AcDbEntity
  8
0
100
AcDbLine
 62
250
  6
CONTINUOUS
 10
197.6123343594
 20
57.7418272364
 11
197.6123343594
 21
57.4193405481
  0
LINE
  5
386
100
AcDbEntity
  8
0
100
AcDbLine
 62
250
  6
CONTINUOUS
 10
197.6123345359
 20
54.2502491562
 11
197.6123345359
 21
53.9264599056
  0
LINE
  5
387
100
AcDbEntity
  8
0
100
AcDbLine
 62
250
  6
CONTINUOUS
 10
197.6123345359
 20
53.0223537917
 11
197.6123345359
 21
53.307693824
  0
LINE
  5
388
100
AcDbEntity
  8
0
100
AcDbLine
 62
250
  6
CONTINUOUS
 10
197.6123345359
 20
54.4245557627
 11
197.6123345359
 21
54.734316421
  0
LINE
  5
389
100
AcDbEntity
  8
0
100
AcDbLine
 62
250
  6
CONTINUOUS
 10
197.6123345359
 20
55.1840347812
 11
197.6123345359
 21
55.2294460415
  0
LINE
  5
38A
100
AcDbEntity
  8
0
100
AcDbLine
 62
250
  6
CONTINUOUS
 10
197.6123345359
 20
55.6809557375
 11
197.6123345359
 21
55.9977078308
  0
LINE
  5
38B
100
AcDbEntity
  8
0
100
AcDbLine
 62
250
  6
CONTINUOUS
 10
197.6123345359
 20
56.0485510679
 11
197.6123345359
 21
56.3688278634
  0
LINE
  5
38C
100
AcDbEntity
  8
0
100
AcDbLine
 62
250
  6
CONTINUOUS
 10
197.6123345359
 20
56.9829996667
 11
197.6123345359
 21
57.3242605648
  0
LINE
  5
38D
100
AcDbEntity
  8
0
100
AcDbLine
 62
7
  6
CONTINUOUS
 10
197.9468676602
 20
119.0042621439
 11
197.9468676602
 21
48.2976874689
  0
LINE
  5
38E
100
AcDbEntity
  8
ASSI
100
AcDbLine
 62
7
  6
CONTINUOUS
 10
197.9468676602
 20
119.0042621439
 11
197.9468676602
 21
48.2976874689
  0
LINE
  5
38F
100
AcDbEntity
  8
0
100
AcDbLine
 62
7
  6
CONTINUOUS
 10
198.1589996946
 20
119.8928932043
 11
198.1589996946
 21
49.6137392125
  0
LINE
  5
390
100
AcDbEntity
  8
ASSI
100
AcDbLine
 62
7
  6
CONTINUOUS
 10
198.1589996946
 20
119.8928932043
 11
198.1589996946
 21
49.6137392125
  0
LWPOLYLINE
  5
391
100
AcDbEntity
  8
SMUSSO
100
AcDbPolyline
 62
7
  6
CONTINUOUS
 90
13
 70
0
 10
195.9316133338
 20
45.9911156058
 10
195.9300997237
 20
45.938596173
 10
195.9255652132
 20
45.8880481496
 10
195.9180289768
 20
45.8396881156
 10
195.9075230085
 20
45.7937231777
 10
195.8940920769
 20
45.7503504965
 10
195.8777936226
 20
45.709756361
 10
195.8586972917
 20
45.6721147577
 10
195.8368847154
 20
45.6375870385
 10
195.8124493903
 20
45.6063214949
 10
195.7854958936
 20
45.5784521117
 10
195.7561395942
 20
45.5540983372
 10
195.7245307128
 20
45.5333787447
  0
LWPOLYLINE
  5
392
100
AcDbEntity
  8
0
100
AcDbPolyline
 62
250
  6
CONTINUOUS
 90
24
 70
0
 10
196.5094841573
 20
57.3253432158
 10
196.5083814448
 20
57.3127588272
 10
196.5074271092
 20
57.3002501206
 10
196.5066208101
 20
57.2878183453
 10
196.5059622069
 20
57.2754647506
 10
196.5054509594
 20
57.263190586
 10
196.5050867269
 20
57.2509971008
 10
196.5048691692
 20
57.2388855443
 10
196.5047988977
 20
57.228355558
 10
196.504840675
 20
57.2178867091
 10
196.504994513
 20
57.2074764521
 10
196.5052604234
 20
57.1971222412
 10
196.5056388681
 20
57.1868213711
 10
196.50613211
 20
57.1765704976
 10
196.5067428621
 20
57.166366117
 10
196.5074738375
 20
57.1562047257
 10
196.5083264487
 20
57.1460837284
 10
196.5092969056
 20
57.1360041637
 10
196.5103801179
 20
57.1259679787
 10
196.5115709947
 20
57.1159771205
 10
196.5128636009
 20
57.106030954
 10
196.5142486217
 20
57.0961185155
 10
196.5157158973
 20
57.0862262588
 10
196.5172552684
 20
57.0763406381
  0
LWPOLYLINE
  5
393
100
AcDbEntity
  8
0
100
AcDbPolyline
 62
7
  6
CONTINUOUS
 90
4
 70
0
 10
197.9392016993
 20
48.1539193555
 10
197.9420482904
 20
48.175079474
 10
197.9459592687
 20
48.2213332659
 10
197.9469804521
 20
48.2694410325
  0
LWPOLYLINE
  5
394
100
AcDbEntity
  8
ASSI
100
AcDbPolyline
 62
7
  6
CONTINUOUS
 90
4
 70
0
 10
197.9392016993
 20
48.1539193555
 10
197.9420482904
 20
48.175079474
 10
197.9459592687
 20
48.2213332659
 10
197.9469804521
 20
48.2694410325
  0
LINE
  5
395
100
AcDbEntity
  8
0
100
AcDbLine
 62
7
  6
CONTINUOUS
 10
198.1584412706
 20
49.605953481
 11
197.9391945146
 21
48.153914752
  0
LINE
  5
396
100
AcDbEntity
  8
ASSI
100
AcDbLine
 62
7
  6
CONTINUOUS
 10
198.1584412706
 20
49.605953481
 11
197.9391945146
 21
48.153914752
  0
LINE
  5
397
100
AcDbEntity
  8
0
100
AcDbLine
 62
250
  6
CONTINUOUS
 10
197.9469804521
 20
48.2694410325
 11
198.1589996946
 21
49.6137392125
  0
LINE
  5
398
100
AcDbEntity
  8
ASSI
100
AcDbLine
 62
250
  6
CONTINUOUS
 10
197.9469804521
 20
48.2694410325
 11
198.1589996946
 21
49.6137392125
  0
LWPOLYLINE
  5
399
100
AcDbEntity
  8
0
100
AcDbPolyline
 62
250
  6
CONTINUOUS
 90
84
 70
0
 10
196.3217079052
 20
57.4467351356
 10
196.3249487419
 20
57.4585667645
 10
196.3286101295
 20
57.4706879809
 10
196.3327005097
 20
57.4831234668
 10
196.3372283246
 20
57.4958979041
 10
196.342202016
 20
57.5090359746
 10
196.3476300259
 20
57.5225623603
 10
196.3535167165
 20
57.5364855609
 10
196.3598501322
 20
57.5507493483
 10
196.3666142377
 20
57.565281312
 10
196.3737929977
 20
57.5800090416
 10
196.3813703769
 20
57.5948601267
 10
196.38933034
 20
57.609762157
 10
196.3976570541
 20
57.6246489568
 10
196.4063354955
 20
57.6394792897
 10
196.4153508425
 20
57.654218154
 10
196.4246882739
 20
57.668830548
 10
196.4343329681
 20
57.6832814701
 10
196.4442701037
 20
57.6975359185
 10
196.4544796913
 20
57.7115568416
 10
196.4649210703
 20
57.7252989876
 10
196.4755484119
 20
57.7387150545
 10
196.4863158876
 20
57.7517577406
 10
196.4971776687
 20
57.7643797439
 10
196.5080879266
 20
57.7765337627
 10
196.5190059101
 20
57.788182455
 10
196.529911177
 20
57.7993283192
 10
196.5407883624
 20
57.8099838136
 10
196.5516221016
 20
57.8201613965
 10
196.5623970296
 20
57.8298735262
 10
196.5730977818
 20
57.8391326609
 10
196.585818632
 20
57.8496627895
 10
196.5983809541
 20
57.8595775459
 10
196.6107551587
 20
57.8688959308
 10
196.6229116564
 20
57.8776369449
 10
196.6348208578
 20
57.8858195888
 10
196.6464589783
 20
57.893463258
 10
196.6578254527
 20
57.9005889282
 10
196.6689255205
 20
57.9072179702
 10
196.6797644213
 20
57.9133717546
 10
196.6903473946
 20
57.9190716522
 10
196.7032231971
 20
57.9255888587
 10
196.7157115431
 20
57.9314603348
 10
196.7278166762
 20
57.9367161567
 10
196.7395428397
 20
57.9413864005
 10
196.7508960865
 20
57.945500955
 10
196.7618897078
 20
57.9490889591
 10
196.7725388043
 20
57.9521793646
 10
196.7828584766
 20
57.954801123
 10
196.7928606776
 20
57.9569821111
 10
196.8025447689
 20
57.9587459063
 10
196.8119069641
 20
57.9601150108
 10
196.8209434769
 20
57.9611119271
 10
196.8296529766
 20
57.9617586289
 10
196.8380439544
 20
57.9620749753
 10
196.8461273573
 20
57.9620802966
 10
196.853914132
 20
57.961793923
 10
196.8638508367
 20
57.9609895018
 10
196.8732866501
 20
57.9597331802
 10
196.8822285588
 20
57.9580572611
 10
196.8906862327
 20
57.9559940283
 10
196.8986800757
 20
57.9535756878
 10
196.9062331749
 20
57.9508344265
 10
196.9133698135
 20
57.9478061405
 10
196.9201190597
 20
57.944541563
 10
196.9265111774
 20
57.9410951365
 10
196.9325755485
 20
57.9375178912
 10
196.9383380258
 20
57.933847208
 10
196.9438235798
 20
57.9301170554
 10
196.9477712727
 20
57.9272996972
 10
196.9515891987
 20
57.9244754184
 10
196.9552874497
 20
57.9216524249
 10
196.9588686596
 20
57.9188420521
 10
196.9623361956
 20
57.9160547694
 10
196.9657038166
 20
57.9132944536
 10
196.9721601252
 20
57.9077538825
 10
196.9752103933
 20
57.9048366357
 10
196.9780670745
 20
57.9017651093
 10
196.9806604717
 20
57.8985161141
 10
196.9829453703
 20
57.8950669038
 10
196.9848854816
 20
57.8913928019
 10
196.986455737
 20
57.8874609677
 10
196.9876336864
 20
57.883242631
 10
196.9883961339
 20
57.8787334668
  0
LWPOLYLINE
  5
39A
100
AcDbEntity
  8
0
100
AcDbPolyline
 62
250
  6
CONTINUOUS
 90
39
 70
0
 10
196.9961958566
 20
57.8833969384
 10
196.9983686553
 20
57.8907664268
 10
197.0007222418
 20
57.898117538
 10
197.0032546929
 20
57.9054541276
 10
197.0059640857
 20
57.9127800512
 10
197.0088484973
 20
57.9200991643
 10
197.0119060047
 20
57.9274153224
 10
197.0151330105
 20
57.9347294494
 10
197.0185192199
 20
57.9420307431
 10
197.0220526636
 20
57.9493054694
 10
197.0257213723
 20
57.9565398943
 10
197.0295133768
 20
57.9637202839
 10
197.0334167077
 20
57.9708329042
 10
197.0382327927
 20
57.9792638033
 10
197.0431832062
 20
57.9875808919
 10
197.0482592024
 20
57.9957877243
 10
197.0534520355
 20
58.0038878546
 10
197.0587529597
 20
58.0118848372
 10
197.0641526212
 20
58.019780745
 10
197.0696392354
 20
58.0275717254
 10
197.0752004097
 20
58.0352524446
 10
197.0808237514
 20
58.0428175685
 10
197.0864968679
 20
58.0502617634
 10
197.0936452469
 20
58.0593952763
 10
197.1008630314
 20
58.0683597953
 10
197.1081612172
 20
58.0771836124
 10
197.1155508001
 20
58.0858950197
 10
197.123042422
 20
58.0945201061
 10
197.1306453107
 20
58.1030761476
 10
197.1383683402
 20
58.1115782172
 10
197.1462203846
 20
58.1200413878
 10
197.1542110955
 20
58.128480469
 10
197.1623532347
 20
58.1369092163
 10
197.1706603419
 20
58.1453411218
 10
197.1791459564
 20
58.1537896777
 10
197.186072443
 20
58.1605709003
 10
197.193130998
 20
58.1673862603
 10
197.20033078
 20
58.1742506038
 10
197.2076809475
 20
58.1811787768
  0
LINE
  5
39B
100
AcDbEntity
  8
0
100
AcDbLine
 62
250
  6
CONTINUOUS
 10
197.2076809475
 20
58.1811787768
 11
197.2228663258
 21
58.1952854163
  0
LINE
  5
39C
100
AcDbEntity
  8
0
100
AcDbLine
 62
250
  6
CONTINUOUS
 10
197.2228663258
 20
58.1952854163
 11
197.3163715495
 21
58.2808583063
  0
LINE
  5
39D
100
AcDbEntity
  8
0
100
AcDbLine
 62
250
  6
CONTINUOUS
 10
197.5546121638
 20
58.4965288531
 11
197.6123343594
 21
58.549114105
  0
LINE
  5
39E
100
AcDbEntity
  8
0
100
AcDbLine
 62
250
  6
CONTINUOUS
 10
197.3163715495
 20
58.2808583063
 11
197.5546121638
 21
58.4965288531
  0
LWPOLYLINE
  5
39F
100
AcDbEntity
  8
0
100
AcDbPolyline
 62
250
  6
CONTINUOUS
 90
53
 70
0
 10
196.6745594517
 20
57.60695658
 10
196.6697994028
 20
57.6039425463
 10
196.665087481
 20
57.6007937471
 10
196.6604123597
 20
57.5975059295
 10
196.6557627122
 20
57.5940748409
 10
196.6511272119
 20
57.5904962284
 10
196.6464972975
 20
57.586767182
 10
196.6418754691
 20
57.582890162
 10
196.6372669921
 20
57.5788689716
 10
196.632677132
 20
57.5747074137
 10
196.6281111541
 20
57.5704092915
 10
196.6243276269
 20
57.56672537
 10
196.6205638613
 20
57.5629479942
 10
196.6168193774
 20
57.5590759052
 10
196.6130948402
 20
57.555109094
 10
196.6093954934
 20
57.5510525524
 10
196.6057277254
 20
57.546912522
 10
196.601375259
 20
57.5418406921
 10
196.5970775622
 20
57.5366541509
 10
196.5928347318
 20
57.531349423
 10
196.5886468645
 20
57.5259230326
 10
196.584514057
 20
57.5203715042
 10
196.5804380799
 20
57.5146932117
 10
196.5764273988
 20
57.5088939275
 10
196.5724921529
 20
57.5029812737
 10
196.5686424817
 20
57.4969628724
 10
196.5648885245
 20
57.4908463454
 10
196.5612392997
 20
57.4846397461
 10
196.5576993423
 20
57.4783528532
 10
196.5542720662
 20
57.4719958764
 10
196.5509608855
 20
57.4655790258
 10
196.5477692142
 20
57.4591125112
 10
196.5446995548
 20
57.4526047383
 10
196.5417507636
 20
57.4460568958
 10
196.5389207855
 20
57.4394683684
 10
196.5362075652
 20
57.4328385404
 10
196.5336090475
 20
57.4261667965
 10
196.531530474
 20
57.4205761897
 10
196.529533261
 20
57.4149655484
 10
196.5276205418
 20
57.4093443742
 10
196.525794795
 20
57.4037203438
 10
196.5240558801
 20
57.398093837
 10
196.5224030023
 20
57.3924634092
 10
196.5205324958
 20
57.3857014157
 10
196.5187863478
 20
57.3789395777
 10
196.5171661683
 20
57.3721857769
 10
196.5156735672
 20
57.3654478954
 10
196.5143101544
 20
57.3587338151
 10
196.5130775129
 20
57.3520477701
 10
196.5119771175
 20
57.3453794028
 10
196.5110104161
 20
57.3387147077
 10
196.5101788565
 20
57.3320396794
 10
196.5094838865
 20
57.3253403124
  0
LINE
  5
3A0
100
AcDbEntity
  8
0
100
AcDbLine
 62
250
  6
CONTINUOUS
 10
196.9883961339
 20
57.8787334668
 11
196.9961958566
 21
57.8833969384
  0
LINE
  5
3A1
100
AcDbEntity
  8
0
100
AcDbLine
 62
250
  6
CONTINUOUS
 10
197.0957808951
 20
57.4329787708
 11
197.6123343594
 21
57.7418272364
  0
LINE
  5
3A2
100
AcDbEntity
  8
0
100
AcDbLine
 62
250
  6
CONTINUOUS
 10
196.5172552684
 20
57.0763406381
 11
196.8796058388
 21
57.2929908504
  0
LINE
  5
3A3
100
AcDbEntity
  8
0
100
AcDbLine
 62
250
  6
CONTINUOUS
 10
197.6123343594
 20
57.4193405481
 11
196.3078109373
 21
56.6393630915
  0
LINE
  5
3A4
100
AcDbEntity
  8
0
100
AcDbLine
 62
250
  6
CONTINUOUS
 10
197.6123345359
 20
54.734316421
 11
196.7504350977
 21
54.288859172
  0
LINE
  5
3A5
100
AcDbEntity
  8
0
100
AcDbLine
 62
250
  6
CONTINUOUS
 10
196.2923895754
 20
53.7754191276
 11
197.6123345359
 21
54.4245557627
  0
LWPOLYLINE
  5
3A6
100
AcDbEntity
  8
0
100
AcDbPolyline
 62
250
  6
CONTINUOUS
 90
48
 70
0
 10
197.2119454181
 20
57.8566264626
 10
197.2077891675
 20
57.852246203
 10
197.2037069994
 20
57.8478276109
 10
197.1996907295
 20
57.8433639016
 10
197.1957321734
 20
57.8388482904
 10
197.1918231465
 20
57.8342739924
 10
197.1869976589
 20
57.8284664632
 10
197.1822424701
 20
57.8225626274
 10
197.1775632775
 20
57.8165684777
 10
197.1729657786
 20
57.8104900066
 10
197.1684557192
 20
57.8043334239
 10
197.1640390391
 20
57.7981058083
 10
197.1597217265
 20
57.7918144555
 10
197.1555097694
 20
57.7854666614
 10
197.1522200259
 20
57.7803526118
 10
197.1490042602
 20
57.775210368
 10
197.1458651904
 20
57.7700431887
 10
197.1428055344
 20
57.7648543328
 10
197.1398280101
 20
57.7596470591
 10
197.1369351604
 20
57.7544243955
 10
197.1341288277
 20
57.749188447
 10
197.1314106794
 20
57.7439410876
 10
197.1287823828
 20
57.7386841913
 10
197.1262456054
 20
57.7334196321
 10
197.1238020147
 20
57.7281486424
 10
197.1214532791
 20
57.7228698872
 10
197.119201067
 20
57.7175813898
 10
197.1170470471
 20
57.7122811734
 10
197.1149928877
 20
57.7069672614
 10
197.113040317
 20
57.7016393662
 10
197.1111913002
 20
57.6963039568
 10
197.1094478625
 20
57.6909691913
 10
197.1078120286
 20
57.6856432279
 10
197.1062858235
 20
57.6803342248
 10
197.104870689
 20
57.6750503278
 10
197.103565735
 20
57.6697996333
 10
197.1023694882
 20
57.6645902252
 10
197.1012804755
 20
57.6594301878
 10
197.1002972235
 20
57.6543276049
 10
197.0994180338
 20
57.6492890952
 10
197.098640307
 20
57.6443154149
 10
197.0979612183
 20
57.639405855
 10
197.0973779431
 20
57.6345597063
 10
197.0968876567
 20
57.6297762596
 10
197.0964020219
 20
57.6238811118
 10
197.0960563174
 20
57.6180638402
 10
197.0958495922
 20
57.6123054568
 10
197.0957808951
 20
57.606586974
  0
LINE
  5
3A7
100
AcDbEntity
  8
0
100
AcDbLine
 62
250
  6
CONTINUOUS
 10
196.7504350977
 20
54.288859172
 11
197.6123345359
 21
55.1840347812
  0
LINE
  5
3A8
100
AcDbEntity
  8
0
100
AcDbLine
 62
250
  6
CONTINUOUS
 10
197.0252268392
 20
54.8574754796
 11
196.2923895754
 21
54.098940576
  0
LINE
  5
3A9
100
AcDbEntity
  8
0
100
AcDbLine
 62
250
  6
CONTINUOUS
 10
196.2923895754
 20
51.7414055129
 11
197.6123345359
 21
53.0223537917
  0
LINE
  5
3AA
100
AcDbEntity
  8
0
100
AcDbLine
 62
250
  6
CONTINUOUS
 10
197.6123345359
 20
57.3242605648
 11
196.2923895754
 21
56.0591256824
  0
LWPOLYLINE
  5
3AB
100
AcDbEntity
  8
0
100
AcDbPolyline
 62
250
  6
CONTINUOUS
 90
7
 70
0
 10
197.3183116427
 20
57.9617827835
 10
197.3000454546
 20
57.9443296094
 10
197.2819851263
 20
57.9268755877
 10
197.2641391929
 20
57.9094009291
 10
197.2465161893
 20
57.8918858445
 10
197.2291246507
 20
57.8743105448
 10
197.211973112
 20
57.856655241
  0
LINE
  5
3AC
100
AcDbEntity
  8
0
100
AcDbLine
 62
250
  6
CONTINUOUS
 10
197.3585535891
 20
57.9996934988
 11
197.3183116427
 21
57.9617827835
  0
LINE
  5
3AD
100
AcDbEntity
  8
0
100
AcDbLine
 62
250
  6
CONTINUOUS
 10
197.6123343594
 20
58.237666223
 11
197.447937984
 21
58.0830447139
  0
LINE
  5
3AE
100
AcDbEntity
  8
0
100
AcDbLine
 62
250
  6
CONTINUOUS
 10
197.447937984
 20
58.0830447139
 11
197.3585535891
 21
57.9996934988
  0
LINE
  5
3AF
100
AcDbEntity
  8
0
100
AcDbLine
 62
250
  6
CONTINUOUS
 10
197.2009486815
 20
52.9320510476
 11
196.2923895754
 21
52.0931409081
  0
LINE
  5
3B0
100
AcDbEntity
  8
0
100
AcDbLine
 62
250
  6
CONTINUOUS
 10
197.3488264595
 20
56.7415691607
 11
197.6123345359
 21
56.9829996667
  0
LINE
  5
3B1
100
AcDbEntity
  8
0
100
AcDbLine
 62
250
  6
CONTINUOUS
 10
196.6550766288
 20
56.113279863
 11
197.1449249818
 21
56.5549466617
  0
LINE
  5
3B2
100
AcDbEntity
  8
0
100
AcDbLine
 62
250
  6
CONTINUOUS
 10
197.6123345359
 20
55.9977078308
 11
196.2923895754
 21
55.0634581422
  0
LINE
  5
3B3
100
AcDbEntity
  8
0
100
AcDbLine
 62
250
  6
CONTINUOUS
 10
196.7540284181
 20
55.1012490513
 11
197.6123345359
 21
55.6809557375
  0
LWPOLYLINE
  5
3B4
100
AcDbEntity
  8
0
100
AcDbPolyline
 62
7
  6
CONTINUOUS
 90
11
 70
0
 10
197.7619216418
 20
47.8534807778
 10
197.783427907
 20
47.8679727985
 10
197.8113286337
 20
47.8908306291
 10
197.8368479568
 20
47.9167806457
 10
197.8598798894
 20
47.9457093195
 10
197.8803439439
 20
47.9775062389
 10
197.8981795957
 20
48.0120603435
 10
197.9133100891
 20
48.0492245617
 10
197.9256812468
 20
48.0888597141
 10
197.9352731547
 20
48.1308592446
 10
197.9392016993
 20
48.1539193555
  0
LWPOLYLINE
  5
3B5
100
AcDbEntity
  8
ASSI
100
AcDbPolyline
 62
7
  6
CONTINUOUS
 90
11
 70
0
 10
197.7619216418
 20
47.8534807778
 10
197.783427907
 20
47.8679727985
 10
197.8113286337
 20
47.8908306291
 10
197.8368479568
 20
47.9167806457
 10
197.8598798894
 20
47.9457093195
 10
197.8803439439
 20
47.9775062389
 10
197.8981795957
 20
48.0120603435
 10
197.9133100891
 20
48.0492245617
 10
197.9256812468
 20
48.0888597141
 10
197.9352731547
 20
48.1308592446
 10
197.9392016993
 20
48.1539193555
  0
LINE
  5
3B6
100
AcDbEntity
  8
0
100
AcDbLine
 62
250
  6
CONTINUOUS
 10
195.9320515196
 20
47.0516949447
 11
197.9468676602
 21
48.2976874689
  0
LINE
  5
3B7
100
AcDbEntity
  8
ASSI
100
AcDbLine
 62
250
  6
CONTINUOUS
 10
195.9320515196
 20
47.0516949447
 11
197.9468676602
 21
48.2976874689
  0
LINE
  5
3B8
100
AcDbEntity
  8
0
100
AcDbLine
 62
7
  6
CONTINUOUS
 10
195.9316133338
 20
46.7215906649
 11
197.7619217956
 21
47.8534808729
  0
LINE
  5
3B9
100
AcDbEntity
  8
ASSI
100
AcDbLine
 62
7
  6
CONTINUOUS
 10
195.9316133338
 20
46.7215906649
 11
197.7619217956
 21
47.8534808729
  0
LWPOLYLINE
  5
3BA
100
AcDbEntity
  8
SMUSSO
100
AcDbPolyline
 62
7
  6
CONTINUOUS
 90
15
 70
0
 10
194.6638707003
 20
44.9209669467
 10
194.6781773231
 20
44.9297142937
 10
194.7055216674
 20
44.9494048863
 10
194.731033316
 20
44.9719296557
 10
194.7546258711
 20
44.9972123423
 10
194.7762192491
 20
45.025167251
 10
194.7957398132
 20
45.055699461
 10
194.8131220815
 20
45.0887059899
 10
194.8283086967
 20
45.1240759964
 10
194.8412499439
 20
45.161690765
 10
194.8519003749
 20
45.2014220613
 10
194.8602204181
 20
45.2431334064
 10
194.866180746
 20
45.2866829835
 10
194.8697623707
 20
45.331924116
 10
194.870953162
 20
45.3787037159
  0
LINE
  5
3BB
100
AcDbEntity
  8
0
100
AcDbLine
 62
250
  6
CONTINUOUS
 10
196.2923103723
 20
53.4610037718
 11
197.6123345359
 21
54.2502491562
  0
LINE
  5
3BC
100
AcDbEntity
  8
0
100
AcDbLine
 62
250
  6
CONTINUOUS
 10
197.6123345359
 20
53.9264599056
 11
196.2923103723
 21
53.1372145212
  0
LINE
  5
3BD
100
AcDbEntity
  8
SMUSSO
100
AcDbLine
 62
250
  6
CONTINUOUS
 10
194.870953162
 20
45.3787037159
 11
195.9316133338
 21
45.9911156058
  0
LINE
  5
3BE
100
AcDbEntity
  8
RACCORDO
100
AcDbLine
 62
7
  6
CONTINUOUS
 10
194.663870541
 20
44.9209668547
 11
195.7245307128
 21
45.5333787447
  0
ARC
  5
3BF
100
AcDbEntity
  8
0
100
AcDbCircle
 62
7
  6
CONTINUOUS
 10
126.4408241504
 20
104.9958293087
 40
0.3
100
AcDbArc
 50
300.1089947038
 51
314.2001404191
  0
ARC
  5
3C0
100
AcDbEntity
  8
0
100
AcDbCircle
 62
7
  6
CONTINUOUS
 10
142.3507265946
 20
95.8096508019
 40
0.3
100
AcDbArc
 50
300.1089804062
 51
314.2001409262
  0
ARC
  5
3C1
100
AcDbEntity
  8
ASSI
100
AcDbCircle
 62
7
  6
CONTINUOUS
 10
126.4408241504
 20
104.9958293087
 40
0.3
100
AcDbArc
 50
300.1089947604
 51
314.2001404186
  0
ARC
  5
3C2
100
AcDbEntity
  8
ASSI
100
AcDbCircle
 62
7
  6
CONTINUOUS
 10
142.3507265946
 20
95.8096508019
 40
0.3
100
AcDbArc
 50
300.1089804576
 51
314.2001409258
  0
ARC
  5
3C3
100
AcDbEntity
  8
0
100
AcDbCircle
 62
7
  6
CONTINUOUS
 10
174.1705318805
 20
77.437294259
 40
0.3
100
AcDbArc
 50
300.1089947042
 51
314.200140419
  0
ARC
  5
3C4
100
AcDbEntity
  8
0
100
AcDbCircle
 62
7
  6
CONTINUOUS
 10
158.2606291712
 20
86.623472452
 40
0.3
100
AcDbArc
 50
300.1089804062
 51
314.2001409262
  0
ARC
  5
3C5
100
AcDbEntity
  8
ASSI
100
AcDbCircle
 62
7
  6
CONTINUOUS
 10
174.1705318805
 20
77.437294259
 40
0.3
100
AcDbArc
 50
300.1089947607
 51
314.2001404186
  0
ARC
  5
3C6
100
AcDbEntity
  8
ASSI
100
AcDbCircle
 62
7
  6
CONTINUOUS
 10
158.2606291712
 20
86.623472452
 40
0.3
100
AcDbArc
 50
300.1089804576
 51
314.2001409258
  0
ELLIPSE
  5
3C7
100
AcDbEntity
  8
0
100
AcDbEllipse
 62
7
  6
CONTINUOUS
 10
198.1143758858
 20
49.6407379824
 30
0.0
 11
-0.0319307066
 21
0.0553022874
 31
0.0
 40
0.5636716562
 41
-2.5265818713
 42
-2.3682119497
  0
ELLIPSE
  5
3C8
100
AcDbEntity
  8
0
100
AcDbEllipse
 62
7
  6
CONTINUOUS
 10
198.1143758858
 20
119.9174248901
 30
0.0
 11
-0.0311754239
 21
0.0539936769
 31
0.0
 40
0.5913227191
 41
-2.3442738678
 42
-0.7974202594
  0
ELLIPSE
  5
3C9
100
AcDbEntity
  8
0
100
AcDbEllipse
 62
7
  6
CONTINUOUS
 10
98.7136993903
 20
177.3101297155
 30
0.0
 11
-0.0319307066
 21
0.0553022874
 31
0.0
 40
0.5636716562
 41
-0.7734729046
 42
-0.6150192183
  0
ELLIPSE
  5
3CA
100
AcDbEntity
  8
0
100
AcDbEllipse
 62
7
  6
CONTINUOUS
 10
144.2141734262
 20
96.7335332533
 30
0.0
 11
0.2999993451
 21
0.1746271577
 31
0.0
 40
0.0035896273
 41
-0.7351277754
 42
-0.0020894543
  0
ELLIPSE
  5
3CB
100
AcDbEntity
  8
0
100
AcDbEllipse
 62
7
  6
CONTINUOUS
 10
160.1240760029
 20
87.5473549034
 30
0.0
 11
0.2999993451
 21
0.1746271577
 31
0.0
 40
0.0035896273
 41
-0.7351277754
 42
-0.0020894543
  0
ELLIPSE
  5
3CC
100
AcDbEntity
  8
0
100
AcDbEllipse
 62
7
  6
CONTINUOUS
 10
128.4420834556
 20
105.9999471499
 30
0.0
 11
0.1999995634
 21
0.1164181051
 31
0.0
 40
0.0035896273
 41
-0.7351277754
 42
-0.6748017824
  0
ELLIPSE
  5
3CD
100
AcDbEntity
  8
0
100
AcDbEllipse
 62
7
  6
CONTINUOUS
 10
172.3457897952
 20
81.2218621864
 30
0.0
 11
0.1998333781
 21
-0.0157785196
 31
0.0
 40
0.5172961965
 41
0.8262203412
 42
2.3446567905
  0
ELLIPSE
  5
3CE
100
AcDbEntity
  8
0
100
AcDbEllipse
 62
7
  6
CONTINUOUS
 10
124.6160820651
 20
108.780397236
 30
0.0
 11
0.1998333781
 21
-0.0157785196
 31
0.0
 40
0.5172961965
 41
0.8262203412
 42
2.3446567905
  0
ELLIPSE
  5
3CF
100
AcDbEntity
  8
0
100
AcDbEllipse
 62
7
  6
CONTINUOUS
 10
156.4322784684
 20
90.3531730863
 30
0.0
 11
0.2999972416
 21
-0.0022477848
 31
0.0
 40
0.5723275643
 41
0.7896864073
 42
2.3081228565
  0
ELLIPSE
  5
3D0
100
AcDbEntity
  8
0
100
AcDbEllipse
 62
7
  6
CONTINUOUS
 10
140.5223758917
 20
99.5393514362
 30
0.0
 11
0.2999972416
 21
-0.0022477848
 31
0.0
 40
0.5723275643
 41
0.7896864073
 42
2.3081228565
  0
ELLIPSE
  5
3D1
100
AcDbEntity
  8
0
100
AcDbEllipse
 62
7
  6
CONTINUOUS
 10
170.8275622653
 20
79.9184476735
 30
0.0
 11
0.5413005334
 21
0.8416911418
 31
0.0
 40
0.6067084637
 41
0.7148472392
 42
0.8145158917
  0
ELLIPSE
  5
3D2
100
AcDbEntity
  8
0
100
AcDbEllipse
 62
7
  6
CONTINUOUS
 10
123.0978545352
 20
107.4769827231
 30
0.0
 11
0.5413005334
 21
0.8416911418
 31
0.0
 40
0.6067084637
 41
0.7148472392
 42
0.8145158917
  0
ELLIPSE
  5
3D3
100
AcDbEntity
  8
0
100
AcDbEllipse
 62
7
  6
CONTINUOUS
 10
128.4420834556
 20
106.5713119842
 30
0.0
 11
0.1998333781
 21
-0.0157785196
 31
0.0
 40
0.5172961965
 41
-0.692216108
 42
0.8262203412
  0
ELLIPSE
  5
3D4
100
AcDbEntity
  8
0
100
AcDbEllipse
 62
7
  6
CONTINUOUS
 10
160.1240760029
 20
88.221575459
 30
0.0
 11
0.2999972416
 21
-0.0022477848
 31
0.0
 40
0.5723275643
 41
-0.728750042
 42
0.7896864073
  0
ELLIPSE
  5
3D5
100
AcDbEntity
  8
0
100
AcDbEllipse
 62
7
  6
CONTINUOUS
 10
144.2141734262
 20
97.4077538088
 30
0.0
 11
0.2999972416
 21
-0.0022477848
 31
0.0
 40
0.5723275643
 41
-0.728750042
 42
0.7896864073
  0
ELLIPSE
  5
3D6
100
AcDbEntity
  8
0
100
AcDbEllipse
 62
7
  6
CONTINUOUS
 10
127.3441917935
 20
105.0252008093
 30
0.0
 11
0.4625183445
 21
0.8873459255
 31
0.0
 40
0.5463614449
 41
0.662201126
 42
0.7618697785
  0
ELLIPSE
  5
3D7
100
AcDbEntity
  8
0
100
AcDbEllipse
 62
7
  6
CONTINUOUS
 10
98.3866131396
 20
177.5142544006
 30
0.0
 11
1.1592455945
 21
-0.5090882972
 31
0.0
 40
0.0921189357
 41
-2.4809772198
 42
-2.4456474731
  0
ELLIPSE
  5
3D8
100
AcDbEntity
  8
0
100
AcDbEllipse
 62
7
  6
CONTINUOUS
 10
198.1276149788
 20
119.925049987
 30
0.0
 11
1.1339988709
 21
-0.4970753424
 31
0.0
 40
0.0963242103
 41
-2.4267061945
 42
-2.3913764477
  0
ELLIPSE
  5
3D9
100
AcDbEntity
  8
0
100
AcDbEllipse
 62
7
  6
CONTINUOUS
 10
198.1276149788
 20
119.925049987
 30
0.0
 11
0.1365023326
 21
1.2306519884
 31
0.0
 40
0.0962714138
 41
-3.8917430252
 42
-3.8564132784
  0
ELLIPSE
  5
3DA
100
AcDbEntity
  8
0
100
AcDbEllipse
 62
7
  6
CONTINUOUS
 10
198.1276149788
 20
49.2554018818
 30
0.0
 11
0.1387214801
 21
1.2585231556
 31
0.0
 40
0.0920685296
 41
-3.8374748546
 42
-3.8021451078
  0
ELLIPSE
  5
3DB
100
AcDbEntity
  8
ASSI
100
AcDbEllipse
 62
7
  6
CONTINUOUS
 10
198.1143758858
 20
49.6407379824
 30
0.0
 11
-0.0319307066
 21
0.0553022874
 31
0.0
 40
0.5636716562
 41
-2.5265818713
 42
-2.3682119497
  0
ELLIPSE
  5
3DC
100
AcDbEntity
  8
ASSI
100
AcDbEllipse
 62
7
  6
CONTINUOUS
 10
198.1143758858
 20
119.9174248901
 30
0.0
 11
-0.0311754239
 21
0.0539936769
 31
0.0
 40
0.5913227191
 41
-2.3442738678
 42
-0.7974202594
  0
ELLIPSE
  5
3DD
100
AcDbEntity
  8
ASSI
100
AcDbEllipse
 62
7
  6
CONTINUOUS
 10
98.7136993903
 20
177.3101297155
 30
0.0
 11
-0.0319307066
 21
0.0553022874
 31
0.0
 40
0.5636716562
 41
-0.7734729046
 42
-0.6150192183
  0
ELLIPSE
  5
3DE
100
AcDbEntity
  8
ASSI
100
AcDbEllipse
 62
7
  6
CONTINUOUS
 10
144.2141734262
 20
96.7335332533
 30
0.0
 11
0.2999993451
 21
0.1746271577
 31
0.0
 40
0.0035896273
 41
-0.7351277754
 42
-0.0020894543
  0
ELLIPSE
  5
3DF
100
AcDbEntity
  8
ASSI
100
AcDbEllipse
 62
7
  6
CONTINUOUS
 10
160.1240760029
 20
87.5473549034
 30
0.0
 11
0.2999993451
 21
0.1746271577
 31
0.0
 40
0.0035896273
 41
-0.7351277754
 42
-0.0020894543
  0
ELLIPSE
  5
3E0
100
AcDbEntity
  8
ASSI
100
AcDbEllipse
 62
7
  6
CONTINUOUS
 10
128.4420834556
 20
105.9999471499
 30
0.0
 11
0.1999995634
 21
0.1164181051
 31
0.0
 40
0.0035896273
 41
-0.7351277754
 42
-0.6748017824
  0
ELLIPSE
  5
3E1
100
AcDbEntity
  8
ASSI
100
AcDbEllipse
 62
7
  6
CONTINUOUS
 10
172.3457897952
 20
81.2218621864
 30
0.0
 11
0.1998333781
 21
-0.0157785196
 31
0.0
 40
0.5172961965
 41
0.8262203412
 42
2.3446567905
  0
ELLIPSE
  5
3E2
100
AcDbEntity
  8
ASSI
100
AcDbEllipse
 62
7
  6
CONTINUOUS
 10
124.6160820651
 20
108.780397236
 30
0.0
 11
0.1998333781
 21
-0.0157785196
 31
0.0
 40
0.5172961965
 41
0.8262203412
 42
2.3446567905
  0
ELLIPSE
  5
3E3
100
AcDbEntity
  8
ASSI
100
AcDbEllipse
 62
7
  6
CONTINUOUS
 10
156.4322784684
 20
90.3531730863
 30
0.0
 11
0.2999972416
 21
-0.0022477848
 31
0.0
 40
0.5723275643
 41
0.7896864073
 42
2.3081228565
  0
ELLIPSE
  5
3E4
100
AcDbEntity
  8
ASSI
100
AcDbEllipse
 62
7
  6
CONTINUOUS
 10
140.5223758917
 20
99.5393514362
 30
0.0
 11
0.2999972416
 21
-0.0022477848
 31
0.0
 40
0.5723275643
 41
0.7896864073
 42
2.3081228565
  0
ELLIPSE
  5
3E5
100
AcDbEntity
  8
ASSI
100
AcDbEllipse
 62
7
  6
CONTINUOUS
 10
170.8275622653
 20
79.9184476735
 30
0.0
 11
0.5413005334
 21
0.8416911418
 31
0.0
 40
0.6067084637
 41
0.7148472392
 42
0.8145158917
  0
ELLIPSE
  5
3E6
100
AcDbEntity
  8
ASSI
100
AcDbEllipse
 62
7
  6
CONTINUOUS
 10
123.0978545352
 20
107.4769827231
 30
0.0
 11
0.5413005334
 21
0.8416911418
 31
0.0
 40
0.6067084637
 41
0.7148472392
 42
0.8145158917
  0
ELLIPSE
  5
3E7
100
AcDbEntity
  8
ASSI
100
AcDbEllipse
 62
7
  6
CONTINUOUS
 10
128.4420834556
 20
106.5713119842
 30
0.0
 11
0.1998333781
 21
-0.0157785196
 31
0.0
 40
0.5172961965
 41
-0.692216108
 42
0.8262203412
  0
ELLIPSE
  5
3E8
100
AcDbEntity
  8
ASSI
100
AcDbEllipse
 62
7
  6
CONTINUOUS
 10
160.1240760029
 20
88.221575459
 30
0.0
 11
0.2999972416
 21
-0.0022477848
 31
0.0
 40
0.5723275643
 41
-0.728750042
 42
0.7896864073
  0
ELLIPSE
  5
3E9
100
AcDbEntity
  8
ASSI
100
AcDbEllipse
 62
7
  6
CONTINUOUS
 10
144.2141734262
 20
97.4077538088
 30
0.0
 11
0.2999972416
 21
-0.0022477848
 31
0.0
 40
0.5723275643
 41
-0.728750042
 42
0.7896864073
  0
ELLIPSE
  5
3EA
100
AcDbEntity
  8
ASSI
100
AcDbEllipse
 62
7
  6
CONTINUOUS
 10
127.3441917935
 20
105.0252008093
 30
0.0
 11
0.4625183445
 21
0.8873459255
 31
0.0
 40
0.5463614449
 41
0.662201126
 42
0.7618697785
  0
ELLIPSE
  5
3EB
100
AcDbEntity
  8
ASSI
100
AcDbEllipse
 62
7
  6
CONTINUOUS
 10
98.3866131396
 20
177.5142544006
 30
0.0
 11
1.1592455945
 21
-0.5090882972
 31
0.0
 40
0.0921189357
 41
-2.4809772198
 42
-2.4456474731
  0
ELLIPSE
  5
3EC
100
AcDbEntity
  8
ASSI
100
AcDbEllipse
 62
7
  6
CONTINUOUS
 10
198.1276149788
 20
119.925049987
 30
0.0
 11
1.1339988709
 21
-0.4970753424
 31
0.0
 40
0.0963242103
 41
-2.4267061945
 42
-2.3913764477
  0
ELLIPSE
  5
3ED
100
AcDbEntity
  8
ASSI
100
AcDbEllipse
 62
7
  6
CONTINUOUS
 10
198.1276149788
 20
119.925049987
 30
0.0
 11
0.1365023326
 21
1.2306519884
 31
0.0
 40
0.0962714138
 41
-3.8917430252
 42
-3.8564132784
  0
ELLIPSE
  5
3EE
100
AcDbEntity
  8
ASSI
100
AcDbEllipse
 62
7
  6
CONTINUOUS
 10
198.1276149788
 20
49.2554018818
 30
0.0
 11
0.1387214801
 21
1.2585231556
 31
0.0
 40
0.0920685296
 41
-3.8374748546
 42
-3.8021451078
  0
ENDSEC
  0
SECTION
  2
OBJECTS
  0
DICTIONARY
  5
C
100
AcDbDictionary
280
0
281
1
  3
ACAD_GROUP
350
D
  3
ACAD_MLINESTYLE
350
17
  3
ACAD_LAYOUT
350
1A
  3
ACAD_PLOTSETTINGS
350
19
  3
ACAD_PLOTSTYLENAME
350
E
  0
DICTIONARY
  5
D
102
{ACAD_REACTORS
330
C
102
}
100
AcDbDictionary
280
0
281
1
  0
ACDBDICTIONARYWDFLT
  5
E
102
{ACAD_REACTORS
330
C
102
}
100
AcDbDictionary
281
1
  3
Normal
350
F
100
AcDbDictionaryWithDefault
340
F
  0
DICTIONARY
  5
17
102
{ACAD_REACTORS
330
C
102
}
100
AcDbDictionary
280
0
281
1
  3
Standard
350
18
  0
DICTIONARY
  5
19
102
{ACAD_REACTORS
330
C
102
}
100
AcDbDictionary
281
1
  0
DICTIONARY
  5
1A
102
{ACAD_REACTORS
330
C
102
}
100
AcDbDictionary
281
1
  3
Model
350
3EF
  3
Layout1
350
3F0
  0
ACDBPLACEHOLDER
  5
F
102
{ACAD_REACTORS
330
E
102
}
  0
MLINESTYLE
  5
18
102
{ACAD_REACTORS
330
17
102
}
100
AcDbMlineStyle
  2
STANDARD
 70
0
  3

 62
256
 51
90.0
 52
90.0
 71
2
 49
0.5
 62
256
  6
BYLAYER
 49
-0.5
 62
256
  6
BYLAYER
  0
LAYOUT
  5
3EF
102
{ACAD_REACTORS
330
1A
102
}
100
AcDbPlotSettings
  1

  2
none_device
  4
ISO_A4_(297.00_x_210.00_MM)
  6

 40
0.0
 41
0.0
 42
0.0
 43
0.0
 44
297.0
 45
210.0
 46
0.0
 47
0.0
 48
0.0
 49
0.0
140
0.0
141
0.0
142
1.0
143
1.0
 70
1024
 72
1
 73
0
 74
0
  7

 75
0
147
1.0
148
0.0
149
0.0
100
AcDbLayout
  1
Model
 70
0
 71
0
 10
0.0
 20
0.0
 11
297.0
 21
210.0
 12
0.0
 22
0.0
 32
0.0
 14
0.0
 24
0.0
 34
0.0
 15
0.0
 25
0.0
 35
0.0
146
0.0
 13
0.0
 23
0.0
 33
0.0
 16
1.0
 26
0.0
 36
0.0
 17
0.0
 27
1.0
 37
0.0
 76
0
330
21C
345
0
346
0
  0
LAYOUT
  5
3F0
102
{ACAD_REACTORS
330
1A
102
}
100
AcDbPlotSettings
  1

  2
none_device
  4
ISO_A4_(297.00_x_210.00_MM)
  6

 40
0.0
 41
0.0
 42
0.0
 43
0.0
 44
297.0
 45
210.0
 46
0.0
 47
0.0
 48
0.0
 49
0.0
140
0.0
141
0.0
142
1.0
143
1.0
 70
0
 72
1
 73
0
 74
0
  7

 75
0
147
1.0
148
0.0
149
0.0
100
AcDbLayout
  1
Layout1
 70
0
 71
1
 10
0.0
 20
0.0
 11
297.0
 21
210.0
 12
0.0
 22
0.0
 32
0.0
 14
0.0
 24
0.0
 34
0.0
 15
0.0
 25
0.0
 35
0.0
146
0.0
 13
0.0
 23
0.0
 33
0.0
 16
1.0
 26
0.0
 36
0.0
 17
0.0
 27
1.0
 37
0.0
 76
0
330
21D
345
0
346
0
  0
ENDSEC
  0
EOF
