  0
SECTION
  2
HEADER
  9
$ACADVER
  1
AC1024
  9
$DWGCODEPAGE
  3
ANSI_1252
  9
$EXTMAX
 10
297.0
 20
210.0
 30
0.0
  9
$EXTMIN
 10
0.0
 20
0.0
 30
0.0
  9
$LIMMIN
 10
0.0
 20
0.0
  9
$LIMMAX
 10
297.0
 20
210.0
  9
$VIEWCTR
 10
148.5
 20
105.0
  9
$VIEWSIZE
 40
210.0
  9
$CLAYER
  8
0
  9
$LTSCALE
 40
16.335
  9
$CELTYPE
  6
BYLAYER
  9
$DIMSCALE
 40
1.0
  9
$DIMASZ
 40
3.0
  9
$DIMEXO
 40
0.5
  9
$DIMDLI
 40
11.286
  9
$DIMEXE
 40
1.5
  9
$DIMCEN
 40
2.673
  9
$DIMLFAC
 40
1.0
  9
$DIMBLK
  1
_FILLED
  9
$DIMALT
 70
0
  9
$DIMALTF
 40
0.0393700787
  9
$DIMTXT
 40
3.0
  9
$DIMTOL
 70
1
  9
$DIMLIM
 70
0
  9
$DIMTFAC
 40
1.0
  9
$DIMTP
 40
0.01
  9
$DIMTM
 40
0.01
  9
$DIMGAP
 40
0.625
  9
$DIMDSEP
 70
44
  9
$AUNITS
 70
0
  9
$PDMODE
 70
3
  9
$PDSIZE
 40
3.0
  9
$HANDSEED
  5
301
  9
$TILEMODE
 70
1
  9
$MEASUREMENT
 70
1
  9
$INSUNITS
 70
4
  0
ENDSEC
  0
SECTION
  2
CLASSES
  0
CLASS
  1
ACDBDICTIONARYWDFLT
  2
AcDbDictionaryWithDefault
  3
AutoCAD 2000
 90
0
 91
1
280
0
281
0
  0
CLASS
  1
ACDBPLACEHOLDER
  2
AcDbPlaceHolder
  3
AutoCAD 2000
 90
0
 91
1
280
0
281
0
  0
CLASS
  1
LAYOUT
  2
AcDbLayout
  3
AutoCAD 2000
 90
0
 91
0
280
0
281
0
  0
ENDSEC
  0
SECTION
  2
TABLES
  0
TABLE
  2
VPORT
  5
8
100
AcDbSymbolTable
 70
2
  0
VPORT
  5
1F4
100
AcDbSymbolTableRecord
100
AcDbViewportTableRecord
  2
*ACTIVE
 70
0
 10
0.0
 20
0.0
 11
1.0
 21
1.0
 12
148.5
 22
105.0
 13
0.0
 23
0.0
 14
1.0
 24
1.0
 15
0.0
 25
0.0
 16
0.0
 26
0.0
 36
1.0
 17
0.0
 27
0.0
 37
0.0
 40
210.0
 41
1.4142857143
 42
50.0
 43
0.0
 44
0.0
 50
0.0
 51
0.0
 71
0
 72
100
 73
1
 74
1
 75
0
 76
0
 77
0
 78
0
  0
ENDTAB
  0
TABLE
  2
LTYPE
  5
5
100
AcDbSymbolTable
 70
6
  0
LTYPE
  5
14
100
AcDbSymbolTableRecord
100
AcDbLinetypeTableRecord
  2
BYBLOCK
 70
0
  3

 72
65
 73
0
 40
0.0
  0
LTYPE
  5
15
100
AcDbSymbolTableRecord
100
AcDbLinetypeTableRecord
  2
BYLAYER
 70
0
  3

 72
65
 73
0
 40
0.0
  0
LTYPE
  5
16
100
AcDbSymbolTableRecord
100
AcDbLinetypeTableRecord
  2
CONTINUOUS
 70
64
  3
Solid line
 72
65
 73
0
 40
0.0
  0
LTYPE
  5
1F5
100
AcDbSymbolTableRecord
100
AcDbLinetypeTableRecord
  2
CENTER
 70
64
  3
____ _ ____ _ ____ _ ____ _ ____ _ ____ _ ____
 72
65
 73
4
 40
0.6
 49
0.375
 74
0
 49
-0.075
 74
0
 49
0.075
 74
0
 49
-0.075
 74
0
  0
LTYPE
  5
1F6
100
AcDbSymbolTableRecord
100
AcDbLinetypeTableRecord
  2
HIDDEN
 70
64
  3
- - - - - - - - - - - - - - - - - - - -
 72
65
 73
2
 40
0.2
 49
0.1
 74
0
 49
-0.1
 74
0
  0
LTYPE
  5
1F7
100
AcDbSymbolTableRecord
100
AcDbLinetypeTableRecord
  2
PHANTOM
 70
64
  3
_____ _ _ _____ _ _ _____ _ _ _____
 72
65
 73
6
 40
0.8
 49
0.45
 74
0
 49
-0.05
 74
0
 49
0.1
 74
0
 49
-0.05
 74
0
 49
0.1
 74
0
 49
-0.05
 74
0
  0
LTYPE
  5
1F8
100
AcDbSymbolTableRecord
100
AcDbLinetypeTableRecord
  2
DOT
 70
64
  3
. . . . . . . . . . . . . . . . . . . .
 72
65
 73
2
 40
0.2
 49
0.1
 74
0
 49
-0.1
 74
0
  0
LTYPE
  5
1F9
100
AcDbSymbolTableRecord
100
AcDbLinetypeTableRecord
  2
DASHED
 70
64
  3
- - - - - - - - - - - - - - - - - - - -
 72
65
 73
2
 40
0.2
 49
0.1
 74
0
 49
-0.1
 74
0
  0
ENDTAB
  0
TABLE
  2
LAYER
  5
2
100
AcDbSymbolTable
 70
36
  0
LAYER
  5
10
100
AcDbSymbolTableRecord
100
AcDbLayerTableRecord
  2
0
 70
0
 62
7
  6
CONTINUOUS
370
-3
390
F
  0
LAYER
  5
1FA
100
AcDbSymbolTableRecord
100
AcDbLayerTableRecord
  2
DEFAULT_1
 70
0
 62
7
  6
CENTER
370
-3
390
F
  0
LAYER
  5
1FB
100
AcDbSymbolTableRecord
100
AcDbLayerTableRecord
  2
DEFAULT_2
 70
0
 62
7
  6
HIDDEN
370
-3
390
F
  0
LAYER
  5
1FC
100
AcDbSymbolTableRecord
100
AcDbLayerTableRecord
  2
DEFAULT_3
 70
0
 62
7
  6
PHANTOM
370
-3
390
F
  0
LAYER
  5
1FD
100
AcDbSymbolTableRecord
100
AcDbLayerTableRecord
  2
ASSI
 70
0
 62
7
  6
CONTINUOUS
370
-3
390
F
  0
LAYER
  5
1FE
100
AcDbSymbolTableRecord
100
AcDbLayerTableRecord
  2
COORDINATE
 70
0
 62
7
  6
CONTINUOUS
370
-3
390
F
  0
LAYER
  5
1FF
100
AcDbSymbolTableRecord
100
AcDbLayerTableRecord
  2
COORD_ORIGINE
 70
0
 62
7
  6
CONTINUOUS
370
-3
390
F
  0
LAYER
  5
200
100
AcDbSymbolTableRecord
100
AcDbLayerTableRecord
  2
COPY_PUBLISH
 70
0
 62
7
  6
CONTINUOUS
370
-3
390
F
  0
LAYER
  5
201
100
AcDbSymbolTableRecord
100
AcDbLayerTableRecord
  2
COSMETIC
 70
0
 62
7
  6
CONTINUOUS
370
-3
390
F
  0
LAYER
  5
202
100
AcDbSymbolTableRecord
100
AcDbLayerTableRecord
  2
COSMETICI
 70
0
 62
7
  6
CONTINUOUS
370
-3
390
F
  0
LAYER
  5
203
100
AcDbSymbolTableRecord
100
AcDbLayerTableRecord
  2
CURVA_TASSELLO
 70
0
 62
7
  6
CONTINUOUS
370
-3
390
F
  0
LAYER
  5
204
100
AcDbSymbolTableRecord
100
AcDbLayerTableRecord
  2
CURVE
 70
0
 62
7
  6
CONTINUOUS
370
-3
390
F
  0
LAYER
  5
205
100
AcDbSymbolTableRecord
100
AcDbLayerTableRecord
  2
DRAFT
 70
0
 62
7
  6
CONTINUOUS
370
-3
390
F
  0
LAYER
  5
206
100
AcDbSymbolTableRecord
100
AcDbLayerTableRecord
  2
IMPORT_IGES
 70
0
 62
7
  6
CONTINUOUS
370
-3
390
F
  0
LAYER
  5
207
100
AcDbSymbolTableRecord
100
AcDbLayerTableRecord
  2
INTFCLR_2
 70
0
 62
7
  6
CONTINUOUS
370
-3
390
F
  0
LAYER
  5
208
100
AcDbSymbolTableRecord
100
AcDbLayerTableRecord
  2
INTF_1
 70
0
 62
7
  6
CONTINUOUS
370
-3
390
F
  0
LAYER
  5
209
100
AcDbSymbolTableRecord
100
AcDbLayerTableRecord
  2
INTF_7
 70
0
 62
7
  6
CONTINUOUS
370
-3
390
F
  0
LAYER
  5
20A
100
AcDbSymbolTableRecord
100
AcDbLayerTableRecord
  2
LINEA_CHIUSURA
 70
0
 62
7
  6
CONTINUOUS
370
-3
390
F
  0
LAYER
  5
20B
100
AcDbSymbolTableRecord
100
AcDbLayerTableRecord
  2
NOTE
 70
0
 62
7
  6
CONTINUOUS
370
-3
390
F
  0
LAYER
  5
20C
100
AcDbSymbolTableRecord
100
AcDbLayerTableRecord
  2
PIANI
 70
0
 62
7
  6
CONTINUOUS
370
-3
390
F
  0
LAYER
  5
20D
100
AcDbSymbolTableRecord
100
AcDbLayerTableRecord
  2
PIANI_ORIGINE
 70
0
 62
7
  6
CONTINUOUS
370
-3
390
F
  0
LAYER
  5
20E
100
AcDbSymbolTableRecord
100
AcDbLayerTableRecord
  2
PIANI_RIFERIMENTO
 70
0
 62
7
  6
CONTINUOUS
370
-3
390
F
  0
LAYER
  5
20F
100
AcDbSymbolTableRecord
100
AcDbLayerTableRecord
  2
PUNTI
 70
0
 62
7
  6
CONTINUOUS
370
-3
390
F
  0
LAYER
  5
210
100
AcDbSymbolTableRecord
100
AcDbLayerTableRecord
  2
RACCORDO
 70
0
 62
7
  6
CONTINUOUS
370
-3
390
F
  0
LAYER
  5
211
100
AcDbSymbolTableRecord
100
AcDbLayerTableRecord
  2
RGB__255__255__255__
 70
0
 62
7
  6
CONTINUOUS
370
-3
390
F
  0
LAYER
  5
212
100
AcDbSymbolTableRecord
100
AcDbLayerTableRecord
  2
RGB____0____0____0__
 70
0
 62
7
  6
CONTINUOUS
370
-3
390
F
  0
LAYER
  5
213
100
AcDbSymbolTableRecord
100
AcDbLayerTableRecord
  2
SIMBOLI
 70
0
 62
7
  6
CONTINUOUS
370
-3
390
F
  0
LAYER
  5
214
100
AcDbSymbolTableRecord
100
AcDbLayerTableRecord
  2
SMUSSO
 70
0
 62
7
  6
CONTINUOUS
370
-3
390
F
  0
LAYER
  5
215
100
AcDbSymbolTableRecord
100
AcDbLayerTableRecord
  2
SNAPLINE
 70
0
 62
7
  6
CONTINUOUS
370
-3
390
F
  0
LAYER
  5
216
100
AcDbSymbolTableRecord
100
AcDbLayerTableRecord
  2
SUPERFICI
 70
0
 62
7
  6
CONTINUOUS
370
-3
390
F
  0
LAYER
  5
217
100
AcDbSymbolTableRecord
100
AcDbLayerTableRecord
  2
TRASH
 70
0
 62
7
  6
CONTINUOUS
370
-3
390
F
  0
LAYER
  5
218
100
AcDbSymbolTableRecord
100
AcDbLayerTableRecord
  2
WHITE
 70
0
 62
7
  6
CONTINUOUS
370
-3
390
F
  0
LAYER
  5
219
100
AcDbSymbolTableRecord
100
AcDbLayerTableRecord
  2
XSEC_DATUMS
 70
0
 62
7
  6
CONTINUOUS
370
-3
390
F
  0
ENDTAB
  0
TABLE
  2
STYLE
  5
3
100
AcDbSymbolTable
 70
1
  0
STYLE
  5
11
100
AcDbSymbolTableRecord
100
AcDbTextStyleTableRecord
  2
STANDARD
 70
0
 40
0.0
 41
0.8
 50
0.0
 71
0
 42
0.2
  3
txt
  4

  0
STYLE
  5
21A
100
AcDbSymbolTableRecord
100
AcDbTextStyleTableRecord
  2
TEXTSTYLE_1
 70
0
 40
0.0
 41
0.8
 50
0.0
 71
0
 42
0.2
  3
gdt
  4

  0
ENDTAB
  0
TABLE
  2
VIEW
  5
6
100
AcDbSymbolTable
 70
0
  0
ENDTAB
  0
TABLE
  2
UCS
  5
7
100
AcDbSymbolTable
 70
0
  0
ENDTAB
  0
TABLE
  2
APPID
  5
9
100
AcDbSymbolTable
 70
1
  0
APPID
  5
21B
100
AcDbSymbolTableRecord
100
AcDbRegAppTableRecord
  2
ACAD
 70
0
  0
ENDTAB
  0
TABLE
  2
BLOCK_RECORD
  5
1
100
AcDbSymbolTable
 70
0
  0
BLOCK_RECORD
  5
21C
100
AcDbSymbolTableRecord
100
AcDbBlockTableRecord
  2
*Model_Space
  0
BLOCK_RECORD
  5
21D
100
AcDbSymbolTableRecord
100
AcDbBlockTableRecord
  2
*Paper_Space
  0
BLOCK_RECORD
  5
21E
100
AcDbSymbolTableRecord
100
AcDbBlockTableRecord
  2
_FILLED
  0
ENDTAB
  0
TABLE
  2
DIMSTYLE
  5
A
100
AcDbSymbolTable
 70
1
100
AcDbDimStyleTable
 71
0
  0
DIMSTYLE
105
21F
100
AcDbSymbolTableRecord
100
AcDbDimStyleTableRecord
  2
STANDARD
 70
0
  3

  4

 40
1.0
 41
3.0
 42
0.5
 43
0.38
 44
1.5
 45
0.0
 46
0.0
 47
0.01
 48
0.01
140
3.0
141
0.09
142
0.0
143
25.4
144
1.0
145
0.0
146
1.0
147
0.625
 71
1.0
 72
0.0
 73
0
 74
0
 75
0
 76
0
 77
1
 78
8
 79
2
170
0
171
1
172
0
173
0
174
0
175
0
176
0
177
0
178
0
270
2
179
2
271
2
272
2
273
2
274
2
275
0
280
0
281
0
282
0
283
1
284
8
285
0
286
0
287
3
288
0
340
11
278
44
341
21E
342
21E
343
21E
344
21E
  0
ENDTAB
  0
ENDSEC
  0
SECTION
  2
BLOCKS
  0
BLOCK
  5
20
100
AcDbEntity
  8
0
100
AcDbBlockBegin
  2
*Model_Space
 70
0
 10
0.0
 20
0.0
 30
0.0
  3
*Model_Space
  1

  0
ENDBLK
  5
21
100
AcDbEntity
  8
0
100
AcDbBlockEnd
  0
BLOCK
  5
1C
100
AcDbEntity
  8
0
100
AcDbBlockBegin
  2
*Paper_Space
 70
0
 10
0.0
 20
0.0
 30
0.0
  3
*Paper_Space
  1

  0
ENDBLK
  5
1D
100
AcDbEntity
  8
0
100
AcDbBlockEnd
  0
BLOCK
  5
220
100
AcDbEntity
  8
0
100
AcDbBlockBegin
  2
_FILLED
 70
64
 10
0.0
 20
0.0
  3
_FILLED
  1

  0
SOLID
  5
221
100
AcDbEntity
  8
0
  6
BYBLOCK
 62
0
100
AcDbTrace
 10
0.0
 20
0.0
 11
-1.0
 21
0.3166666667
 12
-1.0
 22
-0.3166666667
 13
-1.0
 23
-0.3166666667
  0
ENDBLK
  5
222
100
AcDbEntity
  8
0
  6
BYBLOCK
 62
0
100
AcDbBlockEnd
  0
ENDSEC
  0
SECTION
  2
ENTITIES
  0
LINE
  5
223
100
AcDbEntity
  8
SMUSSO
100
AcDbLine
 62
7
  6
CONTINUOUS
 10
92.34046989
 20
175.9722339286
 11
94.8153436241
 21
177.4011555504
  0
LINE
  5
224
100
AcDbEntity
  8
0
100
AcDbLine
 62
7
  6
CONTINUOUS
 10
97.3432009258
 20
178.0552194803
 11
95.4478792898
 21
177.0359768395
  0
LINE
  5
225
100
AcDbEntity
  8
0
100
AcDbLine
 62
250
  6
CONTINUOUS
 10
97.8204397484
 20
177.9932711298
 11
95.7340365581
 21
176.8712710127
  0
LINE
  5
226
100
AcDbEntity
  8
SMUSSO
100
AcDbLine
 62
7
  6
CONTINUOUS
 10
92.34046989
 20
175.9722339286
 11
92.34046989
 21
103.3063398392
  0
LINE
  5
227
100
AcDbEntity
  8
0
100
AcDbLine
 62
250
  6
CONTINUOUS
 10
111.1848656086
 20
146.2312526225
 11
112.033352742
 21
146.7211584593
  0
LWPOLYLINE
  5
228
100
AcDbEntity
  8
0
100
AcDbPolyline
 62
7
  6
CONTINUOUS
 90
13
 70
0
 10
111.4333647539
 20
146.7805368559
 10
111.4739161698
 20
146.8009801264
 10
111.5168339822
 20
146.8168699634
 10
111.5619659552
 20
146.8281555332
 10
111.6091210316
 20
146.8347878961
 10
111.6580959086
 20
146.8367373427
 10
111.7086781362
 20
146.8339950278
 10
111.7606510982
 20
146.8265727136
 10
111.8137921462
 20
146.8145022149
 10
111.8678703882
 20
146.7978363947
 10
111.9226529739
 20
146.7766479419
 10
111.9779063006
 20
146.7510281249
 10
112.033393746
 20
146.7210874427
  0
LINE
  5
229
100
AcDbEntity
  8
0
100
AcDbLine
 62
7
  6
CONTINUOUS
 10
110.4777588274
 20
111.2863247758
 11
110.4777588274
 21
146.2312526225
  0
LINE
  5
22A
100
AcDbEntity
  8
0
100
AcDbLine
 62
7
  6
CONTINUOUS
 10
111.1848656086
 20
111.2863247758
 11
111.1848656086
 21
146.2312526225
  0
LWPOLYLINE
  5
22B
100
AcDbEntity
  8
0
100
AcDbPolyline
 62
7
  6
CONTINUOUS
 90
28
 70
0
 10
110.4777588274
 20
146.2312526225
 10
110.479848317
 20
146.3111894099
 10
110.4859344225
 20
146.388007824
 10
110.4960171442
 20
146.4617078649
 10
110.5101573269
 20
146.5325179796
 10
110.5282941257
 20
146.6002097211
 10
110.5502450053
 20
146.6640977477
 10
110.576048794
 20
146.724143194
 10
110.6056666636
 20
146.7803849255
 10
110.6387995943
 20
146.8322541966
 10
110.6754832337
 20
146.8797064724
 10
110.7156819341
 20
146.9227862878
 10
110.7589897327
 20
146.9610585029
 10
110.8054380506
 20
146.9944743167
 10
110.8549954667
 20
147.0230825301
 10
110.907161754
 20
147.0465944061
 10
110.9619634131
 20
147.0649583392
 10
111.0193739434
 20
147.0782259347
 10
111.0788136159
 20
147.0862632718
 10
111.1403032472
 20
147.0890172252
 10
111.2038220207
 20
147.0865409201
 10
111.2687277579
 20
147.0788598108
 10
111.3350346844
 20
147.0659208225
 10
111.4027285746
 20
147.0477770299
 10
111.4711245724
 20
147.024613112
 10
111.5399943924
 20
146.9964906282
 10
111.6095663201
 20
146.963348019
 10
111.6798403554
 20
146.9251852844
  0
LWPOLYLINE
  5
22C
100
AcDbEntity
  8
0
100
AcDbPolyline
 62
7
  6
CONTINUOUS
 90
13
 70
0
 10
111.1848656086
 20
146.2312526225
 10
111.1866817551
 20
146.2942727787
 10
111.1921228912
 20
146.3549297832
 10
111.201166426
 20
146.4129634617
 10
111.2137746437
 20
146.4681259421
 10
111.2298940821
 20
146.5201791281
 10
111.2494550061
 20
146.5688964126
 10
111.2723735745
 20
146.614069015
 10
111.2985516767
 20
146.6555035842
 10
111.3278754471
 20
146.6930206368
 10
111.360217515
 20
146.7264589966
 10
111.3954399436
 20
146.7556776676
 10
111.4333647539
 20
146.7805368559
  0
LINE
  5
22D
100
AcDbEntity
  8
SMUSSO
100
AcDbLine
 62
7
  6
CONTINUOUS
 10
92.34046989
 20
103.3063398392
 11
193.8102929903
 21
44.7189751516
  0
LWPOLYLINE
  5
22E
100
AcDbEntity
  8
RACCORDO
100
AcDbPolyline
 62
7
  6
CONTINUOUS
 90
25
 70
0
 10
113.6597393428
 20
112.7152858525
 10
113.661620542
 20
112.6496693252
 10
113.6670552854
 20
112.5828171928
 10
113.676043573
 20
112.5147294552
 10
113.6886541311
 20
112.4451048301
 10
113.7048182335
 20
112.3742445999
 10
113.7243297013
 20
112.3030526114
 10
113.7472314137
 20
112.231524615
 10
113.7734804915
 20
112.1596648603
 10
113.8027421187
 20
112.0883899435
 10
113.8350548855
 20
112.0177073565
 10
113.8703802015
 20
111.9476096074
 10
113.9082674802
 20
111.8789908175
 10
113.9487495397
 20
111.811869932
 10
113.9917935619
 20
111.7462280057
 10
114.0368505052
 20
111.6829023242
 10
114.0839461547
 20
111.6219225583
 10
114.1330547253
 20
111.5632590372
 10
114.1835498201
 20
111.5076600346
 10
114.2354492002
 20
111.4551648064
 10
114.2887351045
 20
111.4057340967
 10
114.3427278526
 20
111.3599984115
 10
114.3972008846
 20
111.3181679193
 10
114.4523807604
 20
111.2800324516
 10
114.5082674802
 20
111.2455920083
  0
LINE
  5
22F
100
AcDbEntity
  8
RACCORDO
100
AcDbLine
 62
7
  6
CONTINUOUS
 10
113.6597393428
 20
145.7820164231
 11
113.6597393428
 21
112.7152858525
  0
LINE
  5
230
100
AcDbEntity
  8
0
100
AcDbLine
 62
250
  6
CONTINUOUS
 10
114.2520751041
 20
145.4400091782
 11
114.2520751041
 21
111.439741774
  0
LINE
  5
231
100
AcDbEntity
  8
0
100
AcDbLine
 62
7
  6
CONTINUOUS
 10
114.336273164
 20
145.3913942737
 11
114.336273164
 21
111.3654659903
  0
LINE
  5
232
100
AcDbEntity
  8
0
100
AcDbLine
 62
250
  6
CONTINUOUS
 10
111.6798403554
 20
109.2042584966
 11
112.033393746
 21
109.8166309317
  0
LINE
  5
233
100
AcDbEntity
  8
0
100
AcDbLine
 62
250
  6
CONTINUOUS
 10
128.9442658113
 20
106.6499690113
 11
128.9442658113
 21
106.2425993735
  0
LINE
  5
234
100
AcDbEntity
  8
0
100
AcDbLine
 62
7
  6
CONTINUOUS
 10
128.9956368462
 20
106.7165465182
 11
128.9956368462
 21
106.2731446683
  0
LINE
  5
235
100
AcDbEntity
  8
0
100
AcDbLine
 62
7
  6
CONTINUOUS
 10
121.4908623776
 20
107.213929227
 11
121.5086246139
 21
107.2446943229
  0
LINE
  5
236
100
AcDbEntity
  8
0
100
AcDbLine
 62
7
  6
CONTINUOUS
 10
121.7561119874
 20
107.265119889
 11
121.8621780045
 21
107.4488316195
  0
LINE
  5
237
100
AcDbEntity
  8
0
100
AcDbLine
 62
7
  6
CONTINUOUS
 10
122.1096653779
 20
107.4692571857
 11
122.2157313951
 21
107.6529689162
  0
LINE
  5
238
100
AcDbEntity
  8
0
100
AcDbLine
 62
7
  6
CONTINUOUS
 10
122.4632187685
 20
107.6733944823
 11
122.5692847857
 21
107.8571062129
  0
LINE
  5
239
100
AcDbEntity
  8
0
100
AcDbLine
 62
7
  6
CONTINUOUS
 10
122.8167721591
 20
107.877531779
 11
122.9228381763
 21
108.0612435095
  0
LINE
  5
23A
100
AcDbEntity
  8
0
100
AcDbLine
 62
7
  6
CONTINUOUS
 10
123.1703255497
 20
108.0816690757
 11
123.2763915669
 21
108.2653808062
  0
LINE
  5
23B
100
AcDbEntity
  8
0
100
AcDbLine
 62
250
  6
CONTINUOUS
 10
111.1848656086
 20
111.2863247758
 11
113.6597393428
 21
112.7152858525
  0
LINE
  5
23C
100
AcDbEntity
  8
0
100
AcDbLine
 62
7
  6
CONTINUOUS
 10
173.7638157436
 20
73.3577492024
 11
111.6798403554
 21
109.2042584966
  0
LINE
  5
23D
100
AcDbEntity
  8
0
100
AcDbLine
 62
7
  6
CONTINUOUS
 10
174.1173691342
 20
73.9701216375
 11
112.033393746
 21
109.8166309317
  0
LWPOLYLINE
  5
23E
100
AcDbEntity
  8
0
100
AcDbPolyline
 62
7
  6
CONTINUOUS
 90
28
 70
0
 10
111.6798403554
 20
109.2042584966
 10
111.6095659908
 20
109.2472466909
 10
111.5399938026
 20
109.2944442035
 10
111.4711237906
 20
109.3458510343
 10
111.4027276821
 20
109.4016692407
 10
111.3350337499
 20
109.4616967654
 10
111.2687268128
 20
109.5253274359
 10
111.2038211143
 20
109.5925978616
 10
111.1403024108
 20
109.663471433
 10
111.0788127907
 20
109.7372321493
 10
111.0193729981
 20
109.8139091942
 10
110.9619622889
 20
109.8934733838
 10
110.9071605184
 20
109.9751211665
 10
110.8549942389
 20
110.0588734924
 10
110.8054368983
 20
110.1447094114
 10
110.7589886959
 20
110.2317625207
 10
110.7156810732
 20
110.3200452659
 10
110.6754825888
 20
110.4095452016
 10
110.6387991179
 20
110.4993585887
 10
110.6056662603
 20
110.5894889083
 10
110.5760484163
 20
110.6799326794
 10
110.5502446614
 20
110.7697757192
 10
110.5282938475
 20
110.8590120212
 10
110.5101571227
 20
110.9476475921
 10
110.4960170063
 20
111.0347862692
 10
110.4859343382
 20
111.1201293318
 10
110.4798482786
 20
111.2039755006
 10
110.4777588274
 20
111.2863247758
  0
LWPOLYLINE
  5
23F
100
AcDbEntity
  8
0
100
AcDbPolyline
 62
7
  6
CONTINUOUS
 90
25
 70
0
 10
112.033393746
 20
109.8166309317
 10
111.9779067706
 20
109.8507654537
 10
111.9226537403
 20
109.8889505413
 10
111.8678712769
 20
109.9310234871
 10
111.8137929104
 20
109.9768059049
 10
111.7606515785
 20
110.0261015684
 10
111.708678406
 20
110.0786965087
 10
111.6580961327
 20
110.1343653101
 10
111.609121271
 20
110.1928696763
 10
111.5619662015
 20
110.2539555051
 10
111.5168342026
 20
110.3173583557
 10
111.4739163596
 20
110.3828086273
 10
111.4333938308
 20
110.4500295939
 10
111.3954401101
 20
110.5187334516
 10
111.3602176841
 20
110.5886260636
 10
111.3278756116
 20
110.6594122055
 10
111.2985518149
 20
110.7307916362
 10
111.272373685
 20
110.8024560553
 10
111.2494551179
 20
110.8740943925
 10
111.2298942451
 20
110.9453998691
 10
111.2137748484
 20
111.0160670266
 10
111.2011666028
 20
111.0857890331
 10
111.1921229921
 20
111.1542661439
 10
111.1866817859
 20
111.2212068188
 10
111.1848656086
 20
111.2863247758
  0
LWPOLYLINE
  5
240
100
AcDbEntity
  8
0
100
AcDbPolyline
 62
250
  6
CONTINUOUS
 90
10
 70
0
 10
126.9997863983
 20
104.9709617199
 10
127.0020415728
 20
104.9656597538
 10
127.0038960986
 20
104.9606392389
 10
127.0053161595
 20
104.9559382093
 10
127.006263314
 20
104.9516156526
 10
127.0067135536
 20
104.9476866483
 10
127.0066314885
 20
104.9441471114
 10
127.0059590733
 20
104.9410583146
 10
127.0046373725
 20
104.9384940658
 10
127.0037109408
 20
104.9374262128
  0
LINE
  5
241
100
AcDbEntity
  8
0
100
AcDbLine
 62
250
  6
CONTINUOUS
 10
126.9942388624
 20
104.9537983268
 11
126.9997863983
 21
104.9709617199
  0
LINE
  5
242
100
AcDbEntity
  8
0
100
AcDbLine
 62
7
  6
CONTINUOUS
 10
125.3799496741
 20
104.9684189637
 11
125.3977119105
 21
104.9991840596
  0
LINE
  5
243
100
AcDbEntity
  8
0
100
AcDbLine
 62
7
  6
CONTINUOUS
 10
125.6451992839
 20
105.0196096257
 11
125.7512653011
 21
105.2033213562
  0
LINE
  5
244
100
AcDbEntity
  8
0
100
AcDbLine
 62
7
  6
CONTINUOUS
 10
125.9987526745
 20
105.2237469224
 11
126.1048186917
 21
105.4074586529
  0
LINE
  5
245
100
AcDbEntity
  8
0
100
AcDbLine
 62
7
  6
CONTINUOUS
 10
126.3523060651
 20
105.427884219
 11
126.4583720822
 21
105.6115959496
  0
LINE
  5
246
100
AcDbEntity
  8
0
100
AcDbLine
 62
7
  6
CONTINUOUS
 10
126.7058594557
 20
105.6320215157
 11
126.8119254728
 21
105.8157332462
  0
LINE
  5
247
100
AcDbEntity
  8
0
100
AcDbLine
 62
7
  6
CONTINUOUS
 10
127.0594128463
 20
105.8361588124
 11
127.1654788634
 21
106.0198705429
  0
LINE
  5
248
100
AcDbEntity
  8
0
100
AcDbLine
 62
250
  6
CONTINUOUS
 10
112.033393746
 20
109.8166309317
 11
114.5082674802
 21
111.2455920083
  0
LINE
  5
249
100
AcDbEntity
  8
RACCORDO
100
AcDbLine
 62
7
  6
CONTINUOUS
 10
114.5082674802
 20
111.2455920083
 11
174.9658972716
 21
76.3381142788
  0
LINE
  5
24A
100
AcDbEntity
  8
0
100
AcDbLine
 62
7
  6
CONTINUOUS
 10
173.1274196406
 20
77.4406490099
 11
169.238332344
 21
79.6861592732
  0
LINE
  5
24B
100
AcDbEntity
  8
0
100
AcDbLine
 62
7
  6
CONTINUOUS
 10
125.3977119105
 20
104.9991840596
 11
121.5086246139
 21
107.2446943229
  0
LINE
  5
24C
100
AcDbEntity
  8
0
100
AcDbLine
 62
7
  6
CONTINUOUS
 10
173.374907014
 20
77.4610745761
 11
169.3797537003
 21
79.7678141919
  0
LINE
  5
24D
100
AcDbEntity
  8
0
100
AcDbLine
 62
7
  6
CONTINUOUS
 10
121.6500459702
 20
107.3263492415
 11
125.6451992839
 21
105.0196096257
  0
LINE
  5
24E
100
AcDbEntity
  8
0
100
AcDbLine
 62
7
  6
CONTINUOUS
 10
173.4809730312
 20
77.6447863066
 11
169.5918857346
 21
79.8902965699
  0
LINE
  5
24F
100
AcDbEntity
  8
0
100
AcDbLine
 62
7
  6
CONTINUOUS
 10
125.7512653011
 20
105.2033213562
 11
121.8621780045
 21
107.4488316195
  0
LINE
  5
250
100
AcDbEntity
  8
0
100
AcDbLine
 62
7
  6
CONTINUOUS
 10
173.7284604046
 20
77.6652118728
 11
169.7333070909
 21
79.9719514886
  0
LINE
  5
251
100
AcDbEntity
  8
0
100
AcDbLine
 62
7
  6
CONTINUOUS
 10
122.0035993608
 20
107.5304865382
 11
125.9987526745
 21
105.2237469224
  0
LINE
  5
252
100
AcDbEntity
  8
0
100
AcDbLine
 62
7
  6
CONTINUOUS
 10
173.8345264217
 20
77.8489236033
 11
169.9454391252
 21
80.0944338666
  0
LINE
  5
253
100
AcDbEntity
  8
0
100
AcDbLine
 62
7
  6
CONTINUOUS
 10
126.1048186917
 20
105.4074586529
 11
122.2157313951
 21
107.6529689162
  0
LINE
  5
254
100
AcDbEntity
  8
0
100
AcDbLine
 62
7
  6
CONTINUOUS
 10
174.0820137952
 20
77.8693491694
 11
170.0868604815
 21
80.1760887852
  0
LINE
  5
255
100
AcDbEntity
  8
0
100
AcDbLine
 62
7
  6
CONTINUOUS
 10
122.3571527514
 20
107.7346238349
 11
126.3523060651
 21
105.427884219
  0
LINE
  5
256
100
AcDbEntity
  8
0
100
AcDbLine
 62
7
  6
CONTINUOUS
 10
174.1880798123
 20
78.0530608999
 11
170.2989925158
 21
80.2985711632
  0
LINE
  5
257
100
AcDbEntity
  8
0
100
AcDbLine
 62
7
  6
CONTINUOUS
 10
126.4583720822
 20
105.6115959496
 11
122.5692847857
 21
107.8571062129
  0
LINE
  5
258
100
AcDbEntity
  8
0
100
AcDbLine
 62
7
  6
CONTINUOUS
 10
174.4355671858
 20
78.0734864661
 11
170.440413872
 21
80.3802260819
  0
LINE
  5
259
100
AcDbEntity
  8
0
100
AcDbLine
 62
7
  6
CONTINUOUS
 10
122.710706142
 20
107.9387611315
 11
126.7058594557
 21
105.6320215157
  0
LINE
  5
25A
100
AcDbEntity
  8
0
100
AcDbLine
 62
7
  6
CONTINUOUS
 10
174.5416332029
 20
78.2571981966
 11
170.6525459064
 21
80.5027084599
  0
LINE
  5
25B
100
AcDbEntity
  8
0
100
AcDbLine
 62
7
  6
CONTINUOUS
 10
126.8119254728
 20
105.8157332462
 11
122.9228381763
 21
108.0612435095
  0
LINE
  5
25C
100
AcDbEntity
  8
0
100
AcDbLine
 62
7
  6
CONTINUOUS
 10
174.7891205763
 20
78.2776237627
 11
170.7939672626
 21
80.5843633786
  0
LINE
  5
25D
100
AcDbEntity
  8
0
100
AcDbLine
 62
7
  6
CONTINUOUS
 10
123.0642595326
 20
108.1428984282
 11
127.0594128463
 21
105.8361588124
  0
LINE
  5
25E
100
AcDbEntity
  8
0
100
AcDbLine
 62
7
  6
CONTINUOUS
 10
174.8951865935
 20
78.4613354933
 11
171.006099297
 21
80.7068457566
  0
LINE
  5
25F
100
AcDbEntity
  8
0
100
AcDbLine
 62
7
  6
CONTINUOUS
 10
127.1654788634
 20
106.0198705429
 11
123.2763915669
 21
108.2653808062
  0
LINE
  5
260
100
AcDbEntity
  8
0
100
AcDbLine
 62
7
  6
CONTINUOUS
 10
174.9658972716
 20
78.5838178713
 11
171.1475206532
 21
80.7885006752
  0
LINE
  5
261
100
AcDbEntity
  8
0
100
AcDbLine
 62
7
  6
CONTINUOUS
 10
123.4178129231
 20
108.3470357249
 11
127.4129662368
 21
106.040296109
  0
LINE
  5
262
100
AcDbEntity
  8
0
100
AcDbLine
 62
250
  6
CONTINUOUS
 10
174.9658972716
 20
78.7064136472
 11
171.1811156559
 21
80.8916991177
  0
LINE
  5
263
100
AcDbEntity
  8
0
100
AcDbLine
 62
250
  6
CONTINUOUS
 10
127.6977451841
 20
105.9984522535
 11
123.4514079258
 21
108.4502341673
  0
LINE
  5
264
100
AcDbEntity
  8
0
100
AcDbLine
 62
250
  6
CONTINUOUS
 10
174.9658972716
 20
78.7836113414
 11
171.2551628088
 21
80.9261429138
  0
LINE
  5
265
100
AcDbEntity
  8
0
100
AcDbLine
 62
250
  6
CONTINUOUS
 10
127.76441754
 20
106.0371541649
 11
123.5254550787
 21
108.4846779634
  0
LINE
  5
266
100
AcDbEntity
  8
0
100
AcDbLine
 62
7
  6
CONTINUOUS
 10
125.1110568119
 20
109.0025039166
 11
128.9370582025
 21
106.7934186647
  0
LINE
  5
267
100
AcDbEntity
  8
0
100
AcDbLine
 62
7
  6
CONTINUOUS
 10
172.840764542
 20
81.4439688669
 11
174.9658972716
 21
80.216943863
  0
LINE
  5
268
100
AcDbEntity
  8
0
100
AcDbLine
 62
7
  6
CONTINUOUS
 10
141.0880613166
 20
99.8164774132
 11
144.7798588511
 21
97.6848797858
  0
LINE
  5
269
100
AcDbEntity
  8
0
100
AcDbLine
 62
7
  6
CONTINUOUS
 10
156.9979638933
 20
90.6302990633
 11
160.6897614278
 21
88.4987014359
  0
LINE
  5
26A
100
AcDbEntity
  8
0
100
AcDbLine
 62
250
  6
CONTINUOUS
 10
126.9997863983
 20
104.9709617199
 11
127.3357313633
 21
105.2977153097
  0
LINE
  5
26B
100
AcDbEntity
  8
0
100
AcDbLine
 62
7
  6
CONTINUOUS
 10
127.003711293
 20
104.9374265554
 11
127.4326956366
 21
105.3546739883
  0
LWPOLYLINE
  5
26C
100
AcDbEntity
  8
0
100
AcDbPolyline
 62
250
  6
CONTINUOUS
 90
6
 70
0
 10
126.9450970023
 20
104.8929625645
 10
126.9574079284
 20
104.9013863844
 10
126.9686823232
 20
104.9118401942
 10
126.9786282189
 20
104.9241250648
 10
126.9871681658
 20
104.9381463619
 10
126.9942388624
 20
104.9537983268
  0
LINE
  5
26D
100
AcDbEntity
  8
0
100
AcDbLine
 62
7
  6
CONTINUOUS
 10
127.6977451841
 20
105.9984522535
 11
125.7543517214
 21
104.752243914
  0
LINE
  5
26E
100
AcDbEntity
  8
0
100
AcDbLine
 62
7
  6
CONTINUOUS
 10
121.5086246139
 20
107.2446943229
 11
121.6500459702
 21
107.3263492415
  0
LINE
  5
26F
100
AcDbEntity
  8
0
100
AcDbLine
 62
7
  6
CONTINUOUS
 10
121.8621780045
 20
107.4488316195
 11
122.0035993608
 21
107.5304865382
  0
LINE
  5
270
100
AcDbEntity
  8
0
100
AcDbLine
 62
7
  6
CONTINUOUS
 10
122.2157313951
 20
107.6529689162
 11
122.3571527514
 21
107.7346238349
  0
LINE
  5
271
100
AcDbEntity
  8
0
100
AcDbLine
 62
7
  6
CONTINUOUS
 10
122.5692847857
 20
107.8571062129
 11
122.710706142
 21
107.9387611315
  0
LINE
  5
272
100
AcDbEntity
  8
0
100
AcDbLine
 62
7
  6
CONTINUOUS
 10
122.9228381763
 20
108.0612435095
 11
123.0642595326
 21
108.1428984282
  0
LINE
  5
273
100
AcDbEntity
  8
0
100
AcDbLine
 62
7
  6
CONTINUOUS
 10
123.2763915669
 20
108.2653808062
 11
123.4178129231
 21
108.3470357249
  0
LINE
  5
274
100
AcDbEntity
  8
0
100
AcDbLine
 62
7
  6
CONTINUOUS
 10
121.2930508249
 20
107.3281431384
 11
123.4514079258
 21
108.4502341673
  0
LINE
  5
275
100
AcDbEntity
  8
0
100
AcDbLine
 62
7
  6
CONTINUOUS
 10
123.5254550787
 20
108.4846779634
 11
124.8358093344
 21
109.0221402901
  0
LWPOLYLINE
  5
276
100
AcDbEntity
  8
0
100
AcDbPolyline
 62
250
  6
CONTINUOUS
 90
6
 70
0
 10
142.909688975
 20
95.78478337
 10
142.9137600393
 20
95.7745349628
 10
142.9161262615
 20
95.7655977285
 10
142.9165599038
 20
95.7582449546
 10
142.9148432576
 20
95.7527588994
 10
142.913613188
 20
95.7512475424
  0
LINE
  5
277
100
AcDbEntity
  8
0
100
AcDbLine
 62
250
  6
CONTINUOUS
 10
144.7906702644
 20
97.4485188168
 11
144.7906702644
 21
97.0191210049
  0
LINE
  5
278
100
AcDbEntity
  8
0
100
AcDbLine
 62
7
  6
CONTINUOUS
 10
144.8677268168
 20
97.5630234871
 11
144.8677268168
 21
97.064938947
  0
LINE
  5
279
100
AcDbEntity
  8
0
100
AcDbLine
 62
7
  6
CONTINUOUS
 10
126.0835577729
 20
104.5621644658
 11
128.9442658113
 21
106.2425993735
  0
LINE
  5
27A
100
AcDbEntity
  8
0
100
AcDbLine
 62
7
  6
CONTINUOUS
 10
126.9450969432
 20
104.8929625302
 11
126.2296343406
 21
104.4778216864
  0
LINE
  5
27B
100
AcDbEntity
  8
0
100
AcDbLine
 62
250
  6
CONTINUOUS
 10
126.9997863983
 20
104.9709617199
 11
126.1894012438
 21
104.5010517722
  0
LINE
  5
27C
100
AcDbEntity
  8
0
100
AcDbLine
 62
7
  6
CONTINUOUS
 10
125.3977119105
 20
104.9991840596
 11
125.5391332667
 21
105.0808389782
  0
LINE
  5
27D
100
AcDbEntity
  8
0
100
AcDbLine
 62
7
  6
CONTINUOUS
 10
125.7512653011
 20
105.2033213562
 11
125.8926866573
 21
105.2849762749
  0
LINE
  5
27E
100
AcDbEntity
  8
0
100
AcDbLine
 62
7
  6
CONTINUOUS
 10
126.1048186917
 20
105.4074586529
 11
126.2462400479
 21
105.4891135716
  0
LINE
  5
27F
100
AcDbEntity
  8
0
100
AcDbLine
 62
7
  6
CONTINUOUS
 10
126.4583720822
 20
105.6115959496
 11
126.5997934385
 21
105.6932508682
  0
LINE
  5
280
100
AcDbEntity
  8
0
100
AcDbLine
 62
7
  6
CONTINUOUS
 10
126.8119254728
 20
105.8157332462
 11
126.9533468291
 21
105.8973881649
  0
LINE
  5
281
100
AcDbEntity
  8
0
100
AcDbLine
 62
7
  6
CONTINUOUS
 10
127.1654788634
 20
106.0198705429
 11
127.3069002197
 21
106.1015254615
  0
LINE
  5
282
100
AcDbEntity
  8
0
100
AcDbLine
 62
7
  6
CONTINUOUS
 10
127.4129662368
 20
106.040296109
 11
125.4682449214
 21
104.9174383946
  0
LINE
  5
283
100
AcDbEntity
  8
0
100
AcDbLine
 62
7
  6
CONTINUOUS
 10
128.9442658113
 20
106.6499690113
 11
127.76441754
 21
106.0371541649
  0
LINE
  5
284
100
AcDbEntity
  8
0
100
AcDbLine
 62
250
  6
CONTINUOUS
 10
110.4777588274
 20
111.2863247758
 11
111.1848656086
 21
111.2863247758
  0
LINE
  5
285
100
AcDbEntity
  8
0
100
AcDbLine
 62
250
  6
CONTINUOUS
 10
142.8970498275
 20
95.7519485169
 11
142.909688975
 21
95.78478337
  0
LWPOLYLINE
  5
286
100
AcDbEntity
  8
0
100
AcDbPolyline
 62
250
  6
CONTINUOUS
 90
6
 70
0
 10
158.8195915517
 20
86.5986050202
 10
158.823662616
 20
86.588356613
 10
158.8260288382
 20
86.5794193787
 10
158.8264624805
 20
86.5720666047
 10
158.8247458343
 20
86.5665805495
 10
158.8235157647
 20
86.5650691926
  0
LINE
  5
287
100
AcDbEntity
  8
0
100
AcDbLine
 62
250
  6
CONTINUOUS
 10
142.909688975
 20
95.78478337
 11
143.24563394
 21
96.1115369598
  0
LINE
  5
288
100
AcDbEntity
  8
0
100
AcDbLine
 62
7
  6
CONTINUOUS
 10
142.9136137213
 20
95.7512480612
 11
143.3425982133
 21
96.1684956384
  0
LWPOLYLINE
  5
289
100
AcDbEntity
  8
0
100
AcDbPolyline
 62
250
  6
CONTINUOUS
 90
3
 70
0
 10
142.854999355
 20
95.7067840847
 10
142.8785567719
 20
95.7256384349
 10
142.8970498275
 20
95.7519485169
  0
LINE
  5
28A
100
AcDbEntity
  8
0
100
AcDbLine
 62
7
  6
CONTINUOUS
 10
144.7906702644
 20
97.4485188168
 11
141.738034254
 21
95.5234659422
  0
LINE
  5
28B
100
AcDbEntity
  8
0
100
AcDbLine
 62
7
  6
CONTINUOUS
 10
141.9934603496
 20
95.3759861159
 11
144.7906702644
 21
97.0191210049
  0
LINE
  5
28C
100
AcDbEntity
  8
0
100
AcDbLine
 62
7
  6
CONTINUOUS
 10
137.284894344
 20
98.0946531153
 11
140.6751901004
 21
99.8247454844
  0
LINE
  5
28D
100
AcDbEntity
  8
0
100
AcDbLine
 62
250
  6
CONTINUOUS
 10
160.7005728411
 20
88.2623404669
 11
160.7005728411
 21
87.832942655
  0
LINE
  5
28E
100
AcDbEntity
  8
0
100
AcDbLine
 62
7
  6
CONTINUOUS
 10
160.7776293935
 20
88.3768451372
 11
160.7776293935
 21
87.8787605972
  0
LINE
  5
28F
100
AcDbEntity
  8
0
100
AcDbLine
 62
7
  6
CONTINUOUS
 10
142.854999388
 20
95.7067841038
 11
142.1395369173
 21
95.2916433365
  0
LINE
  5
290
100
AcDbEntity
  8
0
100
AcDbLine
 62
250
  6
CONTINUOUS
 10
142.909688975
 20
95.78478337
 11
142.0993038205
 21
95.3148734223
  0
LINE
  5
291
100
AcDbEntity
  8
0
100
AcDbLine
 62
7
  6
CONTINUOUS
 10
111.6798403554
 20
146.9251852844
 11
173.7638157436
 21
111.0786759903
  0
LWPOLYLINE
  5
292
100
AcDbEntity
  8
0
100
AcDbPolyline
 62
7
  6
CONTINUOUS
 90
28
 70
0
 10
173.7638157436
 20
111.0786759903
 10
173.8340901082
 20
111.0356877959
 10
173.9036622965
 20
110.9884902834
 10
173.9725323084
 20
110.9370834526
 10
174.040928417
 20
110.8812652461
 10
174.1086223492
 20
110.8212377215
 10
174.1749292863
 20
110.757607051
 10
174.2398349848
 20
110.6903366253
 10
174.3033536882
 20
110.6194630538
 10
174.3648433084
 20
110.5457023375
 10
174.4242831009
 20
110.4690252927
 10
174.4816938102
 20
110.389461103
 10
174.5364955806
 20
110.3078133203
 10
174.5886618601
 20
110.2240609944
 10
174.6382192008
 20
110.1382250755
 10
174.6846674032
 20
110.0511719662
 10
174.7279750259
 20
109.9628892209
 10
174.7681735103
 20
109.8733892853
 10
174.8048569812
 20
109.7835758982
 10
174.8379898387
 20
109.6934455786
 10
174.8676076827
 20
109.6030018075
 10
174.8934114377
 20
109.5131587676
 10
174.9153622516
 20
109.4239224656
 10
174.9334989764
 20
109.3352868948
 10
174.9476390927
 20
109.2481482177
 10
174.9577217608
 20
109.1628051551
 10
174.9638078205
 20
109.0789589862
 10
174.9658972716
 20
108.9966097111
  0
LWPOLYLINE
  5
293
100
AcDbEntity
  8
0
100
AcDbPolyline
 62
250
  6
CONTINUOUS
 90
10
 70
0
 10
174.7294941284
 20
77.4124266703
 10
174.7317493029
 20
77.4071247041
 10
174.7336038287
 20
77.4021041893
 10
174.7350238896
 20
77.3974031597
 10
174.7359710441
 20
77.393080603
 10
174.7364212837
 20
77.3891515987
 10
174.7363392186
 20
77.3856120618
 10
174.7356668034
 20
77.3825232649
 10
174.7343451026
 20
77.3799590162
 10
174.7334186709
 20
77.3788911632
  0
LINE
  5
294
100
AcDbEntity
  8
0
100
AcDbLine
 62
250
  6
CONTINUOUS
 10
158.8069524042
 20
86.5657701671
 11
158.8195915517
 21
86.5986050202
  0
LINE
  5
295
100
AcDbEntity
  8
SMUSSO
100
AcDbLine
 62
7
  6
CONTINUOUS
 10
193.8102929903
 20
118.2013395178
 11
195.5780599432
 21
119.2220260012
  0
LINE
  5
296
100
AcDbEntity
  8
0
100
AcDbLine
 62
250
  6
CONTINUOUS
 10
195.5786058248
 20
119.2222680645
 11
197.5934219654
 21
120.3856016468
  0
LINE
  5
297
100
AcDbEntity
  8
SMUSSO
100
AcDbLine
 62
7
  6
CONTINUOUS
 10
193.8102929903
 20
117.3848297861
 11
193.1031862091
 21
116.9765946477
  0
LINE
  5
298
100
AcDbEntity
  8
0
100
AcDbLine
 62
250
  6
CONTINUOUS
 10
196.2856049102
 20
117.9977097289
 11
198.3004210508
 21
119.1610433113
  0
LINE
  5
299
100
AcDbEntity
  8
SMUSSO
100
AcDbLine
 62
7
  6
CONTINUOUS
 10
194.5173997715
 20
116.9765946477
 11
196.2851667244
 21
117.997281131
  0
LINE
  5
29A
100
AcDbEntity
  8
0
100
AcDbLine
 62
250
  6
CONTINUOUS
 10
197.6189564566
 20
120.3709886512
 11
198.4689975896
 21
120.1251147028
  0
LINE
  5
29B
100
AcDbEntity
  8
0
100
AcDbLine
 62
250
  6
CONTINUOUS
 10
158.8195915517
 20
86.5986050202
 11
159.1555365167
 21
86.9253586099
  0
LINE
  5
29C
100
AcDbEntity
  8
0
100
AcDbLine
 62
7
  6
CONTINUOUS
 10
158.823516298
 20
86.5650697113
 11
159.25250079
 21
86.9823172885
  0
LWPOLYLINE
  5
29D
100
AcDbEntity
  8
0
100
AcDbPolyline
 62
250
  6
CONTINUOUS
 90
3
 70
0
 10
158.7649019317
 20
86.5206057348
 10
158.7884593486
 20
86.539460085
 10
158.8069524042
 20
86.5657701671
  0
LINE
  5
29E
100
AcDbEntity
  8
0
100
AcDbLine
 62
7
  6
CONTINUOUS
 10
160.7005728411
 20
88.2623404669
 11
157.6479368307
 21
86.3372875923
  0
LINE
  5
29F
100
AcDbEntity
  8
0
100
AcDbLine
 62
7
  6
CONTINUOUS
 10
157.9033629263
 20
86.189807766
 11
160.7005728411
 21
87.832942655
  0
LINE
  5
2A0
100
AcDbEntity
  8
0
100
AcDbLine
 62
7
  6
CONTINUOUS
 10
158.7649019646
 20
86.5206057539
 11
158.049439494
 21
86.1054649866
  0
LINE
  5
2A1
100
AcDbEntity
  8
0
100
AcDbLine
 62
250
  6
CONTINUOUS
 10
158.8195915517
 20
86.5986050202
 11
158.0092063972
 21
86.1286950724
  0
LINE
  5
2A2
100
AcDbEntity
  8
0
100
AcDbLine
 62
7
  6
CONTINUOUS
 10
153.1947969207
 20
88.9084747654
 11
156.5850926771
 21
90.6385671346
  0
LINE
  5
2A3
100
AcDbEntity
  8
SMUSSO
100
AcDbLine
 62
7
  6
CONTINUOUS
 10
193.1031862091
 20
116.9765946477
 11
92.34046989
 21
175.1557241969
  0
LINE
  5
2A4
100
AcDbEntity
  8
0
100
AcDbLine
 62
7
  6
CONTINUOUS
 10
174.9658972716
 20
108.9966097111
 11
174.9658972716
 21
74.0516818643
  0
LWPOLYLINE
  5
2A5
100
AcDbEntity
  8
0
100
AcDbPolyline
 62
7
  6
CONTINUOUS
 90
28
 70
0
 10
174.9658972716
 20
74.0516818643
 10
174.9638077821
 20
73.9717450769
 10
174.9577216765
 20
73.8949266628
 10
174.9476389549
 20
73.821226622
 10
174.9334987722
 20
73.7504165073
 10
174.9153619734
 20
73.6827247658
 10
174.8934110938
 20
73.6188367392
 10
174.867607305
 20
73.5587912929
 10
174.8379894354
 20
73.5025495614
 10
174.8048565048
 20
73.4506802902
 10
174.7681728654
 20
73.4032280145
 10
174.727974165
 20
73.3601481991
 10
174.6846663664
 20
73.321875984
 10
174.6382180484
 20
73.2884601702
 10
174.5886606323
 20
73.2598519567
 10
174.5364943451
 20
73.2363400808
 10
174.481692686
 20
73.2179761477
 10
174.4242821557
 20
73.2047085521
 10
174.3648424832
 20
73.1966712151
 10
174.3033528519
 20
73.1939172616
 10
174.2398340784
 20
73.1963935667
 10
174.1749283412
 20
73.204074676
 10
174.1086214147
 20
73.2170136644
 10
174.0409275245
 20
73.235157457
 10
173.9725315267
 20
73.2583213749
 10
173.9036617066
 20
73.2864438587
 10
173.8340897789
 20
73.3195864679
 10
173.7638157436
 20
73.3577492024
  0
LWPOLYLINE
  5
2A6
100
AcDbEntity
  8
0
100
AcDbPolyline
 62
7
  6
CONTINUOUS
 90
7
 70
0
 10
174.9658972716
 20
74.4599564577
 10
174.9640811251
 20
74.3969363015
 10
174.958639989
 20
74.336279297
 10
174.9495964543
 20
74.2782456185
 10
174.9369882366
 20
74.2230831381
 10
174.9208687982
 20
74.1710299521
 10
174.9013078741
 20
74.1223126676
  0
LINE
  5
2A7
100
AcDbEntity
  8
0
100
AcDbLine
 62
250
  6
CONTINUOUS
 10
110.4777588274
 20
146.2312526225
 11
111.1848656086
 21
146.2312526225
  0
LINE
  5
2A8
100
AcDbEntity
  8
SMUSSO
100
AcDbLine
 62
7
  6
CONTINUOUS
 10
193.8102929903
 20
117.3848297861
 11
194.5173997715
 21
116.9765946477
  0
LINE
  5
2A9
100
AcDbEntity
  8
SMUSSO
100
AcDbLine
 62
7
  6
CONTINUOUS
 10
193.8102929903
 20
118.2013395178
 11
93.0475766712
 21
176.380469067
  0
LINE
  5
2AA
100
AcDbEntity
  8
SMUSSO
100
AcDbLine
 62
7
  6
CONTINUOUS
 10
94.8153436241
 20
177.4011555504
 11
196.2851667244
 21
118.8137908628
  0
LINE
  5
2AB
100
AcDbEntity
  8
0
100
AcDbLine
 62
7
  6
CONTINUOUS
 10
97.8204397484
 20
177.9932711298
 11
197.5934219654
 21
120.3856016468
  0
LINE
  5
2AC
100
AcDbEntity
  8
0
100
AcDbLine
 62
7
  6
CONTINUOUS
 10
99.0661844677
 20
177.5190531895
 11
198.4689975896
 21
120.1251147028
  0
LINE
  5
2AD
100
AcDbEntity
  8
0
100
AcDbLine
 62
250
  6
CONTINUOUS
 10
174.7239465925
 20
77.3952632771
 11
174.7294941284
 21
77.4124266703
  0
LINE
  5
2AE
100
AcDbEntity
  8
0
100
AcDbLine
 62
7
  6
CONTINUOUS
 10
169.2205701077
 20
79.6553941774
 11
169.238332344
 21
79.6861592732
  0
LINE
  5
2AF
100
AcDbEntity
  8
0
100
AcDbLine
 62
7
  6
CONTINUOUS
 10
169.4858197174
 20
79.7065848394
 11
169.5918857346
 21
79.8902965699
  0
LINE
  5
2B0
100
AcDbEntity
  8
0
100
AcDbLine
 62
7
  6
CONTINUOUS
 10
169.839373108
 20
79.9107221361
 11
169.9454391252
 21
80.0944338666
  0
LINE
  5
2B1
100
AcDbEntity
  8
0
100
AcDbLine
 62
7
  6
CONTINUOUS
 10
170.1929264986
 20
80.1148594327
 11
170.2989925158
 21
80.2985711632
  0
LINE
  5
2B2
100
AcDbEntity
  8
0
100
AcDbLine
 62
7
  6
CONTINUOUS
 10
170.5464798892
 20
80.3189967294
 11
170.6525459064
 21
80.5027084599
  0
LINE
  5
2B3
100
AcDbEntity
  8
0
100
AcDbLine
 62
7
  6
CONTINUOUS
 10
170.9000332798
 20
80.523134026
 11
171.006099297
 21
80.7068457566
  0
LINE
  5
2B4
100
AcDbEntity
  8
0
100
AcDbLine
 62
7
  6
CONTINUOUS
 10
169.238332344
 20
79.6861592732
 11
169.3797537003
 21
79.7678141919
  0
LINE
  5
2B5
100
AcDbEntity
  8
0
100
AcDbLine
 62
7
  6
CONTINUOUS
 10
169.5918857346
 20
79.8902965699
 11
169.7333070909
 21
79.9719514886
  0
LINE
  5
2B6
100
AcDbEntity
  8
0
100
AcDbLine
 62
7
  6
CONTINUOUS
 10
169.9454391252
 20
80.0944338666
 11
170.0868604815
 21
80.1760887852
  0
LINE
  5
2B7
100
AcDbEntity
  8
0
100
AcDbLine
 62
7
  6
CONTINUOUS
 10
170.2989925158
 20
80.2985711632
 11
170.440413872
 21
80.3802260819
  0
LINE
  5
2B8
100
AcDbEntity
  8
0
100
AcDbLine
 62
7
  6
CONTINUOUS
 10
170.6525459064
 20
80.5027084599
 11
170.7939672626
 21
80.5843633786
  0
LINE
  5
2B9
100
AcDbEntity
  8
0
100
AcDbLine
 62
7
  6
CONTINUOUS
 10
171.006099297
 20
80.7068457566
 11
171.1475206532
 21
80.7885006752
  0
LINE
  5
2BA
100
AcDbEntity
  8
0
100
AcDbLine
 62
7
  6
CONTINUOUS
 10
169.022758555
 20
79.7696080888
 11
171.1811156559
 21
80.8916991177
  0
LINE
  5
2BB
100
AcDbEntity
  8
0
100
AcDbLine
 62
7
  6
CONTINUOUS
 10
171.2551628088
 20
80.9261429138
 11
172.5655170645
 21
81.4636052404
  0
LWPOLYLINE
  5
2BC
100
AcDbEntity
  8
0
100
AcDbPolyline
 62
7
  6
CONTINUOUS
 90
4
 70
0
 10
97.7960331757
 20
178.0074934785
 10
97.7538584881
 20
178.0306657124
 10
97.7118444263
 20
178.050408454
 10
97.6920406113
 20
178.0585460548
  0
LWPOLYLINE
  5
2BD
100
AcDbEntity
  8
0
100
AcDbPolyline
 62
7
  6
CONTINUOUS
 90
7
 70
0
 10
174.9013078741
 20
74.1223126676
 10
174.8783893057
 20
74.0771400652
 10
174.8522112036
 20
74.035705496
 10
174.8228874332
 20
73.9981884434
 10
174.7905453653
 20
73.9647500836
 10
174.7553229367
 20
73.9355314126
 10
174.7173981264
 20
73.9106722243
  0
LINE
  5
2BE
100
AcDbEntity
  8
0
100
AcDbLine
 62
7
  6
CONTINUOUS
 10
173.1096574042
 20
77.4098839141
 11
173.1274196406
 21
77.4406490099
  0
LINE
  5
2BF
100
AcDbEntity
  8
0
100
AcDbLine
 62
7
  6
CONTINUOUS
 10
173.374907014
 20
77.4610745761
 11
173.4809730312
 21
77.6447863066
  0
LINE
  5
2C0
100
AcDbEntity
  8
0
100
AcDbLine
 62
7
  6
CONTINUOUS
 10
173.7284604046
 20
77.6652118728
 11
173.8345264217
 21
77.8489236033
  0
LINE
  5
2C1
100
AcDbEntity
  8
0
100
AcDbLine
 62
7
  6
CONTINUOUS
 10
174.0820137952
 20
77.8693491694
 11
174.1880798123
 21
78.0530608999
  0
LINE
  5
2C2
100
AcDbEntity
  8
0
100
AcDbLine
 62
7
  6
CONTINUOUS
 10
174.4355671858
 20
78.0734864661
 11
174.5416332029
 21
78.2571981966
  0
LINE
  5
2C3
100
AcDbEntity
  8
0
100
AcDbLine
 62
7
  6
CONTINUOUS
 10
174.7891205763
 20
78.2776237627
 11
174.8951865935
 21
78.4613354933
  0
LINE
  5
2C4
100
AcDbEntity
  8
0
100
AcDbLine
 62
250
  6
CONTINUOUS
 10
173.7638157436
 20
73.3577492024
 11
174.1173691342
 21
73.9701216375
  0
LINE
  5
2C5
100
AcDbEntity
  8
0
100
AcDbLine
 62
250
  6
CONTINUOUS
 10
174.7294941284
 20
77.4124266703
 11
174.9658972716
 21
77.6423618791
  0
LINE
  5
2C6
100
AcDbEntity
  8
0
100
AcDbLine
 62
7
  6
CONTINUOUS
 10
174.7334190231
 20
77.3788915057
 11
174.9658972716
 21
77.6050092041
  0
LWPOLYLINE
  5
2C7
100
AcDbEntity
  8
0
100
AcDbPolyline
 62
250
  6
CONTINUOUS
 90
6
 70
0
 10
174.6748047324
 20
77.3344275149
 10
174.6871156585
 20
77.3428513348
 10
174.6983900533
 20
77.3533051446
 10
174.708335949
 20
77.3655900152
 10
174.7168758959
 20
77.3796113123
 10
174.7239465925
 20
77.3952632771
  0
LINE
  5
2C8
100
AcDbEntity
  8
0
100
AcDbLine
 62
7
  6
CONTINUOUS
 10
174.9658972716
 20
78.1439429188
 11
173.4840594515
 21
77.1937088644
  0
LINE
  5
2C9
100
AcDbEntity
  8
0
100
AcDbLine
 62
7
  6
CONTINUOUS
 10
173.813265503
 20
77.0036294162
 11
174.9658972716
 21
77.68070748
  0
LINE
  5
2CA
100
AcDbEntity
  8
0
100
AcDbLine
 62
7
  6
CONTINUOUS
 10
174.6748046733
 20
77.3344274806
 11
173.9593420707
 21
76.9192866367
  0
LINE
  5
2CB
100
AcDbEntity
  8
0
100
AcDbLine
 62
250
  6
CONTINUOUS
 10
174.7294941284
 20
77.4124266703
 11
173.9191089739
 21
76.9425167226
  0
LINE
  5
2CC
100
AcDbEntity
  8
0
100
AcDbLine
 62
7
  6
CONTINUOUS
 10
173.1274196406
 20
77.4406490099
 11
173.2688409968
 21
77.5223039286
  0
LINE
  5
2CD
100
AcDbEntity
  8
0
100
AcDbLine
 62
7
  6
CONTINUOUS
 10
173.4809730312
 20
77.6447863066
 11
173.6223943874
 21
77.7264412253
  0
LINE
  5
2CE
100
AcDbEntity
  8
0
100
AcDbLine
 62
7
  6
CONTINUOUS
 10
173.8345264217
 20
77.8489236033
 11
173.975947778
 21
77.9305785219
  0
LINE
  5
2CF
100
AcDbEntity
  8
0
100
AcDbLine
 62
7
  6
CONTINUOUS
 10
174.1880798123
 20
78.0530608999
 11
174.3295011686
 21
78.1347158186
  0
LINE
  5
2D0
100
AcDbEntity
  8
0
100
AcDbLine
 62
7
  6
CONTINUOUS
 10
174.5416332029
 20
78.2571981966
 11
174.6830545592
 21
78.3388531153
  0
LINE
  5
2D1
100
AcDbEntity
  8
0
100
AcDbLine
 62
7
  6
CONTINUOUS
 10
174.8951865935
 20
78.4613354933
 11
174.9658972716
 21
78.5021629526
  0
LINE
  5
2D2
100
AcDbEntity
  8
0
100
AcDbLine
 62
7
  6
CONTINUOUS
 10
174.9658972716
 20
78.3796924111
 11
173.1979526515
 21
77.3589033449
  0
LWPOLYLINE
  5
2D3
100
AcDbEntity
  8
0
100
AcDbPolyline
 62
7
  6
CONTINUOUS
 90
11
 70
0
 10
97.6920406113
 20
178.0585460548
 10
97.6701593423
 20
178.066654103
 10
97.6289890075
 20
178.0793501163
 10
97.5884766107
 20
178.0884571436
 10
97.5487243716
 20
178.0939391465
 10
97.5098799107
 20
178.0957734384
 10
97.4721089911
 20
178.0939529367
 10
97.4355380678
 20
178.0884745104
 10
97.400303008
 20
178.0793526408
 10
97.3665551383
 20
178.0666223343
 10
97.3432007681
 20
178.0552193955
  0
LINE
  5
2D4
100
AcDbEntity
  8
0
100
AcDbLine
 62
250
  6
CONTINUOUS
 10
97.7960331757
 20
178.0074934785
 11
99.0661844677
 21
177.5190531895
  0
LINE
  5
2D5
100
AcDbEntity
  8
0
100
AcDbLine
 62
7
  6
CONTINUOUS
 10
99.0591586944
 20
177.5224643105
 11
97.6920330504
 21
178.0585421433
  0
LINE
  5
2D6
100
AcDbEntity
  8
SMUSSO
100
AcDbLine
 62
7
  6
CONTINUOUS
 10
193.1031862091
 20
45.1272102899
 11
193.1031862091
 21
116.9765946477
  0
LINE
  5
2D7
100
AcDbEntity
  8
SMUSSO
100
AcDbLine
 62
7
  6
CONTINUOUS
 10
193.8102929903
 20
118.2013395178
 11
193.8102929903
 21
117.3848297861
  0
LINE
  5
2D8
100
AcDbEntity
  8
SMUSSO
100
AcDbLine
 62
7
  6
CONTINUOUS
 10
194.5173997715
 20
45.1272102899
 11
194.5173997715
 21
116.9765946477
  0
LINE
  5
2D9
100
AcDbEntity
  8
SMUSSO
100
AcDbLine
 62
7
  6
CONTINUOUS
 10
196.2851667244
 20
46.1478967733
 11
196.2851667244
 21
118.8137908628
  0
LINE
  5
2DA
100
AcDbEntity
  8
0
100
AcDbLine
 62
250
  6
CONTINUOUS
 10
198.3005338427
 20
119.1904619905
 11
198.5125530852
 21
120.0496743717
  0
LINE
  5
2DB
100
AcDbEntity
  8
0
100
AcDbLine
 62
250
  6
CONTINUOUS
 10
174.1173691342
 20
73.9701216375
 11
174.9658972716
 21
74.4600511495
  0
LWPOLYLINE
  5
2DC
100
AcDbEntity
  8
0
100
AcDbPolyline
 62
7
  6
CONTINUOUS
 90
13
 70
0
 10
174.7173981264
 20
73.9106722243
 10
174.6768467105
 20
73.8902289538
 10
174.633928898
 20
73.8743391168
 10
174.5887969251
 20
73.863053547
 10
174.5416418486
 20
73.8564211841
 10
174.4926669716
 20
73.8544717375
 10
174.442084744
 20
73.8572140524
 10
174.3901117821
 20
73.8646363666
 10
174.3369707341
 20
73.8767068653
 10
174.2828924921
 20
73.8933726855
 10
174.2281099063
 20
73.9145611383
 10
174.1728565796
 20
73.9401809553
 10
174.1173691342
 20
73.9701216375
  0
LWPOLYLINE
  5
2DD
100
AcDbEntity
  8
0
100
AcDbPolyline
 62
7
  6
CONTINUOUS
 90
25
 70
0
 10
198.3005338427
 20
119.1904619905
 10
198.2995133554
 20
119.2442625093
 10
198.2956040913
 20
119.299228496
 10
198.2888309106
 20
119.3551454298
 10
198.2792407656
 20
119.4117826418
 10
198.2668702371
 20
119.4689325728
 10
198.2517370857
 20
119.5264131342
 10
198.2338901091
 20
119.5840244601
 10
198.2134078847
 20
119.6415212596
 10
198.1903631298
 20
119.6986533167
 10
198.1648472612
 20
119.7551904118
 10
198.1369621079
 20
119.8109208068
 10
198.1068120084
 20
119.8656251851
 10
198.0745115982
 20
119.9190882271
 10
198.0401900404
 20
119.9711029801
 10
198.0039851153
 20
120.0214694051
 10
197.9660292909
 20
120.0699934358
 10
197.9264762303
 20
120.1164808049
 10
197.8855062604
 20
120.1607434414
 10
197.8432925337
 20
120.2025906366
 10
197.7999837332
 20
120.2418802054
 10
197.7557286296
 20
120.2785057553
 10
197.71068867
 20
120.3123318255
 10
197.665040161
 20
120.3432023927
 10
197.6189564566
 20
120.3709886512
  0
LINE
  5
2DE
100
AcDbEntity
  8
0
100
AcDbLine
 62
7
  6
CONTINUOUS
 10
198.3004210508
 20
119.1610433113
 11
198.3004210508
 21
48.4544686363
  0
LINE
  5
2DF
100
AcDbEntity
  8
0
100
AcDbLine
 62
7
  6
CONTINUOUS
 10
198.5125530852
 20
120.0496743717
 11
198.5125530852
 21
49.7705203799
  0
LWPOLYLINE
  5
2E0
100
AcDbEntity
  8
0
100
AcDbPolyline
 62
7
  6
CONTINUOUS
 90
4
 70
0
 10
198.2927550899
 20
48.310700523
 10
198.295601681
 20
48.3318606415
 10
198.2995126593
 20
48.3781144334
 10
198.3005338427
 20
48.4262221999
  0
LINE
  5
2E1
100
AcDbEntity
  8
0
100
AcDbLine
 62
7
  6
CONTINUOUS
 10
198.5119946612
 20
49.7627346484
 11
198.2927479052
 21
48.3106959195
  0
LINE
  5
2E2
100
AcDbEntity
  8
0
100
AcDbLine
 62
250
  6
CONTINUOUS
 10
198.3005338427
 20
48.4262221999
 11
198.5125530852
 21
49.7705203799
  0
LWPOLYLINE
  5
2E3
100
AcDbEntity
  8
0
100
AcDbPolyline
 62
7
  6
CONTINUOUS
 90
11
 70
0
 10
198.1154750324
 20
48.0102619452
 10
198.1369812976
 20
48.024753966
 10
198.1648820243
 20
48.0476117965
 10
198.1904013474
 20
48.0735618131
 10
198.2134332799
 20
48.1024904869
 10
198.2338973345
 20
48.1342874063
 10
198.2517329863
 20
48.1688415109
 10
198.2668634797
 20
48.2060057291
 10
198.2792346374
 20
48.2456408815
 10
198.2888265453
 20
48.2876404121
 10
198.2927550899
 20
48.310700523
  0
LINE
  5
2E4
100
AcDbEntity
  8
0
100
AcDbLine
 62
250
  6
CONTINUOUS
 10
196.2856049102
 20
47.2084761121
 11
198.3004210508
 21
48.4544686363
  0
LINE
  5
2E5
100
AcDbEntity
  8
0
100
AcDbLine
 62
7
  6
CONTINUOUS
 10
196.2851667244
 20
46.8783718324
 11
198.1154751862
 21
48.0102620403
  0
LINE
  5
2E6
100
AcDbEntity
  8
SMUSSO
100
AcDbLine
 62
7
  6
CONTINUOUS
 10
193.8102929903
 20
44.7189751516
 11
196.2851667244
 21
46.1478967733
  0
ARC
  5
2E7
100
AcDbEntity
  8
0
100
AcDbCircle
 62
7
  6
CONTINUOUS
 10
174.5240852711
 20
77.5940754265
 40
0.3
100
AcDbArc
 50
300.1089947042
 51
314.200140419
  0
ARC
  5
2E8
100
AcDbEntity
  8
0
100
AcDbCircle
 62
7
  6
CONTINUOUS
 10
126.794377541
 20
105.1526104761
 40
0.3
100
AcDbArc
 50
300.1089947038
 51
314.2001404191
  0
ARC
  5
2E9
100
AcDbEntity
  8
0
100
AcDbCircle
 62
7
  6
CONTINUOUS
 10
142.7042799851
 20
95.9664319693
 40
0.3
100
AcDbArc
 50
300.1089804062
 51
314.2001409262
  0
ARC
  5
2EA
100
AcDbEntity
  8
0
100
AcDbCircle
 62
7
  6
CONTINUOUS
 10
158.6141825618
 20
86.7802536194
 40
0.3
100
AcDbArc
 50
300.1089804062
 51
314.2001409262
  0
ELLIPSE
  5
2EB
100
AcDbEntity
  8
0
100
AcDbEllipse
 62
7
  6
CONTINUOUS
 10
198.4679292764
 20
49.7975191499
 30
0.0
 11
-0.0319307066
 21
0.0553022874
 31
0.0
 40
0.5636716562
 41
-2.5265818713
 42
-2.3682119497
  0
ELLIPSE
  5
2EC
100
AcDbEntity
  8
0
100
AcDbEllipse
 62
7
  6
CONTINUOUS
 10
198.4679292764
 20
120.0742060575
 30
0.0
 11
-0.0311754239
 21
0.0539936769
 31
0.0
 40
0.5913227191
 41
-2.3442738678
 42
-0.7974202594
  0
ELLIPSE
  5
2ED
100
AcDbEntity
  8
0
100
AcDbEllipse
 62
7
  6
CONTINUOUS
 10
99.0672527809
 20
177.4669108829
 30
0.0
 11
-0.0319307066
 21
0.0553022874
 31
0.0
 40
0.5636716562
 41
-0.7734729046
 42
-0.6150192183
  0
ELLIPSE
  5
2EE
100
AcDbEntity
  8
0
100
AcDbEllipse
 62
7
  6
CONTINUOUS
 10
144.5677268168
 20
96.8903144207
 30
0.0
 11
0.2999993451
 21
0.1746271577
 31
0.0
 40
0.0035896273
 41
-0.7351277754
 42
-0.0020894543
  0
ELLIPSE
  5
2EF
100
AcDbEntity
  8
0
100
AcDbEllipse
 62
7
  6
CONTINUOUS
 10
160.4776293935
 20
87.7041360708
 30
0.0
 11
0.2999993451
 21
0.1746271577
 31
0.0
 40
0.0035896273
 41
-0.7351277754
 42
-0.0020894543
  0
ELLIPSE
  5
2F0
100
AcDbEntity
  8
0
100
AcDbEllipse
 62
7
  6
CONTINUOUS
 10
128.7956368462
 20
106.1567283174
 30
0.0
 11
0.1999995634
 21
0.1164181051
 31
0.0
 40
0.0035896273
 41
-0.7351277754
 42
-0.6748017824
  0
ELLIPSE
  5
2F1
100
AcDbEntity
  8
0
100
AcDbEllipse
 62
7
  6
CONTINUOUS
 10
172.6993431858
 20
81.3786433538
 30
0.0
 11
0.1998333781
 21
-0.0157785196
 31
0.0
 40
0.5172961965
 41
0.8262203412
 42
2.3446567905
  0
ELLIPSE
  5
2F2
100
AcDbEntity
  8
0
100
AcDbEllipse
 62
7
  6
CONTINUOUS
 10
124.9696354557
 20
108.9371784034
 30
0.0
 11
0.1998333781
 21
-0.0157785196
 31
0.0
 40
0.5172961965
 41
0.8262203412
 42
2.3446567905
  0
ELLIPSE
  5
2F3
100
AcDbEntity
  8
0
100
AcDbEllipse
 62
7
  6
CONTINUOUS
 10
156.785831859
 20
90.5099542537
 30
0.0
 11
0.2999972416
 21
-0.0022477848
 31
0.0
 40
0.5723275643
 41
0.7896864073
 42
2.3081228565
  0
ELLIPSE
  5
2F4
100
AcDbEntity
  8
0
100
AcDbEllipse
 62
7
  6
CONTINUOUS
 10
140.8759292823
 20
99.6961326036
 30
0.0
 11
0.2999972416
 21
-0.0022477848
 31
0.0
 40
0.5723275643
 41
0.7896864073
 42
2.3081228565
  0
ELLIPSE
  5
2F5
100
AcDbEntity
  8
0
100
AcDbEllipse
 62
7
  6
CONTINUOUS
 10
171.1811156559
 20
80.0752288409
 30
0.0
 11
0.5413005334
 21
0.8416911418
 31
0.0
 40
0.6067084637
 41
0.7148472392
 42
0.8145158917
  0
ELLIPSE
  5
2F6
100
AcDbEntity
  8
0
100
AcDbEllipse
 62
7
  6
CONTINUOUS
 10
123.4514079258
 20
107.6337638905
 30
0.0
 11
0.5413005334
 21
0.8416911418
 31
0.0
 40
0.6067084637
 41
0.7148472392
 42
0.8145158917
  0
ELLIPSE
  5
2F7
100
AcDbEntity
  8
0
100
AcDbEllipse
 62
7
  6
CONTINUOUS
 10
128.7956368462
 20
106.7280931516
 30
0.0
 11
0.1998333781
 21
-0.0157785196
 31
0.0
 40
0.5172961965
 41
-0.692216108
 42
0.8262203412
  0
ELLIPSE
  5
2F8
100
AcDbEntity
  8
0
100
AcDbEllipse
 62
7
  6
CONTINUOUS
 10
160.4776293935
 20
88.3783566264
 30
0.0
 11
0.2999972416
 21
-0.0022477848
 31
0.0
 40
0.5723275643
 41
-0.728750042
 42
0.7896864073
  0
ELLIPSE
  5
2F9
100
AcDbEntity
  8
0
100
AcDbEllipse
 62
7
  6
CONTINUOUS
 10
144.5677268168
 20
97.5645349763
 30
0.0
 11
0.2999972416
 21
-0.0022477848
 31
0.0
 40
0.5723275643
 41
-0.728750042
 42
0.7896864073
  0
ELLIPSE
  5
2FA
100
AcDbEntity
  8
0
100
AcDbEllipse
 62
7
  6
CONTINUOUS
 10
127.6977451841
 20
105.1819819767
 30
0.0
 11
0.4625183445
 21
0.8873459255
 31
0.0
 40
0.5463614449
 41
0.662201126
 42
0.7618697785
  0
ELLIPSE
  5
2FB
100
AcDbEntity
  8
0
100
AcDbEllipse
 62
7
  6
CONTINUOUS
 10
98.7401665301
 20
177.6710355681
 30
0.0
 11
1.1592455945
 21
-0.5090882972
 31
0.0
 40
0.0921189357
 41
-2.4809772198
 42
-2.4456474731
  0
ELLIPSE
  5
2FC
100
AcDbEntity
  8
0
100
AcDbEllipse
 62
7
  6
CONTINUOUS
 10
198.4811683694
 20
120.0818311544
 30
0.0
 11
1.1339988709
 21
-0.4970753424
 31
0.0
 40
0.0963242103
 41
-2.4267061945
 42
-2.3913764477
  0
ELLIPSE
  5
2FD
100
AcDbEntity
  8
0
100
AcDbEllipse
 62
7
  6
CONTINUOUS
 10
198.4811683694
 20
120.0818311544
 30
0.0
 11
0.1365023326
 21
1.2306519884
 31
0.0
 40
0.0962714138
 41
-3.8917430252
 42
-3.8564132784
  0
ELLIPSE
  5
2FE
100
AcDbEntity
  8
0
100
AcDbEllipse
 62
7
  6
CONTINUOUS
 10
198.4811683694
 20
49.4121830492
 30
0.0
 11
0.1387214801
 21
1.2585231556
 31
0.0
 40
0.0920685296
 41
-3.8374748546
 42
-3.8021451078
  0
ENDSEC
  0
SECTION
  2
OBJECTS
  0
DICTIONARY
  5
C
100
AcDbDictionary
280
0
281
1
  3
ACAD_GROUP
350
D
  3
ACAD_MLINESTYLE
350
17
  3
ACAD_LAYOUT
350
1A
  3
ACAD_PLOTSETTINGS
350
19
  3
ACAD_PLOTSTYLENAME
350
E
  0
DICTIONARY
  5
D
102
{ACAD_REACTORS
330
C
102
}
100
AcDbDictionary
280
0
281
1
  0
ACDBDICTIONARYWDFLT
  5
E
102
{ACAD_REACTORS
330
C
102
}
100
AcDbDictionary
281
1
  3
Normal
350
F
100
AcDbDictionaryWithDefault
340
F
  0
DICTIONARY
  5
17
102
{ACAD_REACTORS
330
C
102
}
100
AcDbDictionary
280
0
281
1
  3
Standard
350
18
  0
DICTIONARY
  5
19
102
{ACAD_REACTORS
330
C
102
}
100
AcDbDictionary
281
1
  0
DICTIONARY
  5
1A
102
{ACAD_REACTORS
330
C
102
}
100
AcDbDictionary
281
1
  3
Model
350
2FF
  3
Layout1
350
300
  0
ACDBPLACEHOLDER
  5
F
102
{ACAD_REACTORS
330
E
102
}
  0
MLINESTYLE
  5
18
102
{ACAD_REACTORS
330
17
102
}
100
AcDbMlineStyle
  2
STANDARD
 70
0
  3

 62
256
 51
90.0
 52
90.0
 71
2
 49
0.5
 62
256
  6
BYLAYER
 49
-0.5
 62
256
  6
BYLAYER
  0
LAYOUT
  5
2FF
102
{ACAD_REACTORS
330
1A
102
}
100
AcDbPlotSettings
  1

  2
none_device
  4
ISO_A4_(297.00_x_210.00_MM)
  6

 40
0.0
 41
0.0
 42
0.0
 43
0.0
 44
297.0
 45
210.0
 46
0.0
 47
0.0
 48
0.0
 49
0.0
140
0.0
141
0.0
142
1.0
143
1.0
 70
1024
 72
1
 73
0
 74
0
  7

 75
0
147
1.0
148
0.0
149
0.0
100
AcDbLayout
  1
Model
 70
0
 71
0
 10
0.0
 20
0.0
 11
297.0
 21
210.0
 12
0.0
 22
0.0
 32
0.0
 14
0.0
 24
0.0
 34
0.0
 15
0.0
 25
0.0
 35
0.0
146
0.0
 13
0.0
 23
0.0
 33
0.0
 16
1.0
 26
0.0
 36
0.0
 17
0.0
 27
1.0
 37
0.0
 76
0
330
21C
345
0
346
0
  0
LAYOUT
  5
300
102
{ACAD_REACTORS
330
1A
102
}
100
AcDbPlotSettings
  1

  2
none_device
  4
ISO_A4_(297.00_x_210.00_MM)
  6

 40
0.0
 41
0.0
 42
0.0
 43
0.0
 44
297.0
 45
210.0
 46
0.0
 47
0.0
 48
0.0
 49
0.0
140
0.0
141
0.0
142
1.0
143
1.0
 70
0
 72
1
 73
0
 74
0
  7

 75
0
147
1.0
148
0.0
149
0.0
100
AcDbLayout
  1
Layout1
 70
0
 71
1
 10
0.0
 20
0.0
 11
297.0
 21
210.0
 12
0.0
 22
0.0
 32
0.0
 14
0.0
 24
0.0
 34
0.0
 15
0.0
 25
0.0
 35
0.0
146
0.0
 13
0.0
 23
0.0
 33
0.0
 16
1.0
 26
0.0
 36
0.0
 17
0.0
 27
1.0
 37
0.0
 76
0
330
21D
345
0
346
0
  0
ENDSEC
  0
EOF
