  0
SECTION
  2
HEADER
  9
$ACADVER
  1
AC1024
  9
$DWGCODEPAGE
  3
ANSI_1252
  9
$EXTMAX
 10
297.0
 20
210.0
 30
0.0
  9
$EXTMIN
 10
0.0
 20
0.0
 30
0.0
  9
$LIMMIN
 10
0.0
 20
0.0
  9
$LIMMAX
 10
297.0
 20
210.0
  9
$VIEWCTR
 10
148.5
 20
105.0
  9
$VIEWSIZE
 40
210.0
  9
$CLAYER
  8
0
  9
$LTSCALE
 40
16.335
  9
$CELTYPE
  6
BYLAYER
  9
$DIMSCALE
 40
1.0
  9
$DIMASZ
 40
3.0
  9
$DIMEXO
 40
0.5
  9
$DIMDLI
 40
11.286
  9
$DIMEXE
 40
1.5
  9
$DIMCEN
 40
2.673
  9
$DIMLFAC
 40
1.0
  9
$DIMBLK
  1
_FILLED
  9
$DIMALT
 70
0
  9
$DIMALTF
 40
0.0393700787
  9
$DIMTXT
 40
3.0
  9
$DIMTOL
 70
1
  9
$DIMLIM
 70
0
  9
$DIMTFAC
 40
1.0
  9
$DIMTP
 40
0.01
  9
$DIMTM
 40
0.01
  9
$DIMGAP
 40
0.625
  9
$DIMDSEP
 70
44
  9
$AUNITS
 70
0
  9
$PDMODE
 70
3
  9
$PDSIZE
 40
3.0
  9
$HANDSEED
  5
404
  9
$TILEMODE
 70
1
  9
$MEASUREMENT
 70
1
  9
$INSUNITS
 70
4
  0
ENDSEC
  0
SECTION
  2
CLASSES
  0
CLASS
  1
ACDBDICTIONARYWDFLT
  2
AcDbDictionaryWithDefault
  3
AutoCAD 2000
 90
0
 91
1
280
0
281
0
  0
CLASS
  1
ACDBPLACEHOLDER
  2
AcDbPlaceHolder
  3
AutoCAD 2000
 90
0
 91
1
280
0
281
0
  0
CLASS
  1
LAYOUT
  2
AcDbLayout
  3
AutoCAD 2000
 90
0
 91
0
280
0
281
0
  0
ENDSEC
  0
SECTION
  2
TABLES
  0
TABLE
  2
VPORT
  5
8
100
AcDbSymbolTable
 70
2
  0
VPORT
  5
1F4
100
AcDbSymbolTableRecord
100
AcDbViewportTableRecord
  2
*ACTIVE
 70
0
 10
0.0
 20
0.0
 11
1.0
 21
1.0
 12
148.5
 22
105.0
 13
0.0
 23
0.0
 14
1.0
 24
1.0
 15
0.0
 25
0.0
 16
0.0
 26
0.0
 36
1.0
 17
0.0
 27
0.0
 37
0.0
 40
210.0
 41
1.4142857143
 42
50.0
 43
0.0
 44
0.0
 50
0.0
 51
0.0
 71
0
 72
100
 73
1
 74
1
 75
0
 76
0
 77
0
 78
0
  0
ENDTAB
  0
TABLE
  2
LTYPE
  5
5
100
AcDbSymbolTable
 70
6
  0
LTYPE
  5
14
100
AcDbSymbolTableRecord
100
AcDbLinetypeTableRecord
  2
BYBLOCK
 70
0
  3

 72
65
 73
0
 40
0.0
  0
LTYPE
  5
15
100
AcDbSymbolTableRecord
100
AcDbLinetypeTableRecord
  2
BYLAYER
 70
0
  3

 72
65
 73
0
 40
0.0
  0
LTYPE
  5
16
100
AcDbSymbolTableRecord
100
AcDbLinetypeTableRecord
  2
CONTINUOUS
 70
64
  3
Solid line
 72
65
 73
0
 40
0.0
  0
LTYPE
  5
1F5
100
AcDbSymbolTableRecord
100
AcDbLinetypeTableRecord
  2
CENTER
 70
64
  3
____ _ ____ _ ____ _ ____ _ ____ _ ____ _ ____
 72
65
 73
4
 40
0.6
 49
0.375
 74
0
 49
-0.075
 74
0
 49
0.075
 74
0
 49
-0.075
 74
0
  0
LTYPE
  5
1F6
100
AcDbSymbolTableRecord
100
AcDbLinetypeTableRecord
  2
HIDDEN
 70
64
  3
- - - - - - - - - - - - - - - - - - - -
 72
65
 73
2
 40
0.2
 49
0.1
 74
0
 49
-0.1
 74
0
  0
LTYPE
  5
1F7
100
AcDbSymbolTableRecord
100
AcDbLinetypeTableRecord
  2
PHANTOM
 70
64
  3
_____ _ _ _____ _ _ _____ _ _ _____
 72
65
 73
6
 40
0.8
 49
0.45
 74
0
 49
-0.05
 74
0
 49
0.1
 74
0
 49
-0.05
 74
0
 49
0.1
 74
0
 49
-0.05
 74
0
  0
LTYPE
  5
1F8
100
AcDbSymbolTableRecord
100
AcDbLinetypeTableRecord
  2
DOT
 70
64
  3
. . . . . . . . . . . . . . . . . . . .
 72
65
 73
2
 40
0.2
 49
0.1
 74
0
 49
-0.1
 74
0
  0
LTYPE
  5
1F9
100
AcDbSymbolTableRecord
100
AcDbLinetypeTableRecord
  2
DASHED
 70
64
  3
- - - - - - - - - - - - - - - - - - - -
 72
65
 73
2
 40
0.2
 49
0.1
 74
0
 49
-0.1
 74
0
  0
ENDTAB
  0
TABLE
  2
LAYER
  5
2
100
AcDbSymbolTable
 70
36
  0
LAYER
  5
10
100
AcDbSymbolTableRecord
100
AcDbLayerTableRecord
  2
0
 70
0
 62
7
  6
CONTINUOUS
370
-3
390
F
  0
LAYER
  5
1FA
100
AcDbSymbolTableRecord
100
AcDbLayerTableRecord
  2
DEFAULT_1
 70
0
 62
7
  6
CENTER
370
-3
390
F
  0
LAYER
  5
1FB
100
AcDbSymbolTableRecord
100
AcDbLayerTableRecord
  2
DEFAULT_2
 70
0
 62
7
  6
HIDDEN
370
-3
390
F
  0
LAYER
  5
1FC
100
AcDbSymbolTableRecord
100
AcDbLayerTableRecord
  2
DEFAULT_3
 70
0
 62
7
  6
PHANTOM
370
-3
390
F
  0
LAYER
  5
1FD
100
AcDbSymbolTableRecord
100
AcDbLayerTableRecord
  2
ASSI
 70
0
 62
7
  6
CONTINUOUS
370
-3
390
F
  0
LAYER
  5
1FE
100
AcDbSymbolTableRecord
100
AcDbLayerTableRecord
  2
COORDINATE
 70
0
 62
7
  6
CONTINUOUS
370
-3
390
F
  0
LAYER
  5
1FF
100
AcDbSymbolTableRecord
100
AcDbLayerTableRecord
  2
COORD_ORIGINE
 70
0
 62
7
  6
CONTINUOUS
370
-3
390
F
  0
LAYER
  5
200
100
AcDbSymbolTableRecord
100
AcDbLayerTableRecord
  2
COPY_PUBLISH
 70
0
 62
7
  6
CONTINUOUS
370
-3
390
F
  0
LAYER
  5
201
100
AcDbSymbolTableRecord
100
AcDbLayerTableRecord
  2
COSMETIC
 70
0
 62
7
  6
CONTINUOUS
370
-3
390
F
  0
LAYER
  5
202
100
AcDbSymbolTableRecord
100
AcDbLayerTableRecord
  2
COSMETICI
 70
0
 62
7
  6
CONTINUOUS
370
-3
390
F
  0
LAYER
  5
203
100
AcDbSymbolTableRecord
100
AcDbLayerTableRecord
  2
CURVE
 70
0
 62
7
  6
CONTINUOUS
370
-3
390
F
  0
LAYER
  5
204
100
AcDbSymbolTableRecord
100
AcDbLayerTableRecord
  2
CURVE_TASSELLI
 70
0
 62
7
  6
CONTINUOUS
370
-3
390
F
  0
LAYER
  5
205
100
AcDbSymbolTableRecord
100
AcDbLayerTableRecord
  2
DRAFT
 70
0
 62
7
  6
CONTINUOUS
370
-3
390
F
  0
LAYER
  5
206
100
AcDbSymbolTableRecord
100
AcDbLayerTableRecord
  2
IMPORT_IGES
 70
0
 62
7
  6
CONTINUOUS
370
-3
390
F
  0
LAYER
  5
207
100
AcDbSymbolTableRecord
100
AcDbLayerTableRecord
  2
INTFCLR_2
 70
0
 62
7
  6
CONTINUOUS
370
-3
390
F
  0
LAYER
  5
208
100
AcDbSymbolTableRecord
100
AcDbLayerTableRecord
  2
INTF_1
 70
0
 62
7
  6
CONTINUOUS
370
-3
390
F
  0
LAYER
  5
209
100
AcDbSymbolTableRecord
100
AcDbLayerTableRecord
  2
INTF_7
 70
0
 62
7
  6
CONTINUOUS
370
-3
390
F
  0
LAYER
  5
20A
100
AcDbSymbolTableRecord
100
AcDbLayerTableRecord
  2
NOTE
 70
0
 62
7
  6
CONTINUOUS
370
-3
390
F
  0
LAYER
  5
20B
100
AcDbSymbolTableRecord
100
AcDbLayerTableRecord
  2
PIANI
 70
0
 62
7
  6
CONTINUOUS
370
-3
390
F
  0
LAYER
  5
20C
100
AcDbSymbolTableRecord
100
AcDbLayerTableRecord
  2
PIANI_ORIGINE
 70
0
 62
7
  6
CONTINUOUS
370
-3
390
F
  0
LAYER
  5
20D
100
AcDbSymbolTableRecord
100
AcDbLayerTableRecord
  2
PIANI_RIFERIMENTO
 70
0
 62
7
  6
CONTINUOUS
370
-3
390
F
  0
LAYER
  5
20E
100
AcDbSymbolTableRecord
100
AcDbLayerTableRecord
  2
PUNTI
 70
0
 62
7
  6
CONTINUOUS
370
-3
390
F
  0
LAYER
  5
20F
100
AcDbSymbolTableRecord
100
AcDbLayerTableRecord
  2
RACCORDO
 70
0
 62
7
  6
CONTINUOUS
370
-3
390
F
  0
LAYER
  5
210
100
AcDbSymbolTableRecord
100
AcDbLayerTableRecord
  2
RGB__255__255__255__
 70
0
 62
7
  6
CONTINUOUS
370
-3
390
F
  0
LAYER
  5
211
100
AcDbSymbolTableRecord
100
AcDbLayerTableRecord
  2
RGB____0____0____0__
 70
0
 62
7
  6
CONTINUOUS
370
-3
390
F
  0
LAYER
  5
212
100
AcDbSymbolTableRecord
100
AcDbLayerTableRecord
  2
SIMBOLI
 70
0
 62
7
  6
CONTINUOUS
370
-3
390
F
  0
LAYER
  5
213
100
AcDbSymbolTableRecord
100
AcDbLayerTableRecord
  2
SMUSSO
 70
0
 62
7
  6
CONTINUOUS
370
-3
390
F
  0
LAYER
  5
214
100
AcDbSymbolTableRecord
100
AcDbLayerTableRecord
  2
SNAPLINE
 70
0
 62
7
  6
CONTINUOUS
370
-3
390
F
  0
LAYER
  5
215
100
AcDbSymbolTableRecord
100
AcDbLayerTableRecord
  2
SUPERFICI
 70
0
 62
7
  6
CONTINUOUS
370
-3
390
F
  0
LAYER
  5
216
100
AcDbSymbolTableRecord
100
AcDbLayerTableRecord
  2
TRASH
 70
0
 62
7
  6
CONTINUOUS
370
-3
390
F
  0
LAYER
  5
217
100
AcDbSymbolTableRecord
100
AcDbLayerTableRecord
  2
WHITE
 70
0
 62
7
  6
CONTINUOUS
370
-3
390
F
  0
LAYER
  5
218
100
AcDbSymbolTableRecord
100
AcDbLayerTableRecord
  2
XSEC_DATUMS
 70
0
 62
7
  6
CONTINUOUS
370
-3
390
F
  0
ENDTAB
  0
TABLE
  2
STYLE
  5
3
100
AcDbSymbolTable
 70
1
  0
STYLE
  5
11
100
AcDbSymbolTableRecord
100
AcDbTextStyleTableRecord
  2
STANDARD
 70
0
 40
0.0
 41
0.8
 50
0.0
 71
0
 42
0.2
  3
txt
  4

  0
STYLE
  5
219
100
AcDbSymbolTableRecord
100
AcDbTextStyleTableRecord
  2
TEXTSTYLE_1
 70
0
 40
0.0
 41
0.8
 50
0.0
 71
0
 42
0.2
  3
gdt
  4

  0
ENDTAB
  0
TABLE
  2
VIEW
  5
6
100
AcDbSymbolTable
 70
0
  0
ENDTAB
  0
TABLE
  2
UCS
  5
7
100
AcDbSymbolTable
 70
0
  0
ENDTAB
  0
TABLE
  2
APPID
  5
9
100
AcDbSymbolTable
 70
1
  0
APPID
  5
21A
100
AcDbSymbolTableRecord
100
AcDbRegAppTableRecord
  2
ACAD
 70
0
  0
ENDTAB
  0
TABLE
  2
BLOCK_RECORD
  5
1
100
AcDbSymbolTable
 70
0
  0
BLOCK_RECORD
  5
21B
100
AcDbSymbolTableRecord
100
AcDbBlockTableRecord
  2
*Model_Space
  0
BLOCK_RECORD
  5
21C
100
AcDbSymbolTableRecord
100
AcDbBlockTableRecord
  2
*Paper_Space
  0
BLOCK_RECORD
  5
21D
100
AcDbSymbolTableRecord
100
AcDbBlockTableRecord
  2
_FILLED
  0
ENDTAB
  0
TABLE
  2
DIMSTYLE
  5
A
100
AcDbSymbolTable
 70
1
100
AcDbDimStyleTable
 71
0
  0
DIMSTYLE
105
21E
100
AcDbSymbolTableRecord
100
AcDbDimStyleTableRecord
  2
STANDARD
 70
0
  3

  4

 40
1.0
 41
3.0
 42
0.5
 43
0.38
 44
1.5
 45
0.0
 46
0.0
 47
0.01
 48
0.01
140
3.0
141
0.09
142
0.0
143
25.4
144
1.0
145
0.0
146
1.0
147
0.625
 71
1
 72
0
 73
0
 74
0
 75
0
 76
0
 77
1
 78
8
 79
2
170
0
171
1
172
0
173
0
174
0
175
0
176
0
177
0
178
0
270
2
179
2
271
2
272
2
273
2
274
2
275
0
280
0
281
0
282
0
283
1
284
8
285
0
286
0
287
3
288
0
340
11
278
44
341
21D
342
21D
343
21D
344
21D
  0
ENDTAB
  0
ENDSEC
  0
SECTION
  2
BLOCKS
  0
BLOCK
  5
20
100
AcDbEntity
  8
0
100
AcDbBlockBegin
  2
*Model_Space
 70
0
 10
0.0
 20
0.0
 30
0.0
  3
*Model_Space
  1

  0
ENDBLK
  5
21
100
AcDbEntity
  8
0
100
AcDbBlockEnd
  0
BLOCK
  5
1C
100
AcDbEntity
  8
0
100
AcDbBlockBegin
  2
*Paper_Space
 70
0
 10
0.0
 20
0.0
 30
0.0
  3
*Paper_Space
  1

  0
ENDBLK
  5
1D
100
AcDbEntity
  8
0
100
AcDbBlockEnd
  0
BLOCK
  5
21F
100
AcDbEntity
  8
0
100
AcDbBlockBegin
  2
_FILLED
 70
64
 10
0.0
 20
0.0
  3
_FILLED
  1

  0
SOLID
  5
220
100
AcDbEntity
  8
0
  6
BYBLOCK
 62
0
100
AcDbTrace
 10
0.0
 20
0.0
 11
-1.0
 21
0.3166666667
 12
-1.0
 22
-0.3166666667
 13
-1.0
 23
-0.3166666667
  0
ENDBLK
  5
221
100
AcDbEntity
  8
0
  6
BYBLOCK
 62
0
100
AcDbBlockEnd
  0
ENDSEC
  0
SECTION
  2
ENTITIES
  0
LINE
  5
222
100
AcDbEntity
  8
SMUSSO
100
AcDbLine
 62
7
  6
CONTINUOUS
 10
-76.8472256993
 20
77.7121243686
 11
-73.0594119122
 21
80.2156912599
  0
LINE
  5
223
100
AcDbEntity
  8
ASSI
100
AcDbLine
 62
7
  6
CONTINUOUS
 10
-76.8472256993
 20
77.7121243686
 11
-73.0594119122
 21
80.2156912599
  0
LINE
  5
224
100
AcDbEntity
  8
SMUSSO
100
AcDbLine
 62
7
  6
CONTINUOUS
 10
-76.1396884301
 20
78.1205685624
 11
-72.3518746429
 21
80.6241354538
  0
LINE
  5
225
100
AcDbEntity
  8
ASSI
100
AcDbLine
 62
7
  6
CONTINUOUS
 10
-76.1396884301
 20
78.1205685624
 11
-72.3518746429
 21
80.6241354538
  0
LINE
  5
226
100
AcDbEntity
  8
SMUSSO
100
AcDbLine
 62
7
  6
CONTINUOUS
 10
-76.1604520442
 20
78.1077292115
 11
-76.1396884301
 21
78.1205685624
  0
LINE
  5
227
100
AcDbEntity
  8
ASSI
100
AcDbLine
 62
7
  6
CONTINUOUS
 10
-76.1604520442
 20
78.1077292115
 11
-76.1396884301
 21
78.1205685624
  0
LINE
  5
228
100
AcDbEntity
  8
SMUSSO
100
AcDbLine
 62
7
  6
CONTINUOUS
 10
-73.0594119122
 20
80.2156912599
 11
-72.3518746429
 21
80.6241354538
  0
LINE
  5
229
100
AcDbEntity
  8
ASSI
100
AcDbLine
 62
7
  6
CONTINUOUS
 10
-73.0594119122
 20
80.2156912599
 11
-72.3518746429
 21
80.6241354538
  0
LINE
  5
22A
100
AcDbEntity
  8
SMUSSO
100
AcDbLine
 62
7
  6
CONTINUOUS
 10
-76.1604520442
 20
78.1077292115
 11
-76.8468503918
 21
77.7114880071
  0
LINE
  5
22B
100
AcDbEntity
  8
ASSI
100
AcDbLine
 62
7
  6
CONTINUOUS
 10
-76.1604520442
 20
78.1077292115
 11
-76.8468503918
 21
77.7114880071
  0
LINE
  5
22C
100
AcDbEntity
  8
SMUSSO
100
AcDbLine
 62
7
  6
CONTINUOUS
 10
-76.5431413441
 20
76.6925007731
 11
-76.8221172782
 21
76.5314546975
  0
LINE
  5
22D
100
AcDbEntity
  8
ASSI
100
AcDbLine
 62
7
  6
CONTINUOUS
 10
-76.5431413441
 20
76.6925007731
 11
-76.8221172782
 21
76.5314546975
  0
LINE
  5
22E
100
AcDbEntity
  8
SMUSSO
100
AcDbLine
 62
7
  6
CONTINUOUS
 10
-76.5431413441
 20
76.6925007731
 11
-76.1604520442
 21
78.1077292115
  0
LINE
  5
22F
100
AcDbEntity
  8
ASSI
100
AcDbLine
 62
7
  6
CONTINUOUS
 10
-76.5431413441
 20
76.6925007731
 11
-76.1604520442
 21
78.1077292115
  0
LINE
  5
230
100
AcDbEntity
  8
CURVE
100
AcDbLine
 62
250
  6
CONTINUOUS
 10
75.174645881
 20
-73.7511260922
 11
73.9162450598
 21
-74.0277488921
  0
LINE
  5
231
100
AcDbEntity
  8
CURVE
100
AcDbLine
 62
250
  6
CONTINUOUS
 10
74.4185855887
 20
-69.5430473244
 11
75.097050716
 21
-69.3898727445
  0
LINE
  5
232
100
AcDbEntity
  8
CURVE
100
AcDbLine
 62
250
  6
CONTINUOUS
 10
75.3794644106
 20
-69.3249608054
 11
75.7444362364
 21
-69.2460095937
  0
LINE
  5
233
100
AcDbEntity
  8
CURVE
100
AcDbLine
 62
250
  6
CONTINUOUS
 10
75.7444362364
 20
-69.6674152142
 11
73.9162450598
 21
-70.0115797723
  0
LINE
  5
234
100
AcDbEntity
  8
CURVE
100
AcDbLine
 62
250
  6
CONTINUOUS
 10
73.9162450598
 20
-73.6020118969
 11
75.7444362364
 21
-73.2737187044
  0
LINE
  5
235
100
AcDbEntity
  8
SMUSSO
100
AcDbLine
 62
7
  6
CONTINUOUS
 10
-76.8221172782
 20
5.6998210982
 11
-76.8468503918
 21
6.1560566757
  0
LINE
  5
236
100
AcDbEntity
  8
ASSI
100
AcDbLine
 62
7
  6
CONTINUOUS
 10
-76.8221172782
 20
5.6998210982
 11
-76.8468503918
 21
6.1560566757
  0
LINE
  5
237
100
AcDbEntity
  8
SMUSSO
100
AcDbLine
 62
7
  6
CONTINUOUS
 10
-76.8221172782
 20
76.5314546975
 11
-76.8468503918
 21
77.7114880071
  0
LINE
  5
238
100
AcDbEntity
  8
ASSI
100
AcDbLine
 62
7
  6
CONTINUOUS
 10
-76.8221172782
 20
76.5314546975
 11
-76.8468503918
 21
77.7114880071
  0
LINE
  5
239
100
AcDbEntity
  8
SMUSSO
100
AcDbLine
 62
7
  6
CONTINUOUS
 10
-76.8468503918
 20
6.1560566757
 11
-76.8472256993
 21
6.1802495364
  0
LINE
  5
23A
100
AcDbEntity
  8
ASSI
100
AcDbLine
 62
7
  6
CONTINUOUS
 10
-76.8468503918
 20
6.1560566757
 11
-76.8472256993
 21
6.1802495364
  0
LINE
  5
23B
100
AcDbEntity
  8
SMUSSO
100
AcDbLine
 62
7
  6
CONTINUOUS
 10
-76.8472256993
 20
77.7121243686
 11
-76.8472256993
 21
6.1802495364
  0
LINE
  5
23C
100
AcDbEntity
  8
ASSI
100
AcDbLine
 62
7
  6
CONTINUOUS
 10
-76.8472256993
 20
77.7121243686
 11
-76.8472256993
 21
6.1802495364
  0
LINE
  5
23D
100
AcDbEntity
  8
SMUSSO
100
AcDbLine
 62
7
  6
CONTINUOUS
 10
-76.8221172782
 20
76.5314546975
 11
-76.8221172782
 21
5.6998210982
  0
LINE
  5
23E
100
AcDbEntity
  8
ASSI
100
AcDbLine
 62
7
  6
CONTINUOUS
 10
-76.8221172782
 20
76.5314546975
 11
-76.8221172782
 21
5.6998210982
  0
LINE
  5
23F
100
AcDbEntity
  8
CURVE
100
AcDbLine
 62
250
  6
CONTINUOUS
 10
74.9312623394
 20
-71.2105389107
 11
73.9162450598
 21
-71.3310186008
  0
LINE
  5
240
100
AcDbEntity
  8
CURVE
100
AcDbLine
 62
250
  6
CONTINUOUS
 10
74.5556383469
 20
-70.8786868477
 11
75.7444362364
 21
-70.7451584289
  0
LINE
  5
241
100
AcDbEntity
  8
0
100
AcDbLine
 62
7
  6
CONTINUOUS
 10
-58.2813248018
 20
48.9482203469
 11
-58.2810589576
 21
48.948353421
  0
LINE
  5
242
100
AcDbEntity
  8
ASSI
100
AcDbLine
 62
7
  6
CONTINUOUS
 10
-58.2813248018
 20
48.9482203469
 11
-58.2810589576
 21
48.948353421
  0
LINE
  5
243
100
AcDbEntity
  8
0
100
AcDbLine
 62
250
  6
CONTINUOUS
 10
-58.3912685484
 20
48.7158645309
 11
-58.0700195178
 21
48.876316004
  0
LINE
  5
244
100
AcDbEntity
  8
ASSI
100
AcDbLine
 62
250
  6
CONTINUOUS
 10
-58.3912685484
 20
48.7158645309
 11
-58.0700195178
 21
48.876316004
  0
LWPOLYLINE
  5
245
100
AcDbEntity
  8
0
100
AcDbPolyline
 62
7
  6
CONTINUOUS
 90
13
 70
0
 10
-58.2813352968
 20
48.9482141522
 10
-58.2791170673
 20
48.949250646
 10
-58.274106366
 20
48.9509966971
 10
-58.2673478542
 20
48.95243667
 10
-58.2586315903
 20
48.9532662029
 10
-58.2478492332
 20
48.9531719382
 10
-58.2349941965
 20
48.951845277
 10
-58.2200732816
 20
48.9489999685
 10
-58.2034006336
 20
48.9444474189
 10
-58.1855196514
 20
48.9381733209
 10
-58.1667637082
 20
48.9302150308
 10
-58.1472790723
 20
48.9205791532
 10
-58.1330528163
 20
48.912710673
  0
LWPOLYLINE
  5
246
100
AcDbEntity
  8
ASSI
100
AcDbPolyline
 62
7
  6
CONTINUOUS
 90
13
 70
0
 10
-58.2813352968
 20
48.9482141522
 10
-58.2791170673
 20
48.949250646
 10
-58.274106366
 20
48.9509966971
 10
-58.2673478542
 20
48.95243667
 10
-58.2586315903
 20
48.9532662029
 10
-58.2478492332
 20
48.9531719382
 10
-58.2349941965
 20
48.951845277
 10
-58.2200732816
 20
48.9489999685
 10
-58.2034006336
 20
48.9444474189
 10
-58.1855196514
 20
48.9381733209
 10
-58.1667637082
 20
48.9302150308
 10
-58.1472790723
 20
48.9205791532
 10
-58.1330528163
 20
48.912710673
  0
LINE
  5
247
100
AcDbEntity
  8
0
100
AcDbLine
 62
250
  6
CONTINUOUS
 10
-58.6690895767
 20
12.5499499232
 11
-58.6690895767
 21
48.7186645045
  0
LINE
  5
248
100
AcDbEntity
  8
ASSI
100
AcDbLine
 62
250
  6
CONTINUOUS
 10
-58.6690895767
 20
12.5499499232
 11
-58.6690895767
 21
48.7186645045
  0
LINE
  5
249
100
AcDbEntity
  8
SMUSSO
100
AcDbLine
 62
7
  6
CONTINUOUS
 10
71.3468322318
 20
-79.8510733558
 11
72.7637913627
 21
-80.2272528117
  0
LINE
  5
24A
100
AcDbEntity
  8
ASSI
100
AcDbLine
 62
7
  6
CONTINUOUS
 10
71.3468322318
 20
-79.8510733558
 11
72.7637913627
 21
-80.2272528117
  0
LINE
  5
24B
100
AcDbEntity
  8
SMUSSO
100
AcDbLine
 62
7
  6
CONTINUOUS
 10
-76.8221172782
 20
5.6998210982
 11
-76.5431413441
 21
5.2166206067
  0
LINE
  5
24C
100
AcDbEntity
  8
ASSI
100
AcDbLine
 62
7
  6
CONTINUOUS
 10
-76.8221172782
 20
5.6998210982
 11
-76.5431413441
 21
5.2166206067
  0
LINE
  5
24D
100
AcDbEntity
  8
0
100
AcDbLine
 62
250
  6
CONTINUOUS
 10
-58.3912685484
 20
12.5471499496
 11
-58.3912685484
 21
48.7158645309
  0
LINE
  5
24E
100
AcDbEntity
  8
ASSI
100
AcDbLine
 62
250
  6
CONTINUOUS
 10
-58.3912685484
 20
12.5471499496
 11
-58.3912685484
 21
48.7158645309
  0
LINE
  5
24F
100
AcDbEntity
  8
RACCORDO
100
AcDbLine
 62
7
  6
CONTINUOUS
 10
-57.3616413699
 20
48.4673073395
 11
-57.3616413699
 21
13.1416399011
  0
LINE
  5
250
100
AcDbEntity
  8
ASSI
100
AcDbLine
 62
7
  6
CONTINUOUS
 10
-57.3616413699
 20
48.4673073395
 11
-57.3616413699
 21
13.1416399011
  0
LINE
  5
251
100
AcDbEntity
  8
RACCORDO
100
AcDbLine
 62
7
  6
CONTINUOUS
 10
-56.8206486578
 20
13.4540208504
 11
-56.8206486578
 21
48.1549449278
  0
LINE
  5
252
100
AcDbEntity
  8
ASSI
100
AcDbLine
 62
7
  6
CONTINUOUS
 10
-56.8206486578
 20
13.4540208504
 11
-56.8206486578
 21
48.1549449278
  0
LINE
  5
253
100
AcDbEntity
  8
0
100
AcDbLine
 62
250
  6
CONTINUOUS
 10
-56.2389755227
 20
12.7101836196
 11
-56.2389755227
 21
47.8190941496
  0
LINE
  5
254
100
AcDbEntity
  8
0
100
AcDbLine
 62
7
  6
CONTINUOUS
 10
-56.1547774628
 20
12.6615687151
 11
-56.1547774628
 21
47.7704792451
  0
LINE
  5
255
100
AcDbEntity
  8
0
100
AcDbLine
 62
7
  6
CONTINUOUS
 10
-48.906464575
 20
8.4764836964
 11
-48.8056493175
 21
8.6511008444
  0
LINE
  5
256
100
AcDbEntity
  8
0
100
AcDbLine
 62
7
  6
CONTINUOUS
 10
-48.5581619441
 20
8.6715264106
 11
-48.4520959269
 21
8.8552381411
  0
LINE
  5
257
100
AcDbEntity
  8
0
100
AcDbLine
 62
7
  6
CONTINUOUS
 10
-48.2046085535
 20
8.8756637072
 11
-48.0985425363
 21
9.0593754378
  0
LINE
  5
258
100
AcDbEntity
  8
0
100
AcDbLine
 62
7
  6
CONTINUOUS
 10
-47.8510551629
 20
9.0798010039
 11
-47.7449891457
 21
9.2635127344
  0
LINE
  5
259
100
AcDbEntity
  8
0
100
AcDbLine
 62
7
  6
CONTINUOUS
 10
-47.4975017723
 20
9.2839383006
 11
-47.3914357551
 21
9.4676500311
  0
LINE
  5
25A
100
AcDbEntity
  8
0
100
AcDbLine
 62
7
  6
CONTINUOUS
 10
-47.1439483817
 20
9.4880755972
 11
-47.0378823645
 21
9.6717873278
  0
LINE
  5
25B
100
AcDbEntity
  8
0
100
AcDbLine
 62
250
  6
CONTINUOUS
 10
-41.3700081201
 20
8.0563755329
 11
-41.3700081201
 21
7.649005895
  0
LINE
  5
25C
100
AcDbEntity
  8
0
100
AcDbLine
 62
7
  6
CONTINUOUS
 10
-41.3186370852
 20
8.1229530398
 11
-41.3186370852
 21
7.6795511898
  0
LINE
  5
25D
100
AcDbEntity
  8
0
100
AcDbLine
 62
7
  6
CONTINUOUS
 10
-45.0173772785
 20
6.2309734331
 11
-44.916562021
 21
6.4055905811
  0
LINE
  5
25E
100
AcDbEntity
  8
0
100
AcDbLine
 62
7
  6
CONTINUOUS
 10
-44.6690746476
 20
6.4260161473
 11
-44.5630086304
 21
6.6097278778
  0
LINE
  5
25F
100
AcDbEntity
  8
0
100
AcDbLine
 62
7
  6
CONTINUOUS
 10
-44.315521257
 20
6.6301534439
 11
-44.2094552398
 21
6.8138651745
  0
LINE
  5
260
100
AcDbEntity
  8
0
100
AcDbLine
 62
7
  6
CONTINUOUS
 10
-43.9619678664
 20
6.8342907406
 11
-43.8559018492
 21
7.0180024711
  0
LINE
  5
261
100
AcDbEntity
  8
0
100
AcDbLine
 62
7
  6
CONTINUOUS
 10
-43.6084144758
 20
7.0384280373
 11
-43.5023484586
 21
7.2221397678
  0
LINE
  5
262
100
AcDbEntity
  8
0
100
AcDbLine
 62
7
  6
CONTINUOUS
 10
-43.2548610852
 20
7.2425653339
 11
-43.148795068
 21
7.4262770644
  0
LINE
  5
263
100
AcDbEntity
  8
RACCORDO
100
AcDbLine
 62
250
  6
CONTINUOUS
 10
-56.8206486578
 20
13.4540208504
 11
-57.3616484512
 21
13.1416521655
  0
LINE
  5
264
100
AcDbEntity
  8
0
100
AcDbLine
 62
250
  6
CONTINUOUS
 10
-58.3912685484
 20
12.5471499496
 11
-57.3616413699
 21
13.1416399011
  0
LINE
  5
265
100
AcDbEntity
  8
ASSI
100
AcDbLine
 62
250
  6
CONTINUOUS
 10
-58.3912685484
 20
12.5471499496
 11
-56.8206486578
 21
13.4540208504
  0
LINE
  5
266
100
AcDbEntity
  8
RACCORDO
100
AcDbLine
 62
250
  6
CONTINUOUS
 10
-56.4673106424
 20
12.8420214561
 11
-57.0083104358
 21
12.5296527711
  0
LINE
  5
267
100
AcDbEntity
  8
0
100
AcDbLine
 62
250
  6
CONTINUOUS
 10
-58.037930533
 20
11.9351505552
 11
-57.0083033544
 21
12.5296405068
  0
LINE
  5
268
100
AcDbEntity
  8
ASSI
100
AcDbLine
 62
250
  6
CONTINUOUS
 10
-58.037930533
 20
11.9351505552
 11
-56.4673106424
 21
12.8420214561
  0
LINE
  5
269
100
AcDbEntity
  8
SMUSSO
100
AcDbLine
 62
7
  6
CONTINUOUS
 10
-76.5431413441
 20
5.2166206067
 11
-76.1604520442
 21
4.9671798646
  0
LINE
  5
26A
100
AcDbEntity
  8
ASSI
100
AcDbLine
 62
7
  6
CONTINUOUS
 10
-76.5431413441
 20
5.2166206067
 11
-76.1604520442
 21
4.9671798646
  0
LINE
  5
26B
100
AcDbEntity
  8
0
100
AcDbLine
 62
250
  6
CONTINUOUS
 10
-43.3144875331
 20
6.3773682415
 11
-42.9785425681
 21
6.7041218313
  0
LINE
  5
26C
100
AcDbEntity
  8
0
100
AcDbLine
 62
7
  6
CONTINUOUS
 10
-43.3105626756
 20
6.3438330408
 11
-42.8815782948
 21
6.7610805098
  0
LINE
  5
26D
100
AcDbEntity
  8
0
100
AcDbLine
 62
7
  6
CONTINUOUS
 10
-42.6165287474
 20
7.4048587751
 11
-44.7173153981
 21
6.057721464
  0
LINE
  5
26E
100
AcDbEntity
  8
0
100
AcDbLine
 62
7
  6
CONTINUOUS
 10
-48.8056493175
 20
8.6511008444
 11
-48.6642279613
 21
8.7327557631
  0
LINE
  5
26F
100
AcDbEntity
  8
0
100
AcDbLine
 62
7
  6
CONTINUOUS
 10
-48.4520959269
 20
8.8552381411
 11
-48.3106745707
 21
8.9368930598
  0
LINE
  5
270
100
AcDbEntity
  8
0
100
AcDbLine
 62
7
  6
CONTINUOUS
 10
-48.0985425363
 20
9.0593754378
 11
-47.9571211801
 21
9.1410303564
  0
LINE
  5
271
100
AcDbEntity
  8
0
100
AcDbLine
 62
7
  6
CONTINUOUS
 10
-47.7449891457
 20
9.2635127344
 11
-47.6035677895
 21
9.3451676531
  0
LINE
  5
272
100
AcDbEntity
  8
0
100
AcDbLine
 62
7
  6
CONTINUOUS
 10
-47.3914357551
 20
9.4676500311
 11
-47.2500143989
 21
9.5493049498
  0
LINE
  5
273
100
AcDbEntity
  8
0
100
AcDbLine
 62
7
  6
CONTINUOUS
 10
-47.0378823645
 20
9.6717873278
 11
-46.8964610083
 21
9.7534422464
  0
LINE
  5
274
100
AcDbEntity
  8
0
100
AcDbLine
 62
7
  6
CONTINUOUS
 10
-49.1960259509
 20
8.6436728058
 11
-46.8628660057
 21
9.8566406889
  0
LINE
  5
275
100
AcDbEntity
  8
SMUSSO
100
AcDbLine
 62
7
  6
CONTINUOUS
 10
-76.1396884301
 20
4.954759039
 11
72.0777554453
 21
-80.6241354538
  0
LINE
  5
276
100
AcDbEntity
  8
ASSI
100
AcDbLine
 62
7
  6
CONTINUOUS
 10
-76.1396884301
 20
4.954759039
 11
72.0777554453
 21
-80.6241354538
  0
LINE
  5
277
100
AcDbEntity
  8
SMUSSO
100
AcDbLine
 62
7
  6
CONTINUOUS
 10
-76.5431413441
 20
5.2166206067
 11
71.0678562977
 21
-80.0121194314
  0
LINE
  5
278
100
AcDbEntity
  8
ASSI
100
AcDbLine
 62
7
  6
CONTINUOUS
 10
-76.5431413441
 20
5.2166206067
 11
71.0678562977
 21
-80.0121194314
  0
LINE
  5
279
100
AcDbEntity
  8
SMUSSO
100
AcDbLine
 62
7
  6
CONTINUOUS
 10
-76.1396884301
 20
4.954759039
 11
-76.1604520442
 21
4.9671798646
  0
LINE
  5
27A
100
AcDbEntity
  8
ASSI
100
AcDbLine
 62
7
  6
CONTINUOUS
 10
-76.1396884301
 20
4.954759039
 11
-76.1604520442
 21
4.9671798646
  0
LINE
  5
27B
100
AcDbEntity
  8
SMUSSO
100
AcDbLine
 62
7
  6
CONTINUOUS
 10
71.0678562977
 20
-80.0121194314
 11
72.0773930151
 21
-80.6234940161
  0
LINE
  5
27C
100
AcDbEntity
  8
ASSI
100
AcDbLine
 62
7
  6
CONTINUOUS
 10
71.0678562977
 20
-80.0121194314
 11
72.0773930151
 21
-80.6234940161
  0
LINE
  5
27D
100
AcDbEntity
  8
0
100
AcDbLine
 62
250
  6
CONTINUOUS
 10
-25.523603667
 20
-1.1450746616
 11
-25.523603667
 21
-1.5740973557
  0
LINE
  5
27E
100
AcDbEntity
  8
0
100
AcDbLine
 62
7
  6
CONTINUOUS
 10
-25.4465471147
 20
-1.0305699913
 11
-25.4465471147
 21
-1.4286157761
  0
LINE
  5
27F
100
AcDbEntity
  8
0
100
AcDbLine
 62
7
  6
CONTINUOUS
 10
-44.3953836751
 20
5.8718421219
 11
-41.3700081201
 21
7.649005895
  0
LINE
  5
280
100
AcDbEntity
  8
0
100
AcDbLine
 62
7
  6
CONTINUOUS
 10
-43.3691770213
 20
6.2993690326
 11
-44.2503281569
 21
5.7880888837
  0
LINE
  5
281
100
AcDbEntity
  8
0
100
AcDbLine
 62
250
  6
CONTINUOUS
 10
-43.3144875331
 20
6.3773682415
 11
-44.2906158227
 21
5.811350477
  0
LINE
  5
282
100
AcDbEntity
  8
0
100
AcDbLine
 62
7
  6
CONTINUOUS
 10
-44.916562021
 20
6.4055905811
 11
-44.7751406647
 21
6.4872454998
  0
LINE
  5
283
100
AcDbEntity
  8
0
100
AcDbLine
 62
7
  6
CONTINUOUS
 10
-44.5630086304
 20
6.6097278778
 11
-44.4215872742
 21
6.6913827965
  0
LINE
  5
284
100
AcDbEntity
  8
0
100
AcDbLine
 62
7
  6
CONTINUOUS
 10
-44.2094552398
 20
6.8138651745
 11
-44.0680338836
 21
6.8955200931
  0
LINE
  5
285
100
AcDbEntity
  8
0
100
AcDbLine
 62
7
  6
CONTINUOUS
 10
-43.8559018492
 20
7.0180024711
 11
-43.714480493
 21
7.0996573898
  0
LINE
  5
286
100
AcDbEntity
  8
0
100
AcDbLine
 62
7
  6
CONTINUOUS
 10
-43.5023484586
 20
7.2221397678
 11
-43.3609271024
 21
7.3037946865
  0
LINE
  5
287
100
AcDbEntity
  8
0
100
AcDbLine
 62
7
  6
CONTINUOUS
 10
-43.148795068
 20
7.4262770644
 11
-43.0073737118
 21
7.5079319831
  0
LINE
  5
288
100
AcDbEntity
  8
0
100
AcDbLine
 62
7
  6
CONTINUOUS
 10
-42.9013076946
 20
7.4467026306
 11
-45.0121270263
 21
6.2279420033
  0
LINE
  5
289
100
AcDbEntity
  8
0
100
AcDbLine
 62
7
  6
CONTINUOUS
 10
-41.3700081201
 20
8.0563755329
 11
-42.5498563914
 21
7.4435606865
  0
LINE
  5
28A
100
AcDbEntity
  8
0
100
AcDbLine
 62
7
  6
CONTINUOUS
 10
-46.7888188527
 20
9.891084485
 11
-45.478464597
 21
10.4285468116
  0
LINE
  5
28B
100
AcDbEntity
  8
SMUSSO
100
AcDbLine
 62
7
  6
CONTINUOUS
 10
71.3468322318
 20
-9.0194397565
 11
72.7637913627
 21
-8.6718214803
  0
LINE
  5
28C
100
AcDbEntity
  8
ASSI
100
AcDbLine
 62
7
  6
CONTINUOUS
 10
71.3468322318
 20
-9.0194397565
 11
72.7637913627
 21
-8.6718214803
  0
LINE
  5
28D
100
AcDbEntity
  8
SMUSSO
100
AcDbLine
 62
7
  6
CONTINUOUS
 10
-76.8472256993
 20
77.7121243686
 11
-76.8468503918
 21
77.7114880071
  0
LINE
  5
28E
100
AcDbEntity
  8
ASSI
100
AcDbLine
 62
7
  6
CONTINUOUS
 10
-76.8472256993
 20
77.7121243686
 11
-76.8468503918
 21
77.7114880071
  0
LINE
  5
28F
100
AcDbEntity
  8
0
100
AcDbLine
 62
7
  6
CONTINUOUS
 10
-26.7134535919
 20
-2.273413198
 11
-27.0562342619
 21
-2.6068154695
  0
LINE
  5
290
100
AcDbEntity
  8
0
100
AcDbLine
 62
7
  6
CONTINUOUS
 10
-33.2057233345
 20
-0.5889275193
 11
-29.6390838311
 21
1.231152006
  0
LINE
  5
291
100
AcDbEntity
  8
0
100
AcDbLine
 62
250
  6
CONTINUOUS
 10
52.6991313087
 20
-52.323846078
 11
-58.1744163551
 21
11.6931507711
  0
LINE
  5
292
100
AcDbEntity
  8
ASSI
100
AcDbLine
 62
250
  6
CONTINUOUS
 10
52.6991313087
 20
-52.323846078
 11
-58.1744163551
 21
11.6931507711
  0
LINE
  5
293
100
AcDbEntity
  8
0
100
AcDbLine
 62
250
  6
CONTINUOUS
 10
52.8356171307
 20
-52.0818462939
 11
-58.037930533
 21
11.9351505552
  0
LINE
  5
294
100
AcDbEntity
  8
ASSI
100
AcDbLine
 62
250
  6
CONTINUOUS
 10
52.8356171307
 20
-52.0818462939
 11
-58.037930533
 21
11.9351505552
  0
LINE
  5
295
100
AcDbEntity
  8
RACCORDO
100
AcDbLine
 62
7
  6
CONTINUOUS
 10
-57.0083033544
 20
12.5296405068
 11
53.1352258865
 21
-51.0658528543
  0
LINE
  5
296
100
AcDbEntity
  8
ASSI
100
AcDbLine
 62
7
  6
CONTINUOUS
 10
-57.0083033544
 20
12.5296405068
 11
53.1352258865
 21
-51.0658528543
  0
LINE
  5
297
100
AcDbEntity
  8
RACCORDO
100
AcDbLine
 62
7
  6
CONTINUOUS
 10
53.1352258865
 20
-50.4411094933
 11
-56.4673106424
 21
12.8420214561
  0
LINE
  5
298
100
AcDbEntity
  8
ASSI
100
AcDbLine
 62
7
  6
CONTINUOUS
 10
53.1352258865
 20
-50.4411094933
 11
-56.4673106424
 21
12.8420214561
  0
LINE
  5
299
100
AcDbEntity
  8
0
100
AcDbLine
 62
7
  6
CONTINUOUS
 10
50.5428534392
 20
-48.7114795181
 11
46.6537661427
 21
-46.4659692548
  0
LINE
  5
29A
100
AcDbEntity
  8
0
100
AcDbLine
 62
7
  6
CONTINUOUS
 10
-44.916562021
 20
6.4055905811
 11
-48.8056493175
 21
8.6511008444
  0
LINE
  5
29B
100
AcDbEntity
  8
0
100
AcDbLine
 62
7
  6
CONTINUOUS
 10
50.6842747954
 20
-48.6298245994
 11
50.7903408126
 21
-48.691053952
  0
LINE
  5
29C
100
AcDbEntity
  8
0
100
AcDbLine
 62
7
  6
CONTINUOUS
 10
50.6842747954
 20
-48.6298245994
 11
46.7951874989
 21
-46.3843143361
  0
LINE
  5
29D
100
AcDbEntity
  8
0
100
AcDbLine
 62
7
  6
CONTINUOUS
 10
-48.6642279613
 20
8.7327557631
 11
-44.6690746476
 21
6.4260161473
  0
LINE
  5
29E
100
AcDbEntity
  8
0
100
AcDbLine
 62
7
  6
CONTINUOUS
 10
50.8964068298
 20
-48.5073422215
 11
47.0073195333
 21
-46.2618319581
  0
LINE
  5
29F
100
AcDbEntity
  8
0
100
AcDbLine
 62
7
  6
CONTINUOUS
 10
-44.5630086304
 20
6.6097278778
 11
-48.4520959269
 21
8.8552381411
  0
LINE
  5
2A0
100
AcDbEntity
  8
0
100
AcDbLine
 62
7
  6
CONTINUOUS
 10
51.037828186
 20
-48.4256873028
 11
51.1438942032
 21
-48.4869166553
  0
LINE
  5
2A1
100
AcDbEntity
  8
0
100
AcDbLine
 62
7
  6
CONTINUOUS
 10
51.037828186
 20
-48.4256873028
 11
47.1487408895
 21
-46.1801770395
  0
LINE
  5
2A2
100
AcDbEntity
  8
0
100
AcDbLine
 62
7
  6
CONTINUOUS
 10
-48.3106745707
 20
8.9368930598
 11
-44.315521257
 21
6.6301534439
  0
LINE
  5
2A3
100
AcDbEntity
  8
0
100
AcDbLine
 62
7
  6
CONTINUOUS
 10
51.2499602204
 20
-48.3032049248
 11
47.3608729239
 21
-46.0576946615
  0
LINE
  5
2A4
100
AcDbEntity
  8
0
100
AcDbLine
 62
7
  6
CONTINUOUS
 10
-44.2094552398
 20
6.8138651745
 11
-48.0985425363
 21
9.0593754378
  0
LINE
  5
2A5
100
AcDbEntity
  8
0
100
AcDbLine
 62
7
  6
CONTINUOUS
 10
51.3913815766
 20
-48.2215500061
 11
51.4974475938
 21
-48.2827793586
  0
LINE
  5
2A6
100
AcDbEntity
  8
0
100
AcDbLine
 62
7
  6
CONTINUOUS
 10
51.3913815766
 20
-48.2215500061
 11
47.5022942801
 21
-45.9760397428
  0
LINE
  5
2A7
100
AcDbEntity
  8
0
100
AcDbLine
 62
7
  6
CONTINUOUS
 10
-47.9571211801
 20
9.1410303564
 11
-43.9619678664
 21
6.8342907406
  0
LINE
  5
2A8
100
AcDbEntity
  8
0
100
AcDbLine
 62
7
  6
CONTINUOUS
 10
51.603513611
 20
-48.0990676281
 11
47.7144263145
 21
-45.8535573648
  0
LINE
  5
2A9
100
AcDbEntity
  8
0
100
AcDbLine
 62
7
  6
CONTINUOUS
 10
-43.8559018492
 20
7.0180024711
 11
-47.7449891457
 21
9.2635127344
  0
LINE
  5
2AA
100
AcDbEntity
  8
0
100
AcDbLine
 62
7
  6
CONTINUOUS
 10
51.7449349672
 20
-48.0174127095
 11
51.8510009844
 21
-48.078642062
  0
LINE
  5
2AB
100
AcDbEntity
  8
0
100
AcDbLine
 62
7
  6
CONTINUOUS
 10
51.7449349672
 20
-48.0174127095
 11
47.8558476707
 21
-45.7719024462
  0
LINE
  5
2AC
100
AcDbEntity
  8
0
100
AcDbLine
 62
7
  6
CONTINUOUS
 10
-47.6035677895
 20
9.3451676531
 11
-43.6084144758
 21
7.0384280373
  0
LINE
  5
2AD
100
AcDbEntity
  8
0
100
AcDbLine
 62
7
  6
CONTINUOUS
 10
51.9570670016
 20
-47.8949303315
 11
48.067979705
 21
-45.6494200682
  0
LINE
  5
2AE
100
AcDbEntity
  8
0
100
AcDbLine
 62
7
  6
CONTINUOUS
 10
-43.5023484586
 20
7.2221397678
 11
-47.3914357551
 21
9.4676500311
  0
LINE
  5
2AF
100
AcDbEntity
  8
0
100
AcDbLine
 62
7
  6
CONTINUOUS
 10
52.0984883578
 20
-47.8132754128
 11
52.204554375
 21
-47.8745047653
  0
LINE
  5
2B0
100
AcDbEntity
  8
0
100
AcDbLine
 62
7
  6
CONTINUOUS
 10
52.0984883578
 20
-47.8132754128
 11
48.2094010613
 21
-45.5677651495
  0
LINE
  5
2B1
100
AcDbEntity
  8
0
100
AcDbLine
 62
7
  6
CONTINUOUS
 10
-47.2500143989
 20
9.5493049498
 11
-43.2548610852
 21
7.2425653339
  0
LINE
  5
2B2
100
AcDbEntity
  8
0
100
AcDbLine
 62
7
  6
CONTINUOUS
 10
52.3106203922
 20
-47.6907930348
 11
48.4215330956
 21
-45.4452827715
  0
LINE
  5
2B3
100
AcDbEntity
  8
0
100
AcDbLine
 62
7
  6
CONTINUOUS
 10
-43.148795068
 20
7.4262770644
 11
-47.0378823645
 21
9.6717873278
  0
LINE
  5
2B4
100
AcDbEntity
  8
0
100
AcDbLine
 62
7
  6
CONTINUOUS
 10
52.4520417484
 20
-47.6091381161
 11
52.5581077656
 21
-47.6703674686
  0
LINE
  5
2B5
100
AcDbEntity
  8
0
100
AcDbLine
 62
7
  6
CONTINUOUS
 10
52.4520417484
 20
-47.6091381161
 11
48.5629544519
 21
-45.3636278528
  0
LINE
  5
2B6
100
AcDbEntity
  8
0
100
AcDbLine
 62
7
  6
CONTINUOUS
 10
-46.8964610083
 20
9.7534422464
 11
-42.9013076946
 21
7.4467026306
  0
LINE
  5
2B7
100
AcDbEntity
  8
0
100
AcDbLine
 62
250
  6
CONTINUOUS
 10
52.8428867128
 20
-47.7122113242
 11
48.5965494545
 21
-45.2604294103
  0
LINE
  5
2B8
100
AcDbEntity
  8
0
100
AcDbLine
 62
250
  6
CONTINUOUS
 10
-42.6165287474
 20
7.4048587751
 11
-46.8628660057
 21
9.8566406889
  0
LINE
  5
2B9
100
AcDbEntity
  8
0
100
AcDbLine
 62
250
  6
CONTINUOUS
 10
52.9095590688
 20
-47.6735094128
 11
48.6705966075
 21
-45.2259856143
  0
LINE
  5
2BA
100
AcDbEntity
  8
0
100
AcDbLine
 62
250
  6
CONTINUOUS
 10
-42.5498563914
 20
7.4435606865
 11
-46.7888188527
 21
9.891084485
  0
LINE
  5
2BB
100
AcDbEntity
  8
0
100
AcDbLine
 62
250
  6
CONTINUOUS
 10
-9.6137010903
 20
-10.3312530115
 11
-9.6137010903
 21
-10.7602757056
  0
LINE
  5
2BC
100
AcDbEntity
  8
0
100
AcDbLine
 62
7
  6
CONTINUOUS
 10
-9.536644538
 20
-10.2167483412
 11
-9.536644538
 21
-10.614794126
  0
LINE
  5
2BD
100
AcDbEntity
  8
0
100
AcDbLine
 62
7
  6
CONTINUOUS
 10
-25.523603667
 20
-1.1450746616
 11
-28.7350180888
 21
-3.1702566971
  0
LINE
  5
2BE
100
AcDbEntity
  8
0
100
AcDbLine
 62
7
  6
CONTINUOUS
 10
-28.4854810984
 20
-3.314336228
 11
-25.5329545124
 21
-1.57996534
  0
LINE
  5
2BF
100
AcDbEntity
  8
0
100
AcDbLine
 62
7
  6
CONTINUOUS
 10
-27.2893582156
 20
-2.788216929
 11
-28.3404255802
 21
-3.3980894662
  0
LINE
  5
2C0
100
AcDbEntity
  8
0
100
AcDbLine
 62
250
  6
CONTINUOUS
 10
-27.0562342619
 20
-2.6068154695
 11
-28.380713246
 21
-3.3748278729
  0
LINE
  5
2C1
100
AcDbEntity
  8
0
100
AcDbLine
 62
7
  6
CONTINUOUS
 10
-45.2032171195
 20
10.4089104381
 11
-41.377215729
 21
8.1998251863
  0
LINE
  5
2C2
100
AcDbEntity
  8
0
100
AcDbLine
 62
7
  6
CONTINUOUS
 10
50.2561983407
 20
-44.7081596611
 11
53.1352258865
 21
-46.3704740834
  0
LINE
  5
2C3
100
AcDbEntity
  8
0
100
AcDbLine
 62
7
  6
CONTINUOUS
 10
-29.2262126148
 20
1.2228839347
 11
-25.5344150803
 21
-0.9087136926
  0
LINE
  5
2C4
100
AcDbEntity
  8
0
100
AcDbLine
 62
7
  6
CONTINUOUS
 10
-13.3163100381
 20
-7.9632944152
 11
-9.6245125036
 21
-10.0948920425
  0
LINE
  5
2C5
100
AcDbEntity
  8
0
100
AcDbLine
 62
7
  6
CONTINUOUS
 10
2.5935925386
 20
-17.149472765
 11
6.2853900731
 21
-19.2810703924
  0
LINE
  5
2C6
100
AcDbEntity
  8
0
100
AcDbLine
 62
7
  6
CONTINUOUS
 10
18.5034951153
 20
-26.3356511149
 11
22.1952926498
 21
-28.4672487422
  0
LINE
  5
2C7
100
AcDbEntity
  8
0
100
AcDbLine
 62
7
  6
CONTINUOUS
 10
34.413397692
 20
-35.5218294648
 11
38.1051952265
 21
-37.6534270921
  0
LINE
  5
2C8
100
AcDbEntity
  8
0
100
AcDbLine
 62
7
  6
CONTINUOUS
 10
-10.8035510152
 20
-11.4595915478
 11
-11.1463316852
 21
-11.7929938194
  0
LINE
  5
2C9
100
AcDbEntity
  8
0
100
AcDbLine
 62
7
  6
CONTINUOUS
 10
-17.2958207578
 20
-9.7751058692
 11
-13.7291812544
 21
-7.9550263439
  0
LINE
  5
2CA
100
AcDbEntity
  8
0
100
AcDbLine
 62
250
  6
CONTINUOUS
 10
6.2962014864
 20
-19.5174313614
 11
6.2962014864
 21
-19.9464540554
  0
LINE
  5
2CB
100
AcDbEntity
  8
0
100
AcDbLine
 62
7
  6
CONTINUOUS
 10
6.3732580387
 20
-19.4029266911
 11
6.3732580387
 21
-19.8009724759
  0
LINE
  5
2CC
100
AcDbEntity
  8
0
100
AcDbLine
 62
7
  6
CONTINUOUS
 10
-9.6137010903
 20
-10.3312530115
 11
-12.8251155121
 21
-12.356435047
  0
LINE
  5
2CD
100
AcDbEntity
  8
0
100
AcDbLine
 62
7
  6
CONTINUOUS
 10
-12.5755785217
 20
-12.5005145778
 11
-9.6230519357
 21
-10.7661436899
  0
LINE
  5
2CE
100
AcDbEntity
  8
0
100
AcDbLine
 62
7
  6
CONTINUOUS
 10
-11.3794556389
 20
-11.9743952789
 11
-12.4305230035
 21
-12.5842678161
  0
LINE
  5
2CF
100
AcDbEntity
  8
0
100
AcDbLine
 62
250
  6
CONTINUOUS
 10
-11.1463316852
 20
-11.7929938194
 11
-12.4708106693
 21
-12.5610062228
  0
LINE
  5
2D0
100
AcDbEntity
  8
0
100
AcDbLine
 62
7
  6
CONTINUOUS
 10
-58.1329998309
 20
48.9126800475
 11
52.7405478329
 21
-15.1043168016
  0
LINE
  5
2D1
100
AcDbEntity
  8
ASSI
100
AcDbLine
 62
7
  6
CONTINUOUS
 10
-58.1329998309
 20
48.9126800475
 11
52.7405478329
 21
-15.1043168016
  0
LINE
  5
2D2
100
AcDbEntity
  8
0
100
AcDbLine
 62
250
  6
CONTINUOUS
 10
-58.1744163551
 20
49.0042274197
 11
52.6991313087
 21
-15.0127694294
  0
LINE
  5
2D3
100
AcDbEntity
  8
ASSI
100
AcDbLine
 62
250
  6
CONTINUOUS
 10
-58.1744163551
 20
49.0042274197
 11
52.6991313087
 21
-15.0127694294
  0
LWPOLYLINE
  5
2D4
100
AcDbEntity
  8
0
100
AcDbPolyline
 62
7
  6
CONTINUOUS
 90
27
 70
0
 10
52.740568726
 20
-15.10432886
 10
52.75131277
 20
-15.1107256966
 10
52.7725947214
 20
-15.1245117106
 10
52.794713192
 20
-15.140383727
 10
52.8173665701
 20
-15.158265473
 10
52.8403838604
 20
-15.1781404196
 10
52.8636083765
 20
-15.1999836556
 10
52.8867808718
 20
-15.2236488028
 10
52.9097385506
 20
-15.2490509812
 10
52.9323245949
 20
-15.2760917112
 10
52.9543138777
 20
-15.3045640032
 10
52.9755612734
 20
-15.3343272647
 10
52.9959297879
 20
-15.365228741
 10
53.0152363897
 20
-15.3970150299
 10
53.0333691478
 20
-15.4295087465
 10
53.0502273482
 20
-15.4625254783
 10
53.0656786683
 20
-15.4957813677
 10
53.0796562299
 20
-15.5290824042
 10
53.0921072146
 20
-15.5622323286
 10
53.1029594405
 20
-15.5949314862
 10
53.1122019719
 20
-15.6269937607
 10
53.1198389695
 20
-15.6582346811
 10
53.1258676437
 20
-15.6883540988
 10
53.130340147
 20
-15.7171995279
 10
53.1333236241
 20
-15.7446123778
 10
53.1348974657
 20
-15.7702933169
 10
53.1352258943
 20
-15.7878813109
  0
LWPOLYLINE
  5
2D5
100
AcDbEntity
  8
ASSI
100
AcDbPolyline
 62
7
  6
CONTINUOUS
 90
27
 70
0
 10
52.740568726
 20
-15.10432886
 10
52.75131277
 20
-15.1107256966
 10
52.7725947214
 20
-15.1245117106
 10
52.794713192
 20
-15.140383727
 10
52.8173665701
 20
-15.158265473
 10
52.8403838604
 20
-15.1781404196
 10
52.8636083765
 20
-15.1999836556
 10
52.8867808718
 20
-15.2236488028
 10
52.9097385506
 20
-15.2490509812
 10
52.9323245949
 20
-15.2760917112
 10
52.9543138777
 20
-15.3045640032
 10
52.9755612734
 20
-15.3343272647
 10
52.9959297879
 20
-15.365228741
 10
53.0152363897
 20
-15.3970150299
 10
53.0333691478
 20
-15.4295087465
 10
53.0502273482
 20
-15.4625254783
 10
53.0656786683
 20
-15.4957813677
 10
53.0796562299
 20
-15.5290824042
 10
53.0921072146
 20
-15.5622323286
 10
53.1029594405
 20
-15.5949314862
 10
53.1122019719
 20
-15.6269937607
 10
53.1198389695
 20
-15.6582346811
 10
53.1258676437
 20
-15.6883540988
 10
53.130340147
 20
-15.7171995279
 10
53.1333236241
 20
-15.7446123778
 10
53.1348974657
 20
-15.7702933169
 10
53.1352258943
 20
-15.7878813109
  0
LINE
  5
2D6
100
AcDbEntity
  8
0
100
AcDbLine
 62
250
  6
CONTINUOUS
 10
22.2061040631
 20
-28.7036097113
 11
22.2061040631
 21
-29.1326324053
  0
LINE
  5
2D7
100
AcDbEntity
  8
0
100
AcDbLine
 62
7
  6
CONTINUOUS
 10
22.2831606154
 20
-28.5891050409
 11
22.2831606154
 21
-28.9871508257
  0
LINE
  5
2D8
100
AcDbEntity
  8
0
100
AcDbLine
 62
7
  6
CONTINUOUS
 10
5.1063515615
 20
-20.6457698977
 11
4.7635708915
 21
-20.9791721692
  0
LINE
  5
2D9
100
AcDbEntity
  8
0
100
AcDbLine
 62
7
  6
CONTINUOUS
 10
6.2962014864
 20
-19.5174313614
 11
3.0847870647
 21
-21.5426133969
  0
LINE
  5
2DA
100
AcDbEntity
  8
0
100
AcDbLine
 62
7
  6
CONTINUOUS
 10
3.334324055
 20
-21.6866929277
 11
6.286850641
 21
-19.9523220397
  0
LINE
  5
2DB
100
AcDbEntity
  8
0
100
AcDbLine
 62
7
  6
CONTINUOUS
 10
4.5304469378
 20
-21.1605736287
 11
3.4793795732
 21
-21.7704461659
  0
LINE
  5
2DC
100
AcDbEntity
  8
0
100
AcDbLine
 62
250
  6
CONTINUOUS
 10
4.7635708915
 20
-20.9791721692
 11
3.4390919074
 21
-21.7471845726
  0
LINE
  5
2DD
100
AcDbEntity
  8
0
100
AcDbLine
 62
7
  6
CONTINUOUS
 10
-1.3859181104
 20
-18.9612842599
 11
2.1807213223
 21
-17.1412046937
  0
LINE
  5
2DE
100
AcDbEntity
  8
SMUSSO
100
AcDbLine
 62
7
  6
CONTINUOUS
 10
72.0773930151
 20
-80.6234940161
 11
72.0777554453
 21
-80.6241354538
  0
LINE
  5
2DF
100
AcDbEntity
  8
ASSI
100
AcDbLine
 62
7
  6
CONTINUOUS
 10
72.0773930151
 20
-80.6234940161
 11
72.0777554453
 21
-80.6241354538
  0
LINE
  5
2E0
100
AcDbEntity
  8
SMUSSO
100
AcDbLine
 62
7
  6
CONTINUOUS
 10
72.7637913627
 20
-8.6718214803
 11
72.7852927146
 21
-8.6838164277
  0
LINE
  5
2E1
100
AcDbEntity
  8
ASSI
100
AcDbLine
 62
7
  6
CONTINUOUS
 10
72.7637913627
 20
-8.6718214803
 11
72.7852927146
 21
-8.6838164277
  0
LINE
  5
2E2
100
AcDbEntity
  8
SMUSSO
100
AcDbLine
 62
7
  6
CONTINUOUS
 10
71.0678562977
 20
-8.536239265
 11
-76.5431413441
 21
76.6925007731
  0
LINE
  5
2E3
100
AcDbEntity
  8
ASSI
100
AcDbLine
 62
7
  6
CONTINUOUS
 10
71.0678562977
 20
-8.536239265
 11
-76.5431413441
 21
76.6925007731
  0
LINE
  5
2E4
100
AcDbEntity
  8
SMUSSO
100
AcDbLine
 62
7
  6
CONTINUOUS
 10
72.0777554453
 20
-7.4583259303
 11
-76.1396884301
 21
78.1205685624
  0
LINE
  5
2E5
100
AcDbEntity
  8
ASSI
100
AcDbLine
 62
7
  6
CONTINUOUS
 10
72.0777554453
 20
-7.4583259303
 11
-76.1396884301
 21
78.1205685624
  0
LINE
  5
2E6
100
AcDbEntity
  8
0
100
AcDbLine
 62
250
  6
CONTINUOUS
 10
38.1160066398
 20
-37.8897880611
 11
38.1160066398
 21
-38.3188107552
  0
LINE
  5
2E7
100
AcDbEntity
  8
0
100
AcDbLine
 62
7
  6
CONTINUOUS
 10
21.0162541382
 20
-29.8319482476
 11
20.6734734682
 21
-30.1653505191
  0
LINE
  5
2E8
100
AcDbEntity
  8
0
100
AcDbLine
 62
7
  6
CONTINUOUS
 10
22.2061040631
 20
-28.7036097113
 11
18.9946896413
 21
-30.7287917468
  0
LINE
  5
2E9
100
AcDbEntity
  8
0
100
AcDbLine
 62
7
  6
CONTINUOUS
 10
19.2442266317
 20
-30.8728712776
 11
22.1967532177
 21
-29.1385003896
  0
LINE
  5
2EA
100
AcDbEntity
  8
0
100
AcDbLine
 62
7
  6
CONTINUOUS
 10
20.4403495145
 20
-30.3467519786
 11
19.3892821499
 21
-30.9566245158
  0
LINE
  5
2EB
100
AcDbEntity
  8
0
100
AcDbLine
 62
250
  6
CONTINUOUS
 10
20.6734734682
 20
-30.1653505191
 11
19.3489944841
 21
-30.9333629225
  0
LINE
  5
2EC
100
AcDbEntity
  8
0
100
AcDbLine
 62
7
  6
CONTINUOUS
 10
14.5239843956
 20
-28.147462569
 11
18.090623899
 21
-26.3273830436
  0
LINE
  5
2ED
100
AcDbEntity
  8
SMUSSO
100
AcDbLine
 62
7
  6
CONTINUOUS
 10
76.1396884301
 20
-5.1130320282
 11
-72.3518746429
 21
80.6241354538
  0
LINE
  5
2EE
100
AcDbEntity
  8
ASSI
100
AcDbLine
 62
7
  6
CONTINUOUS
 10
76.1396884301
 20
-5.1130320282
 11
-72.3518746429
 21
80.6241354538
  0
LINE
  5
2EF
100
AcDbEntity
  8
0
100
AcDbLine
 62
7
  6
CONTINUOUS
 10
38.1930631921
 20
-37.7752833908
 11
38.1930631921
 21
-38.1733291756
  0
LINE
  5
2F0
100
AcDbEntity
  8
SMUSSO
100
AcDbLine
 62
7
  6
CONTINUOUS
 10
72.0777554453
 20
-7.4583259303
 11
76.1396884301
 21
-5.1130320282
  0
LINE
  5
2F1
100
AcDbEntity
  8
ASSI
100
AcDbLine
 62
7
  6
CONTINUOUS
 10
72.0777554453
 20
-7.4583259303
 11
76.1396884301
 21
-5.1130320282
  0
LINE
  5
2F2
100
AcDbEntity
  8
SMUSSO
100
AcDbLine
 62
7
  6
CONTINUOUS
 10
72.7852927146
 20
-8.6838164277
 11
76.8472256993
 21
-6.3385225255
  0
LINE
  5
2F3
100
AcDbEntity
  8
ASSI
100
AcDbLine
 62
7
  6
CONTINUOUS
 10
72.7852927146
 20
-8.6838164277
 11
76.8472256993
 21
-6.3385225255
  0
LINE
  5
2F4
100
AcDbEntity
  8
0
100
AcDbLine
 62
7
  6
CONTINUOUS
 10
38.1160066398
 20
-37.8897880611
 11
34.904592218
 21
-39.9149700966
  0
LINE
  5
2F5
100
AcDbEntity
  8
0
100
AcDbLine
 62
7
  6
CONTINUOUS
 10
35.1541292084
 20
-40.0590496275
 11
38.1066557944
 21
-38.3246787395
  0
LINE
  5
2F6
100
AcDbEntity
  8
0
100
AcDbLine
 62
7
  6
CONTINUOUS
 10
36.3502520912
 20
-39.5329303285
 11
35.2991847266
 21
-40.1428028657
  0
LINE
  5
2F7
100
AcDbEntity
  8
0
100
AcDbLine
 62
250
  6
CONTINUOUS
 10
36.5833760449
 20
-39.351528869
 11
35.2588970608
 21
-40.1195412724
  0
LINE
  5
2F8
100
AcDbEntity
  8
0
100
AcDbLine
 62
7
  6
CONTINUOUS
 10
30.4338869723
 20
-37.3336409188
 11
34.0005264757
 21
-35.5135613935
  0
LINE
  5
2F9
100
AcDbEntity
  8
0
100
AcDbLine
 62
7
  6
CONTINUOUS
 10
53.1352258865
 20
-15.7879136628
 11
53.1352258865
 21
-51.9566282442
  0
LINE
  5
2FA
100
AcDbEntity
  8
ASSI
100
AcDbLine
 62
7
  6
CONTINUOUS
 10
53.1352258865
 20
-15.7879136628
 11
53.1352258865
 21
-51.9566282442
  0
LINE
  5
2FB
100
AcDbEntity
  8
0
100
AcDbLine
 62
250
  6
CONTINUOUS
 10
53.1938045303
 20
-15.8695685815
 11
53.1938045303
 21
-52.0382831628
  0
LINE
  5
2FC
100
AcDbEntity
  8
ASSI
100
AcDbLine
 62
250
  6
CONTINUOUS
 10
53.1938045303
 20
-15.8695685815
 11
53.1938045303
 21
-52.0382831628
  0
LWPOLYLINE
  5
2FD
100
AcDbEntity
  8
0
100
AcDbPolyline
 62
7
  6
CONTINUOUS
 90
13
 70
0
 10
53.1352259194
 20
-51.956694513
 10
53.1349459994
 20
-51.9724191287
 10
53.1335706225
 20
-51.9941842584
 10
53.1311006365
 20
-52.0144766813
 10
53.1276029813
 20
-52.033166251
 10
53.1232125671
 20
-52.0499470248
 10
53.1182138103
 20
-52.0643497627
 10
53.112927657
 20
-52.0761934019
 10
53.1076086844
 20
-52.0856179267
 10
53.1025222609
 20
-52.0927798286
 10
53.0978861844
 20
-52.0979287906
 10
53.0938630555
 20
-52.1014060846
 10
53.0918520012
 20
-52.10281418
  0
LWPOLYLINE
  5
2FE
100
AcDbEntity
  8
ASSI
100
AcDbPolyline
 62
7
  6
CONTINUOUS
 90
13
 70
0
 10
53.1352259194
 20
-51.956694513
 10
53.1349459994
 20
-51.9724191287
 10
53.1335706225
 20
-51.9941842584
 10
53.1311006365
 20
-52.0144766813
 10
53.1276029813
 20
-52.033166251
 10
53.1232125671
 20
-52.0499470248
 10
53.1182138103
 20
-52.0643497627
 10
53.112927657
 20
-52.0761934019
 10
53.1076086844
 20
-52.0856179267
 10
53.1025222609
 20
-52.0927798286
 10
53.0978861844
 20
-52.0979287906
 10
53.0938630555
 20
-52.1014060846
 10
53.0918520012
 20
-52.10281418
  0
LINE
  5
2FF
100
AcDbEntity
  8
SMUSSO
100
AcDbLine
 62
7
  6
CONTINUOUS
 10
71.0678562977
 20
-8.536239265
 11
72.0773930151
 21
-7.4829446692
  0
LINE
  5
300
100
AcDbEntity
  8
ASSI
100
AcDbLine
 62
7
  6
CONTINUOUS
 10
71.0678562977
 20
-8.536239265
 11
72.0773930151
 21
-7.4829446692
  0
LINE
  5
301
100
AcDbEntity
  8
0
100
AcDbLine
 62
7
  6
CONTINUOUS
 10
36.9261567149
 20
-39.0181265975
 11
36.5833760449
 21
-39.351528869
  0
LINE
  5
302
100
AcDbEntity
  8
0
100
AcDbLine
 62
7
  6
CONTINUOUS
 10
48.6705966075
 20
-45.2259856143
 11
49.9809508631
 21
-44.6885232876
  0
LINE
  5
303
100
AcDbEntity
  8
SMUSSO
100
AcDbLine
 62
7
  6
CONTINUOUS
 10
71.3468322318
 20
-9.0194397565
 11
71.0678562977
 21
-8.536239265
  0
LINE
  5
304
100
AcDbEntity
  8
ASSI
100
AcDbLine
 62
7
  6
CONTINUOUS
 10
71.3468322318
 20
-9.0194397565
 11
71.0678562977
 21
-8.536239265
  0
LINE
  5
305
100
AcDbEntity
  8
SMUSSO
100
AcDbLine
 62
7
  6
CONTINUOUS
 10
72.7637913627
 20
-8.6718214803
 11
72.0773930151
 21
-7.4829446692
  0
LINE
  5
306
100
AcDbEntity
  8
ASSI
100
AcDbLine
 62
7
  6
CONTINUOUS
 10
72.7637913627
 20
-8.6718214803
 11
72.0773930151
 21
-7.4829446692
  0
LINE
  5
307
100
AcDbEntity
  8
0
100
AcDbLine
 62
7
  6
CONTINUOUS
 10
46.5529508852
 20
-46.6405864028
 11
46.6537661427
 21
-46.4659692548
  0
LINE
  5
308
100
AcDbEntity
  8
0
100
AcDbLine
 62
7
  6
CONTINUOUS
 10
46.9012535161
 20
-46.4455436887
 11
47.0073195333
 21
-46.2618319581
  0
LINE
  5
309
100
AcDbEntity
  8
0
100
AcDbLine
 62
7
  6
CONTINUOUS
 10
47.2548069067
 20
-46.241406392
 11
47.3608729239
 21
-46.0576946615
  0
LINE
  5
30A
100
AcDbEntity
  8
0
100
AcDbLine
 62
7
  6
CONTINUOUS
 10
47.6083602973
 20
-46.0372690953
 11
47.7144263145
 21
-45.8535573648
  0
LINE
  5
30B
100
AcDbEntity
  8
0
100
AcDbLine
 62
7
  6
CONTINUOUS
 10
47.9619136879
 20
-45.8331317987
 11
48.067979705
 21
-45.6494200682
  0
LINE
  5
30C
100
AcDbEntity
  8
0
100
AcDbLine
 62
7
  6
CONTINUOUS
 10
48.3154670785
 20
-45.628994502
 11
48.4215330956
 21
-45.4452827715
  0
LINE
  5
30D
100
AcDbEntity
  8
0
100
AcDbLine
 62
7
  6
CONTINUOUS
 10
46.6537661427
 20
-46.4659692548
 11
46.7951874989
 21
-46.3843143361
  0
LINE
  5
30E
100
AcDbEntity
  8
0
100
AcDbLine
 62
7
  6
CONTINUOUS
 10
47.0073195333
 20
-46.2618319581
 11
47.1487408895
 21
-46.1801770395
  0
LINE
  5
30F
100
AcDbEntity
  8
0
100
AcDbLine
 62
7
  6
CONTINUOUS
 10
47.3608729239
 20
-46.0576946615
 11
47.5022942801
 21
-45.9760397428
  0
LINE
  5
310
100
AcDbEntity
  8
0
100
AcDbLine
 62
7
  6
CONTINUOUS
 10
47.7144263145
 20
-45.8535573648
 11
47.8558476707
 21
-45.7719024462
  0
LINE
  5
311
100
AcDbEntity
  8
0
100
AcDbLine
 62
7
  6
CONTINUOUS
 10
48.067979705
 20
-45.6494200682
 11
48.2094010613
 21
-45.5677651495
  0
LINE
  5
312
100
AcDbEntity
  8
0
100
AcDbLine
 62
7
  6
CONTINUOUS
 10
48.4215330956
 20
-45.4452827715
 11
48.5629544519
 21
-45.3636278528
  0
LINE
  5
313
100
AcDbEntity
  8
0
100
AcDbLine
 62
7
  6
CONTINUOUS
 10
50.5428534392
 20
-48.7114795181
 11
50.6842747954
 21
-48.6298245994
  0
LINE
  5
314
100
AcDbEntity
  8
0
100
AcDbLine
 62
7
  6
CONTINUOUS
 10
50.8964068298
 20
-48.5073422215
 11
51.037828186
 21
-48.4256873028
  0
LINE
  5
315
100
AcDbEntity
  8
0
100
AcDbLine
 62
7
  6
CONTINUOUS
 10
51.2499602204
 20
-48.3032049248
 11
51.3913815766
 21
-48.2215500061
  0
LINE
  5
316
100
AcDbEntity
  8
0
100
AcDbLine
 62
7
  6
CONTINUOUS
 10
51.603513611
 20
-48.0990676281
 11
51.7449349672
 21
-48.0174127095
  0
LINE
  5
317
100
AcDbEntity
  8
0
100
AcDbLine
 62
7
  6
CONTINUOUS
 10
51.9570670016
 20
-47.8949303315
 11
52.0984883578
 21
-47.8132754128
  0
LINE
  5
318
100
AcDbEntity
  8
0
100
AcDbLine
 62
7
  6
CONTINUOUS
 10
52.3106203922
 20
-47.6907930348
 11
52.4520417484
 21
-47.6091381161
  0
LINE
  5
319
100
AcDbEntity
  8
0
100
AcDbLine
 62
7
  6
CONTINUOUS
 10
52.5581077656
 20
-47.6703674686
 11
50.4472884339
 21
-48.889128096
  0
LINE
  5
31A
100
AcDbEntity
  8
0
100
AcDbLine
 62
7
  6
CONTINUOUS
 10
46.2633895092
 20
-46.4733972934
 11
48.5965494545
 21
-45.2604294103
  0
LINE
  5
31B
100
AcDbEntity
  8
0
100
AcDbLine
 62
7
  6
CONTINUOUS
 10
53.1352258865
 20
-47.5562977512
 11
52.9095590688
 21
-47.6735094128
  0
LINE
  5
31C
100
AcDbEntity
  8
SMUSSO
100
AcDbLine
 62
7
  6
CONTINUOUS
 10
76.1396884301
 20
-5.1130320282
 11
76.8472256993
 21
-6.3385225255
  0
LINE
  5
31D
100
AcDbEntity
  8
ASSI
100
AcDbLine
 62
7
  6
CONTINUOUS
 10
76.1396884301
 20
-5.1130320282
 11
76.8472256993
 21
-6.3385225255
  0
LINE
  5
31E
100
AcDbEntity
  8
SMUSSO
100
AcDbLine
 62
7
  6
CONTINUOUS
 10
71.3468322318
 20
-79.8510733558
 11
71.3468322318
 21
-9.0194397565
  0
LINE
  5
31F
100
AcDbEntity
  8
ASSI
100
AcDbLine
 62
7
  6
CONTINUOUS
 10
71.3468322318
 20
-79.8510733558
 11
71.3468322318
 21
-9.0194397565
  0
LINE
  5
320
100
AcDbEntity
  8
SMUSSO
100
AcDbLine
 62
7
  6
CONTINUOUS
 10
72.7852927146
 20
-80.2156912599
 11
72.7852927146
 21
-8.6838164277
  0
LINE
  5
321
100
AcDbEntity
  8
ASSI
100
AcDbLine
 62
7
  6
CONTINUOUS
 10
72.7852927146
 20
-80.2156912599
 11
72.7852927146
 21
-8.6838164277
  0
LINE
  5
322
100
AcDbEntity
  8
CURVE
100
AcDbLine
 62
250
  6
CONTINUOUS
 10
73.9161360881
 20
-73.0179416066
 11
73.9161360881
 21
-73.4439700818
  0
LINE
  5
323
100
AcDbEntity
  8
CURVE
100
AcDbLine
 62
250
  6
CONTINUOUS
 10
73.9162450598
 20
-75.2805196566
 11
73.9162450598
 21
-74.8177214426
  0
LINE
  5
324
100
AcDbEntity
  8
CURVE
100
AcDbLine
 62
250
  6
CONTINUOUS
 10
73.9162450598
 20
-74.0277488921
 11
73.9162450598
 21
-73.6020118969
  0
LINE
  5
325
100
AcDbEntity
  8
CURVE
100
AcDbLine
 62
250
  6
CONTINUOUS
 10
73.9162450598
 20
-72.6042517434
 11
73.9162450598
 21
-72.1785759834
  0
LINE
  5
326
100
AcDbEntity
  8
CURVE
100
AcDbLine
 62
250
  6
CONTINUOUS
 10
73.9162450598
 20
-71.3310186008
 11
73.9162450598
 21
-70.9095052063
  0
LINE
  5
327
100
AcDbEntity
  8
CURVE
100
AcDbLine
 62
250
  6
CONTINUOUS
 10
73.9162450598
 20
-70.0115797723
 11
73.9162450598
 21
-69.5994484378
  0
LINE
  5
328
100
AcDbEntity
  8
CURVE
100
AcDbLine
 62
250
  6
CONTINUOUS
 10
74.7295698446
 20
-67.7565574392
 11
74.7295698446
 21
-68.0000284304
  0
LINE
  5
329
100
AcDbEntity
  8
CURVE
100
AcDbLine
 62
250
  6
CONTINUOUS
 10
75.0289833324
 20
-67.8246910048
 11
75.0289833324
 21
-67.59626477
  0
LINE
  5
32A
100
AcDbEntity
  8
CURVE
100
AcDbLine
 62
250
  6
CONTINUOUS
 10
75.097050716
 20
-69.3898727445
 11
75.097050716
 21
-68.9819805236
  0
LINE
  5
32B
100
AcDbEntity
  8
SMUSSO
100
AcDbLine
 62
7
  6
CONTINUOUS
 10
72.0777554453
 20
-7.4583259303
 11
72.0773930151
 21
-7.4829446692
  0
LINE
  5
32C
100
AcDbEntity
  8
ASSI
100
AcDbLine
 62
7
  6
CONTINUOUS
 10
72.0777554453
 20
-7.4583259303
 11
72.0773930151
 21
-7.4829446692
  0
LINE
  5
32D
100
AcDbEntity
  8
0
100
AcDbLine
 62
7
  6
CONTINUOUS
 10
50.4420381817
 20
-48.8860966661
 11
50.5428534392
 21
-48.7114795181
  0
LINE
  5
32E
100
AcDbEntity
  8
0
100
AcDbLine
 62
7
  6
CONTINUOUS
 10
50.7903408126
 20
-48.691053952
 11
50.8964068298
 21
-48.5073422215
  0
LINE
  5
32F
100
AcDbEntity
  8
0
100
AcDbLine
 62
7
  6
CONTINUOUS
 10
51.1438942032
 20
-48.4869166553
 11
51.2499602204
 21
-48.3032049248
  0
LINE
  5
330
100
AcDbEntity
  8
0
100
AcDbLine
 62
7
  6
CONTINUOUS
 10
51.4974475938
 20
-48.2827793586
 11
51.603513611
 21
-48.0990676281
  0
LINE
  5
331
100
AcDbEntity
  8
0
100
AcDbLine
 62
7
  6
CONTINUOUS
 10
51.8510009844
 20
-48.078642062
 11
51.9570670016
 21
-47.8949303315
  0
LINE
  5
332
100
AcDbEntity
  8
0
100
AcDbLine
 62
7
  6
CONTINUOUS
 10
52.204554375
 20
-47.8745047653
 11
52.3106203922
 21
-47.6907930348
  0
LINE
  5
333
100
AcDbEntity
  8
0
100
AcDbLine
 62
250
  6
CONTINUOUS
 10
52.1449279271
 20
-48.7397018578
 11
52.4808728921
 21
-48.412948268
  0
LINE
  5
334
100
AcDbEntity
  8
0
100
AcDbLine
 62
7
  6
CONTINUOUS
 10
52.1488527846
 20
-48.7732370585
 11
52.5778371653
 21
-48.3559895894
  0
LINE
  5
335
100
AcDbEntity
  8
0
100
AcDbLine
 62
250
  6
CONTINUOUS
 10
52.8356171307
 20
-52.0818462939
 11
53.1352258865
 21
-51.8838189875
  0
LINE
  5
336
100
AcDbEntity
  8
ASSI
100
AcDbLine
 62
250
  6
CONTINUOUS
 10
52.8356171307
 20
-52.0818462939
 11
53.1352258865
 21
-51.8838189875
  0
LINE
  5
337
100
AcDbEntity
  8
0
100
AcDbLine
 62
7
  6
CONTINUOUS
 10
53.0920995349
 20
-52.1026511658
 11
53.0918624215
 21
-52.1028075976
  0
LINE
  5
338
100
AcDbEntity
  8
ASSI
100
AcDbLine
 62
7
  6
CONTINUOUS
 10
53.0920995349
 20
-52.1026511658
 11
53.0918624215
 21
-52.1028075976
  0
LINE
  5
339
100
AcDbEntity
  8
0
100
AcDbLine
 62
7
  6
CONTINUOUS
 10
52.8428867128
 20
-47.7122113242
 11
50.7421000621
 21
-49.0593486352
  0
LINE
  5
33A
100
AcDbEntity
  8
0
100
AcDbLine
 62
7
  6
CONTINUOUS
 10
51.0640317851
 20
-49.2452279773
 11
53.1352258865
 21
-48.0285687371
  0
LINE
  5
33B
100
AcDbEntity
  8
0
100
AcDbLine
 62
7
  6
CONTINUOUS
 10
52.0902384389
 20
-48.8177010666
 11
51.2090873033
 21
-49.3289812156
  0
LINE
  5
33C
100
AcDbEntity
  8
0
100
AcDbLine
 62
250
  6
CONTINUOUS
 10
52.1449279271
 20
-48.7397018578
 11
51.1687996375
 21
-49.3057196223
  0
LINE
  5
33D
100
AcDbEntity
  8
CURVE
100
AcDbLine
 62
250
  6
CONTINUOUS
 10
75.3794644106
 20
-68.744781109
 11
75.3794644106
 21
-69.3249608054
  0
LINE
  5
33E
100
AcDbEntity
  8
CURVE
100
AcDbLine
 62
250
  6
CONTINUOUS
 10
75.7444362364
 20
-72.459572102
 11
75.7444362364
 21
-72.0335436269
  0
LINE
  5
33F
100
AcDbEntity
  8
CURVE
100
AcDbLine
 62
250
  6
CONTINUOUS
 10
75.7444362485
 20
-67.8637892066
 11
75.7444362485
 21
-67.4394750402
  0
LINE
  5
340
100
AcDbEntity
  8
CURVE
100
AcDbLine
 62
250
  6
CONTINUOUS
 10
75.7444362485
 20
-66.7870713476
 11
75.7444362485
 21
-66.3772815696
  0
LINE
  5
341
100
AcDbEntity
  8
CURVE
100
AcDbLine
 62
250
  6
CONTINUOUS
 10
75.7444362364
 20
-67.9888919415
 11
75.7444362364
 21
-68.4379081373
  0
LINE
  5
342
100
AcDbEntity
  8
CURVE
100
AcDbLine
 62
250
  6
CONTINUOUS
 10
75.7444362364
 20
-69.2460095937
 11
75.7444362364
 21
-69.6674152142
  0
LINE
  5
343
100
AcDbEntity
  8
CURVE
100
AcDbLine
 62
250
  6
CONTINUOUS
 10
75.7444362364
 20
-69.7343135228
 11
75.7444362364
 21
-70.1510824085
  0
LINE
  5
344
100
AcDbEntity
  8
CURVE
100
AcDbLine
 62
250
  6
CONTINUOUS
 10
75.7444362364
 20
-70.7451584289
 11
75.7444362364
 21
-70.8049093567
  0
LINE
  5
345
100
AcDbEntity
  8
CURVE
100
AcDbLine
 62
250
  6
CONTINUOUS
 10
75.7444362364
 20
-71.396629044
 11
75.7444362364
 21
-71.8041995756
  0
LINE
  5
346
100
AcDbEntity
  8
CURVE
100
AcDbLine
 62
250
  6
CONTINUOUS
 10
75.7444362364
 20
-73.2737187044
 11
75.7444362364
 21
-73.6491562318
  0
LINE
  5
347
100
AcDbEntity
  8
SMUSSO
100
AcDbLine
 62
7
  6
CONTINUOUS
 10
76.8472256993
 20
-78.1869127456
 11
76.8472256993
 21
-6.3385225255
  0
LINE
  5
348
100
AcDbEntity
  8
ASSI
100
AcDbLine
 62
7
  6
CONTINUOUS
 10
76.8472256993
 20
-78.1869127456
 11
76.8472256993
 21
-6.3385225255
  0
LINE
  5
349
100
AcDbEntity
  8
CURVE
100
AcDbLine
 62
250
  6
CONTINUOUS
 10
74.8910529706
 20
-67.2279719281
 11
74.8802499565
 21
-67.2337885142
  0
LINE
  5
34A
100
AcDbEntity
  8
CURVE
100
AcDbLine
 62
250
  6
CONTINUOUS
 10
75.7444362485
 20
-67.4394750402
 11
75.0289833324
 21
-67.8246910048
  0
LINE
  5
34B
100
AcDbEntity
  8
CURVE
100
AcDbLine
 62
250
  6
CONTINUOUS
 10
74.7295698446
 20
-68.0000284304
 11
74.2276958079
 21
-68.2702487158
  0
LINE
  5
34C
100
AcDbEntity
  8
CURVE
100
AcDbLine
 62
250
  6
CONTINUOUS
 10
73.9376047181
 20
-68.8366279989
 11
75.7444362485
 21
-67.8637892066
  0
LINE
  5
34D
100
AcDbEntity
  8
CURVE
100
AcDbLine
 62
250
  6
CONTINUOUS
 10
74.5506622164
 20
-71.9474468619
 11
75.7444362364
 21
-71.396629044
  0
LINE
  5
34E
100
AcDbEntity
  8
CURVE
100
AcDbLine
 62
250
  6
CONTINUOUS
 10
75.7444362364
 20
-71.8041995756
 11
73.9162450598
 21
-72.6042517434
  0
LINE
  5
34F
100
AcDbEntity
  8
CURVE
100
AcDbLine
 62
7
  6
CONTINUOUS
 10
74.0158093086
 20
-67.627863223
 11
74.4801136282
 21
-67.1635589033
  0
LINE
  5
350
100
AcDbEntity
  8
CURVE
100
AcDbLine
 62
7
  6
CONTINUOUS
 10
73.9231814341
 20
-67.9305018115
 11
74.729228569
 21
-67.1244546766
  0
LINE
  5
351
100
AcDbEntity
  8
CURVE
100
AcDbLine
 62
7
  6
CONTINUOUS
 10
73.8992143685
 20
-68.1644795911
 11
74.2487116333
 21
-67.8149823262
  0
LINE
  5
352
100
AcDbEntity
  8
CURVE
100
AcDbLine
 62
7
  6
CONTINUOUS
 10
74.5153709419
 20
-67.5483230177
 11
74.8632071078
 21
-67.2004868518
  0
LINE
  5
353
100
AcDbEntity
  8
CURVE
100
AcDbLine
 62
7
  6
CONTINUOUS
 10
74.933888173
 20
-67.1298057865
 11
75.3998909017
 21
-66.6638030578
  0
LINE
  5
354
100
AcDbEntity
  8
CURVE
100
AcDbLine
 62
7
  6
CONTINUOUS
 10
73.895981157
 20
-68.3777235166
 11
74.2107054102
 21
-68.0629992633
  0
LINE
  5
355
100
AcDbEntity
  8
CURVE
100
AcDbLine
 62
7
  6
CONTINUOUS
 10
74.6897431952
 20
-67.5839614784
 11
75.7444362485
 21
-66.5292684251
  0
LINE
  5
356
100
AcDbEntity
  8
CURVE
100
AcDbLine
 62
7
  6
CONTINUOUS
 10
73.9074728581
 20
-68.5762425295
 11
74.225794456
 21
-68.2579209316
  0
LINE
  5
357
100
AcDbEntity
  8
CURVE
100
AcDbLine
 62
7
  6
CONTINUOUS
 10
74.7294784949
 20
-67.7542368927
 11
75.094843792
 21
-67.3888715956
  0
LINE
  5
358
100
AcDbEntity
  8
CURVE
100
AcDbLine
 62
7
  6
CONTINUOUS
 10
75.3991593874
 20
-67.0845560002
 11
75.7444362485
 21
-66.7392791391
  0
LINE
  5
359
100
AcDbEntity
  8
CURVE
100
AcDbLine
 62
7
  6
CONTINUOUS
 10
73.9281948743
 20
-68.7655312272
 11
74.6518533717
 21
-68.0418727299
  0
LINE
  5
35A
100
AcDbEntity
  8
CURVE
100
AcDbLine
 62
7
  6
CONTINUOUS
 10
74.7295698446
 20
-67.964156257
 11
75.0289833324
 21
-67.6647427692
  0
LINE
  5
35B
100
AcDbEntity
  8
CURVE
100
AcDbLine
 62
7
  6
CONTINUOUS
 10
74.2181732146
 20
-68.685563601
 11
75.1374428673
 21
-67.7662939483
  0
LINE
  5
35C
100
AcDbEntity
  8
CURVE
100
AcDbLine
 62
7
  6
CONTINUOUS
 10
74.6731579674
 20
-68.4405895622
 11
75.5924276201
 21
-67.5213199095
  0
LINE
  5
35D
100
AcDbEntity
  8
CURVE
100
AcDbLine
 62
7
  6
CONTINUOUS
 10
75.1281427202
 20
-68.1956155234
 11
75.7444362485
 21
-67.5793219951
  0
LINE
  5
35E
100
AcDbEntity
  8
CURVE
100
AcDbLine
 62
7
  6
CONTINUOUS
 10
73.9162450598
 20
-69.6175238979
 11
74.0680838963
 21
-69.4656850613
  0
LINE
  5
35F
100
AcDbEntity
  8
CURVE
100
AcDbLine
 62
7
  6
CONTINUOUS
 10
75.583127473
 20
-67.9506414846
 11
75.7444362485
 21
-67.7893327091
  0
LINE
  5
360
100
AcDbEntity
  8
CURVE
100
AcDbLine
 62
7
  6
CONTINUOUS
 10
73.9162450598
 20
-69.8275346119
 11
75.7444362364
 21
-67.9993434352
  0
LINE
  5
361
100
AcDbEntity
  8
CURVE
100
AcDbLine
 62
7
  6
CONTINUOUS
 10
73.9482323539
 20
-70.0055580318
 11
75.7444362364
 21
-68.2093541492
  0
LINE
  5
362
100
AcDbEntity
  8
CURVE
100
AcDbLine
 62
7
  6
CONTINUOUS
 10
74.2069472109
 20
-69.9568538888
 11
74.6797059632
 21
-69.4840951365
  0
LINE
  5
363
100
AcDbEntity
  8
CURVE
100
AcDbLine
 62
7
  6
CONTINUOUS
 10
75.097050716
 20
-69.0667503837
 11
75.3794644106
 21
-68.7843366891
  0
LINE
  5
364
100
AcDbEntity
  8
CURVE
100
AcDbLine
 62
7
  6
CONTINUOUS
 10
75.6279490408
 20
-68.5358520589
 11
75.7444362364
 21
-68.4193648632
  0
LINE
  5
365
100
AcDbEntity
  8
CURVE
100
AcDbLine
 62
7
  6
CONTINUOUS
 10
74.4656620678
 20
-69.9081497458
 11
74.9509557439
 21
-69.4228560698
  0
LINE
  5
366
100
AcDbEntity
  8
CURVE
100
AcDbLine
 62
7
  6
CONTINUOUS
 10
75.097050716
 20
-69.2767610977
 11
75.3794644106
 21
-68.9943474031
  0
LINE
  5
367
100
AcDbEntity
  8
CURVE
100
AcDbLine
 62
7
  6
CONTINUOUS
 10
74.7243769248
 20
-69.8594456029
 11
75.3794644106
 21
-69.2043581171
  0
LINE
  5
368
100
AcDbEntity
  8
CURVE
100
AcDbLine
 62
7
  6
CONTINUOUS
 10
74.9830917818
 20
-69.8107414599
 11
75.493552028
 21
-69.3002812137
  0
LINE
  5
369
100
AcDbEntity
  8
CURVE
100
AcDbLine
 62
7
  6
CONTINUOUS
 10
73.9162450598
 20
-71.087598896
 11
74.4148508251
 21
-70.5889931306
  0
LINE
  5
36A
100
AcDbEntity
  8
CURVE
100
AcDbLine
 62
7
  6
CONTINUOUS
 10
75.2418066388
 20
-69.7620373169
 11
75.7444362364
 21
-69.2594077193
  0
LINE
  5
36B
100
AcDbEntity
  8
CURVE
100
AcDbLine
 62
7
  6
CONTINUOUS
 10
73.9162450598
 20
-71.29760961
 11
75.0028141213
 21
-70.2110405485
  0
LINE
  5
36C
100
AcDbEntity
  8
CURVE
100
AcDbLine
 62
7
  6
CONTINUOUS
 10
75.5005214958
 20
-69.713333174
 11
75.7444362364
 21
-69.4694184333
  0
LINE
  5
36D
100
AcDbEntity
  8
CURVE
100
AcDbLine
 62
7
  6
CONTINUOUS
 10
74.1166321678
 20
-71.3072332159
 11
75.5907774174
 21
-69.8330879663
  0
LINE
  5
36E
100
AcDbEntity
  8
CURVE
100
AcDbLine
 62
7
  6
CONTINUOUS
 10
74.3549279154
 20
-71.2789481824
 11
74.7804394039
 21
-70.8534366938
  0
LINE
  5
36F
100
AcDbEntity
  8
CURVE
100
AcDbLine
 62
7
  6
CONTINUOUS
 10
75.070011854
 20
-70.5638642438
 11
75.7444362364
 21
-69.8894398613
  0
LINE
  5
370
100
AcDbEntity
  8
CURVE
100
AcDbLine
 62
7
  6
CONTINUOUS
 10
74.593223663
 20
-71.2506631488
 11
75.017023803
 21
-70.8268630088
  0
LINE
  5
371
100
AcDbEntity
  8
CURVE
100
AcDbLine
 62
7
  6
CONTINUOUS
 10
75.6113471515
 20
-70.2325396603
 11
75.7444362364
 21
-70.0994505753
  0
LINE
  5
372
100
AcDbEntity
  8
CURVE
100
AcDbLine
 62
7
  6
CONTINUOUS
 10
74.8315194105
 20
-71.2223781153
 11
75.2536082021
 21
-70.8002893237
  0
LINE
  5
373
100
AcDbEntity
  8
CURVE
100
AcDbLine
 62
7
  6
CONTINUOUS
 10
73.9162450598
 20
-72.34766318
 11
75.4901926012
 21
-70.7737156386
  0
LINE
  5
374
100
AcDbEntity
  8
CURVE
100
AcDbLine
 62
7
  6
CONTINUOUS
 10
73.9162450598
 20
-72.5576738941
 11
75.7267770002
 21
-70.7471419536
  0
LINE
  5
375
100
AcDbEntity
  8
CURVE
100
AcDbLine
 62
7
  6
CONTINUOUS
 10
74.2068541298
 20
-72.477075538
 11
74.8956745073
 21
-71.7882551606
  0
LINE
  5
376
100
AcDbEntity
  8
CURVE
100
AcDbLine
 62
7
  6
CONTINUOUS
 10
74.5802858652
 20
-72.3136545166
 11
75.2856004983
 21
-71.6083398835
  0
LINE
  5
377
100
AcDbEntity
  8
CURVE
100
AcDbLine
 62
7
  6
CONTINUOUS
 10
73.9161360881
 20
-73.1878150078
 11
74.2841640137
 21
-72.8197870822
  0
LINE
  5
378
100
AcDbEntity
  8
CURVE
100
AcDbLine
 62
7
  6
CONTINUOUS
 10
74.9537176007
 20
-72.1502334952
 11
75.6755264893
 21
-71.4284246065
  0
LINE
  5
379
100
AcDbEntity
  8
CURVE
100
AcDbLine
 62
7
  6
CONTINUOUS
 10
73.9161360881
 20
-73.3978257218
 11
74.7391487665
 21
-72.5748130434
  0
LINE
  5
37A
100
AcDbEntity
  8
CURVE
100
AcDbLine
 62
7
  6
CONTINUOUS
 10
75.3271493361
 20
-71.9868124737
 11
75.7444362364
 21
-71.5695255734
  0
LINE
  5
37B
100
AcDbEntity
  8
CURVE
100
AcDbLine
 62
7
  6
CONTINUOUS
 10
73.9162450598
 20
-73.6077274641
 11
73.9232116333
 21
-73.6007608906
  0
LINE
  5
37C
100
AcDbEntity
  8
CURVE
100
AcDbLine
 62
7
  6
CONTINUOUS
 10
74.271149845
 20
-73.2528226788
 11
75.1941335193
 21
-72.3298390046
  0
LINE
  5
37D
100
AcDbEntity
  8
CURVE
100
AcDbLine
 62
7
  6
CONTINUOUS
 10
75.7005810716
 20
-71.8233914523
 11
75.7444362364
 21
-71.7795362874
  0
LINE
  5
37E
100
AcDbEntity
  8
CURVE
100
AcDbLine
 62
7
  6
CONTINUOUS
 10
73.9162450598
 20
-73.8177381781
 11
74.1791888653
 21
-73.5547943726
  0
LINE
  5
37F
100
AcDbEntity
  8
CURVE
100
AcDbLine
 62
7
  6
CONTINUOUS
 10
74.7261345978
 20
-73.0078486401
 11
75.6491182721
 21
-72.0848649658
  0
LINE
  5
380
100
AcDbEntity
  8
CURVE
100
AcDbLine
 62
7
  6
CONTINUOUS
 10
73.9162450598
 20
-74.0277488921
 11
74.4351660974
 21
-73.5088278545
  0
LINE
  5
381
100
AcDbEntity
  8
CURVE
100
AcDbLine
 62
7
  6
CONTINUOUS
 10
75.1811193506
 20
-72.7628746013
 11
75.7444362364
 21
-72.1995577155
  0
LINE
  5
382
100
AcDbEntity
  8
CURVE
100
AcDbLine
 62
7
  6
CONTINUOUS
 10
74.1854277561
 20
-73.9685769098
 11
74.6911433294
 21
-73.4628613365
  0
LINE
  5
383
100
AcDbEntity
  8
CURVE
100
AcDbLine
 62
7
  6
CONTINUOUS
 10
75.6361041035
 20
-72.5179005625
 11
75.7444362364
 21
-72.4095684295
  0
LINE
  5
384
100
AcDbEntity
  8
CURVE
100
AcDbLine
 62
7
  6
CONTINUOUS
 10
74.4546104525
 20
-73.9094049275
 11
74.9471205615
 21
-73.4168948184
  0
LINE
  5
385
100
AcDbEntity
  8
CURVE
100
AcDbLine
 62
7
  6
CONTINUOUS
 10
74.7237931488
 20
-73.8502329451
 11
75.2030977936
 21
-73.3709283004
  0
LINE
  5
386
100
AcDbEntity
  8
CURVE
100
AcDbLine
 62
7
  6
CONTINUOUS
 10
73.9162450598
 20
-74.8677917482
 11
74.2447472314
 21
-74.5392895766
  0
LINE
  5
387
100
AcDbEntity
  8
CURVE
100
AcDbLine
 62
7
  6
CONTINUOUS
 10
74.9929758452
 20
-73.7910609628
 11
75.4590750256
 21
-73.3249617823
  0
LINE
  5
388
100
AcDbEntity
  8
CURVE
100
AcDbLine
 62
7
  6
CONTINUOUS
 10
73.9162450598
 20
-75.0778024622
 11
75.7150522577
 21
-73.2789952643
  0
LINE
  5
389
100
AcDbEntity
  8
CURVE
100
AcDbLine
 62
7
  6
CONTINUOUS
 10
73.9839893084
 20
-75.2200689276
 11
75.7444362364
 21
-73.4596219995
  0
LINE
  5
38A
100
AcDbEntity
  8
CURVE
100
AcDbLine
 62
250
  6
CONTINUOUS
 10
75.7444362364
 20
-70.8049093567
 11
74.5506622164
 21
-71.9474468619
  0
LINE
  5
38B
100
AcDbEntity
  8
CURVE
100
AcDbLine
 62
250
  6
CONTINUOUS
 10
73.9162450598
 20
-72.1785759834
 11
74.9312623394
 21
-71.2105389107
  0
LINE
  5
38C
100
AcDbEntity
  8
CURVE
100
AcDbLine
 62
250
  6
CONTINUOUS
 10
75.7444362364
 20
-73.6491562318
 11
73.9162450598
 21
-75.2805196566
  0
LINE
  5
38D
100
AcDbEntity
  8
CURVE
100
AcDbLine
 62
250
  6
CONTINUOUS
 10
73.9162450598
 20
-69.5994484378
 11
75.7444362364
 21
-67.9888919415
  0
LINE
  5
38E
100
AcDbEntity
  8
CURVE
100
AcDbLine
 62
250
  6
CONTINUOUS
 10
73.9162450598
 20
-74.8177214426
 11
75.174645881
 21
-73.7511260922
  0
LINE
  5
38F
100
AcDbEntity
  8
CURVE
100
AcDbLine
 62
250
  6
CONTINUOUS
 10
75.7444362364
 20
-68.4379081373
 11
75.3794644106
 21
-68.744781109
  0
LINE
  5
390
100
AcDbEntity
  8
CURVE
100
AcDbLine
 62
250
  6
CONTINUOUS
 10
75.097050716
 20
-68.9819805236
 11
74.4185855887
 21
-69.5430473244
  0
LINE
  5
391
100
AcDbEntity
  8
CURVE
100
AcDbLine
 62
250
  6
CONTINUOUS
 10
73.9162450598
 20
-70.9095052063
 11
75.7444362364
 21
-69.7343135228
  0
LINE
  5
392
100
AcDbEntity
  8
CURVE
100
AcDbLine
 62
250
  6
CONTINUOUS
 10
75.7444362364
 20
-70.1510824085
 11
74.5556383469
 21
-70.8786868477
  0
LINE
  5
393
100
AcDbEntity
  8
SMUSSO
100
AcDbLine
 62
7
  6
CONTINUOUS
 10
71.0678562977
 20
-80.0121194314
 11
71.3468322318
 21
-79.8510733558
  0
LINE
  5
394
100
AcDbEntity
  8
ASSI
100
AcDbLine
 62
7
  6
CONTINUOUS
 10
71.0678562977
 20
-80.0121194314
 11
71.3468322318
 21
-79.8510733558
  0
LINE
  5
395
100
AcDbEntity
  8
SMUSSO
100
AcDbLine
 62
7
  6
CONTINUOUS
 10
72.0773930151
 20
-80.6234940161
 11
72.7637913627
 21
-80.2272528117
  0
LINE
  5
396
100
AcDbEntity
  8
ASSI
100
AcDbLine
 62
7
  6
CONTINUOUS
 10
72.0773930151
 20
-80.6234940161
 11
72.7637913627
 21
-80.2272528117
  0
LINE
  5
397
100
AcDbEntity
  8
SMUSSO
100
AcDbLine
 62
7
  6
CONTINUOUS
 10
76.8472256993
 20
-78.1869127456
 11
76.1396884301
 21
-78.5953569395
  0
LINE
  5
398
100
AcDbEntity
  8
ASSI
100
AcDbLine
 62
7
  6
CONTINUOUS
 10
76.8472256993
 20
-78.1869127456
 11
76.1396884301
 21
-78.5953569395
  0
LINE
  5
399
100
AcDbEntity
  8
CURVE
100
AcDbLine
 62
250
  6
CONTINUOUS
 10
75.7444362364
 20
-72.0335436269
 11
73.9161360881
 21
-73.0179416066
  0
LINE
  5
39A
100
AcDbEntity
  8
CURVE
100
AcDbLine
 62
250
  6
CONTINUOUS
 10
73.9161360881
 20
-73.4439700818
 11
75.7444362364
 21
-72.459572102
  0
LINE
  5
39B
100
AcDbEntity
  8
SMUSSO
100
AcDbLine
 62
7
  6
CONTINUOUS
 10
72.7852927146
 20
-80.2156912599
 11
72.7637913627
 21
-80.2272528117
  0
LINE
  5
39C
100
AcDbEntity
  8
ASSI
100
AcDbLine
 62
7
  6
CONTINUOUS
 10
72.7852927146
 20
-80.2156912599
 11
72.7637913627
 21
-80.2272528117
  0
LINE
  5
39D
100
AcDbEntity
  8
SMUSSO
100
AcDbLine
 62
7
  6
CONTINUOUS
 10
72.7852927146
 20
-80.2156912599
 11
76.8472256993
 21
-78.1869127456
  0
LINE
  5
39E
100
AcDbEntity
  8
ASSI
100
AcDbLine
 62
7
  6
CONTINUOUS
 10
72.7852927146
 20
-80.2156912599
 11
76.8472256993
 21
-78.1869127456
  0
LINE
  5
39F
100
AcDbEntity
  8
SMUSSO
100
AcDbLine
 62
7
  6
CONTINUOUS
 10
72.0777554453
 20
-80.6241354538
 11
76.1396884301
 21
-78.5953569395
  0
LINE
  5
3A0
100
AcDbEntity
  8
ASSI
100
AcDbLine
 62
7
  6
CONTINUOUS
 10
72.0777554453
 20
-80.6241354538
 11
76.1396884301
 21
-78.5953569395
  0
ARC
  5
3A1
100
AcDbEntity
  8
0
100
AcDbCircle
 62
7
  6
CONTINUOUS
 10
-43.5198964237
 20
6.5590169583
 40
0.3
100
AcDbArc
 50
300.1089965527
 51
314.200140507
  0
ARC
  5
3A2
100
AcDbEntity
  8
0
100
AcDbCircle
 62
7
  6
CONTINUOUS
 10
51.9395190365
 20
-48.5580531409
 40
0.3
100
AcDbArc
 50
300.1089965527
 51
314.200140507
  0
ARC
  5
3A3
100
AcDbEntity
  8
0
100
AcDbCircle
 62
7
  6
CONTINUOUS
 10
-25.6223819681
 20
-1.4260657972
 40
0.1779620607
100
AcDbArc
 50
303.7143364849
 51
315.9708985531
  0
ARC
  5
3A4
100
AcDbEntity
  8
0
100
AcDbCircle
 62
7
  6
CONTINUOUS
 10
-9.7124793914
 20
-10.6122441471
 40
0.1779620607
100
AcDbArc
 50
303.7143364849
 51
315.9708985531
  0
ARC
  5
3A5
100
AcDbEntity
  8
0
100
AcDbCircle
 62
7
  6
CONTINUOUS
 10
6.1974231853
 20
-19.798422497
 40
0.1779620607
100
AcDbArc
 50
303.7143364849
 51
315.9708985531
  0
ARC
  5
3A6
100
AcDbEntity
  8
0
100
AcDbCircle
 62
7
  6
CONTINUOUS
 10
38.0172283387
 20
-38.1707791967
 40
0.1779620607
100
AcDbArc
 50
303.7143364849
 51
315.9708985531
  0
ARC
  5
3A7
100
AcDbEntity
  8
0
100
AcDbCircle
 62
7
  6
CONTINUOUS
 10
22.107325762
 20
-28.9846008469
 40
0.1779620607
100
AcDbArc
 50
303.714336485
 51
315.9708985531
  0
ARC
  5
3A8
100
AcDbEntity
  8
0
100
AcDbCircle
 62
250
  6
CONTINUOUS
 10
-43.4791019396
 20
6.4211969279
 40
0.1703492194
100
AcDbArc
 50
339.0198596961
 51
345.0908407076
  0
ARC
  5
3A9
100
AcDbEntity
  8
0
100
AcDbCircle
 62
250
  6
CONTINUOUS
 10
51.9803135206
 20
-48.6958731714
 40
0.1703492194
100
AcDbArc
 50
339.0198596961
 51
345.0908407076
  0
ARC
  5
3AA
100
AcDbEntity
  8
0
100
AcDbCircle
 62
250
  6
CONTINUOUS
 10
-43.4192556271
 20
6.3857039958
 40
0.0998078163
100
AcDbArc
 50
300.1159482947
 51
302.5118154601
  0
ARC
  5
3AB
100
AcDbEntity
  8
0
100
AcDbCircle
 62
250
  6
CONTINUOUS
 10
52.0401598331
 20
-48.7313661035
 40
0.0998078163
100
AcDbArc
 50
300.1159482946
 51
302.5118154602
  0
SPLINE
  5
3AC
100
AcDbEntity
  8
0
100
AcDbSpline
 62
7
  6
CONTINUOUS
 70
0
 71
3
 72
9
 73
5
 74
0
 42
0.0000001
 43
0.0000001
 44
0.0000000001
 40
0.0
 40
0.0
 40
0.0
 40
0.0
 40
0.5018288403
 40
1.0
 40
1.0
 40
1.0
 40
1.0
 10
36.3502576763
 20
-39.532940283
 30
0.0
 10
36.3930770717
 20
-39.5081061205
 30
0.0
 10
36.4741644542
 20
-39.4512529769
 30
0.0
 10
36.5481509405
 20
-39.3857902228
 30
0.0
 10
36.5833760449
 20
-39.351528869
 30
0.0
  0
SPLINE
  5
3AD
100
AcDbEntity
  8
0
100
AcDbSpline
 62
7
  6
CONTINUOUS
 70
0
 71
3
 72
9
 73
5
 74
0
 42
0.0000001
 43
0.0000001
 44
0.0000000001
 40
0.0
 40
0.0
 40
0.0
 40
0.0
 40
0.5018288403
 40
1.0
 40
1.0
 40
1.0
 40
1.0
 10
20.4403550996
 20
-30.3467619331
 30
0.0
 10
20.483174495
 20
-30.3219277706
 30
0.0
 10
20.5642618775
 20
-30.265074627
 30
0.0
 10
20.6382483638
 20
-30.1996118729
 30
0.0
 10
20.6734734682
 20
-30.1653505191
 30
0.0
  0
SPLINE
  5
3AE
100
AcDbEntity
  8
0
100
AcDbSpline
 62
7
  6
CONTINUOUS
 70
0
 71
3
 72
9
 73
5
 74
0
 42
0.0000001
 43
0.0000001
 44
0.0000000001
 40
0.0
 40
0.0
 40
0.0
 40
0.0
 40
0.5018288403
 40
1.0
 40
1.0
 40
1.0
 40
1.0
 10
4.5304525229
 20
-21.1605835833
 30
0.0
 10
4.5732719183
 20
-21.1357494207
 30
0.0
 10
4.6543593008
 20
-21.0788962771
 30
0.0
 10
4.7283457871
 20
-21.0134335231
 30
0.0
 10
4.7635708915
 20
-20.9791721692
 30
0.0
  0
SPLINE
  5
3AF
100
AcDbEntity
  8
0
100
AcDbSpline
 62
7
  6
CONTINUOUS
 70
0
 71
3
 72
9
 73
5
 74
0
 42
0.0000001
 43
0.0000001
 44
0.0000000001
 40
0.0
 40
0.0
 40
0.0
 40
0.0
 40
0.5018288403
 40
1.0
 40
1.0
 40
1.0
 40
1.0
 10
-11.3794500538
 20
-11.9744052334
 30
0.0
 10
-11.3366306584
 20
-11.9495710709
 30
0.0
 10
-11.2555432759
 20
-11.8927179273
 30
0.0
 10
-11.1815567896
 20
-11.8272551732
 30
0.0
 10
-11.1463316852
 20
-11.7929938194
 30
0.0
  0
SPLINE
  5
3B0
100
AcDbEntity
  8
0
100
AcDbSpline
 62
7
  6
CONTINUOUS
 70
0
 71
3
 72
9
 73
5
 74
0
 42
0.0000001
 43
0.0000001
 44
0.0000000001
 40
0.0
 40
0.0
 40
0.0
 40
0.0
 40
0.5018288403
 40
1.0
 40
1.0
 40
1.0
 40
1.0
 10
-27.2893526305
 20
-2.7882268835
 30
0.0
 10
-27.2465332351
 20
-2.763392721
 30
0.0
 10
-27.1654458526
 20
-2.7065395774
 30
0.0
 10
-27.0914593662
 20
-2.6410768233
 30
0.0
 10
-27.0562342619
 20
-2.6068154695
 30
0.0
  0
SPLINE
  5
3B1
100
AcDbEntity
  8
0
100
AcDbSpline
 62
7
  6
CONTINUOUS
 70
0
 71
3
 72
9
 73
5
 74
0
 42
0.0000001
 43
0.0000001
 44
0.0000000001
 40
0.0
 40
0.0
 40
0.0
 40
0.0
 40
0.4988041848
 40
1.0
 40
1.0
 40
1.0
 40
1.0
 10
-25.4944295814
 20
-1.5497536374
 30
0.0
 10
-25.4790963796
 20
-1.5338628403
 30
0.0
 10
-25.4541271992
 20
-1.4956605154
 30
0.0
 10
-25.4464812613
 20
-1.4508136955
 30
0.0
 10
-25.4464937093
 20
-1.4286255992
 30
0.0
  0
SPLINE
  5
3B2
100
AcDbEntity
  8
0
100
AcDbSpline
 62
7
  6
CONTINUOUS
 70
0
 71
3
 72
9
 73
5
 74
0
 42
0.0000001
 43
0.0000001
 44
0.0000000001
 40
0.0
 40
0.0
 40
0.0
 40
0.0
 40
0.4988041848
 40
1.0
 40
1.0
 40
1.0
 40
1.0
 10
-9.5845270047
 20
-10.7359319872
 30
0.0
 10
-9.5691938029
 20
-10.7200411902
 30
0.0
 10
-9.5442246225
 20
-10.6818388652
 30
0.0
 10
-9.5365786847
 20
-10.6369920454
 30
0.0
 10
-9.5365911326
 20
-10.6148039491
 30
0.0
  0
SPLINE
  5
3B3
100
AcDbEntity
  8
0
100
AcDbSpline
 62
7
  6
CONTINUOUS
 70
0
 71
3
 72
9
 73
5
 74
0
 42
0.0000001
 43
0.0000001
 44
0.0000000001
 40
0.0
 40
0.0
 40
0.0
 40
0.0
 40
0.4988041848
 40
1.0
 40
1.0
 40
1.0
 40
1.0
 10
6.325375572
 20
-19.9221103371
 30
0.0
 10
6.3407087738
 20
-19.9062195401
 30
0.0
 10
6.3656779542
 20
-19.8680172151
 30
0.0
 10
6.373323892
 20
-19.8231703952
 30
0.0
 10
6.3733114441
 20
-19.800982299
 30
0.0
  0
SPLINE
  5
3B4
100
AcDbEntity
  8
0
100
AcDbSpline
 62
7
  6
CONTINUOUS
 70
0
 71
3
 72
9
 73
5
 74
0
 42
0.0000001
 43
0.0000001
 44
0.0000000001
 40
0.0
 40
0.0
 40
0.0
 40
0.0
 40
0.4988041848
 40
1.0
 40
1.0
 40
1.0
 40
1.0
 10
38.1451807254
 20
-38.2944670369
 30
0.0
 10
38.1605139272
 20
-38.2785762398
 30
0.0
 10
38.1854831075
 20
-38.2403739149
 30
0.0
 10
38.1931290454
 20
-38.195527095
 30
0.0
 10
38.1931165975
 20
-38.1733389987
 30
0.0
  0
SPLINE
  5
3B5
100
AcDbEntity
  8
0
100
AcDbSpline
 62
7
  6
CONTINUOUS
 70
0
 71
3
 72
9
 73
5
 74
0
 42
0.0000001
 43
0.0000001
 44
0.0000000001
 40
0.0
 40
0.0
 40
0.0
 40
0.0
 40
0.4988041848
 40
1.0
 40
1.0
 40
1.0
 40
1.0
 10
22.2352781487
 20
-29.108288687
 30
0.0
 10
22.2506113505
 20
-29.09239789
 30
0.0
 10
22.2755805309
 20
-29.054195565
 30
0.0
 10
22.2832264687
 20
-29.0093487451
 30
0.0
 10
22.2832140208
 20
-28.9871606488
 30
0.0
  0
SPLINE
  5
3B6
100
AcDbEntity
  8
0
100
AcDbSpline
 62
250
  6
CONTINUOUS
 70
0
 71
3
 72
9
 73
5
 74
0
 42
0.0000001
 43
0.0000001
 44
0.0000000001
 40
0.0
 40
0.0
 40
0.0
 40
0.0
 40
0.4797910085
 40
1.0
 40
1.0
 40
1.0
 40
1.0
 10
-43.3656115688
 20
6.3015379979
 30
0.0
 10
-43.3554623421
 20
6.3080065348
 30
0.0
 10
-43.3366957131
 20
6.3255223383
 30
0.0
 10
-43.3247338673
 20
6.3480262678
 30
0.0
 10
-43.320046092
 20
6.3602043552
 30
0.0
  0
SPLINE
  5
3B7
100
AcDbEntity
  8
0
100
AcDbSpline
 62
250
  6
CONTINUOUS
 70
0
 71
3
 72
9
 73
5
 74
0
 42
0.0000001
 43
0.0000001
 44
0.0000000001
 40
0.0
 40
0.0
 40
0.0
 40
0.0
 40
0.4797910085
 40
1.0
 40
1.0
 40
1.0
 40
1.0
 10
52.0938038914
 20
-48.8155321013
 30
0.0
 10
52.1039531181
 20
-48.8090635644
 30
0.0
 10
52.1227197471
 20
-48.791547761
 30
0.0
 10
52.1346815929
 20
-48.7690438314
 30
0.0
 10
52.1393693682
 20
-48.7568657441
 30
0.0
  0
SPLINE
  5
3B8
100
AcDbEntity
  8
0
100
AcDbSpline
 62
250
  6
CONTINUOUS
 70
0
 71
3
 72
10
 73
6
 74
0
 42
0.0000001
 43
0.0000001
 44
0.0000000001
 40
0.0
 40
0.0
 40
0.0
 40
0.0
 40
0.3605728691
 40
0.6416144641
 40
1.0
 40
1.0
 40
1.0
 40
1.0
 10
-43.3144875331
 20
6.3773682415
 30
0.0
 10
-43.3127727573
 20
6.3735312863
 30
0.0
 10
-43.3099647174
 20
6.3664881129
 30
0.0
 10
-43.3070324954
 20
6.355538747
 30
0.0
 10
-43.307567974
 20
6.3467454338
 30
0.0
 10
-43.3105628034
 20
6.3438333839
 30
0.0
  0
SPLINE
  5
3B9
100
AcDbEntity
  8
0
100
AcDbSpline
 62
250
  6
CONTINUOUS
 70
0
 71
3
 72
10
 73
6
 74
0
 42
0.0000001
 43
0.0000001
 44
0.0000000001
 40
0.0
 40
0.0
 40
0.0
 40
0.0
 40
0.3605728691
 40
0.6416144641
 40
1.0
 40
1.0
 40
1.0
 40
1.0
 10
52.1449279271
 20
-48.7397018578
 30
0.0
 10
52.1466427029
 20
-48.7435388129
 30
0.0
 10
52.1494507427
 20
-48.7505819864
 30
0.0
 10
52.1523829648
 20
-48.7615313523
 30
0.0
 10
52.1518474862
 20
-48.7703246654
 30
0.0
 10
52.1488526568
 20
-48.7732367153
 30
0.0
  0
SPLINE
  5
3BA
100
AcDbEntity
  8
0
100
AcDbSpline
 62
250
  6
CONTINUOUS
 70
0
 71
3
 72
9
 73
5
 74
0
 42
0.0000001
 43
0.0000001
 44
0.0000000001
 40
0.0
 40
0.0
 40
0.0
 40
0.0
 40
0.2394578733
 40
1.0
 40
1.0
 40
1.0
 40
1.0
 10
52.6991313087
 20
-15.0127694294
 30
0.0
 10
52.7098687354
 20
-15.0189695864
 30
0.0
 10
52.7539734282
 20
-15.0461296136
 30
0.0
 10
52.7951425641
 20
-15.0779452737
 30
0.0
 10
52.8247029249
 20
-15.1039644322
 30
0.0
  0
SPLINE
  5
3BB
100
AcDbEntity
  8
0
100
AcDbSpline
 62
250
  6
CONTINUOUS
 70
0
 71
3
 72
10
 73
6
 74
0
 42
0.0000001
 43
0.0000001
 44
0.0000000001
 40
0.0
 40
0.0
 40
0.0
 40
0.0
 40
0.2442025667
 40
0.5000566593
 40
1.0
 40
1.0
 40
1.0
 40
1.0
 10
52.8247029249
 20
-15.1039644322
 30
0.0
 10
52.8677912747
 20
-15.1418909856
 30
0.0
 10
52.9489755185
 20
-15.2278929577
 30
0.0
 10
53.0822647234
 20
-15.4219496827
 30
0.0
 10
53.1510567125
 20
-15.5900217316
 30
0.0
 10
53.1754960687
 20
-15.70496925
 30
0.0
  0
SPLINE
  5
3BC
100
AcDbEntity
  8
0
100
AcDbSpline
 62
250
  6
CONTINUOUS
 70
0
 71
3
 72
9
 73
5
 74
0
 42
0.0000001
 43
0.0000001
 44
0.0000000001
 40
0.0
 40
0.0
 40
0.0
 40
0.0
 40
0.2608057593
 40
1.0
 40
1.0
 40
1.0
 40
1.0
 10
53.1754960687
 20
-15.70496925
 30
0.0
 10
53.1784932559
 20
-15.7190661532
 30
0.0
 10
53.1887254924
 20
-15.7733669865
 30
0.0
 10
53.193802762
 20
-15.8287210591
 30
0.0
 10
53.1938045303
 20
-15.8695685815
 30
0.0
  0
SPLINE
  5
3BD
100
AcDbEntity
  8
0
100
AcDbSpline
 62
250
  6
CONTINUOUS
 70
0
 71
3
 72
11
 73
7
 74
0
 42
0.0000001
 43
0.0000001
 44
0.0000000001
 40
0.0
 40
0.0
 40
0.0
 40
0.0
 40
0.2188561839
 40
0.4510615481
 40
0.709522997
 40
1.0
 40
1.0
 40
1.0
 40
1.0
 10
53.091862289
 20
-52.1028073798
 30
0.0
 10
53.0753928896
 20
-52.1136545361
 30
0.0
 10
53.037026509
 20
-52.1299137038
 30
0.0
 10
52.9721464551
 20
-52.1333059519
 30
0.0
 10
52.9029245668
 20
-52.1170241336
 30
0.0
 10
52.8581187037
 20
-52.0952166554
 30
0.0
 10
52.8356171307
 20
-52.0818462939
 30
0.0
  0
SPLINE
  5
3BE
100
AcDbEntity
  8
0
100
AcDbSpline
 62
250
  6
CONTINUOUS
 70
0
 71
3
 72
15
 73
11
 74
0
 42
0.0000001
 43
0.0000001
 44
0.0000000001
 40
0.0
 40
0.0
 40
0.0
 40
0.0
 40
0.1448871509
 40
0.2745077889
 40
0.3910912163
 40
0.4999617318
 40
0.6088335317
 40
0.7254271325
 40
0.8550818865
 40
1.0
 40
1.0
 40
1.0
 40
1.0
 10
-58.6690895767
 20
48.7186645045
 30
0.0
 10
-58.6690880573
 20
48.7541226316
 30
0.0
 10
-58.6637374002
 20
48.8215371762
 30
0.0
 10
-58.6364470307
 20
48.9141452527
 30
0.0
 10
-58.5904705309
 20
48.9893529205
 30
0.0
 10
-58.5266332461
 20
49.0430639274
 30
0.0
 10
-58.4481987392
 20
49.0714973739
 30
0.0
 10
-58.3600672693
 20
49.073717121
 30
0.0
 10
-58.2662032381
 20
49.0510399815
 30
0.0
 10
-58.205130829
 20
49.0219597993
 30
0.0
 10
-58.1744163551
 20
49.0042274197
 30
0.0
  0
SPLINE
  5
3BF
100
AcDbEntity
  8
0
100
AcDbSpline
 62
250
  6
CONTINUOUS
 70
0
 71
3
 72
11
 73
7
 74
0
 42
0.0000001
 43
0.0000001
 44
0.0000000001
 40
0.0
 40
0.0
 40
0.0
 40
0.0
 40
0.237203583
 40
0.4999720915
 40
0.7627535713
 40
1.0
 40
1.0
 40
1.0
 40
1.0
 10
-58.1744163551
 20
11.6931507711
 30
0.0
 10
-58.2446337134
 20
11.7336974052
 30
0.0
 10
-58.3775504216
 20
11.8455148781
 30
0.0
 10
-58.5326868757
 20
12.0574744612
 30
0.0
 10
-58.6387006601
 20
12.2978141039
 30
0.0
 10
-58.6690852511
 20
12.468851944
 30
0.0
 10
-58.6690895767
 20
12.5499499232
 30
0.0
  0
SPLINE
  5
3C0
100
AcDbEntity
  8
0
100
AcDbSpline
 62
250
  6
CONTINUOUS
 70
0
 71
3
 72
9
 73
5
 74
0
 42
0.0000001
 43
0.0000001
 44
0.0000000001
 40
0.0
 40
0.0
 40
0.0
 40
0.0
 40
0.2596044283
 40
1.0
 40
1.0
 40
1.0
 40
1.0
 10
53.1938045303
 20
-52.0382831628
 30
0.0
 10
53.1938042139
 20
-52.0473147334
 30
0.0
 10
53.1930849203
 20
-52.0820961395
 30
0.0
 10
53.1894204214
 20
-52.1168520684
 30
0.0
 10
53.1846978286
 20
-52.1421736089
 30
0.0
  0
SPLINE
  5
3C1
100
AcDbEntity
  8
0
100
AcDbSpline
 62
250
  6
CONTINUOUS
 70
0
 71
3
 72
15
 73
11
 74
0
 42
0.0000001
 43
0.0000001
 44
0.0000000001
 40
0.0
 40
0.0
 40
0.0
 40
0.0
 40
0.1337804544
 40
0.2553730568
 40
0.3684906278
 40
0.4787677829
 40
0.5926153067
 40
0.7154820388
 40
0.8508637891
 40
1.0
 40
1.0
 40
1.0
 40
1.0
 10
53.1846978286
 20
-52.1421736089
 30
0.0
 10
53.1795441276
 20
-52.1698066602
 30
0.0
 10
53.1650827739
 20
-52.2219148782
 30
0.0
 10
53.1280318908
 20
-52.2907616994
 30
0.0
 10
53.0772534646
 20
-52.3439019954
 30
0.0
 10
53.0142978277
 20
-52.3787691916
 30
0.0
 10
52.9419627091
 20
-52.3938654177
 30
0.0
 10
52.8631573329
 20
-52.3892845956
 30
0.0
 10
52.7802843714
 20
-52.3658241493
 30
0.0
 10
52.7262695164
 20
-52.3395134092
 30
0.0
 10
52.6991313087
 20
-52.323846078
 30
0.0
  0
SPLINE
  5
3C2
100
AcDbEntity
  8
0
100
AcDbSpline
 62
250
  6
CONTINUOUS
 70
0
 71
3
 72
10
 73
6
 74
0
 42
0.0000001
 43
0.0000001
 44
0.0000000001
 40
0.0
 40
0.0
 40
0.0
 40
0.0
 40
0.547727335
 40
0.7815844432
 40
1.0
 40
1.0
 40
1.0
 40
1.0
 10
-58.1744163551
 20
49.0042274197
 30
0.0
 10
-58.1744163551
 20
48.9851394303
 30
0.0
 10
-58.1703565701
 20
48.9570310395
 30
0.0
 10
-58.151977665
 20
48.9268995063
 30
0.0
 10
-58.1396362887
 20
48.9165310669
 30
0.0
 10
-58.1330486417
 20
48.9127178971
 30
0.0
  0
SPLINE
  5
3C3
100
AcDbEntity
  8
0
100
AcDbSpline
 62
250
  6
CONTINUOUS
 70
0
 71
3
 72
11
 73
7
 74
0
 42
0.0000001
 43
0.0000001
 44
0.0000000001
 40
0.0
 40
0.0
 40
0.0
 40
0.0
 40
0.236230692
 40
0.4978396619
 40
0.7606189046
 40
1.0
 40
1.0
 40
1.0
 40
1.0
 10
-58.6690895767
 20
48.7186645045
 30
0.0
 10
-58.6494853591
 20
48.707345275
 30
0.0
 10
-58.6039904068
 20
48.6906598317
 30
0.0
 10
-58.5310722679
 20
48.6821907475
 30
0.0
 10
-58.4577004837
 20
48.6892569147
 30
0.0
 10
-58.4114662329
 20
48.7049896427
 30
0.0
 10
-58.3912685484
 20
48.7158645309
 30
0.0
  0
SPLINE
  5
3C4
100
AcDbEntity
  8
0
100
AcDbSpline
 62
250
  6
CONTINUOUS
 70
0
 71
3
 72
11
 73
7
 74
0
 42
0.0000001
 43
0.0000001
 44
0.0000000001
 40
0.0
 40
0.0
 40
0.0
 40
0.0
 40
0.236230679
 40
0.4978396455
 40
0.7606188939
 40
1.0
 40
1.0
 40
1.0
 40
1.0
 10
-58.6690895767
 20
12.5499499232
 30
0.0
 10
-58.6494853601
 20
12.5386306942
 30
0.0
 10
-58.6039904096
 20
12.5219452512
 30
0.0
 10
-58.5310722718
 20
12.5134761662
 30
0.0
 10
-58.4577004863
 20
12.5205423325
 30
0.0
 10
-58.4114662338
 20
12.5362750608
 30
0.0
 10
-58.3912685484
 20
12.5471499496
 30
0.0
  0
SPLINE
  5
3C5
100
AcDbEntity
  8
0
100
AcDbSpline
 62
250
  6
CONTINUOUS
 70
0
 71
3
 72
11
 73
7
 74
0
 42
0.0000001
 43
0.0000001
 44
0.0000000001
 40
0.0
 40
0.0
 40
0.0
 40
0.0
 40
0.2362248315
 40
0.4978334385
 40
0.7606156804
 40
1.0
 40
1.0
 40
1.0
 40
1.0
 10
-58.1744163551
 20
11.6931507711
 30
0.0
 10
-58.1744163551
 20
11.7157874211
 30
0.0
 10
-58.1661176955
 20
11.7635287244
 30
0.0
 10
-58.1369926196
 20
11.8309110304
 30
0.0
 10
-58.0941877939
 20
11.8909201083
 30
0.0
 10
-58.0574467978
 20
11.923095179
 30
0.0
 10
-58.037930533
 20
11.9351505552
 30
0.0
  0
SPLINE
  5
3C6
100
AcDbEntity
  8
0
100
AcDbSpline
 62
250
  6
CONTINUOUS
 70
0
 71
3
 72
11
 73
7
 74
0
 42
0.0000001
 43
0.0000001
 44
0.0000000001
 40
0.0
 40
0.0
 40
0.0
 40
0.0
 40
0.2362248186
 40
0.4978334222
 40
0.7606156699
 40
1.0
 40
1.0
 40
1.0
 40
1.0
 10
52.6991313087
 20
-52.323846078
 30
0.0
 10
52.6991313087
 20
-52.3012094292
 30
0.0
 10
52.7074299676
 20
-52.2534681276
 30
0.0
 10
52.7365550421
 20
-52.1860858221
 30
0.0
 10
52.779359868
 20
-52.1260767427
 30
0.0
 10
52.8161008651
 20
-52.0939016707
 30
0.0
 10
52.8356171307
 20
-52.0818462939
 30
0.0
  0
SPLINE
  5
3C7
100
AcDbEntity
  8
0
100
AcDbSpline
 62
250
  6
CONTINUOUS
 70
0
 71
3
 72
10
 73
6
 74
0
 42
0.0000001
 43
0.0000001
 44
0.0000000001
 40
0.0
 40
0.0
 40
0.0
 40
0.0
 40
0.5477195193
 40
0.7815800989
 40
1.0
 40
1.0
 40
1.0
 40
1.0
 10
53.1938045303
 20
-52.0382831628
 30
0.0
 10
53.1772728909
 20
-52.0287380015
 30
0.0
 10
53.1549590671
 20
-52.0111657505
 30
0.0
 10
53.1380525392
 20
-51.9801806637
 30
0.0
 10
53.1352431073
 20
-51.9643069866
 30
0.0
 10
53.1352342628
 20
-51.9566945098
 30
0.0
  0
SPLINE
  5
3C8
100
AcDbEntity
  8
0
100
AcDbSpline
 62
250
  6
CONTINUOUS
 70
0
 71
3
 72
10
 73
6
 74
0
 42
0.0000001
 43
0.0000001
 44
0.0000000001
 40
0.0
 40
0.0
 40
0.0
 40
0.0
 40
0.547730759
 40
0.7815768934
 40
1.0
 40
1.0
 40
1.0
 40
1.0
 10
53.1938045303
 20
-15.8695685815
 30
0.0
 10
53.1772623161
 20
-15.8600173143
 30
0.0
 10
53.1549344876
 20
-15.8424310874
 30
0.0
 10
53.1380328731
 20
-15.811417178
 30
0.0
 10
53.1352355406
 20
-15.7955309691
 30
0.0
 10
53.1352342185
 20
-15.7879136623
 30
0.0
  0
SPLINE
  5
3C9
100
AcDbEntity
  8
0
100
AcDbSpline
 62
250
  6
CONTINUOUS
 70
0
 71
3
 72
10
 73
6
 74
0
 42
0.0000001
 43
0.0000001
 44
0.0000000001
 40
0.0
 40
0.0
 40
0.0
 40
0.0
 40
0.5477377376
 40
0.7815814964
 40
1.0
 40
1.0
 40
1.0
 40
1.0
 10
52.6991313087
 20
-15.0127694294
 30
0.0
 10
52.6991313087
 20
-15.0318686966
 30
0.0
 10
52.7031958036
 20
-15.0599947426
 30
0.0
 10
52.7216000309
 20
-15.0901356546
 30
0.0
 10
52.7339570168
 20
-15.1005002025
 30
0.0
 10
52.740552
 20
-15.1043095853
 30
0.0
  0
SPLINE
  5
3CA
100
AcDbEntity
  8
0
100
AcDbSpline
 62
250
  6
CONTINUOUS
 70
0
 71
3
 72
11
 73
7
 74
0
 42
0.0000001
 43
0.0000001
 44
0.0000000001
 40
0.0
 40
0.0
 40
0.0
 40
0.0
 40
0.2375879065
 40
0.4999720086
 40
0.7623690348
 40
1.0
 40
1.0
 40
1.0
 40
1.0
 10
-58.037930533
 20
11.9351505552
 30
0.0
 10
-58.0886238351
 20
11.9635909482
 30
0.0
 10
-58.1846153101
 20
12.0427137227
 30
0.0
 10
-58.296134873
 20
12.1940555633
 30
0.0
 10
-58.3714552644
 20
12.3663107547
 30
0.0
 10
-58.3919863904
 20
12.4890175464
 30
0.0
 10
-58.3912685484
 20
12.5471499496
 30
0.0
  0
SPLINE
  5
3CB
100
AcDbEntity
  8
0
100
AcDbSpline
 62
250
  6
CONTINUOUS
 70
0
 71
3
 72
11
 73
7
 74
0
 42
0.0000001
 43
0.0000001
 44
0.0000000001
 40
0.0
 40
0.0
 40
0.0
 40
0.0
 40
0.2904550415
 40
0.5488919015
 40
0.7811131979
 40
1.0
 40
1.0
 40
1.0
 40
1.0
 10
-58.3912685484
 20
48.7158645309
 30
0.0
 10
-58.3915962259
 20
48.7420295573
 30
0.0
 10
-58.3880797644
 20
48.7917224116
 30
0.0
 10
-58.3675740564
 20
48.859794778
 30
0.0
 10
-58.3322075611
 20
48.9142804639
 30
0.0
 10
-58.298949796
 20
48.9393790226
 30
0.0
 10
-58.2813233099
 20
48.9482201564
 30
0.0
  0
SPLINE
  5
3CC
100
AcDbEntity
  8
ASSI
100
AcDbSpline
 62
250
  6
CONTINUOUS
 70
0
 71
3
 72
9
 73
5
 74
0
 42
0.0000001
 43
0.0000001
 44
0.0000000001
 40
0.0
 40
0.0
 40
0.0
 40
0.0
 40
0.2596044283
 40
1.0
 40
1.0
 40
1.0
 40
1.0
 10
53.1938045303
 20
-52.0382831628
 30
0.0
 10
53.1938042139
 20
-52.0473147334
 30
0.0
 10
53.1930849203
 20
-52.0820961395
 30
0.0
 10
53.1894204214
 20
-52.1168520684
 30
0.0
 10
53.1846978286
 20
-52.1421736089
 30
0.0
  0
SPLINE
  5
3CD
100
AcDbEntity
  8
ASSI
100
AcDbSpline
 62
250
  6
CONTINUOUS
 70
0
 71
3
 72
15
 73
11
 74
0
 42
0.0000001
 43
0.0000001
 44
0.0000000001
 40
0.0
 40
0.0
 40
0.0
 40
0.0
 40
0.1337804544
 40
0.2553730568
 40
0.3684906278
 40
0.4787677829
 40
0.5926153067
 40
0.7154820388
 40
0.8508637891
 40
1.0
 40
1.0
 40
1.0
 40
1.0
 10
53.1846978286
 20
-52.1421736089
 30
0.0
 10
53.1795441276
 20
-52.1698066602
 30
0.0
 10
53.1650827739
 20
-52.2219148782
 30
0.0
 10
53.1280318908
 20
-52.2907616994
 30
0.0
 10
53.0772534646
 20
-52.3439019954
 30
0.0
 10
53.0142978277
 20
-52.3787691916
 30
0.0
 10
52.9419627091
 20
-52.3938654177
 30
0.0
 10
52.8631573329
 20
-52.3892845956
 30
0.0
 10
52.7802843714
 20
-52.3658241493
 30
0.0
 10
52.7262695164
 20
-52.3395134092
 30
0.0
 10
52.6991313087
 20
-52.323846078
 30
0.0
  0
SPLINE
  5
3CE
100
AcDbEntity
  8
ASSI
100
AcDbSpline
 62
250
  6
CONTINUOUS
 70
0
 71
3
 72
11
 73
7
 74
0
 42
0.0000001
 43
0.0000001
 44
0.0000000001
 40
0.0
 40
0.0
 40
0.0
 40
0.0
 40
0.2904550415
 40
0.5488919015
 40
0.7811131979
 40
1.0
 40
1.0
 40
1.0
 40
1.0
 10
-58.3912685484
 20
48.7158645309
 30
0.0
 10
-58.3915962259
 20
48.7420295573
 30
0.0
 10
-58.3880797644
 20
48.7917224116
 30
0.0
 10
-58.3675740564
 20
48.859794778
 30
0.0
 10
-58.3322075611
 20
48.9142804639
 30
0.0
 10
-58.298949796
 20
48.9393790226
 30
0.0
 10
-58.2813233099
 20
48.9482201564
 30
0.0
  0
SPLINE
  5
3CF
100
AcDbEntity
  8
ASSI
100
AcDbSpline
 62
250
  6
CONTINUOUS
 70
0
 71
3
 72
11
 73
7
 74
0
 42
0.0000001
 43
0.0000001
 44
0.0000000001
 40
0.0
 40
0.0
 40
0.0
 40
0.0
 40
0.2375879065
 40
0.4999720086
 40
0.7623690348
 40
1.0
 40
1.0
 40
1.0
 40
1.0
 10
-58.037930533
 20
11.9351505552
 30
0.0
 10
-58.0886238351
 20
11.9635909482
 30
0.0
 10
-58.1846153101
 20
12.0427137227
 30
0.0
 10
-58.296134873
 20
12.1940555633
 30
0.0
 10
-58.3714552644
 20
12.3663107547
 30
0.0
 10
-58.3919863904
 20
12.4890175464
 30
0.0
 10
-58.3912685484
 20
12.5471499496
 30
0.0
  0
SPLINE
  5
3D0
100
AcDbEntity
  8
ASSI
100
AcDbSpline
 62
250
  6
CONTINUOUS
 70
0
 71
3
 72
10
 73
6
 74
0
 42
0.0000001
 43
0.0000001
 44
0.0000000001
 40
0.0
 40
0.0
 40
0.0
 40
0.0
 40
0.5477377376
 40
0.7815814964
 40
1.0
 40
1.0
 40
1.0
 40
1.0
 10
52.6991313087
 20
-15.0127694294
 30
0.0
 10
52.6991313087
 20
-15.0318686966
 30
0.0
 10
52.7031958036
 20
-15.0599947426
 30
0.0
 10
52.7216000309
 20
-15.0901356546
 30
0.0
 10
52.7339570168
 20
-15.1005002025
 30
0.0
 10
52.740552
 20
-15.1043095853
 30
0.0
  0
SPLINE
  5
3D1
100
AcDbEntity
  8
ASSI
100
AcDbSpline
 62
250
  6
CONTINUOUS
 70
0
 71
3
 72
10
 73
6
 74
0
 42
0.0000001
 43
0.0000001
 44
0.0000000001
 40
0.0
 40
0.0
 40
0.0
 40
0.0
 40
0.547730759
 40
0.7815768934
 40
1.0
 40
1.0
 40
1.0
 40
1.0
 10
53.1938045303
 20
-15.8695685815
 30
0.0
 10
53.1772623161
 20
-15.8600173143
 30
0.0
 10
53.1549344876
 20
-15.8424310874
 30
0.0
 10
53.1380328731
 20
-15.811417178
 30
0.0
 10
53.1352355406
 20
-15.7955309691
 30
0.0
 10
53.1352342185
 20
-15.7879136623
 30
0.0
  0
SPLINE
  5
3D2
100
AcDbEntity
  8
ASSI
100
AcDbSpline
 62
250
  6
CONTINUOUS
 70
0
 71
3
 72
10
 73
6
 74
0
 42
0.0000001
 43
0.0000001
 44
0.0000000001
 40
0.0
 40
0.0
 40
0.0
 40
0.0
 40
0.5477195193
 40
0.7815800989
 40
1.0
 40
1.0
 40
1.0
 40
1.0
 10
53.1938045303
 20
-52.0382831628
 30
0.0
 10
53.1772728909
 20
-52.0287380015
 30
0.0
 10
53.1549590671
 20
-52.0111657505
 30
0.0
 10
53.1380525392
 20
-51.9801806637
 30
0.0
 10
53.1352431073
 20
-51.9643069866
 30
0.0
 10
53.1352342628
 20
-51.9566945098
 30
0.0
  0
SPLINE
  5
3D3
100
AcDbEntity
  8
ASSI
100
AcDbSpline
 62
250
  6
CONTINUOUS
 70
0
 71
3
 72
11
 73
7
 74
0
 42
0.0000001
 43
0.0000001
 44
0.0000000001
 40
0.0
 40
0.0
 40
0.0
 40
0.0
 40
0.2362248186
 40
0.4978334222
 40
0.7606156699
 40
1.0
 40
1.0
 40
1.0
 40
1.0
 10
52.6991313087
 20
-52.323846078
 30
0.0
 10
52.6991313087
 20
-52.3012094292
 30
0.0
 10
52.7074299676
 20
-52.2534681276
 30
0.0
 10
52.7365550421
 20
-52.1860858221
 30
0.0
 10
52.779359868
 20
-52.1260767427
 30
0.0
 10
52.8161008651
 20
-52.0939016707
 30
0.0
 10
52.8356171307
 20
-52.0818462939
 30
0.0
  0
SPLINE
  5
3D4
100
AcDbEntity
  8
ASSI
100
AcDbSpline
 62
250
  6
CONTINUOUS
 70
0
 71
3
 72
11
 73
7
 74
0
 42
0.0000001
 43
0.0000001
 44
0.0000000001
 40
0.0
 40
0.0
 40
0.0
 40
0.0
 40
0.2362248315
 40
0.4978334385
 40
0.7606156804
 40
1.0
 40
1.0
 40
1.0
 40
1.0
 10
-58.1744163551
 20
11.6931507711
 30
0.0
 10
-58.1744163551
 20
11.7157874211
 30
0.0
 10
-58.1661176955
 20
11.7635287244
 30
0.0
 10
-58.1369926196
 20
11.8309110304
 30
0.0
 10
-58.0941877939
 20
11.8909201083
 30
0.0
 10
-58.0574467978
 20
11.923095179
 30
0.0
 10
-58.037930533
 20
11.9351505552
 30
0.0
  0
SPLINE
  5
3D5
100
AcDbEntity
  8
ASSI
100
AcDbSpline
 62
250
  6
CONTINUOUS
 70
0
 71
3
 72
11
 73
7
 74
0
 42
0.0000001
 43
0.0000001
 44
0.0000000001
 40
0.0
 40
0.0
 40
0.0
 40
0.0
 40
0.236230679
 40
0.4978396455
 40
0.7606188939
 40
1.0
 40
1.0
 40
1.0
 40
1.0
 10
-58.6690895767
 20
12.5499499232
 30
0.0
 10
-58.6494853601
 20
12.5386306942
 30
0.0
 10
-58.6039904096
 20
12.5219452512
 30
0.0
 10
-58.5310722718
 20
12.5134761662
 30
0.0
 10
-58.4577004863
 20
12.5205423325
 30
0.0
 10
-58.4114662338
 20
12.5362750608
 30
0.0
 10
-58.3912685484
 20
12.5471499496
 30
0.0
  0
SPLINE
  5
3D6
100
AcDbEntity
  8
ASSI
100
AcDbSpline
 62
250
  6
CONTINUOUS
 70
0
 71
3
 72
11
 73
7
 74
0
 42
0.0000001
 43
0.0000001
 44
0.0000000001
 40
0.0
 40
0.0
 40
0.0
 40
0.0
 40
0.236230692
 40
0.4978396619
 40
0.7606189046
 40
1.0
 40
1.0
 40
1.0
 40
1.0
 10
-58.6690895767
 20
48.7186645045
 30
0.0
 10
-58.6494853591
 20
48.707345275
 30
0.0
 10
-58.6039904068
 20
48.6906598317
 30
0.0
 10
-58.5310722679
 20
48.6821907475
 30
0.0
 10
-58.4577004837
 20
48.6892569147
 30
0.0
 10
-58.4114662329
 20
48.7049896427
 30
0.0
 10
-58.3912685484
 20
48.7158645309
 30
0.0
  0
SPLINE
  5
3D7
100
AcDbEntity
  8
ASSI
100
AcDbSpline
 62
250
  6
CONTINUOUS
 70
0
 71
3
 72
10
 73
6
 74
0
 42
0.0000001
 43
0.0000001
 44
0.0000000001
 40
0.0
 40
0.0
 40
0.0
 40
0.0
 40
0.547727335
 40
0.7815844432
 40
1.0
 40
1.0
 40
1.0
 40
1.0
 10
-58.1744163551
 20
49.0042274197
 30
0.0
 10
-58.1744163551
 20
48.9851394303
 30
0.0
 10
-58.1703565701
 20
48.9570310395
 30
0.0
 10
-58.151977665
 20
48.9268995063
 30
0.0
 10
-58.1396362887
 20
48.9165310669
 30
0.0
 10
-58.1330486417
 20
48.9127178971
 30
0.0
  0
SPLINE
  5
3D8
100
AcDbEntity
  8
ASSI
100
AcDbSpline
 62
250
  6
CONTINUOUS
 70
0
 71
3
 72
9
 73
5
 74
0
 42
0.0000001
 43
0.0000001
 44
0.0000000001
 40
0.0
 40
0.0
 40
0.0
 40
0.0
 40
0.2394578733
 40
1.0
 40
1.0
 40
1.0
 40
1.0
 10
52.6991313087
 20
-15.0127694294
 30
0.0
 10
52.7098687354
 20
-15.0189695864
 30
0.0
 10
52.7539734282
 20
-15.0461296136
 30
0.0
 10
52.7951425641
 20
-15.0779452737
 30
0.0
 10
52.8247029249
 20
-15.1039644322
 30
0.0
  0
SPLINE
  5
3D9
100
AcDbEntity
  8
ASSI
100
AcDbSpline
 62
250
  6
CONTINUOUS
 70
0
 71
3
 72
10
 73
6
 74
0
 42
0.0000001
 43
0.0000001
 44
0.0000000001
 40
0.0
 40
0.0
 40
0.0
 40
0.0
 40
0.2442025667
 40
0.5000566593
 40
1.0
 40
1.0
 40
1.0
 40
1.0
 10
52.8247029249
 20
-15.1039644322
 30
0.0
 10
52.8677912747
 20
-15.1418909856
 30
0.0
 10
52.9489755185
 20
-15.2278929577
 30
0.0
 10
53.0822647234
 20
-15.4219496827
 30
0.0
 10
53.1510567125
 20
-15.5900217316
 30
0.0
 10
53.1754960687
 20
-15.70496925
 30
0.0
  0
SPLINE
  5
3DA
100
AcDbEntity
  8
ASSI
100
AcDbSpline
 62
250
  6
CONTINUOUS
 70
0
 71
3
 72
9
 73
5
 74
0
 42
0.0000001
 43
0.0000001
 44
0.0000000001
 40
0.0
 40
0.0
 40
0.0
 40
0.0
 40
0.2608057593
 40
1.0
 40
1.0
 40
1.0
 40
1.0
 10
53.1754960687
 20
-15.70496925
 30
0.0
 10
53.1784932559
 20
-15.7190661532
 30
0.0
 10
53.1887254924
 20
-15.7733669865
 30
0.0
 10
53.193802762
 20
-15.8287210591
 30
0.0
 10
53.1938045303
 20
-15.8695685815
 30
0.0
  0
SPLINE
  5
3DB
100
AcDbEntity
  8
ASSI
100
AcDbSpline
 62
250
  6
CONTINUOUS
 70
0
 71
3
 72
15
 73
11
 74
0
 42
0.0000001
 43
0.0000001
 44
0.0000000001
 40
0.0
 40
0.0
 40
0.0
 40
0.0
 40
0.1448871509
 40
0.2745077889
 40
0.3910912163
 40
0.4999617318
 40
0.6088335317
 40
0.7254271325
 40
0.8550818865
 40
1.0
 40
1.0
 40
1.0
 40
1.0
 10
-58.6690895767
 20
48.7186645045
 30
0.0
 10
-58.6690880573
 20
48.7541226316
 30
0.0
 10
-58.6637374002
 20
48.8215371762
 30
0.0
 10
-58.6364470307
 20
48.9141452527
 30
0.0
 10
-58.5904705309
 20
48.9893529205
 30
0.0
 10
-58.5266332461
 20
49.0430639274
 30
0.0
 10
-58.4481987392
 20
49.0714973739
 30
0.0
 10
-58.3600672693
 20
49.073717121
 30
0.0
 10
-58.2662032381
 20
49.0510399815
 30
0.0
 10
-58.205130829
 20
49.0219597993
 30
0.0
 10
-58.1744163551
 20
49.0042274197
 30
0.0
  0
SPLINE
  5
3DC
100
AcDbEntity
  8
ASSI
100
AcDbSpline
 62
250
  6
CONTINUOUS
 70
0
 71
3
 72
11
 73
7
 74
0
 42
0.0000001
 43
0.0000001
 44
0.0000000001
 40
0.0
 40
0.0
 40
0.0
 40
0.0
 40
0.2188561839
 40
0.4510615481
 40
0.709522997
 40
1.0
 40
1.0
 40
1.0
 40
1.0
 10
53.091862289
 20
-52.1028073798
 30
0.0
 10
53.0753928896
 20
-52.1136545361
 30
0.0
 10
53.037026509
 20
-52.1299137038
 30
0.0
 10
52.9721464551
 20
-52.1333059519
 30
0.0
 10
52.9029245668
 20
-52.1170241336
 30
0.0
 10
52.8581187037
 20
-52.0952166554
 30
0.0
 10
52.8356171307
 20
-52.0818462939
 30
0.0
  0
SPLINE
  5
3DD
100
AcDbEntity
  8
ASSI
100
AcDbSpline
 62
250
  6
CONTINUOUS
 70
0
 71
3
 72
11
 73
7
 74
0
 42
0.0000001
 43
0.0000001
 44
0.0000000001
 40
0.0
 40
0.0
 40
0.0
 40
0.0
 40
0.237203583
 40
0.4999720915
 40
0.7627535713
 40
1.0
 40
1.0
 40
1.0
 40
1.0
 10
-58.1744163551
 20
11.6931507711
 30
0.0
 10
-58.2446337134
 20
11.7336974052
 30
0.0
 10
-58.3775504216
 20
11.8455148781
 30
0.0
 10
-58.5326868757
 20
12.0574744612
 30
0.0
 10
-58.6387006601
 20
12.2978141039
 30
0.0
 10
-58.6690852511
 20
12.468851944
 30
0.0
 10
-58.6690895767
 20
12.5499499232
 30
0.0
  0
SPLINE
  5
3DE
100
AcDbEntity
  8
CURVE
100
AcDbSpline
 62
250
  6
CONTINUOUS
 70
0
 71
3
 72
9
 73
5
 74
0
 42
0.0000001
 43
0.0000001
 44
0.0000000001
 40
0.0
 40
0.0
 40
0.0
 40
0.0
 40
0.5206208722
 40
1.0
 40
1.0
 40
1.0
 40
1.0
 10
74.4454697664
 20
-67.578584595
 30
0.0
 10
74.5245035041
 20
-67.5346696059
 30
0.0
 10
74.6971519266
 20
-67.5040433332
 30
0.0
 10
74.7279446193
 20
-67.6762006418
 30
0.0
 10
74.7295698446
 20
-67.7565574392
 30
0.0
  0
SPLINE
  5
3DF
100
AcDbEntity
  8
CURVE
100
AcDbSpline
 62
250
  6
CONTINUOUS
 70
0
 71
3
 72
9
 73
5
 74
0
 42
0.0000001
 43
0.0000001
 44
0.0000000001
 40
0.0
 40
0.0
 40
0.0
 40
0.0
 40
0.5013510385
 40
1.0
 40
1.0
 40
1.0
 40
1.0
 10
74.216933922
 20
-67.9422883232
 30
0.0
 10
74.2234273909
 20
-67.8763527525
 30
0.0
 10
74.2726819478
 20
-67.723542129
 30
0.0
 10
74.3894743225
 20
-67.6097115264
 30
0.0
 10
74.4454697664
 20
-67.578584595
 30
0.0
  0
SPLINE
  5
3E0
100
AcDbEntity
  8
CURVE
100
AcDbSpline
 62
250
  6
CONTINUOUS
 70
0
 71
3
 72
9
 73
5
 74
0
 42
0.0000001
 43
0.0000001
 44
0.0000000001
 40
0.0
 40
0.0
 40
0.0
 40
0.0
 40
0.2703953699
 40
1.0
 40
1.0
 40
1.0
 40
1.0
 10
74.2276958079
 20
-68.2702487158
 30
0.0
 10
74.2231509439
 20
-68.2429608298
 30
0.0
 10
74.2082032485
 20
-68.1406965579
 30
0.0
 10
74.208527746
 20
-68.0276646856
 30
0.0
 10
74.216933922
 20
-67.9422883232
 30
0.0
  0
SPLINE
  5
3E1
100
AcDbEntity
  8
CURVE
100
AcDbSpline
 62
250
  6
CONTINUOUS
 70
0
 71
3
 72
9
 73
5
 74
0
 42
0.0000001
 43
0.0000001
 44
0.0000000001
 40
0.0
 40
0.0
 40
0.0
 40
0.0
 40
0.2957417834
 40
1.0
 40
1.0
 40
1.0
 40
1.0
 10
73.956852728
 20
-67.7748915591
 30
0.0
 10
73.9250922234
 20
-67.8901352452
 30
0.0
 10
73.8733207077
 20
-68.2707752817
 30
0.0
 10
73.905206675
 20
-68.6082226623
 30
0.0
 10
73.9376047181
 20
-68.8366279989
 30
0.0
  0
SPLINE
  5
3E2
100
AcDbEntity
  8
CURVE
100
AcDbSpline
 62
250
  6
CONTINUOUS
 70
0
 71
3
 72
17
 73
13
 74
0
 42
0.0000001
 43
0.0000001
 44
0.0000000001
 40
0.0
 40
0.0
 40
0.0
 40
0.0
 40
0.0559780952
 40
0.1687540387
 40
0.321006234
 40
0.4122750837
 40
0.516613223
 40
0.6013931059
 40
0.6776022439
 40
0.8103422694
 40
0.9200404832
 40
1.0
 40
1.0
 40
1.0
 40
1.0
 10
74.8802499565
 20
-67.2337885142
 30
0.0
 10
74.8775302171
 20
-67.2117218001
 30
0.0
 10
74.8353336277
 20
-67.1746284238
 30
0.0
 10
74.7548951567
 20
-67.1187454608
 30
0.0
 10
74.6310726192
 20
-67.1123767267
 30
0.0
 10
74.5018976855
 20
-67.1493908535
 30
0.0
 10
74.394685187
 20
-67.2040597323
 30
0.0
 10
74.2945495831
 20
-67.2740843847
 30
0.0
 10
74.1881476923
 20
-67.3704171843
 30
0.0
 10
74.0838715198
 20
-67.4998937422
 30
0.0
 10
74.0023248136
 20
-67.6473392876
 30
0.0
 10
73.9671544662
 20
-67.7374652738
 30
0.0
 10
73.956852728
 20
-67.7748915591
 30
0.0
  0
SPLINE
  5
3E3
100
AcDbEntity
  8
CURVE
100
AcDbSpline
 62
250
  6
CONTINUOUS
 70
0
 71
3
 72
9
 73
5
 74
0
 42
0.0000001
 43
0.0000001
 44
0.0000000001
 40
0.0
 40
0.0
 40
0.0
 40
0.0
 40
0.2426586216
 40
1.0
 40
1.0
 40
1.0
 40
1.0
 10
75.2496225573
 20
-66.7893422183
 30
0.0
 10
75.2164012548
 20
-66.8173331146
 30
0.0
 10
75.0822455393
 20
-66.9281605255
 30
0.0
 10
74.9308561302
 20
-67.0951039194
 30
0.0
 10
74.8910529706
 20
-67.2279719281
 30
0.0
  0
SPLINE
  5
3E4
100
AcDbEntity
  8
CURVE
100
AcDbSpline
 62
250
  6
CONTINUOUS
 70
0
 71
3
 72
9
 73
5
 74
0
 42
0.0000001
 43
0.0000001
 44
0.0000000001
 40
0.0
 40
0.0
 40
0.0
 40
0.0
 40
0.1980141723
 40
1.0
 40
1.0
 40
1.0
 40
1.0
 10
75.7444362485
 20
-66.3772815696
 30
0.0
 10
75.7118409364
 20
-66.4047147222
 30
0.0
 10
75.5468599282
 20
-66.5419175709
 30
0.0
 10
75.3816099152
 20
-66.678132976
 30
0.0
 10
75.2496225573
 20
-66.7893422183
 30
0.0
  0
SPLINE
  5
3E5
100
AcDbEntity
  8
CURVE
100
AcDbSpline
 62
250
  6
CONTINUOUS
 70
0
 71
3
 72
9
 73
5
 74
0
 42
0.0000001
 43
0.0000001
 44
0.0000000001
 40
0.0
 40
0.0
 40
0.0
 40
0.0
 40
0.5586214172
 40
1.0
 40
1.0
 40
1.0
 40
1.0
 10
75.1900688856
 20
-67.2718469562
 30
0.0
 10
75.2909877704
 20
-67.1751836326
 30
0.0
 10
75.4778610585
 20
-67.0189039678
 30
0.0
 10
75.6625728369
 20
-66.857423691
 30
0.0
 10
75.7444362485
 20
-66.7870713476
 30
0.0
  0
SPLINE
  5
3E6
100
AcDbEntity
  8
CURVE
100
AcDbSpline
 62
250
  6
CONTINUOUS
 70
0
 71
3
 72
9
 73
5
 74
0
 42
0.0000001
 43
0.0000001
 44
0.0000000001
 40
0.0
 40
0.0
 40
0.0
 40
0.0
 40
0.3559141631
 40
1.0
 40
1.0
 40
1.0
 40
1.0
 10
75.0289833324
 20
-67.59626477
 30
0.0
 10
75.0289833324
 20
-67.5591394711
 30
0.0
 10
75.0491202941
 20
-67.4414977482
 30
0.0
 10
75.1337254966
 20
-67.3257893972
 30
0.0
 10
75.1900688856
 20
-67.2718469562
 30
0.0
  0
ELLIPSE
  5
3E7
100
AcDbEntity
  8
0
100
AcDbEllipse
 62
7
  6
CONTINUOUS
 10
-41.5186370852
 20
7.5631348389
 30
0.0
 11
0.1999995634
 21
0.1164181051
 31
0.0
 40
0.0035896273
 41
-0.7351277754
 42
-0.6748017824
  0
ELLIPSE
  5
3E8
100
AcDbEntity
  8
0
100
AcDbEllipse
 62
7
  6
CONTINUOUS
 10
50.1147769844
 20
-44.7734851742
 30
0.0
 11
0.1998333781
 21
-0.0157785196
 31
0.0
 40
0.5172961965
 41
0.8262203412
 42
2.3446567905
  0
ELLIPSE
  5
3E9
100
AcDbEntity
  8
0
100
AcDbEllipse
 62
7
  6
CONTINUOUS
 10
-45.3446384758
 20
10.343584925
 30
0.0
 11
0.1998333781
 21
-0.0157785196
 31
0.0
 40
0.5172961965
 41
0.8262203412
 42
2.3446567905
  0
ELLIPSE
  5
3EA
100
AcDbEntity
  8
0
100
AcDbEllipse
 62
7
  6
CONTINUOUS
 10
-29.4383446492
 20
1.1025391252
 30
0.0
 11
0.2999972416
 21
-0.0022477848
 31
0.0
 40
0.5723275643
 41
0.7896864073
 42
2.3081228565
  0
ELLIPSE
  5
3EB
100
AcDbEntity
  8
0
100
AcDbEllipse
 62
7
  6
CONTINUOUS
 10
-13.5284420725
 20
-8.0836392247
 30
0.0
 11
0.2999972416
 21
-0.0022477848
 31
0.0
 40
0.5723275643
 41
0.7896864073
 42
2.3081228565
  0
ELLIPSE
  5
3EC
100
AcDbEntity
  8
0
100
AcDbEllipse
 62
7
  6
CONTINUOUS
 10
38.105486345
 20
-37.9789608326
 30
0.0
 11
0.0858610644
 21
0.3627848639
 31
0.0
 40
0.5009985936
 41
-2.6944494219
 42
-2.6479073085
  0
ELLIPSE
  5
3ED
100
AcDbEntity
  8
0
100
AcDbEllipse
 62
7
  6
CONTINUOUS
 10
22.1955837683
 20
-28.7927824827
 30
0.0
 11
0.0858610644
 21
0.3627848639
 31
0.0
 40
0.5009985936
 41
-2.6944494219
 42
-2.6479073085
  0
ELLIPSE
  5
3EE
100
AcDbEntity
  8
0
100
AcDbEllipse
 62
7
  6
CONTINUOUS
 10
6.2856811916
 20
-19.6066041329
 30
0.0
 11
0.0858610644
 21
0.3627848639
 31
0.0
 40
0.5009985936
 41
-2.6944494219
 42
-2.6479073085
  0
ELLIPSE
  5
3EF
100
AcDbEntity
  8
0
100
AcDbEllipse
 62
7
  6
CONTINUOUS
 10
-9.6242213851
 20
-10.420425783
 30
0.0
 11
0.0858610644
 21
0.3627848639
 31
0.0
 40
0.5009985936
 41
-2.6944494219
 42
-2.6479073085
  0
ELLIPSE
  5
3F0
100
AcDbEntity
  8
0
100
AcDbEllipse
 62
7
  6
CONTINUOUS
 10
-25.5341239618
 20
-1.2342474331
 30
0.0
 11
0.0858610644
 21
0.3627848639
 31
0.0
 40
0.5009985936
 41
-2.6944494219
 42
-2.6479073085
  0
ELLIPSE
  5
3F1
100
AcDbEntity
  8
0
100
AcDbEllipse
 62
7
  6
CONTINUOUS
 10
2.3814605042
 20
-17.2698175746
 30
0.0
 11
0.2999972416
 21
-0.0022477848
 31
0.0
 40
0.5723275643
 41
0.7896864073
 42
2.3081228565
  0
ELLIPSE
  5
3F2
100
AcDbEntity
  8
0
100
AcDbEllipse
 62
7
  6
CONTINUOUS
 10
-46.8628660057
 20
9.0401704121
 30
0.0
 11
0.5413005334
 21
0.8416911418
 31
0.0
 40
0.6067084637
 41
0.7148472392
 42
0.8145158917
  0
ELLIPSE
  5
3F3
100
AcDbEntity
  8
0
100
AcDbEllipse
 62
7
  6
CONTINUOUS
 10
48.5965494545
 20
-46.0768996871
 30
0.0
 11
0.5413005334
 21
0.8416911418
 31
0.0
 40
0.6067084637
 41
0.7148472392
 42
0.8145158917
  0
ELLIPSE
  5
3F4
100
AcDbEntity
  8
0
100
AcDbEllipse
 62
7
  6
CONTINUOUS
 10
34.2012656576
 20
-35.6421742743
 30
0.0
 11
0.2999972416
 21
-0.0022477848
 31
0.0
 40
0.5723275643
 41
0.7896864073
 42
2.3081228565
  0
ELLIPSE
  5
3F5
100
AcDbEntity
  8
0
100
AcDbEllipse
 62
7
  6
CONTINUOUS
 10
18.2913630809
 20
-26.4559959245
 30
0.0
 11
0.2999972416
 21
-0.0022477848
 31
0.0
 40
0.5723275643
 41
0.7896864073
 42
2.3081228565
  0
ELLIPSE
  5
3F6
100
AcDbEntity
  8
0
100
AcDbEllipse
 62
7
  6
CONTINUOUS
 10
-41.5186370852
 20
8.1344996732
 30
0.0
 11
0.1998333781
 21
-0.0157785196
 31
0.0
 40
0.5172961965
 41
-0.692216108
 42
0.8262203412
  0
ELLIPSE
  5
3F7
100
AcDbEntity
  8
0
100
AcDbEllipse
 62
7
  6
CONTINUOUS
 10
-25.7465471147
 20
-1.0290585022
 30
0.0
 11
0.2999972416
 21
-0.0022477848
 31
0.0
 40
0.5723275643
 41
-0.728750042
 42
0.7896864073
  0
ELLIPSE
  5
3F8
100
AcDbEntity
  8
0
100
AcDbEllipse
 62
7
  6
CONTINUOUS
 10
-9.836644538
 20
-10.215236852
 30
0.0
 11
0.2999972416
 21
-0.0022477848
 31
0.0
 40
0.5723275643
 41
-0.728750042
 42
0.7896864073
  0
ELLIPSE
  5
3F9
100
AcDbEntity
  8
0
100
AcDbEllipse
 62
7
  6
CONTINUOUS
 10
6.0732580387
 20
-19.4014152019
 30
0.0
 11
0.2999972416
 21
-0.0022477848
 31
0.0
 40
0.5723275643
 41
-0.728750042
 42
0.7896864073
  0
ELLIPSE
  5
3FA
100
AcDbEntity
  8
0
100
AcDbEllipse
 62
7
  6
CONTINUOUS
 10
-42.6165287474
 20
6.5883884983
 30
0.0
 11
0.4625183445
 21
0.8873459255
 31
0.0
 40
0.5463614449
 41
0.662201126
 42
0.7618697785
  0
ELLIPSE
  5
3FB
100
AcDbEntity
  8
0
100
AcDbEllipse
 62
7
  6
CONTINUOUS
 10
52.8428867128
 20
-48.528681601
 30
0.0
 11
0.4625183445
 21
0.8873459255
 31
0.0
 40
0.5463614449
 41
0.662201126
 42
0.7618697785
  0
ELLIPSE
  5
3FC
100
AcDbEntity
  8
0
100
AcDbEllipse
 62
7
  6
CONTINUOUS
 10
37.8930631921
 20
-37.7737719017
 30
0.0
 11
0.2999972416
 21
-0.0022477848
 31
0.0
 40
0.5723275643
 41
-0.728750042
 42
0.7896864073
  0
ELLIPSE
  5
3FD
100
AcDbEntity
  8
0
100
AcDbEllipse
 62
7
  6
CONTINUOUS
 10
21.9831606154
 20
-28.5875935518
 30
0.0
 11
0.2999972416
 21
-0.0022477848
 31
0.0
 40
0.5723275643
 41
-0.728750042
 42
0.7896864073
  0
ELLIPSE
  5
3FE
100
AcDbEntity
  8
RACCORDO
100
AcDbEllipse
 62
7
  6
CONTINUOUS
 10
-56.4668797608
 20
13.2502566462
 30
0.0
 11
-0.2500121243
 21
0.4330057017
 31
0.0
 40
0.5780352736
 41
0.7859587116
 42
2.3555370632
  0
ELLIPSE
  5
3FF
100
AcDbEntity
  8
RACCORDO
100
AcDbEllipse
 62
7
  6
CONTINUOUS
 10
-57.0078724728
 20
12.937875697
 30
0.0
 11
-0.2500121243
 21
0.4330057017
 31
0.0
 40
0.5780352736
 41
0.7859587116
 42
2.3555370632
  0
ELLIPSE
  5
400
100
AcDbEntity
  8
ASSI
100
AcDbEllipse
 62
7
  6
CONTINUOUS
 10
-57.0078724728
 20
12.937875697
 30
0.0
 11
-0.2500121243
 21
0.4330057017
 31
0.0
 40
0.5780352736
 41
0.7859587116
 42
2.3555370632
  0
ELLIPSE
  5
401
100
AcDbEntity
  8
ASSI
100
AcDbEllipse
 62
7
  6
CONTINUOUS
 10
-56.4668797608
 20
13.2502566462
 30
0.0
 11
-0.2500121243
 21
0.4330057017
 31
0.0
 40
0.5780352736
 41
0.7859587116
 42
2.3555370632
  0
ENDSEC
  0
SECTION
  2
OBJECTS
  0
DICTIONARY
  5
C
100
AcDbDictionary
280
0
281
1
  3
ACAD_GROUP
350
D
  3
ACAD_MLINESTYLE
350
17
  3
ACAD_LAYOUT
350
1A
  3
ACAD_PLOTSETTINGS
350
19
  3
ACAD_PLOTSTYLENAME
350
E
  0
DICTIONARY
  5
D
102
{ACAD_REACTORS
330
C
102
}
100
AcDbDictionary
280
0
281
1
  0
ACDBDICTIONARYWDFLT
  5
E
102
{ACAD_REACTORS
330
C
102
}
100
AcDbDictionary
281
1
  3
Normal
350
F
100
AcDbDictionaryWithDefault
340
F
  0
DICTIONARY
  5
17
102
{ACAD_REACTORS
330
C
102
}
100
AcDbDictionary
280
0
281
1
  3
Standard
350
18
  0
DICTIONARY
  5
19
102
{ACAD_REACTORS
330
C
102
}
100
AcDbDictionary
281
1
  0
DICTIONARY
  5
1A
102
{ACAD_REACTORS
330
C
102
}
100
AcDbDictionary
281
1
  3
Model
350
402
  3
Layout1
350
403
  0
ACDBPLACEHOLDER
  5
F
102
{ACAD_REACTORS
330
E
102
}
  0
MLINESTYLE
  5
18
102
{ACAD_REACTORS
330
17
102
}
100
AcDbMlineStyle
  2
STANDARD
 70
0
  3

 62
256
 51
90.0
 52
90.0
 71
2
 49
0.5
 62
256
  6
BYLAYER
 49
-0.5
 62
256
  6
BYLAYER
  0
LAYOUT
  5
402
102
{ACAD_REACTORS
330
1A
102
}
100
AcDbPlotSettings
  1

  2
none_device
  4
ISO_A4_(297.00_x_210.00_MM)
  6

 40
0.0
 41
0.0
 42
0.0
 43
0.0
 44
297.0
 45
210.0
 46
0.0
 47
0.0
 48
0.0
 49
0.0
140
0.0
141
0.0
142
1.0
143
1.0
 70
1024
 72
1
 73
0
 74
0
  7

 75
0
147
1.0
148
0.0
149
0.0
100
AcDbLayout
  1
Model
 70
0
 71
0
 10
0.0
 20
0.0
 11
297.0
 21
210.0
 12
0.0
 22
0.0
 32
0.0
 14
0.0
 24
0.0
 34
0.0
 15
0.0
 25
0.0
 35
0.0
146
0.0
 13
0.0
 23
0.0
 33
0.0
 16
1.0
 26
0.0
 36
0.0
 17
0.0
 27
1.0
 37
0.0
 76
0
330
21B
345
0
346
0
  0
LAYOUT
  5
403
102
{ACAD_REACTORS
330
1A
102
}
100
AcDbPlotSettings
  1

  2
none_device
  4
ISO_A4_(297.00_x_210.00_MM)
  6

 40
0.0
 41
0.0
 42
0.0
 43
0.0
 44
297.0
 45
210.0
 46
0.0
 47
0.0
 48
0.0
 49
0.0
140
0.0
141
0.0
142
1.0
143
1.0
 70
0
 72
1
 73
0
 74
0
  7

 75
0
147
1.0
148
0.0
149
0.0
100
AcDbLayout
  1
Layout1
 70
0
 71
1
 10
0.0
 20
0.0
 11
297.0
 21
210.0
 12
0.0
 22
0.0
 32
0.0
 14
0.0
 24
0.0
 34
0.0
 15
0.0
 25
0.0
 35
0.0
146
0.0
 13
0.0
 23
0.0
 33
0.0
 16
1.0
 26
0.0
 36
0.0
 17
0.0
 27
1.0
 37
0.0
 76
0
330
21C
345
0
346
0
  0
ENDSEC
  0
EOF
