  0
SECTION
  2
HEADER
  9
$ACADVER
  1
AC1024
  9
$DWGCODEPAGE
  3
ANSI_1252
  9
$EXTMAX
 10
297.0
 20
210.0
 30
0.0
  9
$EXTMIN
 10
0.0
 20
0.0
 30
0.0
  9
$LIMMIN
 10
0.0
 20
0.0
  9
$LIMMAX
 10
297.0
 20
210.0
  9
$VIEWCTR
 10
148.5
 20
105.0
  9
$VIEWSIZE
 40
210.0
  9
$CLAYER
  8
0
  9
$LTSCALE
 40
16.335
  9
$CELTYPE
  6
BYLAYER
  9
$DIMSCALE
 40
1.0
  9
$DIMASZ
 40
3.0
  9
$DIMEXO
 40
0.5
  9
$DIMDLI
 40
11.286
  9
$DIMEXE
 40
1.5
  9
$DIMCEN
 40
2.673
  9
$DIMLFAC
 40
1.0
  9
$DIMBLK
  1
_FILLED
  9
$DIMALT
 70
0
  9
$DIMALTF
 40
0.0393700787
  9
$DIMTXT
 40
3.0
  9
$DIMTOL
 70
1
  9
$DIMLIM
 70
0
  9
$DIMTFAC
 40
1.0
  9
$DIMTP
 40
0.01
  9
$DIMTM
 40
0.01
  9
$DIMGAP
 40
0.625
  9
$DIMDSEP
 70
44
  9
$AUNITS
 70
0
  9
$PDMODE
 70
3
  9
$PDSIZE
 40
3.0
  9
$HANDSEED
  5
459
  9
$TILEMODE
 70
1
  9
$MEASUREMENT
 70
1
  9
$INSUNITS
 70
4
  0
ENDSEC
  0
SECTION
  2
CLASSES
  0
CLASS
  1
ACDBDICTIONARYWDFLT
  2
AcDbDictionaryWithDefault
  3
AutoCAD 2000
 90
0
 91
1
280
0
281
0
  0
CLASS
  1
ACDBPLACEHOLDER
  2
AcDbPlaceHolder
  3
AutoCAD 2000
 90
0
 91
1
280
0
281
0
  0
CLASS
  1
LAYOUT
  2
AcDbLayout
  3
AutoCAD 2000
 90
0
 91
0
280
0
281
0
  0
ENDSEC
  0
SECTION
  2
TABLES
  0
TABLE
  2
VPORT
  5
8
100
AcDbSymbolTable
 70
2
  0
VPORT
  5
1F4
100
AcDbSymbolTableRecord
100
AcDbViewportTableRecord
  2
*ACTIVE
 70
0
 10
0.0
 20
0.0
 11
1.0
 21
1.0
 12
148.5
 22
105.0
 13
0.0
 23
0.0
 14
1.0
 24
1.0
 15
0.0
 25
0.0
 16
0.0
 26
0.0
 36
1.0
 17
0.0
 27
0.0
 37
0.0
 40
210.0
 41
1.4142857143
 42
50.0
 43
0.0
 44
0.0
 50
0.0
 51
0.0
 71
0
 72
100
 73
1
 74
1
 75
0
 76
0
 77
0
 78
0
  0
ENDTAB
  0
TABLE
  2
LTYPE
  5
5
100
AcDbSymbolTable
 70
6
  0
LTYPE
  5
14
100
AcDbSymbolTableRecord
100
AcDbLinetypeTableRecord
  2
BYBLOCK
 70
0
  3

 72
65
 73
0
 40
0.0
  0
LTYPE
  5
15
100
AcDbSymbolTableRecord
100
AcDbLinetypeTableRecord
  2
BYLAYER
 70
0
  3

 72
65
 73
0
 40
0.0
  0
LTYPE
  5
16
100
AcDbSymbolTableRecord
100
AcDbLinetypeTableRecord
  2
CONTINUOUS
 70
64
  3
Solid line
 72
65
 73
0
 40
0.0
  0
LTYPE
  5
1F5
100
AcDbSymbolTableRecord
100
AcDbLinetypeTableRecord
  2
CENTER
 70
64
  3
____ _ ____ _ ____ _ ____ _ ____ _ ____ _ ____
 72
65
 73
4
 40
0.6
 49
0.375
 74
0
 49
-0.075
 74
0
 49
0.075
 74
0
 49
-0.075
 74
0
  0
LTYPE
  5
1F6
100
AcDbSymbolTableRecord
100
AcDbLinetypeTableRecord
  2
HIDDEN
 70
64
  3
- - - - - - - - - - - - - - - - - - - -
 72
65
 73
2
 40
0.2
 49
0.1
 74
0
 49
-0.1
 74
0
  0
LTYPE
  5
1F7
100
AcDbSymbolTableRecord
100
AcDbLinetypeTableRecord
  2
PHANTOM
 70
64
  3
_____ _ _ _____ _ _ _____ _ _ _____
 72
65
 73
6
 40
0.8
 49
0.45
 74
0
 49
-0.05
 74
0
 49
0.1
 74
0
 49
-0.05
 74
0
 49
0.1
 74
0
 49
-0.05
 74
0
  0
LTYPE
  5
1F8
100
AcDbSymbolTableRecord
100
AcDbLinetypeTableRecord
  2
DOT
 70
64
  3
. . . . . . . . . . . . . . . . . . . .
 72
65
 73
2
 40
0.2
 49
0.1
 74
0
 49
-0.1
 74
0
  0
LTYPE
  5
1F9
100
AcDbSymbolTableRecord
100
AcDbLinetypeTableRecord
  2
DASHED
 70
64
  3
- - - - - - - - - - - - - - - - - - - -
 72
65
 73
2
 40
0.2
 49
0.1
 74
0
 49
-0.1
 74
0
  0
ENDTAB
  0
TABLE
  2
LAYER
  5
2
100
AcDbSymbolTable
 70
36
  0
LAYER
  5
10
100
AcDbSymbolTableRecord
100
AcDbLayerTableRecord
  2
0
 70
0
 62
7
  6
CONTINUOUS
370
-3
390
F
  0
LAYER
  5
1FA
100
AcDbSymbolTableRecord
100
AcDbLayerTableRecord
  2
DEFAULT_1
 70
0
 62
7
  6
CENTER
370
-3
390
F
  0
LAYER
  5
1FB
100
AcDbSymbolTableRecord
100
AcDbLayerTableRecord
  2
DEFAULT_2
 70
0
 62
7
  6
HIDDEN
370
-3
390
F
  0
LAYER
  5
1FC
100
AcDbSymbolTableRecord
100
AcDbLayerTableRecord
  2
DEFAULT_3
 70
0
 62
7
  6
PHANTOM
370
-3
390
F
  0
LAYER
  5
1FD
100
AcDbSymbolTableRecord
100
AcDbLayerTableRecord
  2
ASSI
 70
0
 62
7
  6
CONTINUOUS
370
-3
390
F
  0
LAYER
  5
1FE
100
AcDbSymbolTableRecord
100
AcDbLayerTableRecord
  2
COORDINATE
 70
0
 62
7
  6
CONTINUOUS
370
-3
390
F
  0
LAYER
  5
1FF
100
AcDbSymbolTableRecord
100
AcDbLayerTableRecord
  2
COORD_ORIGINE
 70
0
 62
7
  6
CONTINUOUS
370
-3
390
F
  0
LAYER
  5
200
100
AcDbSymbolTableRecord
100
AcDbLayerTableRecord
  2
COPY_PUBLISH
 70
0
 62
7
  6
CONTINUOUS
370
-3
390
F
  0
LAYER
  5
201
100
AcDbSymbolTableRecord
100
AcDbLayerTableRecord
  2
COSMETIC
 70
0
 62
7
  6
CONTINUOUS
370
-3
390
F
  0
LAYER
  5
202
100
AcDbSymbolTableRecord
100
AcDbLayerTableRecord
  2
COSMETICI
 70
0
 62
7
  6
CONTINUOUS
370
-3
390
F
  0
LAYER
  5
203
100
AcDbSymbolTableRecord
100
AcDbLayerTableRecord
  2
CURVE
 70
0
 62
7
  6
CONTINUOUS
370
-3
390
F
  0
LAYER
  5
204
100
AcDbSymbolTableRecord
100
AcDbLayerTableRecord
  2
CURVE_TASSELLI
 70
0
 62
7
  6
CONTINUOUS
370
-3
390
F
  0
LAYER
  5
205
100
AcDbSymbolTableRecord
100
AcDbLayerTableRecord
  2
DRAFT
 70
0
 62
7
  6
CONTINUOUS
370
-3
390
F
  0
LAYER
  5
206
100
AcDbSymbolTableRecord
100
AcDbLayerTableRecord
  2
IMPORT_IGES
 70
0
 62
7
  6
CONTINUOUS
370
-3
390
F
  0
LAYER
  5
207
100
AcDbSymbolTableRecord
100
AcDbLayerTableRecord
  2
INTFCLR_2
 70
0
 62
7
  6
CONTINUOUS
370
-3
390
F
  0
LAYER
  5
208
100
AcDbSymbolTableRecord
100
AcDbLayerTableRecord
  2
INTF_1
 70
0
 62
7
  6
CONTINUOUS
370
-3
390
F
  0
LAYER
  5
209
100
AcDbSymbolTableRecord
100
AcDbLayerTableRecord
  2
INTF_21
 70
0
 62
7
  6
CONTINUOUS
370
-3
390
F
  0
LAYER
  5
20A
100
AcDbSymbolTableRecord
100
AcDbLayerTableRecord
  2
INTF_7
 70
0
 62
7
  6
CONTINUOUS
370
-3
390
F
  0
LAYER
  5
20B
100
AcDbSymbolTableRecord
100
AcDbLayerTableRecord
  2
NOTE
 70
0
 62
7
  6
CONTINUOUS
370
-3
390
F
  0
LAYER
  5
20C
100
AcDbSymbolTableRecord
100
AcDbLayerTableRecord
  2
PIANI
 70
0
 62
7
  6
CONTINUOUS
370
-3
390
F
  0
LAYER
  5
20D
100
AcDbSymbolTableRecord
100
AcDbLayerTableRecord
  2
PIANI_ORIGINE
 70
0
 62
7
  6
CONTINUOUS
370
-3
390
F
  0
LAYER
  5
20E
100
AcDbSymbolTableRecord
100
AcDbLayerTableRecord
  2
PIANI_RIFERIMENTO
 70
0
 62
7
  6
CONTINUOUS
370
-3
390
F
  0
LAYER
  5
20F
100
AcDbSymbolTableRecord
100
AcDbLayerTableRecord
  2
PUNTI
 70
0
 62
7
  6
CONTINUOUS
370
-3
390
F
  0
LAYER
  5
210
100
AcDbSymbolTableRecord
100
AcDbLayerTableRecord
  2
RACCORDO
 70
0
 62
7
  6
CONTINUOUS
370
-3
390
F
  0
LAYER
  5
211
100
AcDbSymbolTableRecord
100
AcDbLayerTableRecord
  2
RGB__255__255__255__
 70
0
 62
7
  6
CONTINUOUS
370
-3
390
F
  0
LAYER
  5
212
100
AcDbSymbolTableRecord
100
AcDbLayerTableRecord
  2
RGB____0____0____0__
 70
0
 62
7
  6
CONTINUOUS
370
-3
390
F
  0
LAYER
  5
213
100
AcDbSymbolTableRecord
100
AcDbLayerTableRecord
  2
SIMBOLI
 70
0
 62
7
  6
CONTINUOUS
370
-3
390
F
  0
LAYER
  5
214
100
AcDbSymbolTableRecord
100
AcDbLayerTableRecord
  2
SMUSSO
 70
0
 62
7
  6
CONTINUOUS
370
-3
390
F
  0
LAYER
  5
215
100
AcDbSymbolTableRecord
100
AcDbLayerTableRecord
  2
SNAPLINE
 70
0
 62
7
  6
CONTINUOUS
370
-3
390
F
  0
LAYER
  5
216
100
AcDbSymbolTableRecord
100
AcDbLayerTableRecord
  2
SUPERFICI
 70
0
 62
7
  6
CONTINUOUS
370
-3
390
F
  0
LAYER
  5
217
100
AcDbSymbolTableRecord
100
AcDbLayerTableRecord
  2
TRASH
 70
0
 62
7
  6
CONTINUOUS
370
-3
390
F
  0
LAYER
  5
218
100
AcDbSymbolTableRecord
100
AcDbLayerTableRecord
  2
XSEC_DATUMS
 70
0
 62
7
  6
CONTINUOUS
370
-3
390
F
  0
ENDTAB
  0
TABLE
  2
STYLE
  5
3
100
AcDbSymbolTable
 70
1
  0
STYLE
  5
11
100
AcDbSymbolTableRecord
100
AcDbTextStyleTableRecord
  2
STANDARD
 70
0
 40
0.0
 41
0.8
 50
0.0
 71
0
 42
0.2
  3
txt
  4

  0
STYLE
  5
219
100
AcDbSymbolTableRecord
100
AcDbTextStyleTableRecord
  2
TEXTSTYLE_1
 70
0
 40
0.0
 41
0.8
 50
0.0
 71
0
 42
0.2
  3
gdt
  4

  0
ENDTAB
  0
TABLE
  2
VIEW
  5
6
100
AcDbSymbolTable
 70
0
  0
ENDTAB
  0
TABLE
  2
UCS
  5
7
100
AcDbSymbolTable
 70
0
  0
ENDTAB
  0
TABLE
  2
APPID
  5
9
100
AcDbSymbolTable
 70
1
  0
APPID
  5
21A
100
AcDbSymbolTableRecord
100
AcDbRegAppTableRecord
  2
ACAD
 70
0
  0
ENDTAB
  0
TABLE
  2
BLOCK_RECORD
  5
1
100
AcDbSymbolTable
 70
0
  0
BLOCK_RECORD
  5
21B
100
AcDbSymbolTableRecord
100
AcDbBlockTableRecord
  2
*Model_Space
  0
BLOCK_RECORD
  5
21C
100
AcDbSymbolTableRecord
100
AcDbBlockTableRecord
  2
*Paper_Space
  0
BLOCK_RECORD
  5
21D
100
AcDbSymbolTableRecord
100
AcDbBlockTableRecord
  2
_FILLED
  0
ENDTAB
  0
TABLE
  2
DIMSTYLE
  5
A
100
AcDbSymbolTable
 70
1
100
AcDbDimStyleTable
 71
0
  0
DIMSTYLE
105
21E
100
AcDbSymbolTableRecord
100
AcDbDimStyleTableRecord
  2
STANDARD
 70
0
  3

  4

 40
1.0
 41
3.0
 42
0.5
 43
0.38
 44
1.5
 45
0.0
 46
0.0
 47
0.01
 48
0.01
140
3.0
141
0.09
142
0.0
143
25.4
144
1.0
145
0.0
146
1.0
147
0.625
 71
1
 72
0
 73
0
 74
0
 75
0
 76
0
 77
1
 78
8
 79
2
170
0
171
1
172
0
173
0
174
0
175
0
176
0
177
0
178
0
270
2
179
2
271
2
272
2
273
2
274
2
275
0
280
0
281
0
282
0
283
1
284
8
285
0
286
0
287
3
288
0
340
11
278
44
341
21D
342
21D
343
21D
344
21D
  0
ENDTAB
  0
ENDSEC
  0
SECTION
  2
BLOCKS
  0
BLOCK
  5
20
100
AcDbEntity
  8
0
100
AcDbBlockBegin
  2
*Model_Space
 70
0
 10
0.0
 20
0.0
 30
0.0
  3
*Model_Space
  1

  0
ENDBLK
  5
21
100
AcDbEntity
  8
0
100
AcDbBlockEnd
  0
BLOCK
  5
1C
100
AcDbEntity
  8
0
100
AcDbBlockBegin
  2
*Paper_Space
 70
0
 10
0.0
 20
0.0
 30
0.0
  3
*Paper_Space
  1

  0
ENDBLK
  5
1D
100
AcDbEntity
  8
0
100
AcDbBlockEnd
  0
BLOCK
  5
21F
100
AcDbEntity
  8
0
100
AcDbBlockBegin
  2
_FILLED
 70
64
 10
0.0
 20
0.0
  3
_FILLED
  1

  0
SOLID
  5
220
100
AcDbEntity
  8
0
  6
BYBLOCK
 62
0
100
AcDbTrace
 10
0.0
 20
0.0
 11
-1.0
 21
0.3166666667
 12
-1.0
 22
-0.3166666667
 13
-1.0
 23
-0.3166666667
  0
ENDBLK
  5
221
100
AcDbEntity
  8
0
  6
BYBLOCK
 62
0
100
AcDbBlockEnd
  0
ENDSEC
  0
SECTION
  2
ENTITIES
  0
LINE
  5
222
100
AcDbEntity
  8
SMUSSO
100
AcDbLine
 62
7
  6
CONTINUOUS
 10
-76.9508954626
 20
78.3450423539
 11
-74.4760217285
 21
79.7739639756
  0
LINE
  5
223
100
AcDbEntity
  8
ASSI
100
AcDbLine
 62
7
  6
CONTINUOUS
 10
-71.9481644269
 20
80.4280279055
 11
-73.8434860628
 21
79.4087852647
  0
LINE
  5
224
100
AcDbEntity
  8
0
100
AcDbLine
 62
7
  6
CONTINUOUS
 10
-71.9481644269
 20
80.4280279055
 11
-73.8434860628
 21
79.4087852647
  0
LINE
  5
225
100
AcDbEntity
  8
ASSI
100
AcDbLine
 62
250
  6
CONTINUOUS
 10
-71.4709256042
 20
80.366079555
 11
-73.5573287945
 21
79.2440794379
  0
LINE
  5
226
100
AcDbEntity
  8
0
100
AcDbLine
 62
250
  6
CONTINUOUS
 10
-71.4709256042
 20
80.366079555
 11
-73.5573287945
 21
79.2440794379
  0
LINE
  5
227
100
AcDbEntity
  8
0
100
AcDbLine
 62
250
  6
CONTINUOUS
 10
75.0842853434
 20
-72.3354106814
 11
75.9928444496
 21
-72.0968944094
  0
LINE
  5
228
100
AcDbEntity
  8
0
100
AcDbLine
 62
250
  6
CONTINUOUS
 10
75.9368207499
 20
-68.7840043947
 11
75.4469723969
 21
-68.915665594
  0
LINE
  5
229
100
AcDbEntity
  8
0
100
AcDbLine
 62
250
  6
CONTINUOUS
 10
76.4042303039
 20
-68.6601175936
 11
76.1407222276
 21
-68.7283241328
  0
LINE
  5
22A
100
AcDbEntity
  8
0
100
AcDbLine
 62
250
  6
CONTINUOUS
 10
75.0842853434
 20
-69.2830471657
 11
76.4042303039
 21
-68.9803943891
  0
LINE
  5
22B
100
AcDbEntity
  8
0
100
AcDbLine
 62
250
  6
CONTINUOUS
 10
76.4042303039
 20
-71.721251633
 11
75.0842853434
 21
-72.0118426942
  0
LINE
  5
22C
100
AcDbEntity
  8
0
100
AcDbLine
 62
250
  6
CONTINUOUS
 10
75.0842853434
 20
-70.2858457573
 11
75.8171226073
 21
-70.1714699774
  0
LINE
  5
22D
100
AcDbEntity
  8
SMUSSO
100
AcDbLine
 62
7
  6
CONTINUOUS
 10
-76.9508954626
 20
78.3450423539
 11
-76.9508954626
 21
5.6791482644
  0
LINE
  5
22E
100
AcDbEntity
  8
0
100
AcDbLine
 62
250
  6
CONTINUOUS
 10
76.4042303039
 20
-69.7994994155
 11
75.5459241862
 21
-69.9276964057
  0
LINE
  5
22F
100
AcDbEntity
  8
0
100
AcDbLine
 62
250
  6
CONTINUOUS
 10
-58.106499744
 20
48.6040610478
 11
-57.2580126107
 21
49.0939668845
  0
LINE
  5
230
100
AcDbEntity
  8
0
100
AcDbLine
 62
7
  6
CONTINUOUS
 10
-58.8136065252
 20
13.659133201
 11
-58.8136065252
 21
48.6040610478
  0
LINE
  5
231
100
AcDbEntity
  8
0
100
AcDbLine
 62
7
  6
CONTINUOUS
 10
-58.106499744
 20
13.659133201
 11
-58.106499744
 21
48.6040610478
  0
LINE
  5
232
100
AcDbEntity
  8
RACCORDO
100
AcDbLine
 62
7
  6
CONTINUOUS
 10
-55.6316260099
 20
48.1548248483
 11
-55.6316260099
 21
15.0880942777
  0
LINE
  5
233
100
AcDbEntity
  8
ASSI
100
AcDbLine
 62
250
  6
CONTINUOUS
 10
-55.0392902485
 20
47.8128176035
 11
-55.0392902485
 21
13.8124041035
  0
LINE
  5
234
100
AcDbEntity
  8
0
100
AcDbLine
 62
250
  6
CONTINUOUS
 10
-55.0392902485
 20
47.8128176035
 11
-55.0392902485
 21
13.8124041035
  0
LINE
  5
235
100
AcDbEntity
  8
ASSI
100
AcDbLine
 62
7
  6
CONTINUOUS
 10
-54.9550921886
 20
47.7642026989
 11
-54.9550921886
 21
13.7384771631
  0
LINE
  5
236
100
AcDbEntity
  8
0
100
AcDbLine
 62
7
  6
CONTINUOUS
 10
-54.9550921886
 20
47.7642026989
 11
-54.9550921886
 21
13.7384771631
  0
LINE
  5
237
100
AcDbEntity
  8
0
100
AcDbLine
 62
250
  6
CONTINUOUS
 10
-57.6115249972
 20
11.5770669218
 11
-57.2579716066
 21
12.1894393569
  0
LINE
  5
238
100
AcDbEntity
  8
ASSI
100
AcDbLine
 62
7
  6
CONTINUOUS
 10
-47.8005029751
 20
9.5867376523
 11
-47.7827407387
 21
9.6175027481
  0
LINE
  5
239
100
AcDbEntity
  8
0
100
AcDbLine
 62
7
  6
CONTINUOUS
 10
-47.8005029751
 20
9.5867376523
 11
-47.7827407387
 21
9.6175027481
  0
LINE
  5
23A
100
AcDbEntity
  8
ASSI
100
AcDbLine
 62
7
  6
CONTINUOUS
 10
-47.5352533653
 20
9.6379283142
 11
-47.4291873481
 21
9.8216400448
  0
LINE
  5
23B
100
AcDbEntity
  8
0
100
AcDbLine
 62
7
  6
CONTINUOUS
 10
-47.5352533653
 20
9.6379283142
 11
-47.4291873481
 21
9.8216400448
  0
LINE
  5
23C
100
AcDbEntity
  8
ASSI
100
AcDbLine
 62
7
  6
CONTINUOUS
 10
-47.1816999747
 20
9.8420656109
 11
-47.0756339575
 21
10.0257773414
  0
LINE
  5
23D
100
AcDbEntity
  8
0
100
AcDbLine
 62
7
  6
CONTINUOUS
 10
-47.1816999747
 20
9.8420656109
 11
-47.0756339575
 21
10.0257773414
  0
LINE
  5
23E
100
AcDbEntity
  8
ASSI
100
AcDbLine
 62
7
  6
CONTINUOUS
 10
-46.8281465841
 20
10.0462029076
 11
-46.7220805669
 21
10.2299146381
  0
LINE
  5
23F
100
AcDbEntity
  8
0
100
AcDbLine
 62
7
  6
CONTINUOUS
 10
-46.8281465841
 20
10.0462029076
 11
-46.7220805669
 21
10.2299146381
  0
LINE
  5
240
100
AcDbEntity
  8
ASSI
100
AcDbLine
 62
7
  6
CONTINUOUS
 10
-46.4745931935
 20
10.2503402042
 11
-46.3685271763
 21
10.4340519348
  0
LINE
  5
241
100
AcDbEntity
  8
0
100
AcDbLine
 62
7
  6
CONTINUOUS
 10
-46.4745931935
 20
10.2503402042
 11
-46.3685271763
 21
10.4340519348
  0
LINE
  5
242
100
AcDbEntity
  8
ASSI
100
AcDbLine
 62
7
  6
CONTINUOUS
 10
-46.1210398029
 20
10.4544775009
 11
-46.0149737857
 21
10.6381892314
  0
LINE
  5
243
100
AcDbEntity
  8
0
100
AcDbLine
 62
7
  6
CONTINUOUS
 10
-46.1210398029
 20
10.4544775009
 11
-46.0149737857
 21
10.6381892314
  0
LINE
  5
244
100
AcDbEntity
  8
ASSI
100
AcDbLine
 62
250
  6
CONTINUOUS
 10
-40.3470995413
 20
9.0227774366
 11
-40.3470995413
 21
8.6154077987
  0
LINE
  5
245
100
AcDbEntity
  8
0
100
AcDbLine
 62
250
  6
CONTINUOUS
 10
-40.3470995413
 20
9.0227774366
 11
-40.3470995413
 21
8.6154077987
  0
LINE
  5
246
100
AcDbEntity
  8
ASSI
100
AcDbLine
 62
7
  6
CONTINUOUS
 10
-40.2957285064
 20
9.0893549434
 11
-40.2957285064
 21
8.6459530935
  0
LINE
  5
247
100
AcDbEntity
  8
0
100
AcDbLine
 62
7
  6
CONTINUOUS
 10
-40.2957285064
 20
9.0893549434
 11
-40.2957285064
 21
8.6459530935
  0
LINE
  5
248
100
AcDbEntity
  8
ASSI
100
AcDbLine
 62
7
  6
CONTINUOUS
 10
-43.9114156785
 20
7.341227389
 11
-43.8936534422
 21
7.3719924848
  0
LINE
  5
249
100
AcDbEntity
  8
0
100
AcDbLine
 62
7
  6
CONTINUOUS
 10
-43.9114156785
 20
7.341227389
 11
-43.8936534422
 21
7.3719924848
  0
LINE
  5
24A
100
AcDbEntity
  8
ASSI
100
AcDbLine
 62
7
  6
CONTINUOUS
 10
-43.6461660687
 20
7.3924180509
 11
-43.5401000516
 21
7.5761297815
  0
LINE
  5
24B
100
AcDbEntity
  8
0
100
AcDbLine
 62
7
  6
CONTINUOUS
 10
-43.6461660687
 20
7.3924180509
 11
-43.5401000516
 21
7.5761297815
  0
LINE
  5
24C
100
AcDbEntity
  8
ASSI
100
AcDbLine
 62
7
  6
CONTINUOUS
 10
-43.2926126781
 20
7.5965553476
 11
-43.186546661
 21
7.7802670781
  0
LINE
  5
24D
100
AcDbEntity
  8
0
100
AcDbLine
 62
7
  6
CONTINUOUS
 10
-43.2926126781
 20
7.5965553476
 11
-43.186546661
 21
7.7802670781
  0
LINE
  5
24E
100
AcDbEntity
  8
ASSI
100
AcDbLine
 62
7
  6
CONTINUOUS
 10
-42.9390592876
 20
7.8006926443
 11
-42.8329932704
 21
7.9844043748
  0
LINE
  5
24F
100
AcDbEntity
  8
0
100
AcDbLine
 62
7
  6
CONTINUOUS
 10
-42.9390592876
 20
7.8006926443
 11
-42.8329932704
 21
7.9844043748
  0
LINE
  5
250
100
AcDbEntity
  8
ASSI
100
AcDbLine
 62
7
  6
CONTINUOUS
 10
-42.585505897
 20
8.0048299409
 11
-42.4794398798
 21
8.1885416714
  0
LINE
  5
251
100
AcDbEntity
  8
0
100
AcDbLine
 62
7
  6
CONTINUOUS
 10
-42.585505897
 20
8.0048299409
 11
-42.4794398798
 21
8.1885416714
  0
LINE
  5
252
100
AcDbEntity
  8
ASSI
100
AcDbLine
 62
7
  6
CONTINUOUS
 10
-42.2319525064
 20
8.2089672376
 11
-42.1258864892
 21
8.3926789681
  0
LINE
  5
253
100
AcDbEntity
  8
0
100
AcDbLine
 62
7
  6
CONTINUOUS
 10
-42.2319525064
 20
8.2089672376
 11
-42.1258864892
 21
8.3926789681
  0
LINE
  5
254
100
AcDbEntity
  8
0
100
AcDbLine
 62
250
  6
CONTINUOUS
 10
-58.106499744
 20
13.659133201
 11
-55.6316260099
 21
15.0880942777
  0
LINE
  5
255
100
AcDbEntity
  8
0
100
AcDbLine
 62
250
  6
CONTINUOUS
 10
-57.2579716066
 20
12.1894393569
 11
-54.7830978724
 21
13.6184004335
  0
LINE
  5
256
100
AcDbEntity
  8
ASSI
100
AcDbLine
 62
250
  6
CONTINUOUS
 10
-42.2915789543
 20
7.3437701451
 11
-41.9556339893
 21
7.6705237349
  0
LINE
  5
257
100
AcDbEntity
  8
0
100
AcDbLine
 62
250
  6
CONTINUOUS
 10
-42.2915789543
 20
7.3437701451
 11
-41.9556339893
 21
7.6705237349
  0
LINE
  5
258
100
AcDbEntity
  8
ASSI
100
AcDbLine
 62
7
  6
CONTINUOUS
 10
-42.2876540596
 20
7.3102349806
 11
-41.858669716
 21
7.7274824135
  0
LINE
  5
259
100
AcDbEntity
  8
0
100
AcDbLine
 62
7
  6
CONTINUOUS
 10
-42.2876540596
 20
7.3102349806
 11
-41.858669716
 21
7.7274824135
  0
LINE
  5
25A
100
AcDbEntity
  8
ASSI
100
AcDbLine
 62
7
  6
CONTINUOUS
 10
-41.5936201686
 20
8.3712606787
 11
-43.5370136313
 21
7.1250523392
  0
LINE
  5
25B
100
AcDbEntity
  8
0
100
AcDbLine
 62
7
  6
CONTINUOUS
 10
-41.5936201686
 20
8.3712606787
 11
-43.5370136313
 21
7.1250523392
  0
LINE
  5
25C
100
AcDbEntity
  8
ASSI
100
AcDbLine
 62
7
  6
CONTINUOUS
 10
-47.7827407387
 20
9.6175027481
 11
-47.6413193824
 21
9.6991576668
  0
LINE
  5
25D
100
AcDbEntity
  8
0
100
AcDbLine
 62
7
  6
CONTINUOUS
 10
-47.7827407387
 20
9.6175027481
 11
-47.6413193824
 21
9.6991576668
  0
LINE
  5
25E
100
AcDbEntity
  8
ASSI
100
AcDbLine
 62
7
  6
CONTINUOUS
 10
-47.4291873481
 20
9.8216400448
 11
-47.2877659919
 21
9.9032949634
  0
LINE
  5
25F
100
AcDbEntity
  8
0
100
AcDbLine
 62
7
  6
CONTINUOUS
 10
-47.4291873481
 20
9.8216400448
 11
-47.2877659919
 21
9.9032949634
  0
LINE
  5
260
100
AcDbEntity
  8
ASSI
100
AcDbLine
 62
7
  6
CONTINUOUS
 10
-47.0756339575
 20
10.0257773414
 11
-46.9342126013
 21
10.1074322601
  0
LINE
  5
261
100
AcDbEntity
  8
0
100
AcDbLine
 62
7
  6
CONTINUOUS
 10
-47.0756339575
 20
10.0257773414
 11
-46.9342126013
 21
10.1074322601
  0
LINE
  5
262
100
AcDbEntity
  8
ASSI
100
AcDbLine
 62
7
  6
CONTINUOUS
 10
-46.7220805669
 20
10.2299146381
 11
-46.5806592107
 21
10.3115695568
  0
LINE
  5
263
100
AcDbEntity
  8
0
100
AcDbLine
 62
7
  6
CONTINUOUS
 10
-46.7220805669
 20
10.2299146381
 11
-46.5806592107
 21
10.3115695568
  0
LINE
  5
264
100
AcDbEntity
  8
ASSI
100
AcDbLine
 62
7
  6
CONTINUOUS
 10
-46.3685271763
 20
10.4340519348
 11
-46.2271058201
 21
10.5157068534
  0
LINE
  5
265
100
AcDbEntity
  8
0
100
AcDbLine
 62
7
  6
CONTINUOUS
 10
-46.3685271763
 20
10.4340519348
 11
-46.2271058201
 21
10.5157068534
  0
LINE
  5
266
100
AcDbEntity
  8
ASSI
100
AcDbLine
 62
7
  6
CONTINUOUS
 10
-46.0149737857
 20
10.6381892314
 11
-45.8735524295
 21
10.7198441501
  0
LINE
  5
267
100
AcDbEntity
  8
0
100
AcDbLine
 62
7
  6
CONTINUOUS
 10
-46.0149737857
 20
10.6381892314
 11
-45.8735524295
 21
10.7198441501
  0
LINE
  5
268
100
AcDbEntity
  8
ASSI
100
AcDbLine
 62
7
  6
CONTINUOUS
 10
-47.9983145278
 20
9.7009515636
 11
-45.8399574269
 21
10.8230425926
  0
LINE
  5
269
100
AcDbEntity
  8
0
100
AcDbLine
 62
7
  6
CONTINUOUS
 10
-47.9983145278
 20
9.7009515636
 11
-45.8399574269
 21
10.8230425926
  0
LINE
  5
26A
100
AcDbEntity
  8
SMUSSO
100
AcDbLine
 62
7
  6
CONTINUOUS
 10
-76.9508954626
 20
5.6791482644
 11
72.2486353677
 21
-80.4667514728
  0
LINE
  5
26B
100
AcDbEntity
  8
ASSI
100
AcDbLine
 62
250
  6
CONTINUOUS
 10
-24.5006950882
 20
-0.178672758
 11
-24.5006950882
 21
-0.6080705699
  0
LINE
  5
26C
100
AcDbEntity
  8
0
100
AcDbLine
 62
250
  6
CONTINUOUS
 10
-24.5006950882
 20
-0.178672758
 11
-24.5006950882
 21
-0.6080705699
  0
LINE
  5
26D
100
AcDbEntity
  8
ASSI
100
AcDbLine
 62
7
  6
CONTINUOUS
 10
-24.4236385358
 20
-0.0641680877
 11
-24.4236385358
 21
-0.5622526277
  0
LINE
  5
26E
100
AcDbEntity
  8
0
100
AcDbLine
 62
7
  6
CONTINUOUS
 10
-24.4236385358
 20
-0.0641680877
 11
-24.4236385358
 21
-0.5622526277
  0
LINE
  5
26F
100
AcDbEntity
  8
ASSI
100
AcDbLine
 62
7
  6
CONTINUOUS
 10
-43.2078075797
 20
6.934972891
 11
-40.3470995413
 21
8.6154077987
  0
LINE
  5
270
100
AcDbEntity
  8
0
100
AcDbLine
 62
7
  6
CONTINUOUS
 10
-43.2078075797
 20
6.934972891
 11
-40.3470995413
 21
8.6154077987
  0
LINE
  5
271
100
AcDbEntity
  8
ASSI
100
AcDbLine
 62
7
  6
CONTINUOUS
 10
-42.3462684094
 20
7.2657709555
 11
-43.061731012
 21
6.8506301116
  0
LINE
  5
272
100
AcDbEntity
  8
0
100
AcDbLine
 62
7
  6
CONTINUOUS
 10
-42.3462684094
 20
7.2657709555
 11
-43.061731012
 21
6.8506301116
  0
LINE
  5
273
100
AcDbEntity
  8
ASSI
100
AcDbLine
 62
250
  6
CONTINUOUS
 10
-42.2915789543
 20
7.3437701451
 11
-43.1019641088
 21
6.8738601974
  0
LINE
  5
274
100
AcDbEntity
  8
0
100
AcDbLine
 62
250
  6
CONTINUOUS
 10
-42.2915789543
 20
7.3437701451
 11
-43.1019641088
 21
6.8738601974
  0
LINE
  5
275
100
AcDbEntity
  8
ASSI
100
AcDbLine
 62
7
  6
CONTINUOUS
 10
-43.8936534422
 20
7.3719924848
 11
-43.7522320859
 21
7.4536474035
  0
LINE
  5
276
100
AcDbEntity
  8
0
100
AcDbLine
 62
7
  6
CONTINUOUS
 10
-43.8936534422
 20
7.3719924848
 11
-43.7522320859
 21
7.4536474035
  0
LINE
  5
277
100
AcDbEntity
  8
ASSI
100
AcDbLine
 62
7
  6
CONTINUOUS
 10
-43.5401000516
 20
7.5761297815
 11
-43.3986786953
 21
7.6577847001
  0
LINE
  5
278
100
AcDbEntity
  8
0
100
AcDbLine
 62
7
  6
CONTINUOUS
 10
-43.5401000516
 20
7.5761297815
 11
-43.3986786953
 21
7.6577847001
  0
LINE
  5
279
100
AcDbEntity
  8
ASSI
100
AcDbLine
 62
7
  6
CONTINUOUS
 10
-43.186546661
 20
7.7802670781
 11
-43.0451253047
 21
7.8619219968
  0
LINE
  5
27A
100
AcDbEntity
  8
0
100
AcDbLine
 62
7
  6
CONTINUOUS
 10
-43.186546661
 20
7.7802670781
 11
-43.0451253047
 21
7.8619219968
  0
LINE
  5
27B
100
AcDbEntity
  8
ASSI
100
AcDbLine
 62
7
  6
CONTINUOUS
 10
-42.8329932704
 20
7.9844043748
 11
-42.6915719141
 21
8.0660592934
  0
LINE
  5
27C
100
AcDbEntity
  8
0
100
AcDbLine
 62
7
  6
CONTINUOUS
 10
-42.8329932704
 20
7.9844043748
 11
-42.6915719141
 21
8.0660592934
  0
LINE
  5
27D
100
AcDbEntity
  8
ASSI
100
AcDbLine
 62
7
  6
CONTINUOUS
 10
-42.4794398798
 20
8.1885416714
 11
-42.3380185235
 21
8.2701965901
  0
LINE
  5
27E
100
AcDbEntity
  8
0
100
AcDbLine
 62
7
  6
CONTINUOUS
 10
-42.4794398798
 20
8.1885416714
 11
-42.3380185235
 21
8.2701965901
  0
LINE
  5
27F
100
AcDbEntity
  8
ASSI
100
AcDbLine
 62
7
  6
CONTINUOUS
 10
-42.1258864892
 20
8.3926789681
 11
-41.984465133
 21
8.4743338868
  0
LINE
  5
280
100
AcDbEntity
  8
0
100
AcDbLine
 62
7
  6
CONTINUOUS
 10
-42.1258864892
 20
8.3926789681
 11
-41.984465133
 21
8.4743338868
  0
LINE
  5
281
100
AcDbEntity
  8
ASSI
100
AcDbLine
 62
7
  6
CONTINUOUS
 10
-41.8783991158
 20
8.4131045343
 11
-43.8231204312
 21
7.2902468198
  0
LINE
  5
282
100
AcDbEntity
  8
0
100
AcDbLine
 62
7
  6
CONTINUOUS
 10
-41.8783991158
 20
8.4131045343
 11
-43.8231204312
 21
7.2902468198
  0
LINE
  5
283
100
AcDbEntity
  8
ASSI
100
AcDbLine
 62
7
  6
CONTINUOUS
 10
-40.3470995413
 20
9.0227774366
 11
-41.5269478126
 21
8.4099625901
  0
LINE
  5
284
100
AcDbEntity
  8
0
100
AcDbLine
 62
7
  6
CONTINUOUS
 10
-40.3470995413
 20
9.0227774366
 11
-41.5269478126
 21
8.4099625901
  0
LINE
  5
285
100
AcDbEntity
  8
ASSI
100
AcDbLine
 62
7
  6
CONTINUOUS
 10
-45.7659102739
 20
10.8574863886
 11
-44.4555560182
 21
11.3949487153
  0
LINE
  5
286
100
AcDbEntity
  8
0
100
AcDbLine
 62
7
  6
CONTINUOUS
 10
-45.7659102739
 20
10.8574863886
 11
-44.4555560182
 21
11.3949487153
  0
LINE
  5
287
100
AcDbEntity
  8
ASSI
100
AcDbLine
 62
250
  6
CONTINUOUS
 10
-26.3816763776
 20
-1.8424082047
 11
-26.0457314126
 21
-1.515654615
  0
LINE
  5
288
100
AcDbEntity
  8
0
100
AcDbLine
 62
250
  6
CONTINUOUS
 10
-26.3816763776
 20
-1.8424082047
 11
-26.0457314126
 21
-1.515654615
  0
LINE
  5
289
100
AcDbEntity
  8
ASSI
100
AcDbLine
 62
7
  6
CONTINUOUS
 10
-26.3777516313
 20
-1.8759435136
 11
-25.9487671393
 21
-1.4586959364
  0
LINE
  5
28A
100
AcDbEntity
  8
0
100
AcDbLine
 62
7
  6
CONTINUOUS
 10
-26.3777516313
 20
-1.8759435136
 11
-25.9487671393
 21
-1.4586959364
  0
LINE
  5
28B
100
AcDbEntity
  8
ASSI
100
AcDbLine
 62
7
  6
CONTINUOUS
 10
-32.0064710086
 20
0.4674615405
 11
-28.6161752522
 21
2.1975539097
  0
LINE
  5
28C
100
AcDbEntity
  8
0
100
AcDbLine
 62
7
  6
CONTINUOUS
 10
-32.0064710086
 20
0.4674615405
 11
-28.6161752522
 21
2.1975539097
  0
LINE
  5
28D
100
AcDbEntity
  8
0
100
AcDbLine
 62
7
  6
CONTINUOUS
 10
52.2021581211
 20
-51.827977422
 11
-57.6115249972
 21
11.5770669218
  0
LINE
  5
28E
100
AcDbEntity
  8
0
100
AcDbLine
 62
7
  6
CONTINUOUS
 10
52.5557115117
 20
-51.2156049869
 11
-57.2579716066
 21
12.1894393569
  0
LINE
  5
28F
100
AcDbEntity
  8
RACCORDO
100
AcDbLine
 62
7
  6
CONTINUOUS
 10
-54.7830978724
 20
13.6184004335
 11
53.4042396491
 21
-48.8476123456
  0
LINE
  5
290
100
AcDbEntity
  8
ASSI
100
AcDbLine
 62
7
  6
CONTINUOUS
 10
51.565762018
 20
-47.7450776145
 11
47.6766747215
 21
-45.4995673511
  0
LINE
  5
291
100
AcDbEntity
  8
0
100
AcDbLine
 62
7
  6
CONTINUOUS
 10
51.565762018
 20
-47.7450776145
 11
47.6766747215
 21
-45.4995673511
  0
LINE
  5
292
100
AcDbEntity
  8
ASSI
100
AcDbLine
 62
7
  6
CONTINUOUS
 10
-43.8936534422
 20
7.3719924848
 11
-47.7827407387
 21
9.6175027481
  0
LINE
  5
293
100
AcDbEntity
  8
0
100
AcDbLine
 62
7
  6
CONTINUOUS
 10
-43.8936534422
 20
7.3719924848
 11
-47.7827407387
 21
9.6175027481
  0
LINE
  5
294
100
AcDbEntity
  8
ASSI
100
AcDbLine
 62
7
  6
CONTINUOUS
 10
51.7071833743
 20
-47.6634226958
 11
51.8132493914
 21
-47.7246520483
  0
LINE
  5
295
100
AcDbEntity
  8
0
100
AcDbLine
 62
7
  6
CONTINUOUS
 10
51.7071833743
 20
-47.6634226958
 11
51.8132493914
 21
-47.7246520483
  0
LINE
  5
296
100
AcDbEntity
  8
ASSI
100
AcDbLine
 62
7
  6
CONTINUOUS
 10
51.7071833743
 20
-47.6634226958
 11
47.8180960777
 21
-45.4179124325
  0
LINE
  5
297
100
AcDbEntity
  8
0
100
AcDbLine
 62
7
  6
CONTINUOUS
 10
51.7071833743
 20
-47.6634226958
 11
47.8180960777
 21
-45.4179124325
  0
LINE
  5
298
100
AcDbEntity
  8
ASSI
100
AcDbLine
 62
7
  6
CONTINUOUS
 10
-47.6413193824
 20
9.6991576668
 11
-43.6461660687
 21
7.3924180509
  0
LINE
  5
299
100
AcDbEntity
  8
0
100
AcDbLine
 62
7
  6
CONTINUOUS
 10
-47.6413193824
 20
9.6991576668
 11
-43.6461660687
 21
7.3924180509
  0
LINE
  5
29A
100
AcDbEntity
  8
ASSI
100
AcDbLine
 62
7
  6
CONTINUOUS
 10
51.9193154086
 20
-47.5409403178
 11
48.0302281121
 21
-45.2954300545
  0
LINE
  5
29B
100
AcDbEntity
  8
0
100
AcDbLine
 62
7
  6
CONTINUOUS
 10
51.9193154086
 20
-47.5409403178
 11
48.0302281121
 21
-45.2954300545
  0
LINE
  5
29C
100
AcDbEntity
  8
ASSI
100
AcDbLine
 62
7
  6
CONTINUOUS
 10
-43.5401000516
 20
7.5761297815
 11
-47.4291873481
 21
9.8216400448
  0
LINE
  5
29D
100
AcDbEntity
  8
0
100
AcDbLine
 62
7
  6
CONTINUOUS
 10
-43.5401000516
 20
7.5761297815
 11
-47.4291873481
 21
9.8216400448
  0
LINE
  5
29E
100
AcDbEntity
  8
ASSI
100
AcDbLine
 62
7
  6
CONTINUOUS
 10
52.0607367649
 20
-47.4592853991
 11
52.166802782
 21
-47.5205147516
  0
LINE
  5
29F
100
AcDbEntity
  8
0
100
AcDbLine
 62
7
  6
CONTINUOUS
 10
52.0607367649
 20
-47.4592853991
 11
52.166802782
 21
-47.5205147516
  0
LINE
  5
2A0
100
AcDbEntity
  8
ASSI
100
AcDbLine
 62
7
  6
CONTINUOUS
 10
52.0607367649
 20
-47.4592853991
 11
48.1716494683
 21
-45.2137751358
  0
LINE
  5
2A1
100
AcDbEntity
  8
0
100
AcDbLine
 62
7
  6
CONTINUOUS
 10
52.0607367649
 20
-47.4592853991
 11
48.1716494683
 21
-45.2137751358
  0
LINE
  5
2A2
100
AcDbEntity
  8
ASSI
100
AcDbLine
 62
7
  6
CONTINUOUS
 10
-47.2877659919
 20
9.9032949634
 11
-43.2926126781
 21
7.5965553476
  0
LINE
  5
2A3
100
AcDbEntity
  8
0
100
AcDbLine
 62
7
  6
CONTINUOUS
 10
-47.2877659919
 20
9.9032949634
 11
-43.2926126781
 21
7.5965553476
  0
LINE
  5
2A4
100
AcDbEntity
  8
ASSI
100
AcDbLine
 62
7
  6
CONTINUOUS
 10
52.2728687992
 20
-47.3368030211
 11
48.3837815027
 21
-45.0912927578
  0
LINE
  5
2A5
100
AcDbEntity
  8
0
100
AcDbLine
 62
7
  6
CONTINUOUS
 10
52.2728687992
 20
-47.3368030211
 11
48.3837815027
 21
-45.0912927578
  0
LINE
  5
2A6
100
AcDbEntity
  8
ASSI
100
AcDbLine
 62
7
  6
CONTINUOUS
 10
-43.186546661
 20
7.7802670781
 11
-47.0756339575
 21
10.0257773414
  0
LINE
  5
2A7
100
AcDbEntity
  8
0
100
AcDbLine
 62
7
  6
CONTINUOUS
 10
-43.186546661
 20
7.7802670781
 11
-47.0756339575
 21
10.0257773414
  0
LINE
  5
2A8
100
AcDbEntity
  8
ASSI
100
AcDbLine
 62
7
  6
CONTINUOUS
 10
52.4142901555
 20
-47.2551481025
 11
52.5203561726
 21
-47.316377455
  0
LINE
  5
2A9
100
AcDbEntity
  8
0
100
AcDbLine
 62
7
  6
CONTINUOUS
 10
52.4142901555
 20
-47.2551481025
 11
52.5203561726
 21
-47.316377455
  0
LINE
  5
2AA
100
AcDbEntity
  8
ASSI
100
AcDbLine
 62
7
  6
CONTINUOUS
 10
52.4142901555
 20
-47.2551481025
 11
48.5252028589
 21
-45.0096378392
  0
LINE
  5
2AB
100
AcDbEntity
  8
0
100
AcDbLine
 62
7
  6
CONTINUOUS
 10
52.4142901555
 20
-47.2551481025
 11
48.5252028589
 21
-45.0096378392
  0
LINE
  5
2AC
100
AcDbEntity
  8
ASSI
100
AcDbLine
 62
7
  6
CONTINUOUS
 10
-46.9342126013
 20
10.1074322601
 11
-42.9390592876
 21
7.8006926443
  0
LINE
  5
2AD
100
AcDbEntity
  8
0
100
AcDbLine
 62
7
  6
CONTINUOUS
 10
-46.9342126013
 20
10.1074322601
 11
-42.9390592876
 21
7.8006926443
  0
LINE
  5
2AE
100
AcDbEntity
  8
ASSI
100
AcDbLine
 62
7
  6
CONTINUOUS
 10
52.6264221898
 20
-47.1326657245
 11
48.7373348933
 21
-44.8871554612
  0
LINE
  5
2AF
100
AcDbEntity
  8
0
100
AcDbLine
 62
7
  6
CONTINUOUS
 10
52.6264221898
 20
-47.1326657245
 11
48.7373348933
 21
-44.8871554612
  0
LINE
  5
2B0
100
AcDbEntity
  8
ASSI
100
AcDbLine
 62
7
  6
CONTINUOUS
 10
-42.8329932704
 20
7.9844043748
 11
-46.7220805669
 21
10.2299146381
  0
LINE
  5
2B1
100
AcDbEntity
  8
0
100
AcDbLine
 62
7
  6
CONTINUOUS
 10
-42.8329932704
 20
7.9844043748
 11
-46.7220805669
 21
10.2299146381
  0
LINE
  5
2B2
100
AcDbEntity
  8
ASSI
100
AcDbLine
 62
7
  6
CONTINUOUS
 10
52.767843546
 20
-47.0510108058
 11
52.8739095632
 21
-47.1122401583
  0
LINE
  5
2B3
100
AcDbEntity
  8
0
100
AcDbLine
 62
7
  6
CONTINUOUS
 10
52.767843546
 20
-47.0510108058
 11
52.8739095632
 21
-47.1122401583
  0
LINE
  5
2B4
100
AcDbEntity
  8
ASSI
100
AcDbLine
 62
7
  6
CONTINUOUS
 10
52.767843546
 20
-47.0510108058
 11
48.8787562495
 21
-44.8055005425
  0
LINE
  5
2B5
100
AcDbEntity
  8
0
100
AcDbLine
 62
7
  6
CONTINUOUS
 10
52.767843546
 20
-47.0510108058
 11
48.8787562495
 21
-44.8055005425
  0
LINE
  5
2B6
100
AcDbEntity
  8
ASSI
100
AcDbLine
 62
7
  6
CONTINUOUS
 10
-46.5806592107
 20
10.3115695568
 11
-42.585505897
 21
8.0048299409
  0
LINE
  5
2B7
100
AcDbEntity
  8
0
100
AcDbLine
 62
7
  6
CONTINUOUS
 10
-46.5806592107
 20
10.3115695568
 11
-42.585505897
 21
8.0048299409
  0
LINE
  5
2B8
100
AcDbEntity
  8
ASSI
100
AcDbLine
 62
7
  6
CONTINUOUS
 10
52.9799755804
 20
-46.9285284278
 11
49.0908882839
 21
-44.6830181645
  0
LINE
  5
2B9
100
AcDbEntity
  8
0
100
AcDbLine
 62
7
  6
CONTINUOUS
 10
52.9799755804
 20
-46.9285284278
 11
49.0908882839
 21
-44.6830181645
  0
LINE
  5
2BA
100
AcDbEntity
  8
ASSI
100
AcDbLine
 62
7
  6
CONTINUOUS
 10
-42.4794398798
 20
8.1885416714
 11
-46.3685271763
 21
10.4340519348
  0
LINE
  5
2BB
100
AcDbEntity
  8
0
100
AcDbLine
 62
7
  6
CONTINUOUS
 10
-42.4794398798
 20
8.1885416714
 11
-46.3685271763
 21
10.4340519348
  0
LINE
  5
2BC
100
AcDbEntity
  8
ASSI
100
AcDbLine
 62
7
  6
CONTINUOUS
 10
53.1213969366
 20
-46.8468735091
 11
53.2274629538
 21
-46.9081028617
  0
LINE
  5
2BD
100
AcDbEntity
  8
0
100
AcDbLine
 62
7
  6
CONTINUOUS
 10
53.1213969366
 20
-46.8468735091
 11
53.2274629538
 21
-46.9081028617
  0
LINE
  5
2BE
100
AcDbEntity
  8
ASSI
100
AcDbLine
 62
7
  6
CONTINUOUS
 10
53.1213969366
 20
-46.8468735091
 11
49.2323096401
 21
-44.6013632458
  0
LINE
  5
2BF
100
AcDbEntity
  8
0
100
AcDbLine
 62
7
  6
CONTINUOUS
 10
53.1213969366
 20
-46.8468735091
 11
49.2323096401
 21
-44.6013632458
  0
LINE
  5
2C0
100
AcDbEntity
  8
ASSI
100
AcDbLine
 62
7
  6
CONTINUOUS
 10
-46.2271058201
 20
10.5157068534
 11
-42.2319525064
 21
8.2089672376
  0
LINE
  5
2C1
100
AcDbEntity
  8
0
100
AcDbLine
 62
7
  6
CONTINUOUS
 10
-46.2271058201
 20
10.5157068534
 11
-42.2319525064
 21
8.2089672376
  0
LINE
  5
2C2
100
AcDbEntity
  8
ASSI
100
AcDbLine
 62
250
  6
CONTINUOUS
 10
-8.5907925115
 20
-9.3648511078
 11
-8.5907925115
 21
-9.7942489198
  0
LINE
  5
2C3
100
AcDbEntity
  8
0
100
AcDbLine
 62
250
  6
CONTINUOUS
 10
-8.5907925115
 20
-9.3648511078
 11
-8.5907925115
 21
-9.7942489198
  0
LINE
  5
2C4
100
AcDbEntity
  8
ASSI
100
AcDbLine
 62
7
  6
CONTINUOUS
 10
-8.5137359591
 20
-9.2503464375
 11
-8.5137359591
 21
-9.7484309776
  0
LINE
  5
2C5
100
AcDbEntity
  8
0
100
AcDbLine
 62
7
  6
CONTINUOUS
 10
-8.5137359591
 20
-9.2503464375
 11
-8.5137359591
 21
-9.7484309776
  0
LINE
  5
2C6
100
AcDbEntity
  8
ASSI
100
AcDbLine
 62
7
  6
CONTINUOUS
 10
-24.5006950882
 20
-0.178672758
 11
-27.5533310986
 21
-2.1037256326
  0
LINE
  5
2C7
100
AcDbEntity
  8
0
100
AcDbLine
 62
7
  6
CONTINUOUS
 10
-24.5006950882
 20
-0.178672758
 11
-27.5533310986
 21
-2.1037256326
  0
LINE
  5
2C8
100
AcDbEntity
  8
ASSI
100
AcDbLine
 62
7
  6
CONTINUOUS
 10
-27.297905003
 20
-2.2512054589
 11
-24.5006950882
 21
-0.6080705699
  0
LINE
  5
2C9
100
AcDbEntity
  8
0
100
AcDbLine
 62
7
  6
CONTINUOUS
 10
-27.297905003
 20
-2.2512054589
 11
-24.5006950882
 21
-0.6080705699
  0
LINE
  5
2CA
100
AcDbEntity
  8
ASSI
100
AcDbLine
 62
7
  6
CONTINUOUS
 10
-26.4363659647
 20
-1.920407471
 11
-27.1518284353
 21
-2.3355482383
  0
LINE
  5
2CB
100
AcDbEntity
  8
0
100
AcDbLine
 62
7
  6
CONTINUOUS
 10
-26.4363659647
 20
-1.920407471
 11
-27.1518284353
 21
-2.3355482383
  0
LINE
  5
2CC
100
AcDbEntity
  8
ASSI
100
AcDbLine
 62
250
  6
CONTINUOUS
 10
-26.3816763776
 20
-1.8424082047
 11
-27.1920615321
 21
-2.3123181525
  0
LINE
  5
2CD
100
AcDbEntity
  8
0
100
AcDbLine
 62
250
  6
CONTINUOUS
 10
-26.3816763776
 20
-1.8424082047
 11
-27.1920615321
 21
-2.3123181525
  0
LINE
  5
2CE
100
AcDbEntity
  8
ASSI
100
AcDbLine
 62
7
  6
CONTINUOUS
 10
53.333528971
 20
-46.7243911311
 11
49.4444416745
 21
-44.4788808678
  0
LINE
  5
2CF
100
AcDbEntity
  8
0
100
AcDbLine
 62
7
  6
CONTINUOUS
 10
53.333528971
 20
-46.7243911311
 11
49.4444416745
 21
-44.4788808678
  0
LINE
  5
2D0
100
AcDbEntity
  8
ASSI
100
AcDbLine
 62
7
  6
CONTINUOUS
 10
-42.1258864892
 20
8.3926789681
 11
-46.0149737857
 21
10.6381892314
  0
LINE
  5
2D1
100
AcDbEntity
  8
0
100
AcDbLine
 62
7
  6
CONTINUOUS
 10
-42.1258864892
 20
8.3926789681
 11
-46.0149737857
 21
10.6381892314
  0
LINE
  5
2D2
100
AcDbEntity
  8
ASSI
100
AcDbLine
 62
7
  6
CONTINUOUS
 10
53.4042396491
 20
-46.6019087531
 11
49.5858630307
 21
-44.3972259492
  0
LINE
  5
2D3
100
AcDbEntity
  8
0
100
AcDbLine
 62
7
  6
CONTINUOUS
 10
53.4042396491
 20
-46.6019087531
 11
49.5858630307
 21
-44.3972259492
  0
LINE
  5
2D4
100
AcDbEntity
  8
ASSI
100
AcDbLine
 62
7
  6
CONTINUOUS
 10
-45.8735524295
 20
10.7198441501
 11
-41.8783991158
 21
8.4131045343
  0
LINE
  5
2D5
100
AcDbEntity
  8
0
100
AcDbLine
 62
7
  6
CONTINUOUS
 10
-45.8735524295
 20
10.7198441501
 11
-41.8783991158
 21
8.4131045343
  0
LINE
  5
2D6
100
AcDbEntity
  8
ASSI
100
AcDbLine
 62
250
  6
CONTINUOUS
 10
53.4042396491
 20
-46.4793129772
 11
49.6194580333
 21
-44.2940275067
  0
LINE
  5
2D7
100
AcDbEntity
  8
0
100
AcDbLine
 62
250
  6
CONTINUOUS
 10
53.4042396491
 20
-46.4793129772
 11
49.6194580333
 21
-44.2940275067
  0
LINE
  5
2D8
100
AcDbEntity
  8
ASSI
100
AcDbLine
 62
250
  6
CONTINUOUS
 10
-41.5936201686
 20
8.3712606787
 11
-45.8399574269
 21
10.8230425926
  0
LINE
  5
2D9
100
AcDbEntity
  8
0
100
AcDbLine
 62
250
  6
CONTINUOUS
 10
-41.5936201686
 20
8.3712606787
 11
-45.8399574269
 21
10.8230425926
  0
LINE
  5
2DA
100
AcDbEntity
  8
ASSI
100
AcDbLine
 62
250
  6
CONTINUOUS
 10
53.4042396491
 20
-46.402115283
 11
49.6935051863
 21
-44.2595837106
  0
LINE
  5
2DB
100
AcDbEntity
  8
0
100
AcDbLine
 62
250
  6
CONTINUOUS
 10
53.4042396491
 20
-46.402115283
 11
49.6935051863
 21
-44.2595837106
  0
LINE
  5
2DC
100
AcDbEntity
  8
ASSI
100
AcDbLine
 62
250
  6
CONTINUOUS
 10
-41.5269478126
 20
8.4099625901
 11
-45.7659102739
 21
10.8574863886
  0
LINE
  5
2DD
100
AcDbEntity
  8
0
100
AcDbLine
 62
250
  6
CONTINUOUS
 10
-41.5269478126
 20
8.4099625901
 11
-45.7659102739
 21
10.8574863886
  0
LINE
  5
2DE
100
AcDbEntity
  8
ASSI
100
AcDbLine
 62
7
  6
CONTINUOUS
 10
-44.1803085407
 20
11.3753123418
 11
-40.3543071501
 21
9.1662270899
  0
LINE
  5
2DF
100
AcDbEntity
  8
0
100
AcDbLine
 62
7
  6
CONTINUOUS
 10
-44.1803085407
 20
11.3753123418
 11
-40.3543071501
 21
9.1662270899
  0
LINE
  5
2E0
100
AcDbEntity
  8
ASSI
100
AcDbLine
 62
7
  6
CONTINUOUS
 10
51.2791069195
 20
-43.7417577574
 11
53.4042396491
 21
-44.9687827614
  0
LINE
  5
2E1
100
AcDbEntity
  8
0
100
AcDbLine
 62
7
  6
CONTINUOUS
 10
51.2791069195
 20
-43.7417577574
 11
53.4042396491
 21
-44.9687827614
  0
LINE
  5
2E2
100
AcDbEntity
  8
ASSI
100
AcDbLine
 62
7
  6
CONTINUOUS
 10
-28.203304036
 20
2.1892858384
 11
-24.5115065015
 21
0.057688211
  0
LINE
  5
2E3
100
AcDbEntity
  8
0
100
AcDbLine
 62
7
  6
CONTINUOUS
 10
-28.203304036
 20
2.1892858384
 11
-24.5115065015
 21
0.057688211
  0
LINE
  5
2E4
100
AcDbEntity
  8
ASSI
100
AcDbLine
 62
7
  6
CONTINUOUS
 10
-12.2934014593
 20
-6.9968925115
 11
-8.6016039248
 21
-9.1284901388
  0
LINE
  5
2E5
100
AcDbEntity
  8
0
100
AcDbLine
 62
7
  6
CONTINUOUS
 10
-12.2934014593
 20
-6.9968925115
 11
-8.6016039248
 21
-9.1284901388
  0
LINE
  5
2E6
100
AcDbEntity
  8
ASSI
100
AcDbLine
 62
7
  6
CONTINUOUS
 10
3.6165011174
 20
-16.1830708614
 11
7.3082986519
 21
-18.3146684887
  0
LINE
  5
2E7
100
AcDbEntity
  8
0
100
AcDbLine
 62
7
  6
CONTINUOUS
 10
3.6165011174
 20
-16.1830708614
 11
7.3082986519
 21
-18.3146684887
  0
LINE
  5
2E8
100
AcDbEntity
  8
ASSI
100
AcDbLine
 62
7
  6
CONTINUOUS
 10
19.5264036941
 20
-25.3692492112
 11
23.2182012286
 21
-27.5008468386
  0
LINE
  5
2E9
100
AcDbEntity
  8
0
100
AcDbLine
 62
7
  6
CONTINUOUS
 10
19.5264036941
 20
-25.3692492112
 11
23.2182012286
 21
-27.5008468386
  0
LINE
  5
2EA
100
AcDbEntity
  8
ASSI
100
AcDbLine
 62
7
  6
CONTINUOUS
 10
35.4363062708
 20
-34.5554275611
 11
39.1281038053
 21
-36.6870251885
  0
LINE
  5
2EB
100
AcDbEntity
  8
0
100
AcDbLine
 62
7
  6
CONTINUOUS
 10
35.4363062708
 20
-34.5554275611
 11
39.1281038053
 21
-36.6870251885
  0
LINE
  5
2EC
100
AcDbEntity
  8
ASSI
100
AcDbLine
 62
250
  6
CONTINUOUS
 10
-10.4717738009
 20
-11.0285865546
 11
-10.1358288359
 21
-10.7018329648
  0
LINE
  5
2ED
100
AcDbEntity
  8
0
100
AcDbLine
 62
250
  6
CONTINUOUS
 10
-10.4717738009
 20
-11.0285865546
 11
-10.1358288359
 21
-10.7018329648
  0
LINE
  5
2EE
100
AcDbEntity
  8
ASSI
100
AcDbLine
 62
7
  6
CONTINUOUS
 10
-10.4678490546
 20
-11.0621218635
 11
-10.0388645626
 21
-10.6448742863
  0
LINE
  5
2EF
100
AcDbEntity
  8
0
100
AcDbLine
 62
7
  6
CONTINUOUS
 10
-10.4678490546
 20
-11.0621218635
 11
-10.0388645626
 21
-10.6448742863
  0
LINE
  5
2F0
100
AcDbEntity
  8
ASSI
100
AcDbLine
 62
7
  6
CONTINUOUS
 10
-16.0965684319
 20
-8.7187168093
 11
-12.7062726755
 21
-6.9886244402
  0
LINE
  5
2F1
100
AcDbEntity
  8
0
100
AcDbLine
 62
7
  6
CONTINUOUS
 10
-16.0965684319
 20
-8.7187168093
 11
-12.7062726755
 21
-6.9886244402
  0
LINE
  5
2F2
100
AcDbEntity
  8
ASSI
100
AcDbLine
 62
250
  6
CONTINUOUS
 10
7.3191100652
 20
-18.5510294577
 11
7.3191100652
 21
-18.9804272697
  0
LINE
  5
2F3
100
AcDbEntity
  8
0
100
AcDbLine
 62
250
  6
CONTINUOUS
 10
7.3191100652
 20
-18.5510294577
 11
7.3191100652
 21
-18.9804272697
  0
LINE
  5
2F4
100
AcDbEntity
  8
ASSI
100
AcDbLine
 62
7
  6
CONTINUOUS
 10
7.3961666176
 20
-18.4365247874
 11
7.3961666176
 21
-18.9346093275
  0
LINE
  5
2F5
100
AcDbEntity
  8
0
100
AcDbLine
 62
7
  6
CONTINUOUS
 10
7.3961666176
 20
-18.4365247874
 11
7.3961666176
 21
-18.9346093275
  0
LINE
  5
2F6
100
AcDbEntity
  8
ASSI
100
AcDbLine
 62
7
  6
CONTINUOUS
 10
-8.5907925115
 20
-9.3648511078
 11
-11.6434285219
 21
-11.2899039824
  0
LINE
  5
2F7
100
AcDbEntity
  8
0
100
AcDbLine
 62
7
  6
CONTINUOUS
 10
-8.5907925115
 20
-9.3648511078
 11
-11.6434285219
 21
-11.2899039824
  0
LINE
  5
2F8
100
AcDbEntity
  8
ASSI
100
AcDbLine
 62
7
  6
CONTINUOUS
 10
-11.3880024264
 20
-11.4373838087
 11
-8.5907925115
 21
-9.7942489198
  0
LINE
  5
2F9
100
AcDbEntity
  8
0
100
AcDbLine
 62
7
  6
CONTINUOUS
 10
-11.3880024264
 20
-11.4373838087
 11
-8.5907925115
 21
-9.7942489198
  0
LINE
  5
2FA
100
AcDbEntity
  8
ASSI
100
AcDbLine
 62
7
  6
CONTINUOUS
 10
-10.526463388
 20
-11.1065858209
 11
-11.2419258586
 21
-11.5217265882
  0
LINE
  5
2FB
100
AcDbEntity
  8
0
100
AcDbLine
 62
7
  6
CONTINUOUS
 10
-10.526463388
 20
-11.1065858209
 11
-11.2419258586
 21
-11.5217265882
  0
LINE
  5
2FC
100
AcDbEntity
  8
ASSI
100
AcDbLine
 62
250
  6
CONTINUOUS
 10
-10.4717738009
 20
-11.0285865546
 11
-11.2821589554
 21
-11.4984965023
  0
LINE
  5
2FD
100
AcDbEntity
  8
0
100
AcDbLine
 62
250
  6
CONTINUOUS
 10
-10.4717738009
 20
-11.0285865546
 11
-11.2821589554
 21
-11.4984965023
  0
LINE
  5
2FE
100
AcDbEntity
  8
0
100
AcDbLine
 62
250
  6
CONTINUOUS
 10
-58.8136065252
 20
13.659133201
 11
-58.106499744
 21
13.659133201
  0
LINE
  5
2FF
100
AcDbEntity
  8
0
100
AcDbLine
 62
7
  6
CONTINUOUS
 10
-57.6115249972
 20
49.2979937097
 11
52.2021581211
 21
-14.1070506341
  0
LINE
  5
300
100
AcDbEntity
  8
ASSI
100
AcDbLine
 62
250
  6
CONTINUOUS
 10
23.2290126419
 20
-27.7372078076
 11
23.2290126419
 21
-28.1666056195
  0
LINE
  5
301
100
AcDbEntity
  8
0
100
AcDbLine
 62
250
  6
CONTINUOUS
 10
23.2290126419
 20
-27.7372078076
 11
23.2290126419
 21
-28.1666056195
  0
LINE
  5
302
100
AcDbEntity
  8
ASSI
100
AcDbLine
 62
250
  6
CONTINUOUS
 10
5.4381287758
 20
-20.2147649045
 11
5.7740737408
 21
-19.8880113147
  0
LINE
  5
303
100
AcDbEntity
  8
0
100
AcDbLine
 62
250
  6
CONTINUOUS
 10
5.4381287758
 20
-20.2147649045
 11
5.7740737408
 21
-19.8880113147
  0
LINE
  5
304
100
AcDbEntity
  8
ASSI
100
AcDbLine
 62
7
  6
CONTINUOUS
 10
5.4420535221
 20
-20.2483002133
 11
5.8710380141
 21
-19.8310526361
  0
LINE
  5
305
100
AcDbEntity
  8
0
100
AcDbLine
 62
7
  6
CONTINUOUS
 10
5.4420535221
 20
-20.2483002133
 11
5.8710380141
 21
-19.8310526361
  0
LINE
  5
306
100
AcDbEntity
  8
ASSI
100
AcDbLine
 62
7
  6
CONTINUOUS
 10
7.3191100652
 20
-18.5510294577
 11
4.2664740548
 21
-20.4760823323
  0
LINE
  5
307
100
AcDbEntity
  8
0
100
AcDbLine
 62
7
  6
CONTINUOUS
 10
7.3191100652
 20
-18.5510294577
 11
4.2664740548
 21
-20.4760823323
  0
LINE
  5
308
100
AcDbEntity
  8
ASSI
100
AcDbLine
 62
7
  6
CONTINUOUS
 10
4.5219001503
 20
-20.6235621586
 11
7.3191100652
 21
-18.9804272697
  0
LINE
  5
309
100
AcDbEntity
  8
0
100
AcDbLine
 62
7
  6
CONTINUOUS
 10
4.5219001503
 20
-20.6235621586
 11
7.3191100652
 21
-18.9804272697
  0
LINE
  5
30A
100
AcDbEntity
  8
ASSI
100
AcDbLine
 62
7
  6
CONTINUOUS
 10
5.3834391887
 20
-20.2927641707
 11
4.6679767181
 21
-20.707904938
  0
LINE
  5
30B
100
AcDbEntity
  8
0
100
AcDbLine
 62
7
  6
CONTINUOUS
 10
5.3834391887
 20
-20.2927641707
 11
4.6679767181
 21
-20.707904938
  0
LINE
  5
30C
100
AcDbEntity
  8
ASSI
100
AcDbLine
 62
250
  6
CONTINUOUS
 10
5.4381287758
 20
-20.2147649045
 11
4.6277436213
 21
-20.6846748522
  0
LINE
  5
30D
100
AcDbEntity
  8
0
100
AcDbLine
 62
250
  6
CONTINUOUS
 10
5.4381287758
 20
-20.2147649045
 11
4.6277436213
 21
-20.6846748522
  0
LINE
  5
30E
100
AcDbEntity
  8
ASSI
100
AcDbLine
 62
7
  6
CONTINUOUS
 10
-0.1866658552
 20
-17.9048951592
 11
3.2036299011
 21
-16.1748027901
  0
LINE
  5
30F
100
AcDbEntity
  8
0
100
AcDbLine
 62
7
  6
CONTINUOUS
 10
-0.1866658552
 20
-17.9048951592
 11
3.2036299011
 21
-16.1748027901
  0
LINE
  5
310
100
AcDbEntity
  8
ASSI
100
AcDbLine
 62
250
  6
CONTINUOUS
 10
76.0572988341
 20
-4.8147379732
 11
76.9073399671
 21
-5.0606119216
  0
LINE
  5
311
100
AcDbEntity
  8
0
100
AcDbLine
 62
250
  6
CONTINUOUS
 10
76.0572988341
 20
-4.8147379732
 11
76.9073399671
 21
-5.0606119216
  0
LINE
  5
312
100
AcDbEntity
  8
ASSI
100
AcDbLine
 62
7
  6
CONTINUOUS
 10
23.3060691943
 20
-27.6227031373
 11
23.3060691943
 21
-28.1207876774
  0
LINE
  5
313
100
AcDbEntity
  8
0
100
AcDbLine
 62
7
  6
CONTINUOUS
 10
23.3060691943
 20
-27.6227031373
 11
23.3060691943
 21
-28.1207876774
  0
LINE
  5
314
100
AcDbEntity
  8
SMUSSO
100
AcDbLine
 62
7
  6
CONTINUOUS
 10
71.5415285865
 20
-8.2091319767
 11
-76.9508954626
 21
77.5285326221
  0
LINE
  5
315
100
AcDbEntity
  8
SMUSSO
100
AcDbLine
 62
7
  6
CONTINUOUS
 10
72.2486353677
 20
-7.8008968383
 11
72.9557421489
 21
-8.2091319767
  0
LINE
  5
316
100
AcDbEntity
  8
SMUSSO
100
AcDbLine
 62
7
  6
CONTINUOUS
 10
72.2486353677
 20
-6.9843871066
 11
-76.2437886814
 21
78.7532774923
  0
LINE
  5
317
100
AcDbEntity
  8
ASSI
100
AcDbLine
 62
250
  6
CONTINUOUS
 10
21.3480313525
 20
-29.4009432544
 11
21.6839763175
 21
-29.0741896646
  0
LINE
  5
318
100
AcDbEntity
  8
0
100
AcDbLine
 62
250
  6
CONTINUOUS
 10
21.3480313525
 20
-29.4009432544
 11
21.6839763175
 21
-29.0741896646
  0
LINE
  5
319
100
AcDbEntity
  8
ASSI
100
AcDbLine
 62
7
  6
CONTINUOUS
 10
21.3519560988
 20
-29.4344785632
 11
21.7809405908
 21
-29.017230986
  0
LINE
  5
31A
100
AcDbEntity
  8
0
100
AcDbLine
 62
7
  6
CONTINUOUS
 10
21.3519560988
 20
-29.4344785632
 11
21.7809405908
 21
-29.017230986
  0
LINE
  5
31B
100
AcDbEntity
  8
ASSI
100
AcDbLine
 62
7
  6
CONTINUOUS
 10
23.2290126419
 20
-27.7372078076
 11
20.1763766315
 21
-29.6622606822
  0
LINE
  5
31C
100
AcDbEntity
  8
0
100
AcDbLine
 62
7
  6
CONTINUOUS
 10
23.2290126419
 20
-27.7372078076
 11
20.1763766315
 21
-29.6622606822
  0
LINE
  5
31D
100
AcDbEntity
  8
ASSI
100
AcDbLine
 62
7
  6
CONTINUOUS
 10
20.431802727
 20
-29.8097405085
 11
23.2290126419
 21
-28.1666056195
  0
LINE
  5
31E
100
AcDbEntity
  8
0
100
AcDbLine
 62
7
  6
CONTINUOUS
 10
20.431802727
 20
-29.8097405085
 11
23.2290126419
 21
-28.1666056195
  0
LINE
  5
31F
100
AcDbEntity
  8
ASSI
100
AcDbLine
 62
7
  6
CONTINUOUS
 10
21.2933417654
 20
-29.4789425206
 11
20.5778792948
 21
-29.8940832879
  0
LINE
  5
320
100
AcDbEntity
  8
0
100
AcDbLine
 62
7
  6
CONTINUOUS
 10
21.2933417654
 20
-29.4789425206
 11
20.5778792948
 21
-29.8940832879
  0
LINE
  5
321
100
AcDbEntity
  8
ASSI
100
AcDbLine
 62
250
  6
CONTINUOUS
 10
21.3480313525
 20
-29.4009432544
 11
20.537646198
 21
-29.8708532021
  0
LINE
  5
322
100
AcDbEntity
  8
0
100
AcDbLine
 62
250
  6
CONTINUOUS
 10
21.3480313525
 20
-29.4009432544
 11
20.537646198
 21
-29.8708532021
  0
LINE
  5
323
100
AcDbEntity
  8
ASSI
100
AcDbLine
 62
7
  6
CONTINUOUS
 10
15.7232367215
 20
-27.0910735091
 11
19.1135324778
 21
-25.3609811399
  0
LINE
  5
324
100
AcDbEntity
  8
0
100
AcDbLine
 62
7
  6
CONTINUOUS
 10
15.7232367215
 20
-27.0910735091
 11
19.1135324778
 21
-25.3609811399
  0
LINE
  5
325
100
AcDbEntity
  8
SMUSSO
100
AcDbLine
 62
7
  6
CONTINUOUS
 10
-74.4760217285
 20
79.7739639756
 11
74.7235091019
 21
-6.3719357616
  0
LINE
  5
326
100
AcDbEntity
  8
ASSI
100
AcDbLine
 62
7
  6
CONTINUOUS
 10
-71.4709256042
 20
80.366079555
 11
76.0317643429
 21
-4.8001249775
  0
LINE
  5
327
100
AcDbEntity
  8
0
100
AcDbLine
 62
7
  6
CONTINUOUS
 10
-71.4709256042
 20
80.366079555
 11
76.0317643429
 21
-4.8001249775
  0
LINE
  5
328
100
AcDbEntity
  8
ASSI
100
AcDbLine
 62
7
  6
CONTINUOUS
 10
-70.2251808849
 20
79.8918616148
 11
76.9073399671
 21
-5.0606119216
  0
LINE
  5
329
100
AcDbEntity
  8
0
100
AcDbLine
 62
7
  6
CONTINUOUS
 10
-70.2251808849
 20
79.8918616148
 11
76.9073399671
 21
-5.0606119216
  0
LINE
  5
32A
100
AcDbEntity
  8
ASSI
100
AcDbLine
 62
250
  6
CONTINUOUS
 10
39.1389152186
 20
-36.9233861575
 11
39.1389152186
 21
-37.3527839694
  0
LINE
  5
32B
100
AcDbEntity
  8
0
100
AcDbLine
 62
250
  6
CONTINUOUS
 10
39.1389152186
 20
-36.9233861575
 11
39.1389152186
 21
-37.3527839694
  0
LINE
  5
32C
100
AcDbEntity
  8
ASSI
100
AcDbLine
 62
7
  6
CONTINUOUS
 10
39.215971771
 20
-36.8088814871
 11
39.215971771
 21
-37.3069660272
  0
LINE
  5
32D
100
AcDbEntity
  8
0
100
AcDbLine
 62
7
  6
CONTINUOUS
 10
39.215971771
 20
-36.8088814871
 11
39.215971771
 21
-37.3069660272
  0
LINE
  5
32E
100
AcDbEntity
  8
SMUSSO
100
AcDbLine
 62
7
  6
CONTINUOUS
 10
72.2486353677
 20
-6.9843871066
 11
74.0164023207
 21
-5.9637006232
  0
LINE
  5
32F
100
AcDbEntity
  8
ASSI
100
AcDbLine
 62
250
  6
CONTINUOUS
 10
74.0169482023
 20
-5.9634585599
 11
76.0317643429
 21
-4.8001249775
  0
LINE
  5
330
100
AcDbEntity
  8
0
100
AcDbLine
 62
250
  6
CONTINUOUS
 10
74.0169482023
 20
-5.9634585599
 11
76.0317643429
 21
-4.8001249775
  0
LINE
  5
331
100
AcDbEntity
  8
SMUSSO
100
AcDbLine
 62
7
  6
CONTINUOUS
 10
72.2486353677
 20
-7.8008968383
 11
71.5415285865
 21
-8.2091319767
  0
LINE
  5
332
100
AcDbEntity
  8
ASSI
100
AcDbLine
 62
250
  6
CONTINUOUS
 10
74.7239472877
 20
-7.1880168955
 11
76.7387634283
 21
-6.0246833131
  0
LINE
  5
333
100
AcDbEntity
  8
0
100
AcDbLine
 62
250
  6
CONTINUOUS
 10
74.7239472877
 20
-7.1880168955
 11
76.7387634283
 21
-6.0246833131
  0
LINE
  5
334
100
AcDbEntity
  8
SMUSSO
100
AcDbLine
 62
7
  6
CONTINUOUS
 10
72.9557421489
 20
-8.2091319767
 11
74.7235091019
 21
-7.1884454934
  0
LINE
  5
335
100
AcDbEntity
  8
ASSI
100
AcDbLine
 62
7
  6
CONTINUOUS
 10
39.1389152186
 20
-36.9233861575
 11
36.0862792082
 21
-38.848439032
  0
LINE
  5
336
100
AcDbEntity
  8
0
100
AcDbLine
 62
7
  6
CONTINUOUS
 10
39.1389152186
 20
-36.9233861575
 11
36.0862792082
 21
-38.848439032
  0
LINE
  5
337
100
AcDbEntity
  8
ASSI
100
AcDbLine
 62
7
  6
CONTINUOUS
 10
36.3417053037
 20
-38.9959188584
 11
39.1389152186
 21
-37.3527839694
  0
LINE
  5
338
100
AcDbEntity
  8
0
100
AcDbLine
 62
7
  6
CONTINUOUS
 10
36.3417053037
 20
-38.9959188584
 11
39.1389152186
 21
-37.3527839694
  0
LINE
  5
339
100
AcDbEntity
  8
ASSI
100
AcDbLine
 62
7
  6
CONTINUOUS
 10
37.2032443421
 20
-38.6651208705
 11
36.4877818715
 21
-39.0802616378
  0
LINE
  5
33A
100
AcDbEntity
  8
0
100
AcDbLine
 62
7
  6
CONTINUOUS
 10
37.2032443421
 20
-38.6651208705
 11
36.4877818715
 21
-39.0802616378
  0
LINE
  5
33B
100
AcDbEntity
  8
ASSI
100
AcDbLine
 62
250
  6
CONTINUOUS
 10
37.2579339292
 20
-38.5871216042
 11
36.4475487747
 21
-39.057031552
  0
LINE
  5
33C
100
AcDbEntity
  8
0
100
AcDbLine
 62
250
  6
CONTINUOUS
 10
37.2579339292
 20
-38.5871216042
 11
36.4475487747
 21
-39.057031552
  0
LINE
  5
33D
100
AcDbEntity
  8
ASSI
100
AcDbLine
 62
7
  6
CONTINUOUS
 10
31.6331392982
 20
-36.2772518589
 11
35.0234350545
 21
-34.5471594898
  0
LINE
  5
33E
100
AcDbEntity
  8
0
100
AcDbLine
 62
7
  6
CONTINUOUS
 10
31.6331392982
 20
-36.2772518589
 11
35.0234350545
 21
-34.5471594898
  0
LINE
  5
33F
100
AcDbEntity
  8
0
100
AcDbLine
 62
250
  6
CONTINUOUS
 10
-58.8136065252
 20
48.6040610478
 11
-58.106499744
 21
48.6040610478
  0
LINE
  5
340
100
AcDbEntity
  8
ASSI
100
AcDbLine
 62
250
  6
CONTINUOUS
 10
-71.4953321769
 20
80.3803019037
 11
-70.2251808849
 21
79.8918616148
  0
LINE
  5
341
100
AcDbEntity
  8
0
100
AcDbLine
 62
250
  6
CONTINUOUS
 10
-71.4953321769
 20
80.3803019037
 11
-70.2251808849
 21
79.8918616148
  0
LINE
  5
342
100
AcDbEntity
  8
ASSI
100
AcDbLine
 62
7
  6
CONTINUOUS
 10
-70.2322066582
 20
79.8952727357
 11
-71.5993323023
 21
80.4313505685
  0
LINE
  5
343
100
AcDbEntity
  8
0
100
AcDbLine
 62
7
  6
CONTINUOUS
 10
-70.2322066582
 20
79.8952727357
 11
-71.5993323023
 21
80.4313505685
  0
LINE
  5
344
100
AcDbEntity
  8
0
100
AcDbLine
 62
7
  6
CONTINUOUS
 10
53.4042396491
 20
-16.1891169133
 11
53.4042396491
 21
-51.1340447601
  0
LINE
  5
345
100
AcDbEntity
  8
ASSI
100
AcDbLine
 62
250
  6
CONTINUOUS
 10
37.2579339292
 20
-38.5871216042
 11
37.5938788942
 21
-38.2603680145
  0
LINE
  5
346
100
AcDbEntity
  8
0
100
AcDbLine
 62
250
  6
CONTINUOUS
 10
37.2579339292
 20
-38.5871216042
 11
37.5938788942
 21
-38.2603680145
  0
LINE
  5
347
100
AcDbEntity
  8
ASSI
100
AcDbLine
 62
7
  6
CONTINUOUS
 10
37.2618586755
 20
-38.6206569131
 11
37.6908431675
 21
-38.2034093359
  0
LINE
  5
348
100
AcDbEntity
  8
0
100
AcDbLine
 62
7
  6
CONTINUOUS
 10
37.2618586755
 20
-38.6206569131
 11
37.6908431675
 21
-38.2034093359
  0
LINE
  5
349
100
AcDbEntity
  8
ASSI
100
AcDbLine
 62
7
  6
CONTINUOUS
 10
49.6935051863
 20
-44.2595837106
 11
51.003859442
 21
-43.7221213839
  0
LINE
  5
34A
100
AcDbEntity
  8
0
100
AcDbLine
 62
7
  6
CONTINUOUS
 10
49.6935051863
 20
-44.2595837106
 11
51.003859442
 21
-43.7221213839
  0
LINE
  5
34B
100
AcDbEntity
  8
ASSI
100
AcDbLine
 62
7
  6
CONTINUOUS
 10
47.6589124851
 20
-45.530332447
 11
47.6766747215
 21
-45.4995673511
  0
LINE
  5
34C
100
AcDbEntity
  8
0
100
AcDbLine
 62
7
  6
CONTINUOUS
 10
47.6589124851
 20
-45.530332447
 11
47.6766747215
 21
-45.4995673511
  0
LINE
  5
34D
100
AcDbEntity
  8
ASSI
100
AcDbLine
 62
7
  6
CONTINUOUS
 10
47.9241620949
 20
-45.479141785
 11
48.0302281121
 21
-45.2954300545
  0
LINE
  5
34E
100
AcDbEntity
  8
0
100
AcDbLine
 62
7
  6
CONTINUOUS
 10
47.9241620949
 20
-45.479141785
 11
48.0302281121
 21
-45.2954300545
  0
LINE
  5
34F
100
AcDbEntity
  8
ASSI
100
AcDbLine
 62
7
  6
CONTINUOUS
 10
48.2777154855
 20
-45.2750044883
 11
48.3837815027
 21
-45.0912927578
  0
LINE
  5
350
100
AcDbEntity
  8
0
100
AcDbLine
 62
7
  6
CONTINUOUS
 10
48.2777154855
 20
-45.2750044883
 11
48.3837815027
 21
-45.0912927578
  0
LINE
  5
351
100
AcDbEntity
  8
ASSI
100
AcDbLine
 62
7
  6
CONTINUOUS
 10
48.6312688761
 20
-45.0708671917
 11
48.7373348933
 21
-44.8871554612
  0
LINE
  5
352
100
AcDbEntity
  8
0
100
AcDbLine
 62
7
  6
CONTINUOUS
 10
48.6312688761
 20
-45.0708671917
 11
48.7373348933
 21
-44.8871554612
  0
LINE
  5
353
100
AcDbEntity
  8
ASSI
100
AcDbLine
 62
7
  6
CONTINUOUS
 10
48.9848222667
 20
-44.866729895
 11
49.0908882839
 21
-44.6830181645
  0
LINE
  5
354
100
AcDbEntity
  8
0
100
AcDbLine
 62
7
  6
CONTINUOUS
 10
48.9848222667
 20
-44.866729895
 11
49.0908882839
 21
-44.6830181645
  0
LINE
  5
355
100
AcDbEntity
  8
ASSI
100
AcDbLine
 62
7
  6
CONTINUOUS
 10
49.3383756573
 20
-44.6625925983
 11
49.4444416745
 21
-44.4788808678
  0
LINE
  5
356
100
AcDbEntity
  8
0
100
AcDbLine
 62
7
  6
CONTINUOUS
 10
49.3383756573
 20
-44.6625925983
 11
49.4444416745
 21
-44.4788808678
  0
LINE
  5
357
100
AcDbEntity
  8
ASSI
100
AcDbLine
 62
7
  6
CONTINUOUS
 10
47.6766747215
 20
-45.4995673511
 11
47.8180960777
 21
-45.4179124325
  0
LINE
  5
358
100
AcDbEntity
  8
0
100
AcDbLine
 62
7
  6
CONTINUOUS
 10
47.6766747215
 20
-45.4995673511
 11
47.8180960777
 21
-45.4179124325
  0
LINE
  5
359
100
AcDbEntity
  8
ASSI
100
AcDbLine
 62
7
  6
CONTINUOUS
 10
48.0302281121
 20
-45.2954300545
 11
48.1716494683
 21
-45.2137751358
  0
LINE
  5
35A
100
AcDbEntity
  8
0
100
AcDbLine
 62
7
  6
CONTINUOUS
 10
48.0302281121
 20
-45.2954300545
 11
48.1716494683
 21
-45.2137751358
  0
LINE
  5
35B
100
AcDbEntity
  8
ASSI
100
AcDbLine
 62
7
  6
CONTINUOUS
 10
48.3837815027
 20
-45.0912927578
 11
48.5252028589
 21
-45.0096378392
  0
LINE
  5
35C
100
AcDbEntity
  8
0
100
AcDbLine
 62
7
  6
CONTINUOUS
 10
48.3837815027
 20
-45.0912927578
 11
48.5252028589
 21
-45.0096378392
  0
LINE
  5
35D
100
AcDbEntity
  8
ASSI
100
AcDbLine
 62
7
  6
CONTINUOUS
 10
48.7373348933
 20
-44.8871554612
 11
48.8787562495
 21
-44.8055005425
  0
LINE
  5
35E
100
AcDbEntity
  8
0
100
AcDbLine
 62
7
  6
CONTINUOUS
 10
48.7373348933
 20
-44.8871554612
 11
48.8787562495
 21
-44.8055005425
  0
LINE
  5
35F
100
AcDbEntity
  8
ASSI
100
AcDbLine
 62
7
  6
CONTINUOUS
 10
49.0908882839
 20
-44.6830181645
 11
49.2323096401
 21
-44.6013632458
  0
LINE
  5
360
100
AcDbEntity
  8
0
100
AcDbLine
 62
7
  6
CONTINUOUS
 10
49.0908882839
 20
-44.6830181645
 11
49.2323096401
 21
-44.6013632458
  0
LINE
  5
361
100
AcDbEntity
  8
ASSI
100
AcDbLine
 62
7
  6
CONTINUOUS
 10
49.4444416745
 20
-44.4788808678
 11
49.5858630307
 21
-44.3972259492
  0
LINE
  5
362
100
AcDbEntity
  8
0
100
AcDbLine
 62
7
  6
CONTINUOUS
 10
49.4444416745
 20
-44.4788808678
 11
49.5858630307
 21
-44.3972259492
  0
LINE
  5
363
100
AcDbEntity
  8
ASSI
100
AcDbLine
 62
7
  6
CONTINUOUS
 10
51.565762018
 20
-47.7450776145
 11
51.7071833743
 21
-47.6634226958
  0
LINE
  5
364
100
AcDbEntity
  8
0
100
AcDbLine
 62
7
  6
CONTINUOUS
 10
51.565762018
 20
-47.7450776145
 11
51.7071833743
 21
-47.6634226958
  0
LINE
  5
365
100
AcDbEntity
  8
ASSI
100
AcDbLine
 62
7
  6
CONTINUOUS
 10
51.9193154086
 20
-47.5409403178
 11
52.0607367649
 21
-47.4592853991
  0
LINE
  5
366
100
AcDbEntity
  8
0
100
AcDbLine
 62
7
  6
CONTINUOUS
 10
51.9193154086
 20
-47.5409403178
 11
52.0607367649
 21
-47.4592853991
  0
LINE
  5
367
100
AcDbEntity
  8
ASSI
100
AcDbLine
 62
7
  6
CONTINUOUS
 10
52.2728687992
 20
-47.3368030211
 11
52.4142901555
 21
-47.2551481025
  0
LINE
  5
368
100
AcDbEntity
  8
0
100
AcDbLine
 62
7
  6
CONTINUOUS
 10
52.2728687992
 20
-47.3368030211
 11
52.4142901555
 21
-47.2551481025
  0
LINE
  5
369
100
AcDbEntity
  8
ASSI
100
AcDbLine
 62
7
  6
CONTINUOUS
 10
52.6264221898
 20
-47.1326657245
 11
52.767843546
 21
-47.0510108058
  0
LINE
  5
36A
100
AcDbEntity
  8
0
100
AcDbLine
 62
7
  6
CONTINUOUS
 10
52.6264221898
 20
-47.1326657245
 11
52.767843546
 21
-47.0510108058
  0
LINE
  5
36B
100
AcDbEntity
  8
ASSI
100
AcDbLine
 62
7
  6
CONTINUOUS
 10
52.9799755804
 20
-46.9285284278
 11
53.1213969366
 21
-46.8468735091
  0
LINE
  5
36C
100
AcDbEntity
  8
0
100
AcDbLine
 62
7
  6
CONTINUOUS
 10
52.9799755804
 20
-46.9285284278
 11
53.1213969366
 21
-46.8468735091
  0
LINE
  5
36D
100
AcDbEntity
  8
ASSI
100
AcDbLine
 62
7
  6
CONTINUOUS
 10
53.333528971
 20
-46.7243911311
 11
53.4042396491
 21
-46.6835636718
  0
LINE
  5
36E
100
AcDbEntity
  8
0
100
AcDbLine
 62
7
  6
CONTINUOUS
 10
53.333528971
 20
-46.7243911311
 11
53.4042396491
 21
-46.6835636718
  0
LINE
  5
36F
100
AcDbEntity
  8
ASSI
100
AcDbLine
 62
7
  6
CONTINUOUS
 10
53.4042396491
 20
-46.8060342133
 11
51.6362950289
 21
-47.8268232795
  0
LINE
  5
370
100
AcDbEntity
  8
0
100
AcDbLine
 62
7
  6
CONTINUOUS
 10
53.4042396491
 20
-46.8060342133
 11
51.6362950289
 21
-47.8268232795
  0
LINE
  5
371
100
AcDbEntity
  8
ASSI
100
AcDbLine
 62
7
  6
CONTINUOUS
 10
47.4611009324
 20
-45.4161185356
 11
49.6194580333
 21
-44.2940275067
  0
LINE
  5
372
100
AcDbEntity
  8
0
100
AcDbLine
 62
7
  6
CONTINUOUS
 10
47.4611009324
 20
-45.4161185356
 11
49.6194580333
 21
-44.2940275067
  0
LINE
  5
373
100
AcDbEntity
  8
SMUSSO
100
AcDbLine
 62
7
  6
CONTINUOUS
 10
71.5415285865
 20
-80.0585163344
 11
71.5415285865
 21
-8.2091319767
  0
LINE
  5
374
100
AcDbEntity
  8
SMUSSO
100
AcDbLine
 62
7
  6
CONTINUOUS
 10
72.2486353677
 20
-6.9843871066
 11
72.2486353677
 21
-7.8008968383
  0
LINE
  5
375
100
AcDbEntity
  8
SMUSSO
100
AcDbLine
 62
7
  6
CONTINUOUS
 10
72.9557421489
 20
-80.0585163344
 11
72.9557421489
 21
-8.2091319767
  0
LINE
  5
376
100
AcDbEntity
  8
SMUSSO
100
AcDbLine
 62
7
  6
CONTINUOUS
 10
74.7235091019
 20
-6.3719357616
 11
74.7235091019
 21
-79.0378298511
  0
LINE
  5
377
100
AcDbEntity
  8
0
100
AcDbLine
 62
250
  6
CONTINUOUS
 10
75.0842061403
 20
-71.8917309358
 11
75.0842061403
 21
-71.5679416852
  0
LINE
  5
378
100
AcDbEntity
  8
0
100
AcDbLine
 62
250
  6
CONTINUOUS
 10
75.0842853434
 20
-68.9698197746
 11
75.0842853434
 21
-69.2830471657
  0
LINE
  5
379
100
AcDbEntity
  8
0
100
AcDbLine
 62
250
  6
CONTINUOUS
 10
75.0842853434
 20
-69.9654873148
 11
75.0842853434
 21
-70.2858457573
  0
LINE
  5
37A
100
AcDbEntity
  8
0
100
AcDbLine
 62
250
  6
CONTINUOUS
 10
75.0842853434
 20
-70.930004881
 11
75.0842853434
 21
-71.2535263294
  0
LINE
  5
37B
100
AcDbEntity
  8
0
100
AcDbLine
 62
250
  6
CONTINUOUS
 10
75.0842853434
 20
-72.0118426942
 11
75.0842853434
 21
-72.3354106814
  0
LINE
  5
37C
100
AcDbEntity
  8
0
100
AcDbLine
 62
250
  6
CONTINUOUS
 10
75.0842853434
 20
-72.9358045488
 11
75.0842853434
 21
-73.2875399441
  0
LINE
  5
37D
100
AcDbEntity
  8
ASSI
100
AcDbLine
 62
7
  6
CONTINUOUS
 10
51.5479997817
 20
-47.7758427103
 11
51.565762018
 21
-47.7450776145
  0
LINE
  5
37E
100
AcDbEntity
  8
0
100
AcDbLine
 62
7
  6
CONTINUOUS
 10
51.5479997817
 20
-47.7758427103
 11
51.565762018
 21
-47.7450776145
  0
LINE
  5
37F
100
AcDbEntity
  8
ASSI
100
AcDbLine
 62
7
  6
CONTINUOUS
 10
51.8132493914
 20
-47.7246520483
 11
51.9193154086
 21
-47.5409403178
  0
LINE
  5
380
100
AcDbEntity
  8
0
100
AcDbLine
 62
7
  6
CONTINUOUS
 10
51.8132493914
 20
-47.7246520483
 11
51.9193154086
 21
-47.5409403178
  0
LINE
  5
381
100
AcDbEntity
  8
ASSI
100
AcDbLine
 62
7
  6
CONTINUOUS
 10
52.166802782
 20
-47.5205147516
 11
52.2728687992
 21
-47.3368030211
  0
LINE
  5
382
100
AcDbEntity
  8
0
100
AcDbLine
 62
7
  6
CONTINUOUS
 10
52.166802782
 20
-47.5205147516
 11
52.2728687992
 21
-47.3368030211
  0
LINE
  5
383
100
AcDbEntity
  8
ASSI
100
AcDbLine
 62
7
  6
CONTINUOUS
 10
52.5203561726
 20
-47.316377455
 11
52.6264221898
 21
-47.1326657245
  0
LINE
  5
384
100
AcDbEntity
  8
0
100
AcDbLine
 62
7
  6
CONTINUOUS
 10
52.5203561726
 20
-47.316377455
 11
52.6264221898
 21
-47.1326657245
  0
LINE
  5
385
100
AcDbEntity
  8
ASSI
100
AcDbLine
 62
7
  6
CONTINUOUS
 10
52.8739095632
 20
-47.1122401583
 11
52.9799755804
 21
-46.9285284278
  0
LINE
  5
386
100
AcDbEntity
  8
0
100
AcDbLine
 62
7
  6
CONTINUOUS
 10
52.8739095632
 20
-47.1122401583
 11
52.9799755804
 21
-46.9285284278
  0
LINE
  5
387
100
AcDbEntity
  8
ASSI
100
AcDbLine
 62
7
  6
CONTINUOUS
 10
53.2274629538
 20
-46.9081028617
 11
53.333528971
 21
-46.7243911311
  0
LINE
  5
388
100
AcDbEntity
  8
0
100
AcDbLine
 62
7
  6
CONTINUOUS
 10
53.2274629538
 20
-46.9081028617
 11
53.333528971
 21
-46.7243911311
  0
LINE
  5
389
100
AcDbEntity
  8
0
100
AcDbLine
 62
250
  6
CONTINUOUS
 10
52.2021581211
 20
-51.827977422
 11
52.5557115117
 21
-51.2156049869
  0
LINE
  5
38A
100
AcDbEntity
  8
ASSI
100
AcDbLine
 62
250
  6
CONTINUOUS
 10
53.1678365059
 20
-47.7732999541
 11
53.4042396491
 21
-47.5433647453
  0
LINE
  5
38B
100
AcDbEntity
  8
0
100
AcDbLine
 62
250
  6
CONTINUOUS
 10
53.1678365059
 20
-47.7732999541
 11
53.4042396491
 21
-47.5433647453
  0
LINE
  5
38C
100
AcDbEntity
  8
ASSI
100
AcDbLine
 62
7
  6
CONTINUOUS
 10
53.1717614006
 20
-47.8068351186
 11
53.4042396491
 21
-47.5807174203
  0
LINE
  5
38D
100
AcDbEntity
  8
0
100
AcDbLine
 62
7
  6
CONTINUOUS
 10
53.1717614006
 20
-47.8068351186
 11
53.4042396491
 21
-47.5807174203
  0
LINE
  5
38E
100
AcDbEntity
  8
ASSI
100
AcDbLine
 62
7
  6
CONTINUOUS
 10
53.4042396491
 20
-47.0417837056
 11
51.9224018289
 21
-47.99201776
  0
LINE
  5
38F
100
AcDbEntity
  8
0
100
AcDbLine
 62
7
  6
CONTINUOUS
 10
53.4042396491
 20
-47.0417837056
 11
51.9224018289
 21
-47.99201776
  0
LINE
  5
390
100
AcDbEntity
  8
ASSI
100
AcDbLine
 62
7
  6
CONTINUOUS
 10
52.2516078804
 20
-48.1820972082
 11
53.4042396491
 21
-47.5050191444
  0
LINE
  5
391
100
AcDbEntity
  8
0
100
AcDbLine
 62
7
  6
CONTINUOUS
 10
52.2516078804
 20
-48.1820972082
 11
53.4042396491
 21
-47.5050191444
  0
LINE
  5
392
100
AcDbEntity
  8
ASSI
100
AcDbLine
 62
7
  6
CONTINUOUS
 10
53.1131470508
 20
-47.8512991438
 11
52.3976844482
 21
-48.2664399877
  0
LINE
  5
393
100
AcDbEntity
  8
0
100
AcDbLine
 62
7
  6
CONTINUOUS
 10
53.1131470508
 20
-47.8512991438
 11
52.3976844482
 21
-48.2664399877
  0
LINE
  5
394
100
AcDbEntity
  8
ASSI
100
AcDbLine
 62
250
  6
CONTINUOUS
 10
53.1678365059
 20
-47.7732999541
 11
52.3574513514
 21
-48.2432099018
  0
LINE
  5
395
100
AcDbEntity
  8
0
100
AcDbLine
 62
250
  6
CONTINUOUS
 10
53.1678365059
 20
-47.7732999541
 11
52.3574513514
 21
-48.2432099018
  0
LINE
  5
396
100
AcDbEntity
  8
0
100
AcDbLine
 62
250
  6
CONTINUOUS
 10
52.5557115117
 20
-51.2156049869
 11
53.4042396491
 21
-50.7256754749
  0
LINE
  5
397
100
AcDbEntity
  8
0
100
AcDbLine
 62
250
  6
CONTINUOUS
 10
75.6715016069
 20
-67.7359546066
 11
75.6715016069
 21
-67.5509121077
  0
LINE
  5
398
100
AcDbEntity
  8
0
100
AcDbLine
 62
250
  6
CONTINUOUS
 10
75.8876766632
 20
-67.422358483
 11
75.8876766632
 21
-67.5959666861
  0
LINE
  5
399
100
AcDbEntity
  8
0
100
AcDbLine
 62
250
  6
CONTINUOUS
 10
75.9368207499
 20
-68.4739987953
 11
75.9368207499
 21
-68.7840043947
  0
LINE
  5
39A
100
AcDbEntity
  8
0
100
AcDbLine
 62
250
  6
CONTINUOUS
 10
76.1407222276
 20
-68.7283241328
 11
76.1407222276
 21
-68.2873762963
  0
LINE
  5
39B
100
AcDbEntity
  8
0
100
AcDbLine
 62
250
  6
CONTINUOUS
 10
76.4042303039
 20
-72.0065916653
 11
76.4042303039
 21
-71.721251633
  0
LINE
  5
39C
100
AcDbEntity
  8
0
100
AcDbLine
 62
250
  6
CONTINUOUS
 10
76.4042303039
 20
-70.6043896943
 11
76.4042303039
 21
-70.294629036
  0
LINE
  5
39D
100
AcDbEntity
  8
0
100
AcDbLine
 62
250
  6
CONTINUOUS
 10
76.4042303039
 20
-69.8449106758
 11
76.4042303039
 21
-69.7994994155
  0
LINE
  5
39E
100
AcDbEntity
  8
0
100
AcDbLine
 62
250
  6
CONTINUOUS
 10
76.4042303039
 20
-69.3479897194
 11
76.4042303039
 21
-69.0312376262
  0
LINE
  5
39F
100
AcDbEntity
  8
0
100
AcDbLine
 62
250
  6
CONTINUOUS
 10
76.4042303039
 20
-68.9803943891
 11
76.4042303039
 21
-68.6601175936
  0
LINE
  5
3A0
100
AcDbEntity
  8
0
100
AcDbLine
 62
250
  6
CONTINUOUS
 10
76.4042303039
 20
-68.0459457902
 11
76.4042303039
 21
-67.7046848922
  0
LINE
  5
3A1
100
AcDbEntity
  8
0
100
AcDbLine
 62
250
  6
CONTINUOUS
 10
76.4042301275
 20
-66.479831352
 11
76.4042301275
 21
-66.791279234
  0
LINE
  5
3A2
100
AcDbEntity
  8
0
100
AcDbLine
 62
250
  6
CONTINUOUS
 10
76.4042301275
 20
-67.2871182205
 11
76.4042301275
 21
-67.6096049089
  0
LINE
  5
3A3
100
AcDbEntity
  8
0
100
AcDbLine
 62
250
  6
CONTINUOUS
 10
76.4042303039
 20
-70.7786963008
 11
76.4042303039
 21
-71.1024855514
  0
LINE
  5
3A4
100
AcDbEntity
  8
ASSI
100
AcDbLine
 62
7
  6
CONTINUOUS
 10
76.7387634283
 20
-6.0246833131
 11
76.7387634283
 21
-76.7312579881
  0
LINE
  5
3A5
100
AcDbEntity
  8
0
100
AcDbLine
 62
7
  6
CONTINUOUS
 10
76.7387634283
 20
-6.0246833131
 11
76.7387634283
 21
-76.7312579881
  0
LINE
  5
3A6
100
AcDbEntity
  8
ASSI
100
AcDbLine
 62
7
  6
CONTINUOUS
 10
76.9508954626
 20
-5.1360522527
 11
76.9508954626
 21
-75.4152062445
  0
LINE
  5
3A7
100
AcDbEntity
  8
0
100
AcDbLine
 62
7
  6
CONTINUOUS
 10
76.9508954626
 20
-5.1360522527
 11
76.9508954626
 21
-75.4152062445
  0
LINE
  5
3A8
100
AcDbEntity
  8
ASSI
100
AcDbLine
 62
250
  6
CONTINUOUS
 10
76.7388762201
 20
-5.9952646339
 11
76.9508954626
 21
-5.1360522527
  0
LINE
  5
3A9
100
AcDbEntity
  8
0
100
AcDbLine
 62
250
  6
CONTINUOUS
 10
76.7388762201
 20
-5.9952646339
 11
76.9508954626
 21
-5.1360522527
  0
LINE
  5
3AA
100
AcDbEntity
  8
ASSI
100
AcDbLine
 62
7
  6
CONTINUOUS
 10
76.9503370386
 20
-75.422991976
 11
76.7310902826
 21
-76.8750307049
  0
LINE
  5
3AB
100
AcDbEntity
  8
0
100
AcDbLine
 62
7
  6
CONTINUOUS
 10
76.9503370386
 20
-75.422991976
 11
76.7310902826
 21
-76.8750307049
  0
LINE
  5
3AC
100
AcDbEntity
  8
ASSI
100
AcDbLine
 62
250
  6
CONTINUOUS
 10
76.7388762201
 20
-76.7595044244
 11
76.9508954626
 21
-75.4152062445
  0
LINE
  5
3AD
100
AcDbEntity
  8
0
100
AcDbLine
 62
250
  6
CONTINUOUS
 10
76.7388762201
 20
-76.7595044244
 11
76.9508954626
 21
-75.4152062445
  0
LINE
  5
3AE
100
AcDbEntity
  8
0
100
AcDbLine
 62
250
  6
CONTINUOUS
 10
75.7802919019
 20
-67.1502119902
 11
75.7880916247
 21
-67.1455485186
  0
LINE
  5
3AF
100
AcDbEntity
  8
0
100
AcDbLine
 62
250
  6
CONTINUOUS
 10
75.8876766632
 20
-67.5959666861
 11
76.4042301275
 21
-67.2871182205
  0
LINE
  5
3B0
100
AcDbEntity
  8
0
100
AcDbLine
 62
250
  6
CONTINUOUS
 10
75.3091510364
 20
-67.9526048189
 11
75.6715016069
 21
-67.7359546066
  0
LINE
  5
3B1
100
AcDbEntity
  8
0
100
AcDbLine
 62
250
  6
CONTINUOUS
 10
76.4042301275
 20
-67.6096049089
 11
75.0997067054
 21
-68.3895823654
  0
LINE
  5
3B2
100
AcDbEntity
  8
0
100
AcDbLine
 62
250
  6
CONTINUOUS
 10
75.0842853434
 20
-71.2535263294
 11
76.4042303039
 21
-70.6043896943
  0
LINE
  5
3B3
100
AcDbEntity
  8
0
100
AcDbLine
 62
250
  6
CONTINUOUS
 10
75.5423308658
 20
-70.740086285
 11
76.4042303039
 21
-69.8449106758
  0
LINE
  5
3B4
100
AcDbEntity
  8
0
100
AcDbLine
 62
250
  6
CONTINUOUS
 10
75.8171226073
 20
-70.1714699774
 11
75.0842853434
 21
-70.930004881
  0
LINE
  5
3B5
100
AcDbEntity
  8
0
100
AcDbLine
 62
250
  6
CONTINUOUS
 10
75.0842853434
 20
-73.2875399441
 11
76.4042303039
 21
-72.0065916653
  0
LINE
  5
3B6
100
AcDbEntity
  8
0
100
AcDbLine
 62
250
  6
CONTINUOUS
 10
76.4042303039
 20
-67.7046848922
 11
75.0842853434
 21
-68.9698197746
  0
LINE
  5
3B7
100
AcDbEntity
  8
0
100
AcDbLine
 62
250
  6
CONTINUOUS
 10
75.9928444496
 20
-72.0968944094
 11
75.0842853434
 21
-72.9358045488
  0
LINE
  5
3B8
100
AcDbEntity
  8
0
100
AcDbLine
 62
250
  6
CONTINUOUS
 10
76.1407222276
 20
-68.2873762963
 11
76.4042303039
 21
-68.0459457902
  0
LINE
  5
3B9
100
AcDbEntity
  8
0
100
AcDbLine
 62
250
  6
CONTINUOUS
 10
75.4469723969
 20
-68.915665594
 11
75.9368207499
 21
-68.4739987953
  0
LINE
  5
3BA
100
AcDbEntity
  8
0
100
AcDbLine
 62
250
  6
CONTINUOUS
 10
76.4042303039
 20
-69.0312376262
 11
75.0842853434
 21
-69.9654873148
  0
LINE
  5
3BB
100
AcDbEntity
  8
0
100
AcDbLine
 62
250
  6
CONTINUOUS
 10
75.5459241862
 20
-69.9276964057
 11
76.4042303039
 21
-69.3479897194
  0
LINE
  5
3BC
100
AcDbEntity
  8
ASSI
100
AcDbLine
 62
250
  6
CONTINUOUS
 10
74.7239472877
 20
-77.9772505123
 11
76.7387634283
 21
-76.7312579881
  0
LINE
  5
3BD
100
AcDbEntity
  8
0
100
AcDbLine
 62
250
  6
CONTINUOUS
 10
74.7239472877
 20
-77.9772505123
 11
76.7387634283
 21
-76.7312579881
  0
LINE
  5
3BE
100
AcDbEntity
  8
ASSI
100
AcDbLine
 62
7
  6
CONTINUOUS
 10
74.7235091019
 20
-78.307354792
 11
76.5538175636
 21
-77.1754645841
  0
LINE
  5
3BF
100
AcDbEntity
  8
0
100
AcDbLine
 62
7
  6
CONTINUOUS
 10
74.7235091019
 20
-78.307354792
 11
76.5538175636
 21
-77.1754645841
  0
LINE
  5
3C0
100
AcDbEntity
  8
0
100
AcDbLine
 62
250
  6
CONTINUOUS
 10
75.0842061403
 20
-71.5679416852
 11
76.4042303039
 21
-70.7786963008
  0
LINE
  5
3C1
100
AcDbEntity
  8
0
100
AcDbLine
 62
250
  6
CONTINUOUS
 10
76.4042303039
 20
-71.1024855514
 11
75.0842061403
 21
-71.8917309358
  0
LINE
  5
3C2
100
AcDbEntity
  8
SMUSSO
100
AcDbLine
 62
7
  6
CONTINUOUS
 10
72.2486353677
 20
-80.4667514728
 11
74.7235091019
 21
-79.0378298511
  0
LINE
  5
3C3
100
AcDbEntity
  8
0
100
AcDbLine
 62
250
  6
CONTINUOUS
 10
76.4042303039
 20
-70.294629036
 11
75.5423308658
 21
-70.740086285
  0
ARC
  5
3C4
100
AcDbEntity
  8
ASSI
100
AcDbCircle
 62
7
  6
CONTINUOUS
 10
-42.4969878116
 20
7.5254189013
 40
0.3
100
AcDbArc
 50
300.108999349
 51
314.2001403814
  0
ARC
  5
3C5
100
AcDbEntity
  8
ASSI
100
AcDbCircle
 62
7
  6
CONTINUOUS
 10
52.9624276486
 20
-47.5916511979
 40
0.3
100
AcDbArc
 50
300.108999349
 51
314.2001403814
  0
ARC
  5
3C6
100
AcDbEntity
  8
ASSI
100
AcDbCircle
 62
7
  6
CONTINUOUS
 10
37.0525249393
 20
-38.405473005
 40
0.3
100
AcDbArc
 50
300.1089848951
 51
314.2001408884
  0
ARC
  5
3C7
100
AcDbEntity
  8
ASSI
100
AcDbCircle
 62
7
  6
CONTINUOUS
 10
21.1426223626
 20
-29.2192946551
 40
0.3
100
AcDbArc
 50
300.1089848951
 51
314.2001408884
  0
ARC
  5
3C8
100
AcDbEntity
  8
ASSI
100
AcDbCircle
 62
7
  6
CONTINUOUS
 10
5.2327197859
 20
-20.0331163052
 40
0.3
100
AcDbArc
 50
300.1089848951
 51
314.2001408884
  0
ARC
  5
3C9
100
AcDbEntity
  8
ASSI
100
AcDbCircle
 62
7
  6
CONTINUOUS
 10
-10.6771827908
 20
-10.8469379554
 40
0.3
100
AcDbArc
 50
300.1089848951
 51
314.2001408884
  0
ARC
  5
3CA
100
AcDbEntity
  8
ASSI
100
AcDbCircle
 62
7
  6
CONTINUOUS
 10
-26.5870853675
 20
-1.6607596055
 40
0.3
100
AcDbArc
 50
300.1089848951
 51
314.2001408884
  0
ARC
  5
3CB
100
AcDbEntity
  8
0
100
AcDbCircle
 62
7
  6
CONTINUOUS
 10
-42.4969878116
 20
7.5254189013
 40
0.3
100
AcDbArc
 50
300.1089993398
 51
314.2001403814
  0
ARC
  5
3CC
100
AcDbEntity
  8
0
100
AcDbCircle
 62
7
  6
CONTINUOUS
 10
52.9624276486
 20
-47.5916511979
 40
0.3
100
AcDbArc
 50
300.1089993398
 51
314.2001403814
  0
ARC
  5
3CD
100
AcDbEntity
  8
0
100
AcDbCircle
 62
7
  6
CONTINUOUS
 10
37.0525249393
 20
-38.405473005
 40
0.3
100
AcDbArc
 50
300.1089848867
 51
314.2001408883
  0
ARC
  5
3CE
100
AcDbEntity
  8
0
100
AcDbCircle
 62
7
  6
CONTINUOUS
 10
21.1426223626
 20
-29.2192946551
 40
0.3
100
AcDbArc
 50
300.1089848867
 51
314.2001408883
  0
ARC
  5
3CF
100
AcDbEntity
  8
0
100
AcDbCircle
 62
7
  6
CONTINUOUS
 10
5.2327197859
 20
-20.0331163052
 40
0.3
100
AcDbArc
 50
300.1089848867
 51
314.2001408883
  0
ARC
  5
3D0
100
AcDbEntity
  8
0
100
AcDbCircle
 62
7
  6
CONTINUOUS
 10
-10.6771827908
 20
-10.8469379554
 40
0.3
100
AcDbArc
 50
300.1089848867
 51
314.2001408883
  0
ARC
  5
3D1
100
AcDbEntity
  8
0
100
AcDbCircle
 62
7
  6
CONTINUOUS
 10
-26.5870853675
 20
-1.6607596055
 40
0.3
100
AcDbArc
 50
300.1089848867
 51
314.2001408883
  0
ARC
  5
3D2
100
AcDbEntity
  8
ASSI
100
AcDbCircle
 62
250
  6
CONTINUOUS
 10
-42.457565355
 20
7.3879977533
 40
0.171777666
100
AcDbArc
 50
339.5945260157
 51
345.0800020028
  0
ARC
  5
3D3
100
AcDbEntity
  8
ASSI
100
AcDbCircle
 62
250
  6
CONTINUOUS
 10
53.0018501052
 20
-47.729072346
 40
0.171777666
100
AcDbArc
 50
339.5945260157
 51
345.0800020027
  0
ARC
  5
3D4
100
AcDbEntity
  8
0
100
AcDbCircle
 62
250
  6
CONTINUOUS
 10
-42.457565355
 20
7.3879977533
 40
0.171777666
100
AcDbArc
 50
339.5945260144
 51
345.0800020029
  0
ARC
  5
3D5
100
AcDbEntity
  8
0
100
AcDbCircle
 62
250
  6
CONTINUOUS
 10
53.0018501052
 20
-47.729072346
 40
0.171777666
100
AcDbArc
 50
339.5945260145
 51
345.0800020027
  0
ARC
  5
3D6
100
AcDbEntity
  8
ASSI
100
AcDbCircle
 62
250
  6
CONTINUOUS
 10
-42.3965455634
 20
7.3524592741
 40
0.1002112887
100
AcDbArc
 50
300.1120046763
 51
305.0045006116
  0
ARC
  5
3D7
100
AcDbEntity
  8
ASSI
100
AcDbCircle
 62
250
  6
CONTINUOUS
 10
53.0628698968
 20
-47.7646108252
 40
0.1002112887
100
AcDbArc
 50
300.1120046761
 51
305.0045006119
  0
ARC
  5
3D8
100
AcDbEntity
  8
0
100
AcDbCircle
 62
250
  6
CONTINUOUS
 10
-42.3965455634
 20
7.3524592741
 40
0.1002112887
100
AcDbArc
 50
300.1120046762
 51
305.0045006091
  0
ARC
  5
3D9
100
AcDbEntity
  8
0
100
AcDbCircle
 62
250
  6
CONTINUOUS
 10
53.0628698968
 20
-47.7646108252
 40
0.1002112887
100
AcDbArc
 50
300.1120046764
 51
305.0045006091
  0
SPLINE
  5
3DA
100
AcDbEntity
  8
ASSI
100
AcDbSpline
 62
7
  6
CONTINUOUS
 70
0
 71
3
 72
10
 73
6
 74
0
 42
0.0000001
 43
0.0000001
 44
0.0000000001
 40
0.0
 40
0.0
 40
0.0
 40
0.0
 40
0.5286426009
 40
0.7679931249
 40
1.0
 40
1.0
 40
1.0
 40
1.0
 10
-71.5993319929
 20
80.4313474426
 30
0.0
 10
-71.6581823255
 20
80.4544329179
 30
0.0
 10
-71.7507206729
 20
80.4757928948
 30
0.0
 10
-71.8704316229
 20
80.4616239979
 30
0.0
 10
-71.9237286814
 20
80.4411663065
 30
0.0
 10
-71.9481642892
 20
80.4280275843
 30
0.0
  0
SPLINE
  5
3DB
100
AcDbEntity
  8
ASSI
100
AcDbSpline
 62
7
  6
CONTINUOUS
 70
0
 71
3
 72
10
 73
6
 74
0
 42
0.0000001
 43
0.0000001
 44
0.0000000001
 40
0.0
 40
0.0
 40
0.0
 40
0.0
 40
0.2320071093
 40
0.4713577349
 40
1.0
 40
1.0
 40
1.0
 40
1.0
 10
76.5538173523
 20
-77.1754643017
 30
0.0
 10
76.5774119626
 20
-77.1608710074
 30
0.0
 10
76.6217738364
 20
-77.1249421919
 30
0.0
 10
76.6938924613
 20
-77.0283539032
 30
0.0
 10
76.7216582184
 20
-76.937535558
 30
0.0
 10
76.731087723
 20
-76.8750288691
 30
0.0
  0
SPLINE
  5
3DC
100
AcDbEntity
  8
ASSI
100
AcDbSpline
 62
250
  6
CONTINUOUS
 70
0
 71
3
 72
9
 73
5
 74
0
 42
0.0000001
 43
0.0000001
 44
0.0000000001
 40
0.0
 40
0.0
 40
0.0
 40
0.0
 40
0.2416065921
 40
1.0
 40
1.0
 40
1.0
 40
1.0
 10
5.3834388047
 20
-20.2927635999
 30
0.0
 10
5.3881135361
 20
-20.2900344769
 30
0.0
 10
5.4065319026
 20
-20.2771330489
 30
0.0
 10
5.4203213405
 20
-20.2582689916
 30
0.0
 10
5.4277304671
 20
-20.2429780839
 30
0.0
  0
SPLINE
  5
3DD
100
AcDbEntity
  8
ASSI
100
AcDbSpline
 62
250
  6
CONTINUOUS
 70
0
 71
3
 72
9
 73
5
 74
0
 42
0.0000001
 43
0.0000001
 44
0.0000000001
 40
0.0
 40
0.0
 40
0.0
 40
0.0
 40
0.2431061737
 40
1.0
 40
1.0
 40
1.0
 40
1.0
 10
5.4277304671
 20
-20.2429780839
 30
0.0
 10
5.4287938631
 20
-20.2407834541
 30
0.0
 10
5.4329376796
 20
-20.2316452533
 30
0.0
 10
5.4361664266
 20
-20.2220996247
 30
0.0
 10
5.4381287758
 20
-20.2147649045
 30
0.0
  0
SPLINE
  5
3DE
100
AcDbEntity
  8
ASSI
100
AcDbSpline
 62
250
  6
CONTINUOUS
 70
0
 71
3
 72
9
 73
5
 74
0
 42
0.0000001
 43
0.0000001
 44
0.0000000001
 40
0.0
 40
0.0
 40
0.0
 40
0.0
 40
0.2416065921
 40
1.0
 40
1.0
 40
1.0
 40
1.0
 10
-10.526463772
 20
-11.10658525
 30
0.0
 10
-10.5217890406
 20
-11.103856127
 30
0.0
 10
-10.5033706741
 20
-11.090954699
 30
0.0
 10
-10.4895812362
 20
-11.0720906417
 30
0.0
 10
-10.4821721096
 20
-11.056799734
 30
0.0
  0
SPLINE
  5
3DF
100
AcDbEntity
  8
ASSI
100
AcDbSpline
 62
250
  6
CONTINUOUS
 70
0
 71
3
 72
9
 73
5
 74
0
 42
0.0000001
 43
0.0000001
 44
0.0000000001
 40
0.0
 40
0.0
 40
0.0
 40
0.0
 40
0.2431061737
 40
1.0
 40
1.0
 40
1.0
 40
1.0
 10
-10.4821721096
 20
-11.056799734
 30
0.0
 10
-10.4811087136
 20
-11.0546051043
 30
0.0
 10
-10.4769648971
 20
-11.0454669034
 30
0.0
 10
-10.4737361501
 20
-11.0359212748
 30
0.0
 10
-10.4717738009
 20
-11.0285865546
 30
0.0
  0
SPLINE
  5
3E0
100
AcDbEntity
  8
ASSI
100
AcDbSpline
 62
250
  6
CONTINUOUS
 70
0
 71
3
 72
9
 73
5
 74
0
 42
0.0000001
 43
0.0000001
 44
0.0000000001
 40
0.0
 40
0.0
 40
0.0
 40
0.0
 40
0.2416065921
 40
1.0
 40
1.0
 40
1.0
 40
1.0
 10
-26.4363663487
 20
-1.9204069002
 30
0.0
 10
-26.4316916173
 20
-1.9176777771
 30
0.0
 10
-26.4132732508
 20
-1.9047763492
 30
0.0
 10
-26.3994838129
 20
-1.8859122918
 30
0.0
 10
-26.3920746863
 20
-1.8706213842
 30
0.0
  0
SPLINE
  5
3E1
100
AcDbEntity
  8
ASSI
100
AcDbSpline
 62
250
  6
CONTINUOUS
 70
0
 71
3
 72
9
 73
5
 74
0
 42
0.0000001
 43
0.0000001
 44
0.0000000001
 40
0.0
 40
0.0
 40
0.0
 40
0.0
 40
0.2431061737
 40
1.0
 40
1.0
 40
1.0
 40
1.0
 10
-26.3920746863
 20
-1.8706213842
 30
0.0
 10
-26.3910112903
 20
-1.8684267544
 30
0.0
 10
-26.3868674738
 20
-1.8592885536
 30
0.0
 10
-26.3836387268
 20
-1.8497429249
 30
0.0
 10
-26.3816763776
 20
-1.8424082047
 30
0.0
  0
SPLINE
  5
3E2
100
AcDbEntity
  8
ASSI
100
AcDbSpline
 62
250
  6
CONTINUOUS
 70
0
 71
3
 72
9
 73
5
 74
0
 42
0.0000001
 43
0.0000001
 44
0.0000000001
 40
0.0
 40
0.0
 40
0.0
 40
0.0
 40
0.2416065921
 40
1.0
 40
1.0
 40
1.0
 40
1.0
 10
37.2032439581
 20
-38.6651202997
 30
0.0
 10
37.2079186895
 20
-38.6623911766
 30
0.0
 10
37.226337056
 20
-38.6494897487
 30
0.0
 10
37.2401264939
 20
-38.6306256913
 30
0.0
 10
37.2475356205
 20
-38.6153347836
 30
0.0
  0
SPLINE
  5
3E3
100
AcDbEntity
  8
ASSI
100
AcDbSpline
 62
250
  6
CONTINUOUS
 70
0
 71
3
 72
9
 73
5
 74
0
 42
0.0000001
 43
0.0000001
 44
0.0000000001
 40
0.0
 40
0.0
 40
0.0
 40
0.0
 40
0.2431061737
 40
1.0
 40
1.0
 40
1.0
 40
1.0
 10
37.2475356205
 20
-38.6153347836
 30
0.0
 10
37.2485990165
 20
-38.6131401539
 30
0.0
 10
37.252742833
 20
-38.6040019531
 30
0.0
 10
37.25597158
 20
-38.5944563244
 30
0.0
 10
37.2579339292
 20
-38.5871216042
 30
0.0
  0
SPLINE
  5
3E4
100
AcDbEntity
  8
ASSI
100
AcDbSpline
 62
250
  6
CONTINUOUS
 70
0
 71
3
 72
9
 73
5
 74
0
 42
0.0000001
 43
0.0000001
 44
0.0000000001
 40
0.0
 40
0.0
 40
0.0
 40
0.0
 40
0.4796483492
 40
1.0
 40
1.0
 40
1.0
 40
1.0
 10
-42.3390602817
 20
7.2703755073
 30
0.0
 10
-42.3295630418
 20
7.2770265933
 30
0.0
 10
-42.3121266804
 20
7.2944930701
 30
0.0
 10
-42.3009652324
 20
7.316320986
 30
0.0
 10
-42.2965669638
 20
7.3281054786
 30
0.0
  0
SPLINE
  5
3E5
100
AcDbEntity
  8
ASSI
100
AcDbSpline
 62
250
  6
CONTINUOUS
 70
0
 71
3
 72
9
 73
5
 74
0
 42
0.0000001
 43
0.0000001
 44
0.0000000001
 40
0.0
 40
0.0
 40
0.0
 40
0.0
 40
0.4796483492
 40
1.0
 40
1.0
 40
1.0
 40
1.0
 10
53.1203551785
 20
-47.8466945919
 30
0.0
 10
53.1298524184
 20
-47.840043506
 30
0.0
 10
53.1472887798
 20
-47.8225770291
 30
0.0
 10
53.1584502277
 20
-47.8007491133
 30
0.0
 10
53.1628484964
 20
-47.7889646206
 30
0.0
  0
SPLINE
  5
3E6
100
AcDbEntity
  8
ASSI
100
AcDbSpline
 62
7
  6
CONTINUOUS
 70
0
 71
3
 72
9
 73
5
 74
0
 42
0.0000001
 43
0.0000001
 44
0.0000000001
 40
0.0
 40
0.0
 40
0.0
 40
0.0
 40
0.2419970238
 40
1.0
 40
1.0
 40
1.0
 40
1.0
 10
76.731087723
 20
-76.8750288691
 30
0.0
 10
76.7324817844
 20
-76.8657878576
 30
0.0
 10
76.7374070579
 20
-76.8274771945
 30
0.0
 10
76.7391151251
 20
-76.7887764161
 30
0.0
 10
76.7388762201
 20
-76.7595044244
 30
0.0
  0
SPLINE
  5
3E7
100
AcDbEntity
  8
ASSI
100
AcDbSpline
 62
250
  6
CONTINUOUS
 70
0
 71
3
 72
10
 73
6
 74
0
 42
0.0000001
 43
0.0000001
 44
0.0000000001
 40
0.0
 40
0.0
 40
0.0
 40
0.0
 40
0.360269124
 40
0.641576974
 40
1.0
 40
1.0
 40
1.0
 40
1.0
 10
-26.3816763776
 20
-1.8424082047
 30
0.0
 10
-26.3799638037
 20
-1.8462402472
 30
0.0
 10
-26.3771920968
 20
-1.8532935958
 30
0.0
 10
-26.3742338317
 20
-1.8642266666
 30
0.0
 10
-26.3747607959
 20
-1.8730280493
 30
0.0
 10
-26.377756318
 20
-1.8759373821
 30
0.0
  0
SPLINE
  5
3E8
100
AcDbEntity
  8
ASSI
100
AcDbSpline
 62
250
  6
CONTINUOUS
 70
0
 71
3
 72
9
 73
5
 74
0
 42
0.0000001
 43
0.0000001
 44
0.0000000001
 40
0.0
 40
0.0
 40
0.0
 40
0.0
 40
0.2416065921
 40
1.0
 40
1.0
 40
1.0
 40
1.0
 10
21.2933413814
 20
-29.4789419498
 30
0.0
 10
21.2980161128
 20
-29.4762128267
 30
0.0
 10
21.3164344793
 20
-29.4633113988
 30
0.0
 10
21.3302239172
 20
-29.4444473415
 30
0.0
 10
21.3376330438
 20
-29.4291564338
 30
0.0
  0
SPLINE
  5
3E9
100
AcDbEntity
  8
ASSI
100
AcDbSpline
 62
250
  6
CONTINUOUS
 70
0
 71
3
 72
9
 73
5
 74
0
 42
0.0000001
 43
0.0000001
 44
0.0000000001
 40
0.0
 40
0.0
 40
0.0
 40
0.0
 40
0.2431061737
 40
1.0
 40
1.0
 40
1.0
 40
1.0
 10
21.3376330438
 20
-29.4291564338
 30
0.0
 10
21.3386964398
 20
-29.426961804
 30
0.0
 10
21.3428402563
 20
-29.4178236032
 30
0.0
 10
21.3460690033
 20
-29.4082779746
 30
0.0
 10
21.3480313525
 20
-29.4009432544
 30
0.0
  0
SPLINE
  5
3EA
100
AcDbEntity
  8
ASSI
100
AcDbSpline
 62
250
  6
CONTINUOUS
 70
0
 71
3
 72
10
 73
6
 74
0
 42
0.0000001
 43
0.0000001
 44
0.0000000001
 40
0.0
 40
0.0
 40
0.0
 40
0.0
 40
0.360269124
 40
0.641576974
 40
1.0
 40
1.0
 40
1.0
 40
1.0
 10
-10.4717738009
 20
-11.0285865546
 30
0.0
 10
-10.470061227
 20
-11.0324185971
 30
0.0
 10
-10.4672895201
 20
-11.0394719457
 30
0.0
 10
-10.464331255
 20
-11.0504050165
 30
0.0
 10
-10.4648582192
 20
-11.0592063992
 30
0.0
 10
-10.4678537413
 20
-11.062115732
 30
0.0
  0
SPLINE
  5
3EB
100
AcDbEntity
  8
ASSI
100
AcDbSpline
 62
250
  6
CONTINUOUS
 70
0
 71
3
 72
10
 73
6
 74
0
 42
0.0000001
 43
0.0000001
 44
0.0000000001
 40
0.0
 40
0.0
 40
0.0
 40
0.0
 40
0.360269124
 40
0.641576974
 40
1.0
 40
1.0
 40
1.0
 40
1.0
 10
5.4381287758
 20
-20.2147649045
 30
0.0
 10
5.4398413497
 20
-20.218596947
 30
0.0
 10
5.4426130566
 20
-20.2256502955
 30
0.0
 10
5.4455713217
 20
-20.2365833664
 30
0.0
 10
5.4450443575
 20
-20.2453847491
 30
0.0
 10
5.4420488354
 20
-20.2482940819
 30
0.0
  0
SPLINE
  5
3EC
100
AcDbEntity
  8
ASSI
100
AcDbSpline
 62
250
  6
CONTINUOUS
 70
0
 71
3
 72
10
 73
6
 74
0
 42
0.0000001
 43
0.0000001
 44
0.0000000001
 40
0.0
 40
0.0
 40
0.0
 40
0.0
 40
0.360269124
 40
0.641576974
 40
1.0
 40
1.0
 40
1.0
 40
1.0
 10
21.3480313525
 20
-29.4009432544
 30
0.0
 10
21.3497439264
 20
-29.4047752968
 30
0.0
 10
21.3525156333
 20
-29.4118286454
 30
0.0
 10
21.3554738984
 20
-29.4227617162
 30
0.0
 10
21.3549469342
 20
-29.4315630989
 30
0.0
 10
21.3519514121
 20
-29.4344724317
 30
0.0
  0
SPLINE
  5
3ED
100
AcDbEntity
  8
ASSI
100
AcDbSpline
 62
250
  6
CONTINUOUS
 70
0
 71
3
 72
10
 73
6
 74
0
 42
0.0000001
 43
0.0000001
 44
0.0000000001
 40
0.0
 40
0.0
 40
0.0
 40
0.0
 40
0.360269124
 40
0.641576974
 40
1.0
 40
1.0
 40
1.0
 40
1.0
 10
37.2579339292
 20
-38.5871216042
 30
0.0
 10
37.2596465031
 20
-38.5909536467
 30
0.0
 10
37.26241821
 20
-38.5980069953
 30
0.0
 10
37.2653764751
 20
-38.6089400661
 30
0.0
 10
37.2648495109
 20
-38.6177414488
 30
0.0
 10
37.2618539888
 20
-38.6206507816
 30
0.0
  0
SPLINE
  5
3EE
100
AcDbEntity
  8
ASSI
100
AcDbSpline
 62
7
  6
CONTINUOUS
 70
0
 71
3
 72
11
 73
7
 74
0
 42
0.0000001
 43
0.0000001
 44
0.0000000001
 40
0.0
 40
0.0
 40
0.0
 40
0.0
 40
0.2395915069
 40
0.4999945232
 40
0.7604005145
 40
1.0
 40
1.0
 40
1.0
 40
1.0
 10
76.7388762201
 20
-5.9952646339
 30
0.0
 10
76.7397274267
 20
-5.8821234316
 30
0.0
 10
76.7014552753
 20
-5.6452816109
 30
0.0
 10
76.5574354437
 20
-5.3130095695
 30
0.0
 10
76.3416866663
 20
-5.0221460273
 30
0.0
 10
76.155709477
 20
-4.8705757221
 30
0.0
 10
76.0572988341
 20
-4.8147379732
 30
0.0
  0
SPLINE
  5
3EF
100
AcDbEntity
  8
ASSI
100
AcDbSpline
 62
7
  6
CONTINUOUS
 70
0
 71
3
 72
9
 73
5
 74
0
 42
0.0000001
 43
0.0000001
 44
0.0000000001
 40
0.0
 40
0.0
 40
0.0
 40
0.0
 40
0.2581558503
 40
1.0
 40
1.0
 40
1.0
 40
1.0
 10
-71.4953321769
 20
80.3803019037
 30
0.0
 10
-71.5039295808
 20
80.3853599765
 30
0.0
 10
-71.5375788123
 20
80.4043525207
 30
0.0
 10
-71.5726473811
 20
80.4208797542
 30
0.0
 10
-71.5993319929
 20
80.4313474426
 30
0.0
  0
SPLINE
  5
3F0
100
AcDbEntity
  8
ASSI
100
AcDbSpline
 62
250
  6
CONTINUOUS
 70
0
 71
3
 72
10
 73
6
 74
0
 42
0.0000001
 43
0.0000001
 44
0.0000000001
 40
0.0
 40
0.0
 40
0.0
 40
0.0
 40
0.3605721432
 40
0.6416145128
 40
1.0
 40
1.0
 40
1.0
 40
1.0
 10
-42.2915789543
 20
7.3437701451
 30
0.0
 10
-42.2898641813
 20
7.3399332011
 30
0.0
 10
-42.2870560242
 20
7.3328900753
 30
0.0
 10
-42.2841239199
 20
7.3219406847
 30
0.0
 10
-42.2846593642
 20
7.31314738
 30
0.0
 10
-42.2876541865
 20
7.3102353278
 30
0.0
  0
SPLINE
  5
3F1
100
AcDbEntity
  8
ASSI
100
AcDbSpline
 62
250
  6
CONTINUOUS
 70
0
 71
3
 72
10
 73
6
 74
0
 42
0.0000001
 43
0.0000001
 44
0.0000000001
 40
0.0
 40
0.0
 40
0.0
 40
0.0
 40
0.3605721432
 40
0.6416145128
 40
1.0
 40
1.0
 40
1.0
 40
1.0
 10
53.1678365059
 20
-47.7732999541
 30
0.0
 10
53.1695512789
 20
-47.7771368981
 30
0.0
 10
53.172359436
 20
-47.7841800239
 30
0.0
 10
53.1752915403
 20
-47.7951294145
 30
0.0
 10
53.174756096
 20
-47.8039227193
 30
0.0
 10
53.1717612737
 20
-47.8068347715
 30
0.0
  0
SPLINE
  5
3F2
100
AcDbEntity
  8
0
100
AcDbSpline
 62
250
  6
CONTINUOUS
 70
0
 71
3
 72
12
 73
8
 74
0
 42
0.0000001
 43
0.0000001
 44
0.0000000001
 40
0.0
 40
0.0
 40
0.0
 40
0.0
 40
0.3333333333
 40
0.5
 40
0.6666666667
 40
0.8333333333
 40
1.0
 40
1.0
 40
1.0
 40
1.0
 10
75.3013801961
 20
-67.7035993379
 30
0.0
 10
75.2986357956
 20
-67.7330283287
 30
0.0
 10
75.2963383364
 20
-67.7762710422
 30
0.0
 10
75.2968546594
 20
-67.8318574501
 30
0.0
 10
75.2990315153
 20
-67.8727153665
 30
0.0
 10
75.3031814366
 20
-67.913010151
 30
0.0
 10
75.3070497982
 20
-67.9393897201
 30
0.0
 10
75.3091510364
 20
-67.9526048189
 30
0.0
  0
SPLINE
  5
3F3
100
AcDbEntity
  8
0
100
AcDbSpline
 62
250
  6
CONTINUOUS
 70
0
 71
3
 72
15
 73
11
 74
0
 42
0.0000001
 43
0.0000001
 44
0.0000000001
 40
0.0
 40
0.0
 40
0.0
 40
0.0
 40
0.1666666667
 40
0.3333333333
 40
0.4166666667
 40
0.5
 40
0.5833333333
 40
0.6666666667
 40
0.8333333333
 40
1.0
 40
1.0
 40
1.0
 40
1.0
 10
75.4663827566
 20
-67.4220335149
 30
0.0
 10
75.4532273409
 20
-67.4301409681
 30
0.0
 10
75.427510956
 20
-67.4497588445
 30
0.0
 10
75.3959727912
 20
-67.4827086857
 30
0.0
 10
75.3726717516
 20
-67.5131638071
 30
0.0
 10
75.3565143624
 20
-67.5377947143
 30
0.0
 10
75.3420264867
 20
-67.5641689527
 30
0.0
 10
75.3253562209
 20
-67.6008219084
 30
0.0
 10
75.3097890585
 20
-67.6479631237
 30
0.0
 10
75.3031056723
 20
-67.6850965622
 30
0.0
 10
75.301380196
 20
-67.7035993379
 30
0.0
  0
SPLINE
  5
3F4
100
AcDbEntity
  8
0
100
AcDbSpline
 62
250
  6
CONTINUOUS
 70
0
 71
3
 72
17
 73
13
 74
0
 42
0.0000001
 43
0.0000001
 44
0.0000000001
 40
0.0
 40
0.0
 40
0.0
 40
0.0
 40
0.1428571429
 40
0.2857142857
 40
0.3571428571
 40
0.4285714286
 40
0.5
 40
0.5714285714
 40
0.6428571429
 40
0.7142857143
 40
0.8571428571
 40
1.0
 40
1.0
 40
1.0
 40
1.0
 10
75.6715016069
 20
-67.5509121077
 30
0.0
 10
75.6710737131
 20
-67.5286546632
 30
0.0
 10
75.6677438551
 20
-67.488763646
 30
0.0
 10
75.65841579
 20
-67.4512091264
 30
0.0
 10
75.6471974767
 20
-67.426463851
 30
0.0
 10
75.636754748
 20
-67.4110706323
 30
0.0
 10
75.6235142156
 20
-67.398781448
 30
0.0
 10
75.6075025385
 20
-67.390621945
 30
0.0
 10
75.5890627356
 20
-67.3862560907
 30
0.0
 10
75.5614456095
 20
-67.3853927124
 30
0.0
 10
75.5221813246
 20
-67.3933629217
 30
0.0
 10
75.4858120717
 20
-67.4100643661
 30
0.0
 10
75.4663827566
 20
-67.4220335149
 30
0.0
  0
SPLINE
  5
3F5
100
AcDbEntity
  8
0
100
AcDbSpline
 62
250
  6
CONTINUOUS
 70
0
 71
3
 72
17
 73
13
 74
0
 42
0.0000001
 43
0.0000001
 44
0.0000000001
 40
0.0
 40
0.0
 40
0.0
 40
0.0
 40
0.1
 40
0.2
 40
0.3
 40
0.4
 40
0.5
 40
0.6
 40
0.7
 40
0.8
 40
0.9
 40
1.0
 40
1.0
 40
1.0
 40
1.0
 10
76.0039519437
 20
-67.1722038619
 30
0.0
 10
75.9969536152
 20
-67.1794759728
 30
0.0
 10
75.9836428817
 20
-67.1942842375
 30
0.0
 10
75.9647093703
 20
-67.2181374739
 30
0.0
 10
75.9471735833
 20
-67.2432476275
 30
0.0
 10
75.9314198457
 20
-67.269146538
 30
0.0
 10
75.9177891003
 20
-67.2954248764
 30
0.0
 10
75.9064892353
 20
-67.3218492769
 30
0.0
 10
75.8977292336
 20
-67.3486673293
 30
0.0
 10
75.8917639391
 20
-67.3748583374
 30
0.0
 10
75.8884087788
 20
-67.3994113337
 30
0.0
 10
75.8876766632
 20
-67.4147464376
 30
0.0
 10
75.8876766632
 20
-67.422358483
 30
0.0
  0
SPLINE
  5
3F6
100
AcDbEntity
  8
0
100
AcDbSpline
 62
250
  6
CONTINUOUS
 70
0
 71
3
 72
12
 73
8
 74
0
 42
0.0000001
 43
0.0000001
 44
0.0000000001
 40
0.0
 40
0.0
 40
0.0
 40
0.0
 40
0.1666666667
 40
0.3333333333
 40
0.5
 40
0.6666666667
 40
1.0
 40
1.0
 40
1.0
 40
1.0
 10
76.4042301275
 20
-66.791279234
 30
0.0
 10
76.3798280901
 20
-66.8141139303
 30
0.0
 10
76.3317766206
 20
-66.8593797361
 30
0.0
 10
76.2618335709
 20
-66.9254251734
 30
0.0
 10
76.1937712724
 20
-66.9889051465
 30
0.0
 10
76.1057361154
 20
-67.0707351928
 30
0.0
 10
76.0433833568
 20
-67.1312162321
 30
0.0
 10
76.0039242588
 20
-67.1722326498
 30
0.0
  0
SPLINE
  5
3F7
100
AcDbEntity
  8
0
100
AcDbSpline
 62
250
  6
CONTINUOUS
 70
0
 71
3
 72
10
 73
6
 74
0
 42
0.0000001
 43
0.0000001
 44
0.0000000001
 40
0.0
 40
0.0
 40
0.0
 40
0.0
 40
0.3333333333
 40
0.6666666667
 40
1.0
 40
1.0
 40
1.0
 40
1.0
 10
76.0470053335
 20
-66.8040983054
 30
0.0
 10
76.0881671616
 20
-66.7663089102
 30
0.0
 10
76.1696004969
 20
-66.6922439041
 30
0.0
 10
76.288707085
 20
-66.5846544004
 30
0.0
 10
76.3661399408
 20
-66.5147629757
 30
0.0
 10
76.4042301275
 20
-66.479831352
 30
0.0
  0
SPLINE
  5
3F8
100
AcDbEntity
  8
0
100
AcDbSpline
 62
250
  6
CONTINUOUS
 70
0
 71
3
 72
16
 73
12
 74
0
 42
0.0000001
 43
0.0000001
 44
0.0000000001
 40
0.0
 40
0.0
 40
0.0
 40
0.0
 40
0.0833333333
 40
0.1666666667
 40
0.25
 40
0.3333333333
 40
0.4166666667
 40
0.5
 40
0.6666666667
 40
0.8333333333
 40
1.0
 40
1.0
 40
1.0
 40
1.0
 10
75.7880916247
 20
-67.1455485186
 30
0.0
 10
75.7904455936
 20
-67.1372035755
 30
0.0
 10
75.7959737145
 20
-67.1202113802
 30
0.0
 10
75.8069613882
 20
-67.093488818
 30
0.0
 10
75.8209942802
 20
-67.0652389126
 30
0.0
 10
75.8378103708
 20
-67.0363046153
 30
0.0
 10
75.8568792828
 20
-67.0074423797
 30
0.0
 10
75.8854995816
 20
-66.968571012
 30
0.0
 10
75.9265972995
 20
-66.9199470638
 30
0.0
 10
75.9834252217
 20
-66.8619465439
 30
0.0
 10
76.0252840233
 20
-66.8240399656
 30
0.0
 10
76.0470053335
 20
-66.8040983056
 30
0.0
  0
SPLINE
  5
3F9
100
AcDbEntity
  8
0
100
AcDbSpline
 62
250
  6
CONTINUOUS
 70
0
 71
3
 72
30
 73
26
 74
0
 42
0.0000001
 43
0.0000001
 44
0.0000000001
 40
0.0
 40
0.0
 40
0.0
 40
0.0
 40
0.0526315789
 40
0.1052631579
 40
0.1578947368
 40
0.2105263158
 40
0.2631578947
 40
0.3157894737
 40
0.3684210526
 40
0.4210526316
 40
0.4736842105
 40
0.5263157895
 40
0.5789473684
 40
0.6315789474
 40
0.6842105263
 40
0.7368421053
 40
0.7894736842
 40
0.8157894737
 40
0.8421052632
 40
0.8684210526
 40
0.8947368421
 40
0.9210526316
 40
0.9473684211
 40
0.9736842105
 40
1.0
 40
1.0
 40
1.0
 40
1.0
 10
75.1136213696
 20
-67.5821421167
 30
0.0
 10
75.1193135675
 20
-67.5602106911
 30
0.0
 10
75.1352998486
 20
-67.5126424038
 30
0.0
 10
75.1760659506
 20
-67.4246610307
 30
0.0
 10
75.2305964294
 20
-67.3355205434
 30
0.0
 10
75.2963262838
 20
-67.2531672165
 30
0.0
 10
75.3635982262
 20
-67.1886334156
 30
0.0
 10
75.428308871
 20
-67.140481288
 30
0.0
 10
75.4852455793
 20
-67.1070021866
 30
0.0
 10
75.5350409823
 20
-67.0850795641
 30
0.0
 10
75.5784919466
 20
-67.0722913388
 30
0.0
 10
75.6167493302
 20
-67.0666385067
 30
0.0
 10
75.6495003137
 20
-67.0666142195
 30
0.0
 10
75.6774946226
 20
-67.0709060507
 30
0.0
 10
75.700991242
 20
-67.0786111725
 30
0.0
 10
75.7207236913
 20
-67.0887375799
 30
0.0
 10
75.7347415181
 20
-67.0979850213
 30
0.0
 10
75.7448330034
 20
-67.1054343458
 30
0.0
 10
75.7519312791
 20
-67.1109949115
 30
0.0
 10
75.7585805765
 20
-67.1164310711
 30
0.0
 10
75.7648648912
 20
-67.1217670076
 30
0.0
 10
75.7706344043
 20
-67.1276449238
 30
0.0
 10
75.7753371834
 20
-67.1342042132
 30
0.0
 10
75.7786935779
 20
-67.1415895144
 30
0.0
 10
75.7799405052
 20
-67.147221705
 30
0.0
 10
75.7802919019
 20
-67.1502119902
 30
0.0
  0
SPLINE
  5
3FA
100
AcDbEntity
  8
0
100
AcDbSpline
 62
250
  6
CONTINUOUS
 70
0
 71
3
 72
15
 73
11
 74
0
 42
0.0000001
 43
0.0000001
 44
0.0000000001
 40
0.0
 40
0.0
 40
0.0
 40
0.0
 40
0.125
 40
0.25
 40
0.375
 40
0.5
 40
0.625
 40
0.75
 40
0.875
 40
1.0
 40
1.0
 40
1.0
 40
1.0
 10
75.0997067054
 20
-68.3895823654
 30
0.0
 10
75.0946081277
 20
-68.3519031944
 30
0.0
 10
75.0852128437
 20
-68.2791578906
 30
0.0
 10
75.0747589564
 20
-68.1782649417
 30
0.0
 10
75.0680861357
 20
-68.0814704016
 30
0.0
 10
75.0655281487
 20
-67.986375615
 30
0.0
 10
75.0676559625
 20
-67.8896595449
 30
0.0
 10
75.075415791
 20
-67.7901527685
 30
0.0
 10
75.0898516445
 20
-67.6877435513
 30
0.0
 10
75.1043827356
 20
-67.6176994423
 30
0.0
 10
75.1136391085
 20
-67.5820739045
 30
0.0
  0
SPLINE
  5
3FB
100
AcDbEntity
  8
0
100
AcDbSpline
 62
7
  6
CONTINUOUS
 70
0
 71
3
 72
10
 73
6
 74
0
 42
0.0000001
 43
0.0000001
 44
0.0000000001
 40
0.0
 40
0.0
 40
0.0
 40
0.0
 40
0.5286426009
 40
0.7679931249
 40
1.0
 40
1.0
 40
1.0
 40
1.0
 10
-71.5993319929
 20
80.4313474426
 30
0.0
 10
-71.6581823255
 20
80.4544329179
 30
0.0
 10
-71.7507206729
 20
80.4757928948
 30
0.0
 10
-71.8704316229
 20
80.4616239979
 30
0.0
 10
-71.9237286814
 20
80.4411663065
 30
0.0
 10
-71.9481642892
 20
80.4280275843
 30
0.0
  0
SPLINE
  5
3FC
100
AcDbEntity
  8
0
100
AcDbSpline
 62
7
  6
CONTINUOUS
 70
0
 71
3
 72
10
 73
6
 74
0
 42
0.0000001
 43
0.0000001
 44
0.0000000001
 40
0.0
 40
0.0
 40
0.0
 40
0.0
 40
0.2320071093
 40
0.4713577349
 40
1.0
 40
1.0
 40
1.0
 40
1.0
 10
76.5538173523
 20
-77.1754643017
 30
0.0
 10
76.5774119626
 20
-77.1608710074
 30
0.0
 10
76.6217738364
 20
-77.1249421919
 30
0.0
 10
76.6938924613
 20
-77.0283539032
 30
0.0
 10
76.7216582184
 20
-76.937535558
 30
0.0
 10
76.731087723
 20
-76.8750288691
 30
0.0
  0
SPLINE
  5
3FD
100
AcDbEntity
  8
0
100
AcDbSpline
 62
250
  6
CONTINUOUS
 70
0
 71
3
 72
9
 73
5
 74
0
 42
0.0000001
 43
0.0000001
 44
0.0000000001
 40
0.0
 40
0.0
 40
0.0
 40
0.0
 40
0.2416065921
 40
1.0
 40
1.0
 40
1.0
 40
1.0
 10
5.3834388047
 20
-20.2927635999
 30
0.0
 10
5.3881135361
 20
-20.2900344769
 30
0.0
 10
5.4065319026
 20
-20.2771330489
 30
0.0
 10
5.4203213405
 20
-20.2582689916
 30
0.0
 10
5.4277304671
 20
-20.2429780839
 30
0.0
  0
SPLINE
  5
3FE
100
AcDbEntity
  8
0
100
AcDbSpline
 62
250
  6
CONTINUOUS
 70
0
 71
3
 72
9
 73
5
 74
0
 42
0.0000001
 43
0.0000001
 44
0.0000000001
 40
0.0
 40
0.0
 40
0.0
 40
0.0
 40
0.2431061737
 40
1.0
 40
1.0
 40
1.0
 40
1.0
 10
5.4277304671
 20
-20.2429780839
 30
0.0
 10
5.4287938631
 20
-20.2407834541
 30
0.0
 10
5.4329376796
 20
-20.2316452533
 30
0.0
 10
5.4361664266
 20
-20.2220996247
 30
0.0
 10
5.4381287758
 20
-20.2147649045
 30
0.0
  0
SPLINE
  5
3FF
100
AcDbEntity
  8
0
100
AcDbSpline
 62
250
  6
CONTINUOUS
 70
0
 71
3
 72
9
 73
5
 74
0
 42
0.0000001
 43
0.0000001
 44
0.0000000001
 40
0.0
 40
0.0
 40
0.0
 40
0.0
 40
0.2416065921
 40
1.0
 40
1.0
 40
1.0
 40
1.0
 10
-10.526463772
 20
-11.10658525
 30
0.0
 10
-10.5217890406
 20
-11.103856127
 30
0.0
 10
-10.5033706741
 20
-11.090954699
 30
0.0
 10
-10.4895812362
 20
-11.0720906417
 30
0.0
 10
-10.4821721096
 20
-11.056799734
 30
0.0
  0
SPLINE
  5
400
100
AcDbEntity
  8
0
100
AcDbSpline
 62
250
  6
CONTINUOUS
 70
0
 71
3
 72
9
 73
5
 74
0
 42
0.0000001
 43
0.0000001
 44
0.0000000001
 40
0.0
 40
0.0
 40
0.0
 40
0.0
 40
0.2431061737
 40
1.0
 40
1.0
 40
1.0
 40
1.0
 10
-10.4821721096
 20
-11.056799734
 30
0.0
 10
-10.4811087136
 20
-11.0546051043
 30
0.0
 10
-10.4769648971
 20
-11.0454669034
 30
0.0
 10
-10.4737361501
 20
-11.0359212748
 30
0.0
 10
-10.4717738009
 20
-11.0285865546
 30
0.0
  0
SPLINE
  5
401
100
AcDbEntity
  8
0
100
AcDbSpline
 62
7
  6
CONTINUOUS
 70
0
 71
3
 72
9
 73
5
 74
0
 42
0.0000001
 43
0.0000001
 44
0.0000000001
 40
0.0
 40
0.0
 40
0.0
 40
0.0
 40
0.2419970238
 40
1.0
 40
1.0
 40
1.0
 40
1.0
 10
76.731087723
 20
-76.8750288691
 30
0.0
 10
76.7324817844
 20
-76.8657878576
 30
0.0
 10
76.7374070579
 20
-76.8274771945
 30
0.0
 10
76.7391151251
 20
-76.7887764161
 30
0.0
 10
76.7388762201
 20
-76.7595044244
 30
0.0
  0
SPLINE
  5
402
100
AcDbEntity
  8
0
100
AcDbSpline
 62
250
  6
CONTINUOUS
 70
0
 71
3
 72
9
 73
5
 74
0
 42
0.0000001
 43
0.0000001
 44
0.0000000001
 40
0.0
 40
0.0
 40
0.0
 40
0.0
 40
0.2416065921
 40
1.0
 40
1.0
 40
1.0
 40
1.0
 10
-26.4363663487
 20
-1.9204069002
 30
0.0
 10
-26.4316916173
 20
-1.9176777771
 30
0.0
 10
-26.4132732508
 20
-1.9047763492
 30
0.0
 10
-26.3994838129
 20
-1.8859122918
 30
0.0
 10
-26.3920746863
 20
-1.8706213842
 30
0.0
  0
SPLINE
  5
403
100
AcDbEntity
  8
0
100
AcDbSpline
 62
250
  6
CONTINUOUS
 70
0
 71
3
 72
9
 73
5
 74
0
 42
0.0000001
 43
0.0000001
 44
0.0000000001
 40
0.0
 40
0.0
 40
0.0
 40
0.0
 40
0.2431061737
 40
1.0
 40
1.0
 40
1.0
 40
1.0
 10
-26.3920746863
 20
-1.8706213842
 30
0.0
 10
-26.3910112903
 20
-1.8684267544
 30
0.0
 10
-26.3868674738
 20
-1.8592885536
 30
0.0
 10
-26.3836387268
 20
-1.8497429249
 30
0.0
 10
-26.3816763776
 20
-1.8424082047
 30
0.0
  0
SPLINE
  5
404
100
AcDbEntity
  8
0
100
AcDbSpline
 62
250
  6
CONTINUOUS
 70
0
 71
3
 72
9
 73
5
 74
0
 42
0.0000001
 43
0.0000001
 44
0.0000000001
 40
0.0
 40
0.0
 40
0.0
 40
0.0
 40
0.4796483492
 40
1.0
 40
1.0
 40
1.0
 40
1.0
 10
-42.3390602817
 20
7.2703755073
 30
0.0
 10
-42.3295630418
 20
7.2770265933
 30
0.0
 10
-42.3121266804
 20
7.2944930701
 30
0.0
 10
-42.3009652324
 20
7.316320986
 30
0.0
 10
-42.2965669638
 20
7.3281054786
 30
0.0
  0
SPLINE
  5
405
100
AcDbEntity
  8
0
100
AcDbSpline
 62
250
  6
CONTINUOUS
 70
0
 71
3
 72
9
 73
5
 74
0
 42
0.0000001
 43
0.0000001
 44
0.0000000001
 40
0.0
 40
0.0
 40
0.0
 40
0.0
 40
0.4796483492
 40
1.0
 40
1.0
 40
1.0
 40
1.0
 10
53.1203551785
 20
-47.8466945919
 30
0.0
 10
53.1298524184
 20
-47.840043506
 30
0.0
 10
53.1472887798
 20
-47.8225770291
 30
0.0
 10
53.1584502277
 20
-47.8007491133
 30
0.0
 10
53.1628484964
 20
-47.7889646206
 30
0.0
  0
SPLINE
  5
406
100
AcDbEntity
  8
0
100
AcDbSpline
 62
250
  6
CONTINUOUS
 70
0
 71
3
 72
10
 73
6
 74
0
 42
0.0000001
 43
0.0000001
 44
0.0000000001
 40
0.0
 40
0.0
 40
0.0
 40
0.0
 40
0.360269124
 40
0.641576974
 40
1.0
 40
1.0
 40
1.0
 40
1.0
 10
-26.3816763776
 20
-1.8424082047
 30
0.0
 10
-26.3799638037
 20
-1.8462402472
 30
0.0
 10
-26.3771920968
 20
-1.8532935958
 30
0.0
 10
-26.3742338317
 20
-1.8642266666
 30
0.0
 10
-26.3747607959
 20
-1.8730280493
 30
0.0
 10
-26.377756318
 20
-1.8759373821
 30
0.0
  0
SPLINE
  5
407
100
AcDbEntity
  8
0
100
AcDbSpline
 62
250
  6
CONTINUOUS
 70
0
 71
3
 72
9
 73
5
 74
0
 42
0.0000001
 43
0.0000001
 44
0.0000000001
 40
0.0
 40
0.0
 40
0.0
 40
0.0
 40
0.2416065921
 40
1.0
 40
1.0
 40
1.0
 40
1.0
 10
37.2032439581
 20
-38.6651202997
 30
0.0
 10
37.2079186895
 20
-38.6623911766
 30
0.0
 10
37.226337056
 20
-38.6494897487
 30
0.0
 10
37.2401264939
 20
-38.6306256913
 30
0.0
 10
37.2475356205
 20
-38.6153347836
 30
0.0
  0
SPLINE
  5
408
100
AcDbEntity
  8
0
100
AcDbSpline
 62
250
  6
CONTINUOUS
 70
0
 71
3
 72
9
 73
5
 74
0
 42
0.0000001
 43
0.0000001
 44
0.0000000001
 40
0.0
 40
0.0
 40
0.0
 40
0.0
 40
0.2431061737
 40
1.0
 40
1.0
 40
1.0
 40
1.0
 10
37.2475356205
 20
-38.6153347836
 30
0.0
 10
37.2485990165
 20
-38.6131401539
 30
0.0
 10
37.252742833
 20
-38.6040019531
 30
0.0
 10
37.25597158
 20
-38.5944563244
 30
0.0
 10
37.2579339292
 20
-38.5871216042
 30
0.0
  0
SPLINE
  5
409
100
AcDbEntity
  8
0
100
AcDbSpline
 62
250
  6
CONTINUOUS
 70
0
 71
3
 72
10
 73
6
 74
0
 42
0.0000001
 43
0.0000001
 44
0.0000000001
 40
0.0
 40
0.0
 40
0.0
 40
0.0
 40
0.360269124
 40
0.641576974
 40
1.0
 40
1.0
 40
1.0
 40
1.0
 10
-10.4717738009
 20
-11.0285865546
 30
0.0
 10
-10.470061227
 20
-11.0324185971
 30
0.0
 10
-10.4672895201
 20
-11.0394719457
 30
0.0
 10
-10.464331255
 20
-11.0504050165
 30
0.0
 10
-10.4648582192
 20
-11.0592063992
 30
0.0
 10
-10.4678537413
 20
-11.062115732
 30
0.0
  0
SPLINE
  5
40A
100
AcDbEntity
  8
0
100
AcDbSpline
 62
250
  6
CONTINUOUS
 70
0
 71
3
 72
10
 73
6
 74
0
 42
0.0000001
 43
0.0000001
 44
0.0000000001
 40
0.0
 40
0.0
 40
0.0
 40
0.0
 40
0.360269124
 40
0.641576974
 40
1.0
 40
1.0
 40
1.0
 40
1.0
 10
5.4381287758
 20
-20.2147649045
 30
0.0
 10
5.4398413497
 20
-20.218596947
 30
0.0
 10
5.4426130566
 20
-20.2256502955
 30
0.0
 10
5.4455713217
 20
-20.2365833664
 30
0.0
 10
5.4450443575
 20
-20.2453847491
 30
0.0
 10
5.4420488354
 20
-20.2482940819
 30
0.0
  0
SPLINE
  5
40B
100
AcDbEntity
  8
0
100
AcDbSpline
 62
250
  6
CONTINUOUS
 70
0
 71
3
 72
10
 73
6
 74
0
 42
0.0000001
 43
0.0000001
 44
0.0000000001
 40
0.0
 40
0.0
 40
0.0
 40
0.0
 40
0.360269124
 40
0.641576974
 40
1.0
 40
1.0
 40
1.0
 40
1.0
 10
21.3480313525
 20
-29.4009432544
 30
0.0
 10
21.3497439264
 20
-29.4047752968
 30
0.0
 10
21.3525156333
 20
-29.4118286454
 30
0.0
 10
21.3554738984
 20
-29.4227617162
 30
0.0
 10
21.3549469342
 20
-29.4315630989
 30
0.0
 10
21.3519514121
 20
-29.4344724317
 30
0.0
  0
SPLINE
  5
40C
100
AcDbEntity
  8
0
100
AcDbSpline
 62
250
  6
CONTINUOUS
 70
0
 71
3
 72
10
 73
6
 74
0
 42
0.0000001
 43
0.0000001
 44
0.0000000001
 40
0.0
 40
0.0
 40
0.0
 40
0.0
 40
0.360269124
 40
0.641576974
 40
1.0
 40
1.0
 40
1.0
 40
1.0
 10
37.2579339292
 20
-38.5871216042
 30
0.0
 10
37.2596465031
 20
-38.5909536467
 30
0.0
 10
37.26241821
 20
-38.5980069953
 30
0.0
 10
37.2653764751
 20
-38.6089400661
 30
0.0
 10
37.2648495109
 20
-38.6177414488
 30
0.0
 10
37.2618539888
 20
-38.6206507816
 30
0.0
  0
SPLINE
  5
40D
100
AcDbEntity
  8
0
100
AcDbSpline
 62
250
  6
CONTINUOUS
 70
0
 71
3
 72
9
 73
5
 74
0
 42
0.0000001
 43
0.0000001
 44
0.0000000001
 40
0.0
 40
0.0
 40
0.0
 40
0.0
 40
0.2416065921
 40
1.0
 40
1.0
 40
1.0
 40
1.0
 10
21.2933413814
 20
-29.4789419498
 30
0.0
 10
21.2980161128
 20
-29.4762128267
 30
0.0
 10
21.3164344793
 20
-29.4633113988
 30
0.0
 10
21.3302239172
 20
-29.4444473415
 30
0.0
 10
21.3376330438
 20
-29.4291564338
 30
0.0
  0
SPLINE
  5
40E
100
AcDbEntity
  8
0
100
AcDbSpline
 62
250
  6
CONTINUOUS
 70
0
 71
3
 72
9
 73
5
 74
0
 42
0.0000001
 43
0.0000001
 44
0.0000000001
 40
0.0
 40
0.0
 40
0.0
 40
0.0
 40
0.2431061737
 40
1.0
 40
1.0
 40
1.0
 40
1.0
 10
21.3376330438
 20
-29.4291564338
 30
0.0
 10
21.3386964398
 20
-29.426961804
 30
0.0
 10
21.3428402563
 20
-29.4178236032
 30
0.0
 10
21.3460690033
 20
-29.4082779746
 30
0.0
 10
21.3480313525
 20
-29.4009432544
 30
0.0
  0
SPLINE
  5
40F
100
AcDbEntity
  8
0
100
AcDbSpline
 62
7
  6
CONTINUOUS
 70
0
 71
3
 72
11
 73
7
 74
0
 42
0.0000001
 43
0.0000001
 44
0.0000000001
 40
0.0
 40
0.0
 40
0.0
 40
0.0
 40
0.2395915069
 40
0.4999945232
 40
0.7604005145
 40
1.0
 40
1.0
 40
1.0
 40
1.0
 10
76.7388762201
 20
-5.9952646339
 30
0.0
 10
76.7397274267
 20
-5.8821234316
 30
0.0
 10
76.7014552753
 20
-5.6452816109
 30
0.0
 10
76.5574354437
 20
-5.3130095695
 30
0.0
 10
76.3416866663
 20
-5.0221460273
 30
0.0
 10
76.155709477
 20
-4.8705757221
 30
0.0
 10
76.0572988341
 20
-4.8147379732
 30
0.0
  0
SPLINE
  5
410
100
AcDbEntity
  8
0
100
AcDbSpline
 62
7
  6
CONTINUOUS
 70
0
 71
3
 72
9
 73
5
 74
0
 42
0.0000001
 43
0.0000001
 44
0.0000000001
 40
0.0
 40
0.0
 40
0.0
 40
0.0
 40
0.2581558503
 40
1.0
 40
1.0
 40
1.0
 40
1.0
 10
-71.4953321769
 20
80.3803019037
 30
0.0
 10
-71.5039295808
 20
80.3853599765
 30
0.0
 10
-71.5375788123
 20
80.4043525207
 30
0.0
 10
-71.5726473811
 20
80.4208797542
 30
0.0
 10
-71.5993319929
 20
80.4313474426
 30
0.0
  0
SPLINE
  5
411
100
AcDbEntity
  8
0
100
AcDbSpline
 62
250
  6
CONTINUOUS
 70
0
 71
3
 72
10
 73
6
 74
0
 42
0.0000001
 43
0.0000001
 44
0.0000000001
 40
0.0
 40
0.0
 40
0.0
 40
0.0
 40
0.3605721434
 40
0.6416145127
 40
1.0
 40
1.0
 40
1.0
 40
1.0
 10
-42.2915789543
 20
7.3437701451
 30
0.0
 10
-42.2898641813
 20
7.3399332011
 30
0.0
 10
-42.2870560242
 20
7.3328900753
 30
0.0
 10
-42.2841239199
 20
7.3219406847
 30
0.0
 10
-42.2846593642
 20
7.31314738
 30
0.0
 10
-42.2876541865
 20
7.3102353278
 30
0.0
  0
SPLINE
  5
412
100
AcDbEntity
  8
0
100
AcDbSpline
 62
250
  6
CONTINUOUS
 70
0
 71
3
 72
10
 73
6
 74
0
 42
0.0000001
 43
0.0000001
 44
0.0000000001
 40
0.0
 40
0.0
 40
0.0
 40
0.0
 40
0.3605721434
 40
0.6416145127
 40
1.0
 40
1.0
 40
1.0
 40
1.0
 10
53.1678365059
 20
-47.7732999541
 30
0.0
 10
53.1695512789
 20
-47.7771368981
 30
0.0
 10
53.172359436
 20
-47.7841800239
 30
0.0
 10
53.1752915403
 20
-47.7951294145
 30
0.0
 10
53.174756096
 20
-47.8039227193
 30
0.0
 10
53.1717612737
 20
-47.8068347715
 30
0.0
  0
SPLINE
  5
413
100
AcDbEntity
  8
0
100
AcDbSpline
 62
7
  6
CONTINUOUS
 70
0
 71
3
 72
11
 73
7
 74
0
 42
0.0000001
 43
0.0000001
 44
0.0000000001
 40
0.0
 40
0.0
 40
0.0
 40
0.0
 40
0.2177664929
 40
0.4509473044
 40
0.71018592
 40
1.0
 40
1.0
 40
1.0
 40
1.0
 10
-57.8579989846
 20
49.1533424855
 30
0.0
 10
-57.818416867
 20
49.1761966982
 30
0.0
 10
-57.7274610606
 20
49.2092334619
 30
0.0
 10
-57.576407144
 20
49.2130098066
 30
0.0
 10
-57.4153847086
 20
49.1741798292
 30
0.0
 10
-57.3106493813
 20
49.1243113548
 30
0.0
 10
-57.2579716066
 20
49.0938958679
 30
0.0
  0
SPLINE
  5
414
100
AcDbEntity
  8
0
100
AcDbSpline
 62
7
  6
CONTINUOUS
 70
0
 71
3
 72
13
 73
9
 74
0
 42
0.0000001
 43
0.0000001
 44
0.0000000001
 40
0.0
 40
0.0
 40
0.0
 40
0.0
 40
0.1142620866
 40
0.2375408576
 40
0.5000060656
 40
0.7624679524
 40
0.8857428474
 40
1.0
 40
1.0
 40
1.0
 40
1.0
 10
52.2021581211
 20
-14.1070506341
 30
0.0
 10
52.2844524851
 20
-14.1545663688
 30
0.0
 10
52.4470142375
 20
-14.2685079394
 30
0.0
 10
52.7513190403
 20
-14.5533694269
 30
0.0
 10
53.0728016583
 20
-14.9924437502
 30
0.0
 10
53.2923094893
 20
-15.4903900638
 30
0.0
 10
53.3868486317
 20
-15.896347585
 30
0.0
 10
53.4042396491
 20
-16.0940941396
 30
0.0
 10
53.4042396491
 20
-16.1891169133
 30
0.0
  0
SPLINE
  5
415
100
AcDbEntity
  8
0
100
AcDbSpline
 62
7
  6
CONTINUOUS
 70
0
 71
3
 72
11
 73
7
 74
0
 42
0.0000001
 43
0.0000001
 44
0.0000000001
 40
0.0
 40
0.0
 40
0.0
 40
0.0
 40
0.2898085355
 40
0.549045108
 40
0.7822281622
 40
1.0
 40
1.0
 40
1.0
 40
1.0
 10
53.4042396491
 20
-50.7257701667
 30
0.0
 10
53.4042396489
 20
-50.7865879443
 30
0.0
 10
53.3950578121
 20
-50.902206467
 30
0.0
 10
53.3481786836
 20
-51.061045123
 30
0.0
 10
53.2693923697
 20
-51.189954724
 30
0.0
 10
53.1953160614
 20
-51.2522002476
 30
0.0
 10
53.1557388897
 20
-51.2750516045
 30
0.0
  0
SPLINE
  5
416
100
AcDbEntity
  8
RACCORDO
100
AcDbSpline
 62
7
  6
CONTINUOUS
 70
0
 71
3
 72
11
 73
7
 74
0
 42
0.0000001
 43
0.0000001
 44
0.0000000001
 40
0.0
 40
0.0
 40
0.0
 40
0.0
 40
0.2372123996
 40
0.4999938932
 40
0.7627787109
 40
1.0
 40
1.0
 40
1.0
 40
1.0
 10
-55.6316260099
 20
15.0880942777
 30
0.0
 10
-55.6316260099
 20
14.9490074522
 30
0.0
 10
-55.5794535605
 20
14.6556529492
 30
0.0
 10
-55.3976040344
 20
14.2434218344
 30
0.0
 10
-55.1315225155
 20
13.8798161584
 30
0.0
 10
-54.9035531704
 20
13.6879498129
 30
0.0
 10
-54.7830978724
 20
13.6184004335
 30
0.0
  0
SPLINE
  5
417
100
AcDbEntity
  8
0
100
AcDbSpline
 62
7
  6
CONTINUOUS
 70
0
 71
3
 72
15
 73
11
 74
0
 42
0.0000001
 43
0.0000001
 44
0.0000000001
 40
0.0
 40
0.0
 40
0.0
 40
0.0
 40
0.1449020547
 40
0.2745170795
 40
0.3911049983
 40
0.4999889035
 40
0.6088748225
 40
0.7254680988
 40
0.855090335
 40
1.0
 40
1.0
 40
1.0
 40
1.0
 10
53.4042396491
 20
-51.1340447601
 30
0.0
 10
53.4042396489
 20
-51.2202085177
 30
0.0
 10
53.3912185133
 20
-51.384017187
 30
0.0
 10
53.3248440248
 20
-51.6090235612
 30
0.0
 10
53.213073741
 20
-51.7917329103
 30
0.0
 10
53.057927201
 20
-51.922217308
 30
0.0
 10
52.867340469
 20
-51.9913151282
 30
0.0
 10
52.6532157558
 20
-51.9967375652
 30
0.0
 10
52.4251592016
 20
-51.9417002773
 30
0.0
 10
52.2767808411
 20
-51.8710636452
 30
0.0
 10
52.2021581211
 20
-51.827977422
 30
0.0
  0
SPLINE
  5
418
100
AcDbEntity
  8
0
100
AcDbSpline
 62
7
  6
CONTINUOUS
 70
0
 71
3
 72
11
 73
7
 74
0
 42
0.0000001
 43
0.0000001
 44
0.0000000001
 40
0.0
 40
0.0
 40
0.0
 40
0.0
 40
0.2177664929
 40
0.4509473044
 40
0.71018592
 40
1.0
 40
1.0
 40
1.0
 40
1.0
 10
53.1557388897
 20
-51.2750516045
 30
0.0
 10
53.1161567721
 20
-51.2979058172
 30
0.0
 10
53.0252009657
 20
-51.3309425809
 30
0.0
 10
52.8741470491
 20
-51.3347189256
 30
0.0
 10
52.7131246137
 20
-51.2958889481
 30
0.0
 10
52.6083892864
 20
-51.2460204738
 30
0.0
 10
52.5557115117
 20
-51.2156049869
 30
0.0
  0
SPLINE
  5
419
100
AcDbEntity
  8
0
100
AcDbSpline
 62
7
  6
CONTINUOUS
 70
0
 71
3
 72
11
 73
7
 74
0
 42
0.0000001
 43
0.0000001
 44
0.0000000001
 40
0.0
 40
0.0
 40
0.0
 40
0.0
 40
0.2898085355
 40
0.5490451079
 40
0.7822281622
 40
1.0
 40
1.0
 40
1.0
 40
1.0
 10
-58.106499744
 20
48.6040610478
 30
0.0
 10
-58.1064997442
 20
48.6648788254
 30
0.0
 10
-58.0973179068
 20
48.7804973481
 30
0.0
 10
-58.0504387785
 20
48.939336004
 30
0.0
 10
-57.9716524646
 20
49.068245605
 30
0.0
 10
-57.8975761563
 20
49.1304911286
 30
0.0
 10
-57.8579989846
 20
49.1533424855
 30
0.0
  0
SPLINE
  5
41A
100
AcDbEntity
  8
0
100
AcDbSpline
 62
7
  6
CONTINUOUS
 70
0
 71
3
 72
11
 73
7
 74
0
 42
0.0000001
 43
0.0000001
 44
0.0000000001
 40
0.0
 40
0.0
 40
0.0
 40
0.0
 40
0.2372212577
 40
0.5000061066
 40
0.7627876306
 40
1.0
 40
1.0
 40
1.0
 40
1.0
 10
-57.2579716066
 20
12.1894393569
 30
0.0
 10
-57.3784268888
 20
12.2589887267
 30
0.0
 10
-57.6063962358
 20
12.450855068
 30
0.0
 10
-57.8724777718
 20
12.8144607549
 30
0.0
 10
-58.0543272994
 20
13.2266918905
 30
0.0
 10
-58.1064997441
 20
13.5200463933
 30
0.0
 10
-58.106499744
 20
13.659133201
 30
0.0
  0
SPLINE
  5
41B
100
AcDbEntity
  8
0
100
AcDbSpline
 62
7
  6
CONTINUOUS
 70
0
 71
3
 72
15
 73
11
 74
0
 42
0.0000001
 43
0.0000001
 44
0.0000000001
 40
0.0
 40
0.0
 40
0.0
 40
0.0
 40
0.1449020547
 40
0.2745170795
 40
0.3911049983
 40
0.4999889035
 40
0.6088748225
 40
0.7254680988
 40
0.855090335
 40
1.0
 40
1.0
 40
1.0
 40
1.0
 10
-58.8136065252
 20
48.6040610478
 30
0.0
 10
-58.813606525
 20
48.6902248054
 30
0.0
 10
-58.8005853894
 20
48.8540334747
 30
0.0
 10
-58.7342109009
 20
49.0790398489
 30
0.0
 10
-58.6224406171
 20
49.261749198
 30
0.0
 10
-58.4672940771
 20
49.3922335957
 30
0.0
 10
-58.276707345
 20
49.4613314159
 30
0.0
 10
-58.0625826319
 20
49.4667538529
 30
0.0
 10
-57.8345260776
 20
49.411716565
 30
0.0
 10
-57.6861477172
 20
49.3410799329
 30
0.0
 10
-57.6115249972
 20
49.2979937097
 30
0.0
  0
SPLINE
  5
41C
100
AcDbEntity
  8
0
100
AcDbSpline
 62
7
  6
CONTINUOUS
 70
0
 71
3
 72
13
 73
9
 74
0
 42
0.0000001
 43
0.0000001
 44
0.0000000001
 40
0.0
 40
0.0
 40
0.0
 40
0.0
 40
0.1142620866
 40
0.2375408576
 40
0.5000060656
 40
0.7624679524
 40
0.8857428474
 40
1.0
 40
1.0
 40
1.0
 40
1.0
 10
-57.6115249972
 20
11.5770669218
 30
0.0
 10
-57.6938193612
 20
11.6245826565
 30
0.0
 10
-57.8563811136
 20
11.7385242271
 30
0.0
 10
-58.1606859163
 20
12.0233857146
 30
0.0
 10
-58.4821685344
 20
12.4624600379
 30
0.0
 10
-58.7016763653
 20
12.9604063515
 30
0.0
 10
-58.7962155078
 20
13.3663638727
 30
0.0
 10
-58.8136065251
 20
13.5641104273
 30
0.0
 10
-58.8136065252
 20
13.659133201
 30
0.0
  0
ELLIPSE
  5
41D
100
AcDbEntity
  8
ASSI
100
AcDbEllipse
 62
7
  6
CONTINUOUS
 10
76.9062716539
 20
-75.3882074745
 30
0.0
 11
-0.0319307066
 21
0.0553022874
 31
0.0
 40
0.5636716562
 41
-2.5265807376
 42
-2.3682119497
  0
ELLIPSE
  5
41E
100
AcDbEntity
  8
ASSI
100
AcDbEllipse
 62
7
  6
CONTINUOUS
 10
76.9062716539
 20
-5.1115205669
 30
0.0
 11
-0.0311754239
 21
0.0539936769
 31
0.0
 40
0.5913227191
 41
-2.3442738678
 42
-0.7974202594
  0
ELLIPSE
  5
41F
100
AcDbEntity
  8
ASSI
100
AcDbEllipse
 62
7
  6
CONTINUOUS
 10
-70.2241125717
 20
79.8397193082
 30
0.0
 11
-0.0319307066
 21
0.0553022874
 31
0.0
 40
0.5636716562
 41
-0.7734729046
 42
-0.6150203534
  0
ELLIPSE
  5
420
100
AcDbEntity
  8
ASSI
100
AcDbEllipse
 62
7
  6
CONTINUOUS
 10
38.915971771
 20
-37.4815905536
 30
0.0
 11
0.2999993451
 21
0.1746271577
 31
0.0
 40
0.0035896273
 41
-0.7351277754
 42
-0.0020894543
  0
ELLIPSE
  5
421
100
AcDbEntity
  8
ASSI
100
AcDbEllipse
 62
7
  6
CONTINUOUS
 10
23.0060691943
 20
-28.2954122037
 30
0.0
 11
0.2999993451
 21
0.1746271577
 31
0.0
 40
0.0035896273
 41
-0.7351277754
 42
-0.0020894543
  0
ELLIPSE
  5
422
100
AcDbEntity
  8
ASSI
100
AcDbEllipse
 62
7
  6
CONTINUOUS
 10
7.0961666176
 20
-19.1092338538
 30
0.0
 11
0.2999993451
 21
0.1746271577
 31
0.0
 40
0.0035896273
 41
-0.7351277754
 42
-0.0020894543
  0
ELLIPSE
  5
423
100
AcDbEntity
  8
ASSI
100
AcDbEllipse
 62
7
  6
CONTINUOUS
 10
-8.8137359591
 20
-9.923055504
 30
0.0
 11
0.2999993451
 21
0.1746271577
 31
0.0
 40
0.0035896273
 41
-0.7351277754
 42
-0.0020894543
  0
ELLIPSE
  5
424
100
AcDbEntity
  8
ASSI
100
AcDbEllipse
 62
7
  6
CONTINUOUS
 10
-24.7236385358
 20
-0.7368771541
 30
0.0
 11
0.2999993451
 21
0.1746271577
 31
0.0
 40
0.0035896273
 41
-0.7351277754
 42
-0.0020894543
  0
ELLIPSE
  5
425
100
AcDbEntity
  8
ASSI
100
AcDbEllipse
 62
7
  6
CONTINUOUS
 10
-40.4957285064
 20
8.5295367426
 30
0.0
 11
0.1999995634
 21
0.1164181051
 31
0.0
 40
0.0035896273
 41
-0.7351277754
 42
-0.6748017824
  0
ELLIPSE
  5
426
100
AcDbEntity
  8
ASSI
100
AcDbEllipse
 62
7
  6
CONTINUOUS
 10
3.4043690831
 20
-16.3034156709
 30
0.0
 11
0.2999972416
 21
-0.0022477848
 31
0.0
 40
0.5723275643
 41
0.7896864073
 42
2.3081228565
  0
ELLIPSE
  5
427
100
AcDbEntity
  8
ASSI
100
AcDbEllipse
 62
7
  6
CONTINUOUS
 10
51.1376855632
 20
-43.8070832706
 30
0.0
 11
0.1998333781
 21
-0.0157785196
 31
0.0
 40
0.5172961965
 41
0.8262203412
 42
2.3446567905
  0
ELLIPSE
  5
428
100
AcDbEntity
  8
ASSI
100
AcDbEllipse
 62
7
  6
CONTINUOUS
 10
-44.3217298969
 20
11.3099868287
 30
0.0
 11
0.1998333781
 21
-0.0157785196
 31
0.0
 40
0.5172961965
 41
0.8262203412
 42
2.3446567905
  0
ELLIPSE
  5
429
100
AcDbEntity
  8
ASSI
100
AcDbEllipse
 62
7
  6
CONTINUOUS
 10
35.2241742365
 20
-34.6757723707
 30
0.0
 11
0.2999972416
 21
-0.0022477848
 31
0.0
 40
0.5723275643
 41
0.7896864073
 42
2.3081228565
  0
ELLIPSE
  5
42A
100
AcDbEntity
  8
ASSI
100
AcDbEllipse
 62
7
  6
CONTINUOUS
 10
19.3142716598
 20
-25.4895940208
 30
0.0
 11
0.2999972416
 21
-0.0022477848
 31
0.0
 40
0.5723275643
 41
0.7896864073
 42
2.3081228565
  0
ELLIPSE
  5
42B
100
AcDbEntity
  8
ASSI
100
AcDbEllipse
 62
7
  6
CONTINUOUS
 10
-12.5055334936
 20
-7.117237321
 30
0.0
 11
0.2999972416
 21
-0.0022477848
 31
0.0
 40
0.5723275643
 41
0.7896864073
 42
2.3081228565
  0
ELLIPSE
  5
42C
100
AcDbEntity
  8
ASSI
100
AcDbEllipse
 62
7
  6
CONTINUOUS
 10
-28.4154360703
 20
2.0689410288
 30
0.0
 11
0.2999972416
 21
-0.0022477848
 31
0.0
 40
0.5723275643
 41
0.7896864073
 42
2.3081228565
  0
ELLIPSE
  5
42D
100
AcDbEntity
  8
ASSI
100
AcDbEllipse
 62
7
  6
CONTINUOUS
 10
49.6194580333
 20
-45.1104977835
 30
0.0
 11
0.5413005334
 21
0.8416911418
 31
0.0
 40
0.6067084637
 41
0.7148472392
 42
0.8145158917
  0
ELLIPSE
  5
42E
100
AcDbEntity
  8
ASSI
100
AcDbEllipse
 62
7
  6
CONTINUOUS
 10
-45.8399574269
 20
10.0065723158
 30
0.0
 11
0.5413005334
 21
0.8416911418
 31
0.0
 40
0.6067084637
 41
0.7148472392
 42
0.8145158917
  0
ELLIPSE
  5
42F
100
AcDbEntity
  8
ASSI
100
AcDbEllipse
 62
7
  6
CONTINUOUS
 10
-40.4957285064
 20
9.1009015768
 30
0.0
 11
0.1998333781
 21
-0.0157785196
 31
0.0
 40
0.5172961965
 41
-0.692216108
 42
0.8262203412
  0
ELLIPSE
  5
430
100
AcDbEntity
  8
ASSI
100
AcDbEllipse
 62
7
  6
CONTINUOUS
 10
38.915971771
 20
-36.807369998
 30
0.0
 11
0.2999972416
 21
-0.0022477848
 31
0.0
 40
0.5723275643
 41
-0.728750042
 42
0.7896864073
  0
ELLIPSE
  5
431
100
AcDbEntity
  8
ASSI
100
AcDbEllipse
 62
7
  6
CONTINUOUS
 10
23.0060691943
 20
-27.6211916481
 30
0.0
 11
0.2999972416
 21
-0.0022477848
 31
0.0
 40
0.5723275643
 41
-0.728750042
 42
0.7896864073
  0
ELLIPSE
  5
432
100
AcDbEntity
  8
ASSI
100
AcDbEllipse
 62
7
  6
CONTINUOUS
 10
-8.8137359591
 20
-9.2488349484
 30
0.0
 11
0.2999972416
 21
-0.0022477848
 31
0.0
 40
0.5723275643
 41
-0.728750042
 42
0.7896864073
  0
ELLIPSE
  5
433
100
AcDbEntity
  8
ASSI
100
AcDbEllipse
 62
7
  6
CONTINUOUS
 10
-24.7236385358
 20
-0.0626565985
 30
0.0
 11
0.2999972416
 21
-0.0022477848
 31
0.0
 40
0.5723275643
 41
-0.728750042
 42
0.7896864073
  0
ELLIPSE
  5
434
100
AcDbEntity
  8
ASSI
100
AcDbEllipse
 62
7
  6
CONTINUOUS
 10
7.0961666176
 20
-18.4350132983
 30
0.0
 11
0.2999972416
 21
-0.0022477848
 31
0.0
 40
0.5723275643
 41
-0.728750042
 42
0.7896864073
  0
ELLIPSE
  5
435
100
AcDbEntity
  8
ASSI
100
AcDbEllipse
 62
7
  6
CONTINUOUS
 10
-41.5936201686
 20
7.5547904019
 30
0.0
 11
0.4625183445
 21
0.8873459255
 31
0.0
 40
0.5463614449
 41
0.662201126
 42
0.7618697785
  0
ELLIPSE
  5
436
100
AcDbEntity
  8
ASSI
100
AcDbEllipse
 62
7
  6
CONTINUOUS
 10
76.9195107468
 20
-5.10389547
 30
0.0
 11
0.1365023326
 21
1.2306519884
 31
0.0
 40
0.0962714138
 41
-3.8917430252
 42
-3.8564132784
  0
ELLIPSE
  5
437
100
AcDbEntity
  8
ASSI
100
AcDbEllipse
 62
7
  6
CONTINUOUS
 10
76.9195107468
 20
-75.7735435752
 30
0.0
 11
0.1387214801
 21
1.2585231556
 31
0.0
 40
0.0920685296
 41
-3.8374748546
 42
-3.8021451078
  0
ELLIPSE
  5
438
100
AcDbEntity
  8
ASSI
100
AcDbEllipse
 62
7
  6
CONTINUOUS
 10
-70.5511988225
 20
80.0438439933
 30
0.0
 11
1.1592455945
 21
-0.5090882972
 31
0.0
 40
0.0921189357
 41
-2.4809772198
 42
-2.4456474731
  0
ELLIPSE
  5
439
100
AcDbEntity
  8
ASSI
100
AcDbEllipse
 62
7
  6
CONTINUOUS
 10
76.9195107468
 20
-5.10389547
 30
0.0
 11
1.1339988709
 21
-0.4970753424
 31
0.0
 40
0.0963242103
 41
-2.4267061945
 42
-2.3913764477
  0
ELLIPSE
  5
43A
100
AcDbEntity
  8
0
100
AcDbEllipse
 62
7
  6
CONTINUOUS
 10
76.9062716539
 20
-75.3882074745
 30
0.0
 11
-0.0319307066
 21
0.0553022874
 31
0.0
 40
0.5636716562
 41
-2.5265807376
 42
-2.3682119497
  0
ELLIPSE
  5
43B
100
AcDbEntity
  8
0
100
AcDbEllipse
 62
7
  6
CONTINUOUS
 10
76.9062716539
 20
-5.1115205669
 30
0.0
 11
-0.0311754239
 21
0.0539936769
 31
0.0
 40
0.5913227191
 41
-2.3442738678
 42
-0.7974202594
  0
ELLIPSE
  5
43C
100
AcDbEntity
  8
0
100
AcDbEllipse
 62
7
  6
CONTINUOUS
 10
-70.2241125717
 20
79.8397193082
 30
0.0
 11
-0.0319307066
 21
0.0553022874
 31
0.0
 40
0.5636716562
 41
-0.7734729046
 42
-0.6150203534
  0
ELLIPSE
  5
43D
100
AcDbEntity
  8
0
100
AcDbEllipse
 62
7
  6
CONTINUOUS
 10
38.915971771
 20
-37.4815905536
 30
0.0
 11
0.2999993451
 21
0.1746271577
 31
0.0
 40
0.0035896273
 41
-0.7351277754
 42
-0.0020894543
  0
ELLIPSE
  5
43E
100
AcDbEntity
  8
0
100
AcDbEllipse
 62
7
  6
CONTINUOUS
 10
23.0060691943
 20
-28.2954122037
 30
0.0
 11
0.2999993451
 21
0.1746271577
 31
0.0
 40
0.0035896273
 41
-0.7351277754
 42
-0.0020894543
  0
ELLIPSE
  5
43F
100
AcDbEntity
  8
0
100
AcDbEllipse
 62
7
  6
CONTINUOUS
 10
7.0961666176
 20
-19.1092338538
 30
0.0
 11
0.2999993451
 21
0.1746271577
 31
0.0
 40
0.0035896273
 41
-0.7351277754
 42
-0.0020894543
  0
ELLIPSE
  5
440
100
AcDbEntity
  8
0
100
AcDbEllipse
 62
7
  6
CONTINUOUS
 10
-8.8137359591
 20
-9.923055504
 30
0.0
 11
0.2999993451
 21
0.1746271577
 31
0.0
 40
0.0035896273
 41
-0.7351277754
 42
-0.0020894543
  0
ELLIPSE
  5
441
100
AcDbEntity
  8
0
100
AcDbEllipse
 62
7
  6
CONTINUOUS
 10
-24.7236385358
 20
-0.7368771541
 30
0.0
 11
0.2999993451
 21
0.1746271577
 31
0.0
 40
0.0035896273
 41
-0.7351277754
 42
-0.0020894543
  0
ELLIPSE
  5
442
100
AcDbEntity
  8
0
100
AcDbEllipse
 62
7
  6
CONTINUOUS
 10
-40.4957285064
 20
8.5295367426
 30
0.0
 11
0.1999995634
 21
0.1164181051
 31
0.0
 40
0.0035896273
 41
-0.7351277754
 42
-0.6748017824
  0
ELLIPSE
  5
443
100
AcDbEntity
  8
0
100
AcDbEllipse
 62
7
  6
CONTINUOUS
 10
3.4043690831
 20
-16.3034156709
 30
0.0
 11
0.2999972416
 21
-0.0022477848
 31
0.0
 40
0.5723275643
 41
0.7896864073
 42
2.3081228565
  0
ELLIPSE
  5
444
100
AcDbEntity
  8
0
100
AcDbEllipse
 62
7
  6
CONTINUOUS
 10
51.1376855632
 20
-43.8070832706
 30
0.0
 11
0.1998333781
 21
-0.0157785196
 31
0.0
 40
0.5172961965
 41
0.8262203412
 42
2.3446567905
  0
ELLIPSE
  5
445
100
AcDbEntity
  8
0
100
AcDbEllipse
 62
7
  6
CONTINUOUS
 10
-44.3217298969
 20
11.3099868287
 30
0.0
 11
0.1998333781
 21
-0.0157785196
 31
0.0
 40
0.5172961965
 41
0.8262203412
 42
2.3446567905
  0
ELLIPSE
  5
446
100
AcDbEntity
  8
0
100
AcDbEllipse
 62
7
  6
CONTINUOUS
 10
35.2241742365
 20
-34.6757723707
 30
0.0
 11
0.2999972416
 21
-0.0022477848
 31
0.0
 40
0.5723275643
 41
0.7896864073
 42
2.3081228565
  0
ELLIPSE
  5
447
100
AcDbEntity
  8
0
100
AcDbEllipse
 62
7
  6
CONTINUOUS
 10
19.3142716598
 20
-25.4895940208
 30
0.0
 11
0.2999972416
 21
-0.0022477848
 31
0.0
 40
0.5723275643
 41
0.7896864073
 42
2.3081228565
  0
ELLIPSE
  5
448
100
AcDbEntity
  8
0
100
AcDbEllipse
 62
7
  6
CONTINUOUS
 10
-12.5055334936
 20
-7.117237321
 30
0.0
 11
0.2999972416
 21
-0.0022477848
 31
0.0
 40
0.5723275643
 41
0.7896864073
 42
2.3081228565
  0
ELLIPSE
  5
449
100
AcDbEntity
  8
0
100
AcDbEllipse
 62
7
  6
CONTINUOUS
 10
-28.4154360703
 20
2.0689410288
 30
0.0
 11
0.2999972416
 21
-0.0022477848
 31
0.0
 40
0.5723275643
 41
0.7896864073
 42
2.3081228565
  0
ELLIPSE
  5
44A
100
AcDbEntity
  8
0
100
AcDbEllipse
 62
7
  6
CONTINUOUS
 10
49.6194580333
 20
-45.1104977835
 30
0.0
 11
0.5413005334
 21
0.8416911418
 31
0.0
 40
0.6067084637
 41
0.7148472392
 42
0.8145158917
  0
ELLIPSE
  5
44B
100
AcDbEntity
  8
0
100
AcDbEllipse
 62
7
  6
CONTINUOUS
 10
-45.8399574269
 20
10.0065723158
 30
0.0
 11
0.5413005334
 21
0.8416911418
 31
0.0
 40
0.6067084637
 41
0.7148472392
 42
0.8145158917
  0
ELLIPSE
  5
44C
100
AcDbEntity
  8
0
100
AcDbEllipse
 62
7
  6
CONTINUOUS
 10
-40.4957285064
 20
9.1009015768
 30
0.0
 11
0.1998333781
 21
-0.0157785196
 31
0.0
 40
0.5172961965
 41
-0.692216108
 42
0.8262203412
  0
ELLIPSE
  5
44D
100
AcDbEntity
  8
0
100
AcDbEllipse
 62
7
  6
CONTINUOUS
 10
38.915971771
 20
-36.807369998
 30
0.0
 11
0.2999972416
 21
-0.0022477848
 31
0.0
 40
0.5723275643
 41
-0.728750042
 42
0.7896864073
  0
ELLIPSE
  5
44E
100
AcDbEntity
  8
0
100
AcDbEllipse
 62
7
  6
CONTINUOUS
 10
23.0060691943
 20
-27.6211916481
 30
0.0
 11
0.2999972416
 21
-0.0022477848
 31
0.0
 40
0.5723275643
 41
-0.728750042
 42
0.7896864073
  0
ELLIPSE
  5
44F
100
AcDbEntity
  8
0
100
AcDbEllipse
 62
7
  6
CONTINUOUS
 10
-8.8137359591
 20
-9.2488349484
 30
0.0
 11
0.2999972416
 21
-0.0022477848
 31
0.0
 40
0.5723275643
 41
-0.728750042
 42
0.7896864073
  0
ELLIPSE
  5
450
100
AcDbEntity
  8
0
100
AcDbEllipse
 62
7
  6
CONTINUOUS
 10
-24.7236385358
 20
-0.0626565985
 30
0.0
 11
0.2999972416
 21
-0.0022477848
 31
0.0
 40
0.5723275643
 41
-0.728750042
 42
0.7896864073
  0
ELLIPSE
  5
451
100
AcDbEntity
  8
0
100
AcDbEllipse
 62
7
  6
CONTINUOUS
 10
7.0961666176
 20
-18.4350132983
 30
0.0
 11
0.2999972416
 21
-0.0022477848
 31
0.0
 40
0.5723275643
 41
-0.728750042
 42
0.7896864073
  0
ELLIPSE
  5
452
100
AcDbEntity
  8
0
100
AcDbEllipse
 62
7
  6
CONTINUOUS
 10
-41.5936201686
 20
7.5547904019
 30
0.0
 11
0.4625183445
 21
0.8873459255
 31
0.0
 40
0.5463614449
 41
0.662201126
 42
0.7618697785
  0
ELLIPSE
  5
453
100
AcDbEntity
  8
0
100
AcDbEllipse
 62
7
  6
CONTINUOUS
 10
76.9195107468
 20
-5.10389547
 30
0.0
 11
0.1365023326
 21
1.2306519884
 31
0.0
 40
0.0962714138
 41
-3.8917430252
 42
-3.8564132784
  0
ELLIPSE
  5
454
100
AcDbEntity
  8
0
100
AcDbEllipse
 62
7
  6
CONTINUOUS
 10
76.9195107468
 20
-75.7735435752
 30
0.0
 11
0.1387214801
 21
1.2585231556
 31
0.0
 40
0.0920685296
 41
-3.8374748546
 42
-3.8021451078
  0
ELLIPSE
  5
455
100
AcDbEntity
  8
0
100
AcDbEllipse
 62
7
  6
CONTINUOUS
 10
-70.5511988225
 20
80.0438439933
 30
0.0
 11
1.1592455945
 21
-0.5090882972
 31
0.0
 40
0.0921189357
 41
-2.4809772198
 42
-2.4456474731
  0
ELLIPSE
  5
456
100
AcDbEntity
  8
0
100
AcDbEllipse
 62
7
  6
CONTINUOUS
 10
76.9195107468
 20
-5.10389547
 30
0.0
 11
1.1339988709
 21
-0.4970753424
 31
0.0
 40
0.0963242103
 41
-2.4267061945
 42
-2.3913764477
  0
ENDSEC
  0
SECTION
  2
OBJECTS
  0
DICTIONARY
  5
C
100
AcDbDictionary
280
0
281
1
  3
ACAD_GROUP
350
D
  3
ACAD_MLINESTYLE
350
17
  3
ACAD_LAYOUT
350
1A
  3
ACAD_PLOTSETTINGS
350
19
  3
ACAD_PLOTSTYLENAME
350
E
  0
DICTIONARY
  5
D
102
{ACAD_REACTORS
330
C
102
}
100
AcDbDictionary
280
0
281
1
  0
ACDBDICTIONARYWDFLT
  5
E
102
{ACAD_REACTORS
330
C
102
}
100
AcDbDictionary
281
1
  3
Normal
350
F
100
AcDbDictionaryWithDefault
340
F
  0
DICTIONARY
  5
17
102
{ACAD_REACTORS
330
C
102
}
100
AcDbDictionary
280
0
281
1
  3
Standard
350
18
  0
DICTIONARY
  5
19
102
{ACAD_REACTORS
330
C
102
}
100
AcDbDictionary
281
1
  0
DICTIONARY
  5
1A
102
{ACAD_REACTORS
330
C
102
}
100
AcDbDictionary
281
1
  3
Model
350
457
  3
Layout1
350
458
  0
ACDBPLACEHOLDER
  5
F
102
{ACAD_REACTORS
330
E
102
}
  0
MLINESTYLE
  5
18
102
{ACAD_REACTORS
330
17
102
}
100
AcDbMlineStyle
  2
STANDARD
 70
0
  3

 62
256
 51
90.0
 52
90.0
 71
2
 49
0.5
 62
256
  6
BYLAYER
 49
-0.5
 62
256
  6
BYLAYER
  0
LAYOUT
  5
457
102
{ACAD_REACTORS
330
1A
102
}
100
AcDbPlotSettings
  1

  2
none_device
  4
ISO_A4_(297.00_x_210.00_MM)
  6

 40
0.0
 41
0.0
 42
0.0
 43
0.0
 44
297.0
 45
210.0
 46
0.0
 47
0.0
 48
0.0
 49
0.0
140
0.0
141
0.0
142
1.0
143
1.0
 70
1024
 72
1
 73
0
 74
0
  7

 75
0
147
1.0
148
0.0
149
0.0
100
AcDbLayout
  1
Model
 70
0
 71
0
 10
0.0
 20
0.0
 11
297.0
 21
210.0
 12
0.0
 22
0.0
 32
0.0
 14
0.0
 24
0.0
 34
0.0
 15
0.0
 25
0.0
 35
0.0
146
0.0
 13
0.0
 23
0.0
 33
0.0
 16
1.0
 26
0.0
 36
0.0
 17
0.0
 27
1.0
 37
0.0
 76
0
330
21B
345
0
346
0
  0
LAYOUT
  5
458
102
{ACAD_REACTORS
330
1A
102
}
100
AcDbPlotSettings
  1

  2
none_device
  4
ISO_A4_(297.00_x_210.00_MM)
  6

 40
0.0
 41
0.0
 42
0.0
 43
0.0
 44
297.0
 45
210.0
 46
0.0
 47
0.0
 48
0.0
 49
0.0
140
0.0
141
0.0
142
1.0
143
1.0
 70
0
 72
1
 73
0
 74
0
  7

 75
0
147
1.0
148
0.0
149
0.0
100
AcDbLayout
  1
Layout1
 70
0
 71
1
 10
0.0
 20
0.0
 11
297.0
 21
210.0
 12
0.0
 22
0.0
 32
0.0
 14
0.0
 24
0.0
 34
0.0
 15
0.0
 25
0.0
 35
0.0
146
0.0
 13
0.0
 23
0.0
 33
0.0
 16
1.0
 26
0.0
 36
0.0
 17
0.0
 27
1.0
 37
0.0
 76
0
330
21C
345
0
346
0
  0
ENDSEC
  0
EOF
