  0
SECTION
  2
HEADER
  9
$ACADVER
  1
AC1024
  9
$DWGCODEPAGE
  3
ANSI_1252
  9
$EXTMAX
 10
297.0
 20
210.0
 30
0.0
  9
$EXTMIN
 10
0.0
 20
0.0
 30
0.0
  9
$LIMMIN
 10
0.0
 20
0.0
  9
$LIMMAX
 10
297.0
 20
210.0
  9
$VIEWCTR
 10
148.5
 20
105.0
  9
$VIEWSIZE
 40
210.0
  9
$CLAYER
  8
0
  9
$LTSCALE
 40
16.335
  9
$CELTYPE
  6
BYLAYER
  9
$DIMSCALE
 40
1.0
  9
$DIMASZ
 40
3.0
  9
$DIMEXO
 40
0.5
  9
$DIMDLI
 40
11.286
  9
$DIMEXE
 40
1.5
  9
$DIMCEN
 40
2.673
  9
$DIMLFAC
 40
1.0
  9
$DIMBLK
  1
_FILLED
  9
$DIMALT
 70
0
  9
$DIMALTF
 40
0.0393700787
  9
$DIMTXT
 40
3.0
  9
$DIMTOL
 70
1
  9
$DIMLIM
 70
0
  9
$DIMTFAC
 40
1.0
  9
$DIMTP
 40
0.01
  9
$DIMTM
 40
0.01
  9
$DIMGAP
 40
0.625
  9
$DIMDSEP
 70
44
  9
$AUNITS
 70
0
  9
$PDMODE
 70
3
  9
$PDSIZE
 40
3.0
  9
$HANDSEED
  5
460
  9
$TILEMODE
 70
1
  9
$MEASUREMENT
 70
1
  9
$INSUNITS
 70
4
  0
ENDSEC
  0
SECTION
  2
CLASSES
  0
CLASS
  1
ACDBDICTIONARYWDFLT
  2
AcDbDictionaryWithDefault
  3
AutoCAD 2000
 90
0
 91
1
280
0
281
0
  0
CLASS
  1
ACDBPLACEHOLDER
  2
AcDbPlaceHolder
  3
AutoCAD 2000
 90
0
 91
1
280
0
281
0
  0
CLASS
  1
LAYOUT
  2
AcDbLayout
  3
AutoCAD 2000
 90
0
 91
0
280
0
281
0
  0
ENDSEC
  0
SECTION
  2
TABLES
  0
TABLE
  2
VPORT
  5
8
100
AcDbSymbolTable
 70
2
  0
VPORT
  5
1F4
100
AcDbSymbolTableRecord
100
AcDbViewportTableRecord
  2
*ACTIVE
 70
0
 10
0.0
 20
0.0
 11
1.0
 21
1.0
 12
148.5
 22
105.0
 13
0.0
 23
0.0
 14
1.0
 24
1.0
 15
0.0
 25
0.0
 16
0.0
 26
0.0
 36
1.0
 17
0.0
 27
0.0
 37
0.0
 40
210.0
 41
1.4142857143
 42
50.0
 43
0.0
 44
0.0
 50
0.0
 51
0.0
 71
0
 72
100
 73
1
 74
1
 75
0
 76
0
 77
0
 78
0
  0
ENDTAB
  0
TABLE
  2
LTYPE
  5
5
100
AcDbSymbolTable
 70
6
  0
LTYPE
  5
14
100
AcDbSymbolTableRecord
100
AcDbLinetypeTableRecord
  2
BYBLOCK
 70
0
  3

 72
65
 73
0
 40
0.0
  0
LTYPE
  5
15
100
AcDbSymbolTableRecord
100
AcDbLinetypeTableRecord
  2
BYLAYER
 70
0
  3

 72
65
 73
0
 40
0.0
  0
LTYPE
  5
16
100
AcDbSymbolTableRecord
100
AcDbLinetypeTableRecord
  2
CONTINUOUS
 70
64
  3
Solid line
 72
65
 73
0
 40
0.0
  0
LTYPE
  5
1F5
100
AcDbSymbolTableRecord
100
AcDbLinetypeTableRecord
  2
CENTER
 70
64
  3
____ _ ____ _ ____ _ ____ _ ____ _ ____ _ ____
 72
65
 73
4
 40
0.6
 49
0.375
 74
0
 49
-0.075
 74
0
 49
0.075
 74
0
 49
-0.075
 74
0
  0
LTYPE
  5
1F6
100
AcDbSymbolTableRecord
100
AcDbLinetypeTableRecord
  2
HIDDEN
 70
64
  3
- - - - - - - - - - - - - - - - - - - -
 72
65
 73
2
 40
0.2
 49
0.1
 74
0
 49
-0.1
 74
0
  0
LTYPE
  5
1F7
100
AcDbSymbolTableRecord
100
AcDbLinetypeTableRecord
  2
PHANTOM
 70
64
  3
_____ _ _ _____ _ _ _____ _ _ _____
 72
65
 73
6
 40
0.8
 49
0.45
 74
0
 49
-0.05
 74
0
 49
0.1
 74
0
 49
-0.05
 74
0
 49
0.1
 74
0
 49
-0.05
 74
0
  0
LTYPE
  5
1F8
100
AcDbSymbolTableRecord
100
AcDbLinetypeTableRecord
  2
DOT
 70
64
  3
. . . . . . . . . . . . . . . . . . . .
 72
65
 73
2
 40
0.2
 49
0.1
 74
0
 49
-0.1
 74
0
  0
LTYPE
  5
1F9
100
AcDbSymbolTableRecord
100
AcDbLinetypeTableRecord
  2
DASHED
 70
64
  3
- - - - - - - - - - - - - - - - - - - -
 72
65
 73
2
 40
0.2
 49
0.1
 74
0
 49
-0.1
 74
0
  0
ENDTAB
  0
TABLE
  2
LAYER
  5
2
100
AcDbSymbolTable
 70
36
  0
LAYER
  5
10
100
AcDbSymbolTableRecord
100
AcDbLayerTableRecord
  2
0
 70
0
 62
7
  6
CONTINUOUS
370
-3
390
F
  0
LAYER
  5
1FA
100
AcDbSymbolTableRecord
100
AcDbLayerTableRecord
  2
DEFAULT_1
 70
0
 62
7
  6
CENTER
370
-3
390
F
  0
LAYER
  5
1FB
100
AcDbSymbolTableRecord
100
AcDbLayerTableRecord
  2
DEFAULT_2
 70
0
 62
7
  6
HIDDEN
370
-3
390
F
  0
LAYER
  5
1FC
100
AcDbSymbolTableRecord
100
AcDbLayerTableRecord
  2
DEFAULT_3
 70
0
 62
7
  6
PHANTOM
370
-3
390
F
  0
LAYER
  5
1FD
100
AcDbSymbolTableRecord
100
AcDbLayerTableRecord
  2
ASSI
 70
0
 62
7
  6
CONTINUOUS
370
-3
390
F
  0
LAYER
  5
1FE
100
AcDbSymbolTableRecord
100
AcDbLayerTableRecord
  2
COORDINATE
 70
0
 62
7
  6
CONTINUOUS
370
-3
390
F
  0
LAYER
  5
1FF
100
AcDbSymbolTableRecord
100
AcDbLayerTableRecord
  2
COORD_ORIGINE
 70
0
 62
7
  6
CONTINUOUS
370
-3
390
F
  0
LAYER
  5
200
100
AcDbSymbolTableRecord
100
AcDbLayerTableRecord
  2
COPY_PUBLISH
 70
0
 62
7
  6
CONTINUOUS
370
-3
390
F
  0
LAYER
  5
201
100
AcDbSymbolTableRecord
100
AcDbLayerTableRecord
  2
COSMETIC
 70
0
 62
7
  6
CONTINUOUS
370
-3
390
F
  0
LAYER
  5
202
100
AcDbSymbolTableRecord
100
AcDbLayerTableRecord
  2
COSMETICI
 70
0
 62
7
  6
CONTINUOUS
370
-3
390
F
  0
LAYER
  5
203
100
AcDbSymbolTableRecord
100
AcDbLayerTableRecord
  2
CURVE
 70
0
 62
7
  6
CONTINUOUS
370
-3
390
F
  0
LAYER
  5
204
100
AcDbSymbolTableRecord
100
AcDbLayerTableRecord
  2
CURVE_TASSELLI
 70
0
 62
7
  6
CONTINUOUS
370
-3
390
F
  0
LAYER
  5
205
100
AcDbSymbolTableRecord
100
AcDbLayerTableRecord
  2
DRAFT
 70
0
 62
7
  6
CONTINUOUS
370
-3
390
F
  0
LAYER
  5
206
100
AcDbSymbolTableRecord
100
AcDbLayerTableRecord
  2
IMPORT_IGES
 70
0
 62
7
  6
CONTINUOUS
370
-3
390
F
  0
LAYER
  5
207
100
AcDbSymbolTableRecord
100
AcDbLayerTableRecord
  2
INTFCLR_2
 70
0
 62
7
  6
CONTINUOUS
370
-3
390
F
  0
LAYER
  5
208
100
AcDbSymbolTableRecord
100
AcDbLayerTableRecord
  2
INTF_1
 70
0
 62
7
  6
CONTINUOUS
370
-3
390
F
  0
LAYER
  5
209
100
AcDbSymbolTableRecord
100
AcDbLayerTableRecord
  2
INTF_21
 70
0
 62
7
  6
CONTINUOUS
370
-3
390
F
  0
LAYER
  5
20A
100
AcDbSymbolTableRecord
100
AcDbLayerTableRecord
  2
INTF_7
 70
0
 62
7
  6
CONTINUOUS
370
-3
390
F
  0
LAYER
  5
20B
100
AcDbSymbolTableRecord
100
AcDbLayerTableRecord
  2
NOTE
 70
0
 62
7
  6
CONTINUOUS
370
-3
390
F
  0
LAYER
  5
20C
100
AcDbSymbolTableRecord
100
AcDbLayerTableRecord
  2
PIANI
 70
0
 62
7
  6
CONTINUOUS
370
-3
390
F
  0
LAYER
  5
20D
100
AcDbSymbolTableRecord
100
AcDbLayerTableRecord
  2
PIANI_ORIGINE
 70
0
 62
7
  6
CONTINUOUS
370
-3
390
F
  0
LAYER
  5
20E
100
AcDbSymbolTableRecord
100
AcDbLayerTableRecord
  2
PIANI_RIFERIMENTO
 70
0
 62
7
  6
CONTINUOUS
370
-3
390
F
  0
LAYER
  5
20F
100
AcDbSymbolTableRecord
100
AcDbLayerTableRecord
  2
PUNTI
 70
0
 62
7
  6
CONTINUOUS
370
-3
390
F
  0
LAYER
  5
210
100
AcDbSymbolTableRecord
100
AcDbLayerTableRecord
  2
RACCORDO
 70
0
 62
7
  6
CONTINUOUS
370
-3
390
F
  0
LAYER
  5
211
100
AcDbSymbolTableRecord
100
AcDbLayerTableRecord
  2
RGB__255__255__255__
 70
0
 62
7
  6
CONTINUOUS
370
-3
390
F
  0
LAYER
  5
212
100
AcDbSymbolTableRecord
100
AcDbLayerTableRecord
  2
RGB____0____0____0__
 70
0
 62
7
  6
CONTINUOUS
370
-3
390
F
  0
LAYER
  5
213
100
AcDbSymbolTableRecord
100
AcDbLayerTableRecord
  2
SIMBOLI
 70
0
 62
7
  6
CONTINUOUS
370
-3
390
F
  0
LAYER
  5
214
100
AcDbSymbolTableRecord
100
AcDbLayerTableRecord
  2
SMUSSO
 70
0
 62
7
  6
CONTINUOUS
370
-3
390
F
  0
LAYER
  5
215
100
AcDbSymbolTableRecord
100
AcDbLayerTableRecord
  2
SNAPLINE
 70
0
 62
7
  6
CONTINUOUS
370
-3
390
F
  0
LAYER
  5
216
100
AcDbSymbolTableRecord
100
AcDbLayerTableRecord
  2
SUPERFICI
 70
0
 62
7
  6
CONTINUOUS
370
-3
390
F
  0
LAYER
  5
217
100
AcDbSymbolTableRecord
100
AcDbLayerTableRecord
  2
TRASH
 70
0
 62
7
  6
CONTINUOUS
370
-3
390
F
  0
LAYER
  5
218
100
AcDbSymbolTableRecord
100
AcDbLayerTableRecord
  2
XSEC_DATUMS
 70
0
 62
7
  6
CONTINUOUS
370
-3
390
F
  0
ENDTAB
  0
TABLE
  2
STYLE
  5
3
100
AcDbSymbolTable
 70
1
  0
STYLE
  5
11
100
AcDbSymbolTableRecord
100
AcDbTextStyleTableRecord
  2
STANDARD
 70
0
 40
0.0
 41
0.8
 50
0.0
 71
0
 42
0.2
  3
txt
  4

  0
STYLE
  5
219
100
AcDbSymbolTableRecord
100
AcDbTextStyleTableRecord
  2
TEXTSTYLE_1
 70
0
 40
0.0
 41
0.8
 50
0.0
 71
0
 42
0.2
  3
gdt
  4

  0
ENDTAB
  0
TABLE
  2
VIEW
  5
6
100
AcDbSymbolTable
 70
0
  0
ENDTAB
  0
TABLE
  2
UCS
  5
7
100
AcDbSymbolTable
 70
0
  0
ENDTAB
  0
TABLE
  2
APPID
  5
9
100
AcDbSymbolTable
 70
1
  0
APPID
  5
21A
100
AcDbSymbolTableRecord
100
AcDbRegAppTableRecord
  2
ACAD
 70
0
  0
ENDTAB
  0
TABLE
  2
BLOCK_RECORD
  5
1
100
AcDbSymbolTable
 70
0
  0
BLOCK_RECORD
  5
21B
100
AcDbSymbolTableRecord
100
AcDbBlockTableRecord
  2
*Model_Space
  0
BLOCK_RECORD
  5
21C
100
AcDbSymbolTableRecord
100
AcDbBlockTableRecord
  2
*Paper_Space
  0
BLOCK_RECORD
  5
21D
100
AcDbSymbolTableRecord
100
AcDbBlockTableRecord
  2
_FILLED
  0
ENDTAB
  0
TABLE
  2
DIMSTYLE
  5
A
100
AcDbSymbolTable
 70
1
100
AcDbDimStyleTable
 71
0
  0
DIMSTYLE
105
21E
100
AcDbSymbolTableRecord
100
AcDbDimStyleTableRecord
  2
STANDARD
 70
0
  3

  4

 40
1.0
 41
3.0
 42
0.5
 43
0.38
 44
1.5
 45
0.0
 46
0.0
 47
0.01
 48
0.01
140
3.0
141
0.09
142
0.0
143
25.4
144
1.0
145
0.0
146
1.0
147
0.625
 71
1
 72
0
 73
0
 74
0
 75
0
 76
0
 77
1
 78
8
 79
2
170
0
171
1
172
0
173
0
174
0
175
0
176
0
177
0
178
0
270
2
179
2
271
2
272
2
273
2
274
2
275
0
280
0
281
0
282
0
283
1
284
8
285
0
286
0
287
3
288
0
340
11
278
44
341
21D
342
21D
343
21D
344
21D
  0
ENDTAB
  0
ENDSEC
  0
SECTION
  2
BLOCKS
  0
BLOCK
  5
20
100
AcDbEntity
  8
0
100
AcDbBlockBegin
  2
*Model_Space
 70
0
 10
0.0
 20
0.0
 30
0.0
  3
*Model_Space
  1

  0
ENDBLK
  5
21
100
AcDbEntity
  8
0
100
AcDbBlockEnd
  0
BLOCK
  5
1C
100
AcDbEntity
  8
0
100
AcDbBlockBegin
  2
*Paper_Space
 70
0
 10
0.0
 20
0.0
 30
0.0
  3
*Paper_Space
  1

  0
ENDBLK
  5
1D
100
AcDbEntity
  8
0
100
AcDbBlockEnd
  0
BLOCK
  5
21F
100
AcDbEntity
  8
0
100
AcDbBlockBegin
  2
_FILLED
 70
64
 10
0.0
 20
0.0
  3
_FILLED
  1

  0
SOLID
  5
220
100
AcDbEntity
  8
0
  6
BYBLOCK
 62
0
100
AcDbTrace
 10
0.0
 20
0.0
 11
-1.0
 21
0.3166666667
 12
-1.0
 22
-0.3166666667
 13
-1.0
 23
-0.3166666667
  0
ENDBLK
  5
221
100
AcDbEntity
  8
0
  6
BYBLOCK
 62
0
100
AcDbBlockEnd
  0
ENDSEC
  0
SECTION
  2
ENTITIES
  0
LINE
  5
222
100
AcDbEntity
  8
SMUSSO
100
AcDbLine
 62
250
  6
CONTINUOUS
 10
-76.597342072
 20
77.7800260396
 11
-75.8902352908
 21
79.0047709097
  0
LINE
  5
223
100
AcDbEntity
  8
RACCORDO
100
AcDbLine
 62
7
  6
CONTINUOUS
 10
-76.390259451
 20
79.0543120874
 11
-75.3295992792
 21
79.6667239774
  0
LINE
  5
224
100
AcDbEntity
  8
SMUSSO
100
AcDbLine
 62
250
  6
CONTINUOUS
 10
-75.8902352908
 20
79.0047709097
 11
-74.8295751191
 21
79.6171827997
  0
LINE
  5
225
100
AcDbEntity
  8
ASSI
100
AcDbLine
 62
7
  6
CONTINUOUS
 10
-72.3017178175
 20
80.2712467296
 11
-74.1970394534
 21
79.2520040888
  0
LINE
  5
226
100
AcDbEntity
  8
0
100
AcDbLine
 62
7
  6
CONTINUOUS
 10
-72.3017178175
 20
80.2712467296
 11
-74.1970394534
 21
79.2520040888
  0
LINE
  5
227
100
AcDbEntity
  8
ASSI
100
AcDbLine
 62
250
  6
CONTINUOUS
 10
-71.8244789948
 20
80.2092983792
 11
-73.9108821851
 21
79.0872982621
  0
LINE
  5
228
100
AcDbEntity
  8
0
100
AcDbLine
 62
250
  6
CONTINUOUS
 10
-71.8244789948
 20
80.2092983792
 11
-73.9108821851
 21
79.0872982621
  0
LINE
  5
229
100
AcDbEntity
  8
0
100
AcDbLine
 62
250
  6
CONTINUOUS
 10
74.7307319528
 20
-72.4921918572
 11
75.639291059
 21
-72.2536755852
  0
LINE
  5
22A
100
AcDbEntity
  8
0
100
AcDbLine
 62
250
  6
CONTINUOUS
 10
75.5832673593
 20
-68.9407855705
 11
75.0934190063
 21
-69.0724467698
  0
LINE
  5
22B
100
AcDbEntity
  8
0
100
AcDbLine
 62
250
  6
CONTINUOUS
 10
76.0506769133
 20
-68.8168987695
 11
75.787168837
 21
-68.8851053087
  0
LINE
  5
22C
100
AcDbEntity
  8
0
100
AcDbLine
 62
250
  6
CONTINUOUS
 10
74.7307319528
 20
-69.4398283416
 11
76.0506769133
 21
-69.1371755649
  0
LINE
  5
22D
100
AcDbEntity
  8
0
100
AcDbLine
 62
250
  6
CONTINUOUS
 10
76.0506769133
 20
-71.8780328088
 11
74.7307319528
 21
-72.1686238701
  0
LINE
  5
22E
100
AcDbEntity
  8
0
100
AcDbLine
 62
250
  6
CONTINUOUS
 10
74.7307319528
 20
-70.4426269332
 11
75.4635692167
 21
-70.3282511532
  0
LINE
  5
22F
100
AcDbEntity
  8
0
100
AcDbLine
 62
250
  6
CONTINUOUS
 10
76.0506769133
 20
-69.9562805913
 11
75.1923707956
 21
-70.0844775815
  0
LINE
  5
230
100
AcDbEntity
  8
SMUSSO
100
AcDbLine
 62
7
  6
CONTINUOUS
 10
-76.597342072
 20
5.9306416818
 11
-76.597342072
 21
78.5965752263
  0
LINE
  5
231
100
AcDbEntity
  8
SMUSSO
100
AcDbLine
 62
250
  6
CONTINUOUS
 10
71.8950819771
 20
-79.807022917
 11
73.3092955395
 21
-79.807022917
  0
LINE
  5
232
100
AcDbEntity
  8
RACCORDO
100
AcDbLine
 62
250
  6
CONTINUOUS
 10
-58.2125657612
 20
48.8351288991
 11
-57.3640786278
 21
49.3250347358
  0
LINE
  5
233
100
AcDbEntity
  8
RACCORDO
100
AcDbLine
 62
7
  6
CONTINUOUS
 10
-58.2125657612
 20
48.8351288991
 11
-58.2125657612
 21
13.6452599693
  0
LINE
  5
234
100
AcDbEntity
  8
RACCORDO
100
AcDbLine
 62
7
  6
CONTINUOUS
 10
-56.0912454176
 20
48.5900694513
 11
-56.0912454176
 21
14.8700837493
  0
LINE
  5
235
100
AcDbEntity
  8
ASSI
100
AcDbLine
 62
250
  6
CONTINUOUS
 10
-55.3928436391
 20
48.1868210174
 11
-55.3928436391
 21
13.5026197231
  0
LINE
  5
236
100
AcDbEntity
  8
0
100
AcDbLine
 62
250
  6
CONTINUOUS
 10
-55.3928436391
 20
48.1868210174
 11
-55.3928436391
 21
13.5026197231
  0
LINE
  5
237
100
AcDbEntity
  8
ASSI
100
AcDbLine
 62
7
  6
CONTINUOUS
 10
-55.3086455792
 20
48.1382061129
 11
-55.3086455792
 21
13.4418084142
  0
LINE
  5
238
100
AcDbEntity
  8
0
100
AcDbLine
 62
7
  6
CONTINUOUS
 10
-55.3086455792
 20
48.1382061129
 11
-55.3086455792
 21
13.4418084142
  0
LINE
  5
239
100
AcDbEntity
  8
ASSI
100
AcDbLine
 62
7
  6
CONTINUOUS
 10
-48.2070868116
 20
9.3381050498
 11
-48.1362941293
 21
9.4607215722
  0
LINE
  5
23A
100
AcDbEntity
  8
0
100
AcDbLine
 62
7
  6
CONTINUOUS
 10
-48.2070868116
 20
9.3381050498
 11
-48.1362941293
 21
9.4607215722
  0
LINE
  5
23B
100
AcDbEntity
  8
ASSI
100
AcDbLine
 62
7
  6
CONTINUOUS
 10
-47.8888067559
 20
9.4811471384
 11
-47.7827407387
 21
9.6648588689
  0
LINE
  5
23C
100
AcDbEntity
  8
0
100
AcDbLine
 62
7
  6
CONTINUOUS
 10
-47.8888067559
 20
9.4811471384
 11
-47.7827407387
 21
9.6648588689
  0
LINE
  5
23D
100
AcDbEntity
  8
ASSI
100
AcDbLine
 62
7
  6
CONTINUOUS
 10
-47.5352533653
 20
9.685284435
 11
-47.4291873481
 21
9.8689961656
  0
LINE
  5
23E
100
AcDbEntity
  8
0
100
AcDbLine
 62
7
  6
CONTINUOUS
 10
-47.5352533653
 20
9.685284435
 11
-47.4291873481
 21
9.8689961656
  0
LINE
  5
23F
100
AcDbEntity
  8
ASSI
100
AcDbLine
 62
7
  6
CONTINUOUS
 10
-47.1816999747
 20
9.8894217317
 11
-47.0756339575
 21
10.0731334622
  0
LINE
  5
240
100
AcDbEntity
  8
0
100
AcDbLine
 62
7
  6
CONTINUOUS
 10
-47.1816999747
 20
9.8894217317
 11
-47.0756339575
 21
10.0731334622
  0
LINE
  5
241
100
AcDbEntity
  8
ASSI
100
AcDbLine
 62
7
  6
CONTINUOUS
 10
-46.8281465841
 20
10.0935590284
 11
-46.7220805669
 21
10.2772707589
  0
LINE
  5
242
100
AcDbEntity
  8
0
100
AcDbLine
 62
7
  6
CONTINUOUS
 10
-46.8281465841
 20
10.0935590284
 11
-46.7220805669
 21
10.2772707589
  0
LINE
  5
243
100
AcDbEntity
  8
ASSI
100
AcDbLine
 62
7
  6
CONTINUOUS
 10
-46.4745931935
 20
10.297696325
 11
-46.3685271763
 21
10.4814080556
  0
LINE
  5
244
100
AcDbEntity
  8
0
100
AcDbLine
 62
7
  6
CONTINUOUS
 10
-46.4745931935
 20
10.297696325
 11
-46.3685271763
 21
10.4814080556
  0
LINE
  5
245
100
AcDbEntity
  8
ASSI
100
AcDbLine
 62
250
  6
CONTINUOUS
 10
-40.7006529319
 20
8.8659962607
 11
-40.7006529319
 21
8.4586266228
  0
LINE
  5
246
100
AcDbEntity
  8
0
100
AcDbLine
 62
250
  6
CONTINUOUS
 10
-40.7006529319
 20
8.8659962607
 11
-40.7006529319
 21
8.4586266228
  0
LINE
  5
247
100
AcDbEntity
  8
ASSI
100
AcDbLine
 62
7
  6
CONTINUOUS
 10
-40.649281897
 20
8.9325737676
 11
-40.649281897
 21
8.4891719176
  0
LINE
  5
248
100
AcDbEntity
  8
0
100
AcDbLine
 62
7
  6
CONTINUOUS
 10
-40.649281897
 20
8.9325737676
 11
-40.649281897
 21
8.4891719176
  0
LINE
  5
249
100
AcDbEntity
  8
ASSI
100
AcDbLine
 62
7
  6
CONTINUOUS
 10
-44.3179995151
 20
7.0925947865
 11
-44.2472068327
 21
7.2152113089
  0
LINE
  5
24A
100
AcDbEntity
  8
0
100
AcDbLine
 62
7
  6
CONTINUOUS
 10
-44.3179995151
 20
7.0925947865
 11
-44.2472068327
 21
7.2152113089
  0
LINE
  5
24B
100
AcDbEntity
  8
ASSI
100
AcDbLine
 62
7
  6
CONTINUOUS
 10
-43.9997194593
 20
7.2356368751
 11
-43.8936534422
 21
7.4193486056
  0
LINE
  5
24C
100
AcDbEntity
  8
0
100
AcDbLine
 62
7
  6
CONTINUOUS
 10
-43.9997194593
 20
7.2356368751
 11
-43.8936534422
 21
7.4193486056
  0
LINE
  5
24D
100
AcDbEntity
  8
ASSI
100
AcDbLine
 62
7
  6
CONTINUOUS
 10
-43.6461660687
 20
7.4397741717
 11
-43.5401000516
 21
7.6234859023
  0
LINE
  5
24E
100
AcDbEntity
  8
0
100
AcDbLine
 62
7
  6
CONTINUOUS
 10
-43.6461660687
 20
7.4397741717
 11
-43.5401000516
 21
7.6234859023
  0
LINE
  5
24F
100
AcDbEntity
  8
ASSI
100
AcDbLine
 62
7
  6
CONTINUOUS
 10
-43.2926126781
 20
7.6439114684
 11
-43.186546661
 21
7.8276231989
  0
LINE
  5
250
100
AcDbEntity
  8
0
100
AcDbLine
 62
7
  6
CONTINUOUS
 10
-43.2926126781
 20
7.6439114684
 11
-43.186546661
 21
7.8276231989
  0
LINE
  5
251
100
AcDbEntity
  8
ASSI
100
AcDbLine
 62
7
  6
CONTINUOUS
 10
-42.9390592876
 20
7.8480487651
 11
-42.8329932704
 21
8.0317604956
  0
LINE
  5
252
100
AcDbEntity
  8
0
100
AcDbLine
 62
7
  6
CONTINUOUS
 10
-42.9390592876
 20
7.8480487651
 11
-42.8329932704
 21
8.0317604956
  0
LINE
  5
253
100
AcDbEntity
  8
ASSI
100
AcDbLine
 62
7
  6
CONTINUOUS
 10
-42.585505897
 20
8.0521860617
 11
-42.4794398798
 21
8.2358977923
  0
LINE
  5
254
100
AcDbEntity
  8
0
100
AcDbLine
 62
7
  6
CONTINUOUS
 10
-42.585505897
 20
8.0521860617
 11
-42.4794398798
 21
8.2358977923
  0
LINE
  5
255
100
AcDbEntity
  8
RACCORDO
100
AcDbLine
 62
250
  6
CONTINUOUS
 10
-58.2125657612
 20
13.6452599693
 11
-56.0912454176
 21
14.8700837493
  0
LINE
  5
256
100
AcDbEntity
  8
RACCORDO
100
AcDbLine
 62
250
  6
CONTINUOUS
 10
-57.3640376238
 20
12.1755661252
 11
-55.2427172802
 21
13.4003899052
  0
LINE
  5
257
100
AcDbEntity
  8
ASSI
100
AcDbLine
 62
250
  6
CONTINUOUS
 10
-42.6451323449
 20
7.1869889693
 11
-42.3091873799
 21
7.5137425591
  0
LINE
  5
258
100
AcDbEntity
  8
0
100
AcDbLine
 62
250
  6
CONTINUOUS
 10
-42.6451323449
 20
7.1869889693
 11
-42.3091873799
 21
7.5137425591
  0
LINE
  5
259
100
AcDbEntity
  8
ASSI
100
AcDbLine
 62
7
  6
CONTINUOUS
 10
-42.6412074502
 20
7.1534538048
 11
-42.2122231066
 21
7.5707012376
  0
LINE
  5
25A
100
AcDbEntity
  8
0
100
AcDbLine
 62
7
  6
CONTINUOUS
 10
-42.6412074502
 20
7.1534538048
 11
-42.2122231066
 21
7.5707012376
  0
LINE
  5
25B
100
AcDbEntity
  8
ASSI
100
AcDbLine
 62
7
  6
CONTINUOUS
 10
-41.9471735592
 20
8.2144795029
 11
-43.9910646418
 21
6.9038266881
  0
LINE
  5
25C
100
AcDbEntity
  8
0
100
AcDbLine
 62
7
  6
CONTINUOUS
 10
-41.9471735592
 20
8.2144795029
 11
-43.9910646418
 21
6.9038266881
  0
LINE
  5
25D
100
AcDbEntity
  8
ASSI
100
AcDbLine
 62
7
  6
CONTINUOUS
 10
-48.1362941293
 20
9.4607215722
 11
-47.994872773
 21
9.5423764909
  0
LINE
  5
25E
100
AcDbEntity
  8
0
100
AcDbLine
 62
7
  6
CONTINUOUS
 10
-48.1362941293
 20
9.4607215722
 11
-47.994872773
 21
9.5423764909
  0
LINE
  5
25F
100
AcDbEntity
  8
ASSI
100
AcDbLine
 62
7
  6
CONTINUOUS
 10
-47.7827407387
 20
9.6648588689
 11
-47.6413193824
 21
9.7465137876
  0
LINE
  5
260
100
AcDbEntity
  8
0
100
AcDbLine
 62
7
  6
CONTINUOUS
 10
-47.7827407387
 20
9.6648588689
 11
-47.6413193824
 21
9.7465137876
  0
LINE
  5
261
100
AcDbEntity
  8
ASSI
100
AcDbLine
 62
7
  6
CONTINUOUS
 10
-47.4291873481
 20
9.8689961656
 11
-47.2877659919
 21
9.9506510842
  0
LINE
  5
262
100
AcDbEntity
  8
0
100
AcDbLine
 62
7
  6
CONTINUOUS
 10
-47.4291873481
 20
9.8689961656
 11
-47.2877659919
 21
9.9506510842
  0
LINE
  5
263
100
AcDbEntity
  8
ASSI
100
AcDbLine
 62
7
  6
CONTINUOUS
 10
-47.0756339575
 20
10.0731334622
 11
-46.9342126013
 21
10.1547883809
  0
LINE
  5
264
100
AcDbEntity
  8
0
100
AcDbLine
 62
7
  6
CONTINUOUS
 10
-47.0756339575
 20
10.0731334622
 11
-46.9342126013
 21
10.1547883809
  0
LINE
  5
265
100
AcDbEntity
  8
ASSI
100
AcDbLine
 62
7
  6
CONTINUOUS
 10
-46.7220805669
 20
10.2772707589
 11
-46.5806592107
 21
10.3589256776
  0
LINE
  5
266
100
AcDbEntity
  8
0
100
AcDbLine
 62
7
  6
CONTINUOUS
 10
-46.7220805669
 20
10.2772707589
 11
-46.5806592107
 21
10.3589256776
  0
LINE
  5
267
100
AcDbEntity
  8
ASSI
100
AcDbLine
 62
7
  6
CONTINUOUS
 10
-46.3685271763
 20
10.4814080556
 11
-46.2271058201
 21
10.5630629742
  0
LINE
  5
268
100
AcDbEntity
  8
0
100
AcDbLine
 62
7
  6
CONTINUOUS
 10
-46.3685271763
 20
10.4814080556
 11
-46.2271058201
 21
10.5630629742
  0
LINE
  5
269
100
AcDbEntity
  8
ASSI
100
AcDbLine
 62
7
  6
CONTINUOUS
 10
-48.4634818327
 20
9.4861443216
 11
-46.1935108174
 21
10.6662614167
  0
LINE
  5
26A
100
AcDbEntity
  8
0
100
AcDbLine
 62
7
  6
CONTINUOUS
 10
-48.4634818327
 20
9.4861443216
 11
-46.1935108174
 21
10.6662614167
  0
LINE
  5
26B
100
AcDbEntity
  8
SMUSSO
100
AcDbLine
 62
7
  6
CONTINUOUS
 10
71.8950819771
 20
-79.807022917
 11
72.6021887583
 21
-80.2152186004
  0
LINE
  5
26C
100
AcDbEntity
  8
SMUSSO
100
AcDbLine
 62
7
  6
CONTINUOUS
 10
-76.597342072
 20
5.9306416818
 11
71.8950819771
 21
-79.807022917
  0
LINE
  5
26D
100
AcDbEntity
  8
ASSI
100
AcDbLine
 62
250
  6
CONTINUOUS
 10
-24.8542484788
 20
-0.3354539338
 11
-24.8542484788
 21
-0.7648517458
  0
LINE
  5
26E
100
AcDbEntity
  8
0
100
AcDbLine
 62
250
  6
CONTINUOUS
 10
-24.8542484788
 20
-0.3354539338
 11
-24.8542484788
 21
-0.7648517458
  0
LINE
  5
26F
100
AcDbEntity
  8
ASSI
100
AcDbLine
 62
7
  6
CONTINUOUS
 10
-24.7771919264
 20
-0.2209492635
 11
-24.7771919264
 21
-0.7190338036
  0
LINE
  5
270
100
AcDbEntity
  8
0
100
AcDbLine
 62
7
  6
CONTINUOUS
 10
-24.7771919264
 20
-0.2209492635
 11
-24.7771919264
 21
-0.7190338036
  0
LINE
  5
271
100
AcDbEntity
  8
ASSI
100
AcDbLine
 62
7
  6
CONTINUOUS
 10
-43.6665033446
 20
6.7164290628
 11
-40.7006529319
 21
8.4586266228
  0
LINE
  5
272
100
AcDbEntity
  8
0
100
AcDbLine
 62
7
  6
CONTINUOUS
 10
-43.6665033446
 20
6.7164290628
 11
-40.7006529319
 21
8.4586266228
  0
LINE
  5
273
100
AcDbEntity
  8
ASSI
100
AcDbLine
 62
7
  6
CONTINUOUS
 10
-42.6998218
 20
7.1089897796
 11
-43.5210787305
 21
6.6324627132
  0
LINE
  5
274
100
AcDbEntity
  8
0
100
AcDbLine
 62
7
  6
CONTINUOUS
 10
-42.6998218
 20
7.1089897796
 11
-43.5210787305
 21
6.6324627132
  0
LINE
  5
275
100
AcDbEntity
  8
ASSI
100
AcDbLine
 62
250
  6
CONTINUOUS
 10
-42.6451323449
 20
7.1869889693
 11
-43.5613466703
 21
6.6557129169
  0
LINE
  5
276
100
AcDbEntity
  8
0
100
AcDbLine
 62
250
  6
CONTINUOUS
 10
-42.6451323449
 20
7.1869889693
 11
-43.5613466703
 21
6.6557129169
  0
LINE
  5
277
100
AcDbEntity
  8
ASSI
100
AcDbLine
 62
7
  6
CONTINUOUS
 10
-44.2472068327
 20
7.2152113089
 11
-44.1057854765
 21
7.2968662276
  0
LINE
  5
278
100
AcDbEntity
  8
0
100
AcDbLine
 62
7
  6
CONTINUOUS
 10
-44.2472068327
 20
7.2152113089
 11
-44.1057854765
 21
7.2968662276
  0
LINE
  5
279
100
AcDbEntity
  8
ASSI
100
AcDbLine
 62
7
  6
CONTINUOUS
 10
-43.8936534422
 20
7.4193486056
 11
-43.7522320859
 21
7.5010035243
  0
LINE
  5
27A
100
AcDbEntity
  8
0
100
AcDbLine
 62
7
  6
CONTINUOUS
 10
-43.8936534422
 20
7.4193486056
 11
-43.7522320859
 21
7.5010035243
  0
LINE
  5
27B
100
AcDbEntity
  8
ASSI
100
AcDbLine
 62
7
  6
CONTINUOUS
 10
-43.5401000516
 20
7.6234859023
 11
-43.3986786953
 21
7.7051408209
  0
LINE
  5
27C
100
AcDbEntity
  8
0
100
AcDbLine
 62
7
  6
CONTINUOUS
 10
-43.5401000516
 20
7.6234859023
 11
-43.3986786953
 21
7.7051408209
  0
LINE
  5
27D
100
AcDbEntity
  8
ASSI
100
AcDbLine
 62
7
  6
CONTINUOUS
 10
-43.186546661
 20
7.8276231989
 11
-43.0451253047
 21
7.9092781176
  0
LINE
  5
27E
100
AcDbEntity
  8
0
100
AcDbLine
 62
7
  6
CONTINUOUS
 10
-43.186546661
 20
7.8276231989
 11
-43.0451253047
 21
7.9092781176
  0
LINE
  5
27F
100
AcDbEntity
  8
ASSI
100
AcDbLine
 62
7
  6
CONTINUOUS
 10
-42.8329932704
 20
8.0317604956
 11
-42.6915719141
 21
8.1134154143
  0
LINE
  5
280
100
AcDbEntity
  8
0
100
AcDbLine
 62
7
  6
CONTINUOUS
 10
-42.8329932704
 20
8.0317604956
 11
-42.6915719141
 21
8.1134154143
  0
LINE
  5
281
100
AcDbEntity
  8
ASSI
100
AcDbLine
 62
7
  6
CONTINUOUS
 10
-42.4794398798
 20
8.2358977923
 11
-42.3380185235
 21
8.3175527109
  0
LINE
  5
282
100
AcDbEntity
  8
0
100
AcDbLine
 62
7
  6
CONTINUOUS
 10
-42.4794398798
 20
8.2358977923
 11
-42.3380185235
 21
8.3175527109
  0
LINE
  5
283
100
AcDbEntity
  8
ASSI
100
AcDbLine
 62
7
  6
CONTINUOUS
 10
-42.2319525064
 20
8.2563233584
 11
-44.282729589
 21
7.0722303732
  0
LINE
  5
284
100
AcDbEntity
  8
0
100
AcDbLine
 62
7
  6
CONTINUOUS
 10
-42.2319525064
 20
8.2563233584
 11
-44.282729589
 21
7.0722303732
  0
LINE
  5
285
100
AcDbEntity
  8
ASSI
100
AcDbLine
 62
7
  6
CONTINUOUS
 10
-40.7006529319
 20
8.8659962607
 11
-41.8805012032
 21
8.2531814143
  0
LINE
  5
286
100
AcDbEntity
  8
0
100
AcDbLine
 62
7
  6
CONTINUOUS
 10
-40.7006529319
 20
8.8659962607
 11
-41.8805012032
 21
8.2531814143
  0
LINE
  5
287
100
AcDbEntity
  8
ASSI
100
AcDbLine
 62
7
  6
CONTINUOUS
 10
-46.1194636645
 20
10.7007052128
 11
-44.8091094088
 21
11.2381675394
  0
LINE
  5
288
100
AcDbEntity
  8
0
100
AcDbLine
 62
7
  6
CONTINUOUS
 10
-46.1194636645
 20
10.7007052128
 11
-44.8091094088
 21
11.2381675394
  0
LINE
  5
289
100
AcDbEntity
  8
ASSI
100
AcDbLine
 62
250
  6
CONTINUOUS
 10
-26.7352297682
 20
-1.9991893806
 11
-26.3992848032
 21
-1.6724357908
  0
LINE
  5
28A
100
AcDbEntity
  8
0
100
AcDbLine
 62
250
  6
CONTINUOUS
 10
-26.7352297682
 20
-1.9991893806
 11
-26.3992848032
 21
-1.6724357908
  0
LINE
  5
28B
100
AcDbEntity
  8
ASSI
100
AcDbLine
 62
7
  6
CONTINUOUS
 10
-26.7313050219
 20
-2.0327246895
 11
-26.3023205299
 21
-1.6154771123
  0
LINE
  5
28C
100
AcDbEntity
  8
0
100
AcDbLine
 62
7
  6
CONTINUOUS
 10
-26.7313050219
 20
-2.0327246895
 11
-26.3023205299
 21
-1.6154771123
  0
LINE
  5
28D
100
AcDbEntity
  8
ASSI
100
AcDbLine
 62
7
  6
CONTINUOUS
 10
-32.4726208328
 20
0.2532215928
 11
-28.9697286428
 21
2.0407727338
  0
LINE
  5
28E
100
AcDbEntity
  8
0
100
AcDbLine
 62
7
  6
CONTINUOUS
 10
-32.4726208328
 20
0.2532215928
 11
-28.9697286428
 21
2.0407727338
  0
LINE
  5
28F
100
AcDbEntity
  8
RACCORDO
100
AcDbLine
 62
7
  6
CONTINUOUS
 10
-57.3640376238
 20
12.1755661252
 11
52.6617775289
 21
-51.3519605966
  0
LINE
  5
290
100
AcDbEntity
  8
RACCORDO
100
AcDbLine
 62
7
  6
CONTINUOUS
 10
-55.2427172802
 20
13.4003899052
 11
53.5103056663
 21
-49.3922425486
  0
LINE
  5
291
100
AcDbEntity
  8
ASSI
100
AcDbLine
 62
7
  6
CONTINUOUS
 10
51.2122086274
 20
-47.9018587903
 11
47.3231213309
 21
-45.656348527
  0
LINE
  5
292
100
AcDbEntity
  8
0
100
AcDbLine
 62
7
  6
CONTINUOUS
 10
51.2122086274
 20
-47.9018587903
 11
47.3231213309
 21
-45.656348527
  0
LINE
  5
293
100
AcDbEntity
  8
ASSI
100
AcDbLine
 62
7
  6
CONTINUOUS
 10
-44.2472068327
 20
7.2152113089
 11
-48.1362941293
 21
9.4607215722
  0
LINE
  5
294
100
AcDbEntity
  8
0
100
AcDbLine
 62
7
  6
CONTINUOUS
 10
-44.2472068327
 20
7.2152113089
 11
-48.1362941293
 21
9.4607215722
  0
LINE
  5
295
100
AcDbEntity
  8
ASSI
100
AcDbLine
 62
7
  6
CONTINUOUS
 10
51.3536299837
 20
-47.8202038716
 11
51.4596960009
 21
-47.8814332242
  0
LINE
  5
296
100
AcDbEntity
  8
0
100
AcDbLine
 62
7
  6
CONTINUOUS
 10
51.3536299837
 20
-47.8202038716
 11
51.4596960009
 21
-47.8814332242
  0
LINE
  5
297
100
AcDbEntity
  8
ASSI
100
AcDbLine
 62
7
  6
CONTINUOUS
 10
51.3536299837
 20
-47.8202038716
 11
47.4645426871
 21
-45.5746936083
  0
LINE
  5
298
100
AcDbEntity
  8
0
100
AcDbLine
 62
7
  6
CONTINUOUS
 10
51.3536299837
 20
-47.8202038716
 11
47.4645426871
 21
-45.5746936083
  0
LINE
  5
299
100
AcDbEntity
  8
ASSI
100
AcDbLine
 62
7
  6
CONTINUOUS
 10
-47.994872773
 20
9.5423764909
 11
-43.9997194593
 21
7.2356368751
  0
LINE
  5
29A
100
AcDbEntity
  8
0
100
AcDbLine
 62
7
  6
CONTINUOUS
 10
-47.994872773
 20
9.5423764909
 11
-43.9997194593
 21
7.2356368751
  0
LINE
  5
29B
100
AcDbEntity
  8
ASSI
100
AcDbLine
 62
7
  6
CONTINUOUS
 10
51.565762018
 20
-47.6977214936
 11
47.6766747215
 21
-45.4522112303
  0
LINE
  5
29C
100
AcDbEntity
  8
0
100
AcDbLine
 62
7
  6
CONTINUOUS
 10
51.565762018
 20
-47.6977214936
 11
47.6766747215
 21
-45.4522112303
  0
LINE
  5
29D
100
AcDbEntity
  8
ASSI
100
AcDbLine
 62
7
  6
CONTINUOUS
 10
-43.8936534422
 20
7.4193486056
 11
-47.7827407387
 21
9.6648588689
  0
LINE
  5
29E
100
AcDbEntity
  8
0
100
AcDbLine
 62
7
  6
CONTINUOUS
 10
-43.8936534422
 20
7.4193486056
 11
-47.7827407387
 21
9.6648588689
  0
LINE
  5
29F
100
AcDbEntity
  8
ASSI
100
AcDbLine
 62
7
  6
CONTINUOUS
 10
51.7071833743
 20
-47.616066575
 11
51.8132493914
 21
-47.6772959275
  0
LINE
  5
2A0
100
AcDbEntity
  8
0
100
AcDbLine
 62
7
  6
CONTINUOUS
 10
51.7071833743
 20
-47.616066575
 11
51.8132493914
 21
-47.6772959275
  0
LINE
  5
2A1
100
AcDbEntity
  8
ASSI
100
AcDbLine
 62
7
  6
CONTINUOUS
 10
51.7071833743
 20
-47.616066575
 11
47.8180960777
 21
-45.3705563117
  0
LINE
  5
2A2
100
AcDbEntity
  8
0
100
AcDbLine
 62
7
  6
CONTINUOUS
 10
51.7071833743
 20
-47.616066575
 11
47.8180960777
 21
-45.3705563117
  0
LINE
  5
2A3
100
AcDbEntity
  8
ASSI
100
AcDbLine
 62
7
  6
CONTINUOUS
 10
-47.6413193824
 20
9.7465137876
 11
-43.6461660687
 21
7.4397741717
  0
LINE
  5
2A4
100
AcDbEntity
  8
0
100
AcDbLine
 62
7
  6
CONTINUOUS
 10
-47.6413193824
 20
9.7465137876
 11
-43.6461660687
 21
7.4397741717
  0
LINE
  5
2A5
100
AcDbEntity
  8
ASSI
100
AcDbLine
 62
7
  6
CONTINUOUS
 10
51.9193154086
 20
-47.493584197
 11
48.0302281121
 21
-45.2480739337
  0
LINE
  5
2A6
100
AcDbEntity
  8
0
100
AcDbLine
 62
7
  6
CONTINUOUS
 10
51.9193154086
 20
-47.493584197
 11
48.0302281121
 21
-45.2480739337
  0
LINE
  5
2A7
100
AcDbEntity
  8
ASSI
100
AcDbLine
 62
7
  6
CONTINUOUS
 10
-43.5401000516
 20
7.6234859023
 11
-47.4291873481
 21
9.8689961656
  0
LINE
  5
2A8
100
AcDbEntity
  8
0
100
AcDbLine
 62
7
  6
CONTINUOUS
 10
-43.5401000516
 20
7.6234859023
 11
-47.4291873481
 21
9.8689961656
  0
LINE
  5
2A9
100
AcDbEntity
  8
ASSI
100
AcDbLine
 62
7
  6
CONTINUOUS
 10
52.0607367649
 20
-47.4119292783
 11
52.166802782
 21
-47.4731586308
  0
LINE
  5
2AA
100
AcDbEntity
  8
0
100
AcDbLine
 62
7
  6
CONTINUOUS
 10
52.0607367649
 20
-47.4119292783
 11
52.166802782
 21
-47.4731586308
  0
LINE
  5
2AB
100
AcDbEntity
  8
ASSI
100
AcDbLine
 62
7
  6
CONTINUOUS
 10
52.0607367649
 20
-47.4119292783
 11
48.1716494683
 21
-45.166419015
  0
LINE
  5
2AC
100
AcDbEntity
  8
0
100
AcDbLine
 62
7
  6
CONTINUOUS
 10
52.0607367649
 20
-47.4119292783
 11
48.1716494683
 21
-45.166419015
  0
LINE
  5
2AD
100
AcDbEntity
  8
ASSI
100
AcDbLine
 62
7
  6
CONTINUOUS
 10
-47.2877659919
 20
9.9506510842
 11
-43.2926126781
 21
7.6439114684
  0
LINE
  5
2AE
100
AcDbEntity
  8
0
100
AcDbLine
 62
7
  6
CONTINUOUS
 10
-47.2877659919
 20
9.9506510842
 11
-43.2926126781
 21
7.6439114684
  0
LINE
  5
2AF
100
AcDbEntity
  8
ASSI
100
AcDbLine
 62
7
  6
CONTINUOUS
 10
52.2728687992
 20
-47.2894469003
 11
48.3837815027
 21
-45.043936637
  0
LINE
  5
2B0
100
AcDbEntity
  8
0
100
AcDbLine
 62
7
  6
CONTINUOUS
 10
52.2728687992
 20
-47.2894469003
 11
48.3837815027
 21
-45.043936637
  0
LINE
  5
2B1
100
AcDbEntity
  8
ASSI
100
AcDbLine
 62
7
  6
CONTINUOUS
 10
-43.186546661
 20
7.8276231989
 11
-47.0756339575
 21
10.0731334622
  0
LINE
  5
2B2
100
AcDbEntity
  8
0
100
AcDbLine
 62
7
  6
CONTINUOUS
 10
-43.186546661
 20
7.8276231989
 11
-47.0756339575
 21
10.0731334622
  0
LINE
  5
2B3
100
AcDbEntity
  8
ASSI
100
AcDbLine
 62
7
  6
CONTINUOUS
 10
52.4142901555
 20
-47.2077919817
 11
52.5203561726
 21
-47.2690213342
  0
LINE
  5
2B4
100
AcDbEntity
  8
0
100
AcDbLine
 62
7
  6
CONTINUOUS
 10
52.4142901555
 20
-47.2077919817
 11
52.5203561726
 21
-47.2690213342
  0
LINE
  5
2B5
100
AcDbEntity
  8
ASSI
100
AcDbLine
 62
7
  6
CONTINUOUS
 10
52.4142901555
 20
-47.2077919817
 11
48.5252028589
 21
-44.9622817184
  0
LINE
  5
2B6
100
AcDbEntity
  8
0
100
AcDbLine
 62
7
  6
CONTINUOUS
 10
52.4142901555
 20
-47.2077919817
 11
48.5252028589
 21
-44.9622817184
  0
LINE
  5
2B7
100
AcDbEntity
  8
ASSI
100
AcDbLine
 62
7
  6
CONTINUOUS
 10
-46.9342126013
 20
10.1547883809
 11
-42.9390592876
 21
7.8480487651
  0
LINE
  5
2B8
100
AcDbEntity
  8
0
100
AcDbLine
 62
7
  6
CONTINUOUS
 10
-46.9342126013
 20
10.1547883809
 11
-42.9390592876
 21
7.8480487651
  0
LINE
  5
2B9
100
AcDbEntity
  8
ASSI
100
AcDbLine
 62
7
  6
CONTINUOUS
 10
52.6264221898
 20
-47.0853096037
 11
48.7373348933
 21
-44.8397993404
  0
LINE
  5
2BA
100
AcDbEntity
  8
0
100
AcDbLine
 62
7
  6
CONTINUOUS
 10
52.6264221898
 20
-47.0853096037
 11
48.7373348933
 21
-44.8397993404
  0
LINE
  5
2BB
100
AcDbEntity
  8
ASSI
100
AcDbLine
 62
7
  6
CONTINUOUS
 10
-42.8329932704
 20
8.0317604956
 11
-46.7220805669
 21
10.2772707589
  0
LINE
  5
2BC
100
AcDbEntity
  8
0
100
AcDbLine
 62
7
  6
CONTINUOUS
 10
-42.8329932704
 20
8.0317604956
 11
-46.7220805669
 21
10.2772707589
  0
LINE
  5
2BD
100
AcDbEntity
  8
ASSI
100
AcDbLine
 62
7
  6
CONTINUOUS
 10
52.767843546
 20
-47.003654685
 11
52.8739095632
 21
-47.0648840375
  0
LINE
  5
2BE
100
AcDbEntity
  8
0
100
AcDbLine
 62
7
  6
CONTINUOUS
 10
52.767843546
 20
-47.003654685
 11
52.8739095632
 21
-47.0648840375
  0
LINE
  5
2BF
100
AcDbEntity
  8
ASSI
100
AcDbLine
 62
7
  6
CONTINUOUS
 10
52.767843546
 20
-47.003654685
 11
48.8787562495
 21
-44.7581444217
  0
LINE
  5
2C0
100
AcDbEntity
  8
0
100
AcDbLine
 62
7
  6
CONTINUOUS
 10
52.767843546
 20
-47.003654685
 11
48.8787562495
 21
-44.7581444217
  0
LINE
  5
2C1
100
AcDbEntity
  8
ASSI
100
AcDbLine
 62
7
  6
CONTINUOUS
 10
-46.5806592107
 20
10.3589256776
 11
-42.585505897
 21
8.0521860617
  0
LINE
  5
2C2
100
AcDbEntity
  8
0
100
AcDbLine
 62
7
  6
CONTINUOUS
 10
-46.5806592107
 20
10.3589256776
 11
-42.585505897
 21
8.0521860617
  0
LINE
  5
2C3
100
AcDbEntity
  8
ASSI
100
AcDbLine
 62
7
  6
CONTINUOUS
 10
52.9799755804
 20
-46.881172307
 11
49.0908882839
 21
-44.6356620437
  0
LINE
  5
2C4
100
AcDbEntity
  8
0
100
AcDbLine
 62
7
  6
CONTINUOUS
 10
52.9799755804
 20
-46.881172307
 11
49.0908882839
 21
-44.6356620437
  0
LINE
  5
2C5
100
AcDbEntity
  8
ASSI
100
AcDbLine
 62
7
  6
CONTINUOUS
 10
-42.4794398798
 20
8.2358977923
 11
-46.3685271763
 21
10.4814080556
  0
LINE
  5
2C6
100
AcDbEntity
  8
0
100
AcDbLine
 62
7
  6
CONTINUOUS
 10
-42.4794398798
 20
8.2358977923
 11
-46.3685271763
 21
10.4814080556
  0
LINE
  5
2C7
100
AcDbEntity
  8
ASSI
100
AcDbLine
 62
7
  6
CONTINUOUS
 10
53.1213969366
 20
-46.7995173883
 11
53.2274629538
 21
-46.8607467408
  0
LINE
  5
2C8
100
AcDbEntity
  8
0
100
AcDbLine
 62
7
  6
CONTINUOUS
 10
53.1213969366
 20
-46.7995173883
 11
53.2274629538
 21
-46.8607467408
  0
LINE
  5
2C9
100
AcDbEntity
  8
ASSI
100
AcDbLine
 62
7
  6
CONTINUOUS
 10
53.1213969366
 20
-46.7995173883
 11
49.2323096401
 21
-44.554007125
  0
LINE
  5
2CA
100
AcDbEntity
  8
0
100
AcDbLine
 62
7
  6
CONTINUOUS
 10
53.1213969366
 20
-46.7995173883
 11
49.2323096401
 21
-44.554007125
  0
LINE
  5
2CB
100
AcDbEntity
  8
ASSI
100
AcDbLine
 62
7
  6
CONTINUOUS
 10
-46.2271058201
 20
10.5630629742
 11
-42.2319525064
 21
8.2563233584
  0
LINE
  5
2CC
100
AcDbEntity
  8
0
100
AcDbLine
 62
7
  6
CONTINUOUS
 10
-46.2271058201
 20
10.5630629742
 11
-42.2319525064
 21
8.2563233584
  0
LINE
  5
2CD
100
AcDbEntity
  8
ASSI
100
AcDbLine
 62
250
  6
CONTINUOUS
 10
53.512241901
 20
-46.9025905964
 11
49.2659046427
 21
-44.4508086825
  0
LINE
  5
2CE
100
AcDbEntity
  8
0
100
AcDbLine
 62
250
  6
CONTINUOUS
 10
53.512241901
 20
-46.9025905964
 11
49.2659046427
 21
-44.4508086825
  0
LINE
  5
2CF
100
AcDbEntity
  8
ASSI
100
AcDbLine
 62
250
  6
CONTINUOUS
 10
-41.9471735592
 20
8.2144795029
 11
-46.1935108174
 21
10.6662614167
  0
LINE
  5
2D0
100
AcDbEntity
  8
0
100
AcDbLine
 62
250
  6
CONTINUOUS
 10
-41.9471735592
 20
8.2144795029
 11
-46.1935108174
 21
10.6662614167
  0
LINE
  5
2D1
100
AcDbEntity
  8
ASSI
100
AcDbLine
 62
250
  6
CONTINUOUS
 10
-8.9443459021
 20
-9.5216322837
 11
-8.9443459021
 21
-9.9510300957
  0
LINE
  5
2D2
100
AcDbEntity
  8
0
100
AcDbLine
 62
250
  6
CONTINUOUS
 10
-8.9443459021
 20
-9.5216322837
 11
-8.9443459021
 21
-9.9510300957
  0
LINE
  5
2D3
100
AcDbEntity
  8
ASSI
100
AcDbLine
 62
7
  6
CONTINUOUS
 10
-8.8672893497
 20
-9.4071276134
 11
-8.8672893497
 21
-9.9052121535
  0
LINE
  5
2D4
100
AcDbEntity
  8
0
100
AcDbLine
 62
7
  6
CONTINUOUS
 10
-8.8672893497
 20
-9.4071276134
 11
-8.8672893497
 21
-9.9052121535
  0
LINE
  5
2D5
100
AcDbEntity
  8
ASSI
100
AcDbLine
 62
7
  6
CONTINUOUS
 10
-24.8542484788
 20
-0.3354539338
 11
-28.0082667734
 21
-2.3244404896
  0
LINE
  5
2D6
100
AcDbEntity
  8
0
100
AcDbLine
 62
7
  6
CONTINUOUS
 10
-24.8542484788
 20
-0.3354539338
 11
-28.0082667734
 21
-2.3244404896
  0
LINE
  5
2D7
100
AcDbEntity
  8
ASSI
100
AcDbLine
 62
7
  6
CONTINUOUS
 10
-27.7566007679
 20
-2.4697492871
 11
-24.8542484788
 21
-0.7648517458
  0
LINE
  5
2D8
100
AcDbEntity
  8
0
100
AcDbLine
 62
7
  6
CONTINUOUS
 10
-27.7566007679
 20
-2.4697492871
 11
-24.8542484788
 21
-0.7648517458
  0
LINE
  5
2D9
100
AcDbEntity
  8
ASSI
100
AcDbLine
 62
7
  6
CONTINUOUS
 10
-26.7899193553
 20
-2.0771886468
 11
-27.6111761538
 21
-2.5537156367
  0
LINE
  5
2DA
100
AcDbEntity
  8
0
100
AcDbLine
 62
7
  6
CONTINUOUS
 10
-26.7899193553
 20
-2.0771886468
 11
-27.6111761538
 21
-2.5537156367
  0
LINE
  5
2DB
100
AcDbEntity
  8
ASSI
100
AcDbLine
 62
250
  6
CONTINUOUS
 10
-26.7352297682
 20
-1.9991893806
 11
-27.6514440936
 21
-2.5304654329
  0
LINE
  5
2DC
100
AcDbEntity
  8
0
100
AcDbLine
 62
250
  6
CONTINUOUS
 10
-26.7352297682
 20
-1.9991893806
 11
-27.6514440936
 21
-2.5304654329
  0
LINE
  5
2DD
100
AcDbEntity
  8
SMUSSO
100
AcDbLine
 62
250
  6
CONTINUOUS
 10
71.8950819771
 20
-7.9576385592
 11
73.3092955395
 21
-7.9576385592
  0
LINE
  5
2DE
100
AcDbEntity
  8
ASSI
100
AcDbLine
 62
250
  6
CONTINUOUS
 10
53.5103056663
 20
-46.8242749446
 11
49.3399517957
 21
-44.4163648865
  0
LINE
  5
2DF
100
AcDbEntity
  8
0
100
AcDbLine
 62
250
  6
CONTINUOUS
 10
53.5103056663
 20
-46.8242749446
 11
49.3399517957
 21
-44.4163648865
  0
LINE
  5
2E0
100
AcDbEntity
  8
ASSI
100
AcDbLine
 62
250
  6
CONTINUOUS
 10
-41.8805012032
 20
8.2531814143
 11
-46.1194636645
 21
10.7007052128
  0
LINE
  5
2E1
100
AcDbEntity
  8
0
100
AcDbLine
 62
250
  6
CONTINUOUS
 10
-41.8805012032
 20
8.2531814143
 11
-46.1194636645
 21
10.7007052128
  0
LINE
  5
2E2
100
AcDbEntity
  8
ASSI
100
AcDbLine
 62
7
  6
CONTINUOUS
 10
-44.5338619313
 20
11.2185311659
 11
-40.7078605407
 21
9.0094459141
  0
LINE
  5
2E3
100
AcDbEntity
  8
0
100
AcDbLine
 62
7
  6
CONTINUOUS
 10
-44.5338619313
 20
11.2185311659
 11
-40.7078605407
 21
9.0094459141
  0
LINE
  5
2E4
100
AcDbEntity
  8
ASSI
100
AcDbLine
 62
7
  6
CONTINUOUS
 10
50.9255535289
 20
-43.8985389333
 11
53.5103056663
 21
-45.3909424229
  0
LINE
  5
2E5
100
AcDbEntity
  8
0
100
AcDbLine
 62
7
  6
CONTINUOUS
 10
50.9255535289
 20
-43.8985389333
 11
53.5103056663
 21
-45.3909424229
  0
LINE
  5
2E6
100
AcDbEntity
  8
ASSI
100
AcDbLine
 62
7
  6
CONTINUOUS
 10
-28.5568574266
 20
2.0325046625
 11
-24.8650598921
 21
-0.0990929648
  0
LINE
  5
2E7
100
AcDbEntity
  8
0
100
AcDbLine
 62
7
  6
CONTINUOUS
 10
-28.5568574266
 20
2.0325046625
 11
-24.8650598921
 21
-0.0990929648
  0
LINE
  5
2E8
100
AcDbEntity
  8
ASSI
100
AcDbLine
 62
7
  6
CONTINUOUS
 10
-12.6469548499
 20
-7.1536736874
 11
-8.9551573154
 21
-9.2852713147
  0
LINE
  5
2E9
100
AcDbEntity
  8
0
100
AcDbLine
 62
7
  6
CONTINUOUS
 10
-12.6469548499
 20
-7.1536736874
 11
-8.9551573154
 21
-9.2852713147
  0
LINE
  5
2EA
100
AcDbEntity
  8
ASSI
100
AcDbLine
 62
7
  6
CONTINUOUS
 10
3.2629477268
 20
-16.3398520372
 11
6.9547452613
 21
-18.4714496646
  0
LINE
  5
2EB
100
AcDbEntity
  8
0
100
AcDbLine
 62
7
  6
CONTINUOUS
 10
3.2629477268
 20
-16.3398520372
 11
6.9547452613
 21
-18.4714496646
  0
LINE
  5
2EC
100
AcDbEntity
  8
ASSI
100
AcDbLine
 62
7
  6
CONTINUOUS
 10
19.1728503035
 20
-25.5260303871
 11
22.864647838
 21
-27.6576280144
  0
LINE
  5
2ED
100
AcDbEntity
  8
0
100
AcDbLine
 62
7
  6
CONTINUOUS
 10
19.1728503035
 20
-25.5260303871
 11
22.864647838
 21
-27.6576280144
  0
LINE
  5
2EE
100
AcDbEntity
  8
ASSI
100
AcDbLine
 62
7
  6
CONTINUOUS
 10
35.0827528802
 20
-34.712208737
 11
38.7745504147
 21
-36.8438063643
  0
LINE
  5
2EF
100
AcDbEntity
  8
0
100
AcDbLine
 62
7
  6
CONTINUOUS
 10
35.0827528802
 20
-34.712208737
 11
38.7745504147
 21
-36.8438063643
  0
LINE
  5
2F0
100
AcDbEntity
  8
ASSI
100
AcDbLine
 62
250
  6
CONTINUOUS
 10
-10.8253271915
 20
-11.1853677305
 11
-10.4893822265
 21
-10.8586141407
  0
LINE
  5
2F1
100
AcDbEntity
  8
0
100
AcDbLine
 62
250
  6
CONTINUOUS
 10
-10.8253271915
 20
-11.1853677305
 11
-10.4893822265
 21
-10.8586141407
  0
LINE
  5
2F2
100
AcDbEntity
  8
ASSI
100
AcDbLine
 62
7
  6
CONTINUOUS
 10
-10.8214024452
 20
-11.2189030393
 11
-10.3924179532
 21
-10.8016554621
  0
LINE
  5
2F3
100
AcDbEntity
  8
0
100
AcDbLine
 62
7
  6
CONTINUOUS
 10
-10.8214024452
 20
-11.2189030393
 11
-10.3924179532
 21
-10.8016554621
  0
LINE
  5
2F4
100
AcDbEntity
  8
ASSI
100
AcDbLine
 62
7
  6
CONTINUOUS
 10
-16.5627182561
 20
-8.9329567571
 11
-13.0598260661
 21
-7.1454056161
  0
LINE
  5
2F5
100
AcDbEntity
  8
0
100
AcDbLine
 62
7
  6
CONTINUOUS
 10
-16.5627182561
 20
-8.9329567571
 11
-13.0598260661
 21
-7.1454056161
  0
LINE
  5
2F6
100
AcDbEntity
  8
ASSI
100
AcDbLine
 62
250
  6
CONTINUOUS
 10
6.9655566746
 20
-18.7078106336
 11
6.9655566746
 21
-19.1372084455
  0
LINE
  5
2F7
100
AcDbEntity
  8
0
100
AcDbLine
 62
250
  6
CONTINUOUS
 10
6.9655566746
 20
-18.7078106336
 11
6.9655566746
 21
-19.1372084455
  0
LINE
  5
2F8
100
AcDbEntity
  8
ASSI
100
AcDbLine
 62
7
  6
CONTINUOUS
 10
7.042613227
 20
-18.5933059633
 11
7.042613227
 21
-19.0913905034
  0
LINE
  5
2F9
100
AcDbEntity
  8
0
100
AcDbLine
 62
7
  6
CONTINUOUS
 10
7.042613227
 20
-18.5933059633
 11
7.042613227
 21
-19.0913905034
  0
LINE
  5
2FA
100
AcDbEntity
  8
ASSI
100
AcDbLine
 62
7
  6
CONTINUOUS
 10
-8.9443459021
 20
-9.5216322837
 11
-12.0983641967
 21
-11.5106188395
  0
LINE
  5
2FB
100
AcDbEntity
  8
0
100
AcDbLine
 62
7
  6
CONTINUOUS
 10
-8.9443459021
 20
-9.5216322837
 11
-12.0983641967
 21
-11.5106188395
  0
LINE
  5
2FC
100
AcDbEntity
  8
ASSI
100
AcDbLine
 62
7
  6
CONTINUOUS
 10
-11.8466981912
 20
-11.6559276369
 11
-8.9443459021
 21
-9.9510300957
  0
LINE
  5
2FD
100
AcDbEntity
  8
0
100
AcDbLine
 62
7
  6
CONTINUOUS
 10
-11.8466981912
 20
-11.6559276369
 11
-8.9443459021
 21
-9.9510300957
  0
LINE
  5
2FE
100
AcDbEntity
  8
ASSI
100
AcDbLine
 62
7
  6
CONTINUOUS
 10
-10.8800167786
 20
-11.2633669967
 11
-11.7012735771
 21
-11.7398939866
  0
LINE
  5
2FF
100
AcDbEntity
  8
0
100
AcDbLine
 62
7
  6
CONTINUOUS
 10
-10.8800167786
 20
-11.2633669967
 11
-11.7012735771
 21
-11.7398939866
  0
LINE
  5
300
100
AcDbEntity
  8
ASSI
100
AcDbLine
 62
250
  6
CONTINUOUS
 10
-10.8253271915
 20
-11.1853677305
 11
-11.7415415169
 21
-11.7166437828
  0
LINE
  5
301
100
AcDbEntity
  8
0
100
AcDbLine
 62
250
  6
CONTINUOUS
 10
-10.8253271915
 20
-11.1853677305
 11
-11.7415415169
 21
-11.7166437828
  0
LINE
  5
302
100
AcDbEntity
  8
RACCORDO
100
AcDbLine
 62
7
  6
CONTINUOUS
 10
52.6617775289
 20
-14.2025630025
 11
-57.3640376238
 21
49.3249637193
  0
LINE
  5
303
100
AcDbEntity
  8
ASSI
100
AcDbLine
 62
250
  6
CONTINUOUS
 10
22.8754592513
 20
-27.8939889835
 11
22.8754592513
 21
-28.3233867954
  0
LINE
  5
304
100
AcDbEntity
  8
0
100
AcDbLine
 62
250
  6
CONTINUOUS
 10
22.8754592513
 20
-27.8939889835
 11
22.8754592513
 21
-28.3233867954
  0
LINE
  5
305
100
AcDbEntity
  8
ASSI
100
AcDbLine
 62
7
  6
CONTINUOUS
 10
22.9525158037
 20
-27.7794843131
 11
22.9525158037
 21
-28.2775688532
  0
LINE
  5
306
100
AcDbEntity
  8
0
100
AcDbLine
 62
7
  6
CONTINUOUS
 10
22.9525158037
 20
-27.7794843131
 11
22.9525158037
 21
-28.2775688532
  0
LINE
  5
307
100
AcDbEntity
  8
ASSI
100
AcDbLine
 62
250
  6
CONTINUOUS
 10
5.0845753852
 20
-20.3715460804
 11
5.4205203502
 21
-20.0447924906
  0
LINE
  5
308
100
AcDbEntity
  8
0
100
AcDbLine
 62
250
  6
CONTINUOUS
 10
5.0845753852
 20
-20.3715460804
 11
5.4205203502
 21
-20.0447924906
  0
LINE
  5
309
100
AcDbEntity
  8
ASSI
100
AcDbLine
 62
7
  6
CONTINUOUS
 10
5.0885001315
 20
-20.4050813892
 11
5.5174846235
 21
-19.987833812
  0
LINE
  5
30A
100
AcDbEntity
  8
0
100
AcDbLine
 62
7
  6
CONTINUOUS
 10
5.0885001315
 20
-20.4050813892
 11
5.5174846235
 21
-19.987833812
  0
LINE
  5
30B
100
AcDbEntity
  8
ASSI
100
AcDbLine
 62
7
  6
CONTINUOUS
 10
6.9655566746
 20
-18.7078106336
 11
3.81153838
 21
-20.6967971894
  0
LINE
  5
30C
100
AcDbEntity
  8
0
100
AcDbLine
 62
7
  6
CONTINUOUS
 10
6.9655566746
 20
-18.7078106336
 11
3.81153838
 21
-20.6967971894
  0
LINE
  5
30D
100
AcDbEntity
  8
ASSI
100
AcDbLine
 62
7
  6
CONTINUOUS
 10
4.0632043855
 20
-20.8421059868
 11
6.9655566746
 21
-19.1372084455
  0
LINE
  5
30E
100
AcDbEntity
  8
0
100
AcDbLine
 62
7
  6
CONTINUOUS
 10
4.0632043855
 20
-20.8421059868
 11
6.9655566746
 21
-19.1372084455
  0
LINE
  5
30F
100
AcDbEntity
  8
ASSI
100
AcDbLine
 62
7
  6
CONTINUOUS
 10
5.0298857981
 20
-20.4495453466
 11
4.2086289996
 21
-20.9260723364
  0
LINE
  5
310
100
AcDbEntity
  8
0
100
AcDbLine
 62
7
  6
CONTINUOUS
 10
5.0298857981
 20
-20.4495453466
 11
4.2086289996
 21
-20.9260723364
  0
LINE
  5
311
100
AcDbEntity
  8
ASSI
100
AcDbLine
 62
250
  6
CONTINUOUS
 10
5.0845753852
 20
-20.3715460804
 11
4.1683610598
 21
-20.9028221327
  0
LINE
  5
312
100
AcDbEntity
  8
0
100
AcDbLine
 62
250
  6
CONTINUOUS
 10
5.0845753852
 20
-20.3715460804
 11
4.1683610598
 21
-20.9028221327
  0
LINE
  5
313
100
AcDbEntity
  8
ASSI
100
AcDbLine
 62
7
  6
CONTINUOUS
 10
-0.6528156794
 20
-18.119135107
 11
2.8500765106
 21
-16.3315839659
  0
LINE
  5
314
100
AcDbEntity
  8
0
100
AcDbLine
 62
7
  6
CONTINUOUS
 10
-0.6528156794
 20
-18.119135107
 11
2.8500765106
 21
-16.3315839659
  0
LINE
  5
315
100
AcDbEntity
  8
ASSI
100
AcDbLine
 62
250
  6
CONTINUOUS
 10
75.7037454435
 20
-4.9715191491
 11
76.5537865765
 21
-5.2173930975
  0
LINE
  5
316
100
AcDbEntity
  8
0
100
AcDbLine
 62
250
  6
CONTINUOUS
 10
75.7037454435
 20
-4.9715191491
 11
76.5537865765
 21
-5.2173930975
  0
LINE
  5
317
100
AcDbEntity
  8
SMUSSO
100
AcDbLine
 62
7
  6
CONTINUOUS
 10
71.8950819771
 20
-7.9576385592
 11
-76.597342072
 21
77.7800260396
  0
LINE
  5
318
100
AcDbEntity
  8
SMUSSO
100
AcDbLine
 62
7
  6
CONTINUOUS
 10
72.6021887583
 20
-6.7328936891
 11
-75.8902352908
 21
79.0047709097
  0
LINE
  5
319
100
AcDbEntity
  8
ASSI
100
AcDbLine
 62
250
  6
CONTINUOUS
 10
20.9944779619
 20
-29.5577244302
 11
21.3304229269
 21
-29.2309708404
  0
LINE
  5
31A
100
AcDbEntity
  8
0
100
AcDbLine
 62
250
  6
CONTINUOUS
 10
20.9944779619
 20
-29.5577244302
 11
21.3304229269
 21
-29.2309708404
  0
LINE
  5
31B
100
AcDbEntity
  8
ASSI
100
AcDbLine
 62
7
  6
CONTINUOUS
 10
20.9984027082
 20
-29.5912597391
 11
21.4273872002
 21
-29.1740121619
  0
LINE
  5
31C
100
AcDbEntity
  8
0
100
AcDbLine
 62
7
  6
CONTINUOUS
 10
20.9984027082
 20
-29.5912597391
 11
21.4273872002
 21
-29.1740121619
  0
LINE
  5
31D
100
AcDbEntity
  8
ASSI
100
AcDbLine
 62
7
  6
CONTINUOUS
 10
22.8754592513
 20
-27.8939889835
 11
19.7214409567
 21
-29.8829755393
  0
LINE
  5
31E
100
AcDbEntity
  8
0
100
AcDbLine
 62
7
  6
CONTINUOUS
 10
22.8754592513
 20
-27.8939889835
 11
19.7214409567
 21
-29.8829755393
  0
LINE
  5
31F
100
AcDbEntity
  8
ASSI
100
AcDbLine
 62
7
  6
CONTINUOUS
 10
19.9731069622
 20
-30.0282843367
 11
22.8754592513
 21
-28.3233867954
  0
LINE
  5
320
100
AcDbEntity
  8
0
100
AcDbLine
 62
7
  6
CONTINUOUS
 10
19.9731069622
 20
-30.0282843367
 11
22.8754592513
 21
-28.3233867954
  0
LINE
  5
321
100
AcDbEntity
  8
ASSI
100
AcDbLine
 62
7
  6
CONTINUOUS
 10
20.9397883748
 20
-29.6357236965
 11
20.1185315763
 21
-30.1122506863
  0
LINE
  5
322
100
AcDbEntity
  8
0
100
AcDbLine
 62
7
  6
CONTINUOUS
 10
20.9397883748
 20
-29.6357236965
 11
20.1185315763
 21
-30.1122506863
  0
LINE
  5
323
100
AcDbEntity
  8
ASSI
100
AcDbLine
 62
250
  6
CONTINUOUS
 10
20.9944779619
 20
-29.5577244302
 11
20.0782636365
 21
-30.0890004825
  0
LINE
  5
324
100
AcDbEntity
  8
0
100
AcDbLine
 62
250
  6
CONTINUOUS
 10
20.9944779619
 20
-29.5577244302
 11
20.0782636365
 21
-30.0890004825
  0
LINE
  5
325
100
AcDbEntity
  8
ASSI
100
AcDbLine
 62
7
  6
CONTINUOUS
 10
15.2570868973
 20
-27.3053134568
 11
18.7599790873
 21
-25.5177623158
  0
LINE
  5
326
100
AcDbEntity
  8
0
100
AcDbLine
 62
7
  6
CONTINUOUS
 10
15.2570868973
 20
-27.3053134568
 11
18.7599790873
 21
-25.5177623158
  0
LINE
  5
327
100
AcDbEntity
  8
SMUSSO
100
AcDbLine
 62
7
  6
CONTINUOUS
 10
74.0164023207
 20
-6.3245796408
 11
73.6628489301
 21
-6.1204817991
  0
LINE
  5
328
100
AcDbEntity
  8
SMUSSO
100
AcDbLine
 62
7
  6
CONTINUOUS
 10
-74.8295751191
 20
79.6171827997
 11
73.6628489301
 21
-6.1204817991
  0
LINE
  5
329
100
AcDbEntity
  8
ASSI
100
AcDbLine
 62
7
  6
CONTINUOUS
 10
-71.8244789948
 20
80.2092983792
 11
75.6782109523
 21
-4.9569061534
  0
LINE
  5
32A
100
AcDbEntity
  8
0
100
AcDbLine
 62
7
  6
CONTINUOUS
 10
-71.8244789948
 20
80.2092983792
 11
75.6782109523
 21
-4.9569061534
  0
LINE
  5
32B
100
AcDbEntity
  8
ASSI
100
AcDbLine
 62
7
  6
CONTINUOUS
 10
-70.5787342755
 20
79.7350804389
 11
76.5537865765
 21
-5.2173930975
  0
LINE
  5
32C
100
AcDbEntity
  8
0
100
AcDbLine
 62
7
  6
CONTINUOUS
 10
-70.5787342755
 20
79.7350804389
 11
76.5537865765
 21
-5.2173930975
  0
LINE
  5
32D
100
AcDbEntity
  8
ASSI
100
AcDbLine
 62
250
  6
CONTINUOUS
 10
38.785361828
 20
-37.0801673333
 11
38.785361828
 21
-37.5095651453
  0
LINE
  5
32E
100
AcDbEntity
  8
0
100
AcDbLine
 62
250
  6
CONTINUOUS
 10
38.785361828
 20
-37.0801673333
 11
38.785361828
 21
-37.5095651453
  0
LINE
  5
32F
100
AcDbEntity
  8
ASSI
100
AcDbLine
 62
7
  6
CONTINUOUS
 10
38.8624183804
 20
-36.965662663
 11
38.8624183804
 21
-37.4637472031
  0
LINE
  5
330
100
AcDbEntity
  8
0
100
AcDbLine
 62
7
  6
CONTINUOUS
 10
38.8624183804
 20
-36.965662663
 11
38.8624183804
 21
-37.4637472031
  0
LINE
  5
331
100
AcDbEntity
  8
SMUSSO
100
AcDbLine
 62
250
  6
CONTINUOUS
 10
72.6021887583
 20
-6.7328936891
 11
73.6628489301
 21
-6.1204817991
  0
LINE
  5
332
100
AcDbEntity
  8
ASSI
100
AcDbLine
 62
250
  6
CONTINUOUS
 10
73.6633948117
 20
-6.1202397358
 11
75.6782109523
 21
-4.9569061534
  0
LINE
  5
333
100
AcDbEntity
  8
0
100
AcDbLine
 62
250
  6
CONTINUOUS
 10
73.6633948117
 20
-6.1202397358
 11
75.6782109523
 21
-4.9569061534
  0
LINE
  5
334
100
AcDbEntity
  8
ASSI
100
AcDbLine
 62
250
  6
CONTINUOUS
 10
74.3703938971
 20
-7.3447980713
 11
76.3852100377
 21
-6.1814644889
  0
LINE
  5
335
100
AcDbEntity
  8
0
100
AcDbLine
 62
250
  6
CONTINUOUS
 10
74.3703938971
 20
-7.3447980713
 11
76.3852100377
 21
-6.1814644889
  0
LINE
  5
336
100
AcDbEntity
  8
SMUSSO
100
AcDbLine
 62
250
  6
CONTINUOUS
 10
73.3092955395
 20
-7.9576385592
 11
74.3699557113
 21
-7.3452266692
  0
LINE
  5
337
100
AcDbEntity
  8
ASSI
100
AcDbLine
 62
7
  6
CONTINUOUS
 10
38.785361828
 20
-37.0801673333
 11
35.6313435334
 21
-39.0691538891
  0
LINE
  5
338
100
AcDbEntity
  8
0
100
AcDbLine
 62
7
  6
CONTINUOUS
 10
38.785361828
 20
-37.0801673333
 11
35.6313435334
 21
-39.0691538891
  0
LINE
  5
339
100
AcDbEntity
  8
ASSI
100
AcDbLine
 62
7
  6
CONTINUOUS
 10
35.8830095389
 20
-39.2144626866
 11
38.785361828
 21
-37.5095651453
  0
LINE
  5
33A
100
AcDbEntity
  8
0
100
AcDbLine
 62
7
  6
CONTINUOUS
 10
35.8830095389
 20
-39.2144626866
 11
38.785361828
 21
-37.5095651453
  0
LINE
  5
33B
100
AcDbEntity
  8
ASSI
100
AcDbLine
 62
7
  6
CONTINUOUS
 10
36.8496909515
 20
-38.8219020463
 11
36.028434153
 21
-39.2984290362
  0
LINE
  5
33C
100
AcDbEntity
  8
0
100
AcDbLine
 62
7
  6
CONTINUOUS
 10
36.8496909515
 20
-38.8219020463
 11
36.028434153
 21
-39.2984290362
  0
LINE
  5
33D
100
AcDbEntity
  8
ASSI
100
AcDbLine
 62
250
  6
CONTINUOUS
 10
36.9043805386
 20
-38.7439027801
 11
35.9881662132
 21
-39.2751788324
  0
LINE
  5
33E
100
AcDbEntity
  8
0
100
AcDbLine
 62
250
  6
CONTINUOUS
 10
36.9043805386
 20
-38.7439027801
 11
35.9881662132
 21
-39.2751788324
  0
LINE
  5
33F
100
AcDbEntity
  8
ASSI
100
AcDbLine
 62
7
  6
CONTINUOUS
 10
31.166989474
 20
-36.4914918067
 11
34.6698816639
 21
-34.7039406657
  0
LINE
  5
340
100
AcDbEntity
  8
0
100
AcDbLine
 62
7
  6
CONTINUOUS
 10
31.166989474
 20
-36.4914918067
 11
34.6698816639
 21
-34.7039406657
  0
LINE
  5
341
100
AcDbEntity
  8
ASSI
100
AcDbLine
 62
250
  6
CONTINUOUS
 10
-71.8488855675
 20
80.2235207279
 11
-70.5787342755
 21
79.7350804389
  0
LINE
  5
342
100
AcDbEntity
  8
0
100
AcDbLine
 62
250
  6
CONTINUOUS
 10
-71.8488855675
 20
80.2235207279
 11
-70.5787342755
 21
79.7350804389
  0
LINE
  5
343
100
AcDbEntity
  8
ASSI
100
AcDbLine
 62
7
  6
CONTINUOUS
 10
-70.5857600488
 20
79.7384915598
 11
-71.9528856928
 21
80.2745693926
  0
LINE
  5
344
100
AcDbEntity
  8
0
100
AcDbLine
 62
7
  6
CONTINUOUS
 10
-70.5857600488
 20
79.7384915598
 11
-71.9528856928
 21
80.2745693926
  0
LINE
  5
345
100
AcDbEntity
  8
RACCORDO
100
AcDbLine
 62
7
  6
CONTINUOUS
 10
53.5103056663
 20
-50.8621257765
 11
53.5103056663
 21
-15.6722568467
  0
LINE
  5
346
100
AcDbEntity
  8
ASSI
100
AcDbLine
 62
250
  6
CONTINUOUS
 10
36.9043805386
 20
-38.7439027801
 11
37.2403255036
 21
-38.4171491903
  0
LINE
  5
347
100
AcDbEntity
  8
0
100
AcDbLine
 62
250
  6
CONTINUOUS
 10
36.9043805386
 20
-38.7439027801
 11
37.2403255036
 21
-38.4171491903
  0
LINE
  5
348
100
AcDbEntity
  8
ASSI
100
AcDbLine
 62
7
  6
CONTINUOUS
 10
36.9083052849
 20
-38.777438089
 11
37.3372897769
 21
-38.3601905117
  0
LINE
  5
349
100
AcDbEntity
  8
0
100
AcDbLine
 62
7
  6
CONTINUOUS
 10
36.9083052849
 20
-38.777438089
 11
37.3372897769
 21
-38.3601905117
  0
LINE
  5
34A
100
AcDbEntity
  8
ASSI
100
AcDbLine
 62
7
  6
CONTINUOUS
 10
49.3399517957
 20
-44.4163648865
 11
50.6503060514
 21
-43.8789025598
  0
LINE
  5
34B
100
AcDbEntity
  8
0
100
AcDbLine
 62
7
  6
CONTINUOUS
 10
49.3399517957
 20
-44.4163648865
 11
50.6503060514
 21
-43.8789025598
  0
LINE
  5
34C
100
AcDbEntity
  8
ASSI
100
AcDbLine
 62
7
  6
CONTINUOUS
 10
47.2523286486
 20
-45.7789650495
 11
47.3231213309
 21
-45.656348527
  0
LINE
  5
34D
100
AcDbEntity
  8
0
100
AcDbLine
 62
7
  6
CONTINUOUS
 10
47.2523286486
 20
-45.7789650495
 11
47.3231213309
 21
-45.656348527
  0
LINE
  5
34E
100
AcDbEntity
  8
ASSI
100
AcDbLine
 62
7
  6
CONTINUOUS
 10
47.5706087043
 20
-45.6359229609
 11
47.6766747215
 21
-45.4522112303
  0
LINE
  5
34F
100
AcDbEntity
  8
0
100
AcDbLine
 62
7
  6
CONTINUOUS
 10
47.5706087043
 20
-45.6359229609
 11
47.6766747215
 21
-45.4522112303
  0
LINE
  5
350
100
AcDbEntity
  8
ASSI
100
AcDbLine
 62
7
  6
CONTINUOUS
 10
47.9241620949
 20
-45.4317856642
 11
48.0302281121
 21
-45.2480739337
  0
LINE
  5
351
100
AcDbEntity
  8
0
100
AcDbLine
 62
7
  6
CONTINUOUS
 10
47.9241620949
 20
-45.4317856642
 11
48.0302281121
 21
-45.2480739337
  0
LINE
  5
352
100
AcDbEntity
  8
ASSI
100
AcDbLine
 62
7
  6
CONTINUOUS
 10
48.2777154855
 20
-45.2276483675
 11
48.3837815027
 21
-45.043936637
  0
LINE
  5
353
100
AcDbEntity
  8
0
100
AcDbLine
 62
7
  6
CONTINUOUS
 10
48.2777154855
 20
-45.2276483675
 11
48.3837815027
 21
-45.043936637
  0
LINE
  5
354
100
AcDbEntity
  8
ASSI
100
AcDbLine
 62
7
  6
CONTINUOUS
 10
48.6312688761
 20
-45.0235110709
 11
48.7373348933
 21
-44.8397993404
  0
LINE
  5
355
100
AcDbEntity
  8
0
100
AcDbLine
 62
7
  6
CONTINUOUS
 10
48.6312688761
 20
-45.0235110709
 11
48.7373348933
 21
-44.8397993404
  0
LINE
  5
356
100
AcDbEntity
  8
ASSI
100
AcDbLine
 62
7
  6
CONTINUOUS
 10
48.9848222667
 20
-44.8193737742
 11
49.0908882839
 21
-44.6356620437
  0
LINE
  5
357
100
AcDbEntity
  8
0
100
AcDbLine
 62
7
  6
CONTINUOUS
 10
48.9848222667
 20
-44.8193737742
 11
49.0908882839
 21
-44.6356620437
  0
LINE
  5
358
100
AcDbEntity
  8
SMUSSO
100
AcDbLine
 62
250
  6
CONTINUOUS
 10
71.8950819771
 20
-7.9576385592
 11
72.6021887583
 21
-6.7328936891
  0
LINE
  5
359
100
AcDbEntity
  8
ASSI
100
AcDbLine
 62
7
  6
CONTINUOUS
 10
47.3231213309
 20
-45.656348527
 11
47.4645426871
 21
-45.5746936083
  0
LINE
  5
35A
100
AcDbEntity
  8
0
100
AcDbLine
 62
7
  6
CONTINUOUS
 10
47.3231213309
 20
-45.656348527
 11
47.4645426871
 21
-45.5746936083
  0
LINE
  5
35B
100
AcDbEntity
  8
ASSI
100
AcDbLine
 62
7
  6
CONTINUOUS
 10
47.6766747215
 20
-45.4522112303
 11
47.8180960777
 21
-45.3705563117
  0
LINE
  5
35C
100
AcDbEntity
  8
0
100
AcDbLine
 62
7
  6
CONTINUOUS
 10
47.6766747215
 20
-45.4522112303
 11
47.8180960777
 21
-45.3705563117
  0
LINE
  5
35D
100
AcDbEntity
  8
ASSI
100
AcDbLine
 62
7
  6
CONTINUOUS
 10
48.0302281121
 20
-45.2480739337
 11
48.1716494683
 21
-45.166419015
  0
LINE
  5
35E
100
AcDbEntity
  8
0
100
AcDbLine
 62
7
  6
CONTINUOUS
 10
48.0302281121
 20
-45.2480739337
 11
48.1716494683
 21
-45.166419015
  0
LINE
  5
35F
100
AcDbEntity
  8
ASSI
100
AcDbLine
 62
7
  6
CONTINUOUS
 10
48.3837815027
 20
-45.043936637
 11
48.5252028589
 21
-44.9622817184
  0
LINE
  5
360
100
AcDbEntity
  8
0
100
AcDbLine
 62
7
  6
CONTINUOUS
 10
48.3837815027
 20
-45.043936637
 11
48.5252028589
 21
-44.9622817184
  0
LINE
  5
361
100
AcDbEntity
  8
ASSI
100
AcDbLine
 62
7
  6
CONTINUOUS
 10
48.7373348933
 20
-44.8397993404
 11
48.8787562495
 21
-44.7581444217
  0
LINE
  5
362
100
AcDbEntity
  8
0
100
AcDbLine
 62
7
  6
CONTINUOUS
 10
48.7373348933
 20
-44.8397993404
 11
48.8787562495
 21
-44.7581444217
  0
LINE
  5
363
100
AcDbEntity
  8
ASSI
100
AcDbLine
 62
7
  6
CONTINUOUS
 10
49.0908882839
 20
-44.6356620437
 11
49.2323096401
 21
-44.554007125
  0
LINE
  5
364
100
AcDbEntity
  8
0
100
AcDbLine
 62
7
  6
CONTINUOUS
 10
49.0908882839
 20
-44.6356620437
 11
49.2323096401
 21
-44.554007125
  0
LINE
  5
365
100
AcDbEntity
  8
ASSI
100
AcDbLine
 62
7
  6
CONTINUOUS
 10
51.2122086274
 20
-47.9018587903
 11
51.3536299837
 21
-47.8202038716
  0
LINE
  5
366
100
AcDbEntity
  8
0
100
AcDbLine
 62
7
  6
CONTINUOUS
 10
51.2122086274
 20
-47.9018587903
 11
51.3536299837
 21
-47.8202038716
  0
LINE
  5
367
100
AcDbEntity
  8
ASSI
100
AcDbLine
 62
7
  6
CONTINUOUS
 10
51.565762018
 20
-47.6977214936
 11
51.7071833743
 21
-47.616066575
  0
LINE
  5
368
100
AcDbEntity
  8
0
100
AcDbLine
 62
7
  6
CONTINUOUS
 10
51.565762018
 20
-47.6977214936
 11
51.7071833743
 21
-47.616066575
  0
LINE
  5
369
100
AcDbEntity
  8
ASSI
100
AcDbLine
 62
7
  6
CONTINUOUS
 10
51.9193154086
 20
-47.493584197
 11
52.0607367649
 21
-47.4119292783
  0
LINE
  5
36A
100
AcDbEntity
  8
0
100
AcDbLine
 62
7
  6
CONTINUOUS
 10
51.9193154086
 20
-47.493584197
 11
52.0607367649
 21
-47.4119292783
  0
LINE
  5
36B
100
AcDbEntity
  8
ASSI
100
AcDbLine
 62
7
  6
CONTINUOUS
 10
52.2728687992
 20
-47.2894469003
 11
52.4142901555
 21
-47.2077919817
  0
LINE
  5
36C
100
AcDbEntity
  8
0
100
AcDbLine
 62
7
  6
CONTINUOUS
 10
52.2728687992
 20
-47.2894469003
 11
52.4142901555
 21
-47.2077919817
  0
LINE
  5
36D
100
AcDbEntity
  8
ASSI
100
AcDbLine
 62
7
  6
CONTINUOUS
 10
52.6264221898
 20
-47.0853096037
 11
52.767843546
 21
-47.003654685
  0
LINE
  5
36E
100
AcDbEntity
  8
0
100
AcDbLine
 62
7
  6
CONTINUOUS
 10
52.6264221898
 20
-47.0853096037
 11
52.767843546
 21
-47.003654685
  0
LINE
  5
36F
100
AcDbEntity
  8
ASSI
100
AcDbLine
 62
7
  6
CONTINUOUS
 10
52.9799755804
 20
-46.881172307
 11
53.1213969366
 21
-46.7995173883
  0
LINE
  5
370
100
AcDbEntity
  8
0
100
AcDbLine
 62
7
  6
CONTINUOUS
 10
52.9799755804
 20
-46.881172307
 11
53.1213969366
 21
-46.7995173883
  0
LINE
  5
371
100
AcDbEntity
  8
ASSI
100
AcDbLine
 62
7
  6
CONTINUOUS
 10
53.2274629538
 20
-46.8607467408
 11
51.1766858712
 21
-48.0448397261
  0
LINE
  5
372
100
AcDbEntity
  8
0
100
AcDbLine
 62
7
  6
CONTINUOUS
 10
53.2274629538
 20
-46.8607467408
 11
51.1766858712
 21
-48.0448397261
  0
LINE
  5
373
100
AcDbEntity
  8
ASSI
100
AcDbLine
 62
7
  6
CONTINUOUS
 10
46.9959336274
 20
-45.6309257777
 11
49.2659046427
 21
-44.4508086825
  0
LINE
  5
374
100
AcDbEntity
  8
0
100
AcDbLine
 62
7
  6
CONTINUOUS
 10
46.9959336274
 20
-45.6309257777
 11
49.2659046427
 21
-44.4508086825
  0
LINE
  5
375
100
AcDbEntity
  8
SMUSSO
100
AcDbLine
 62
7
  6
CONTINUOUS
 10
71.8950819771
 20
-79.807022917
 11
71.8950819771
 21
-7.9576385592
  0
LINE
  5
376
100
AcDbEntity
  8
SMUSSO
100
AcDbLine
 62
7
  6
CONTINUOUS
 10
73.3092955395
 20
-79.807022917
 11
73.3092955395
 21
-7.9576385592
  0
LINE
  5
377
100
AcDbEntity
  8
SMUSSO
100
AcDbLine
 62
7
  6
CONTINUOUS
 10
74.3699557113
 20
-6.9369520759
 11
74.3699557113
 21
-79.194611027
  0
LINE
  5
378
100
AcDbEntity
  8
0
100
AcDbLine
 62
250
  6
CONTINUOUS
 10
74.7306527497
 20
-72.0485121116
 11
74.7306527497
 21
-71.724722861
  0
LINE
  5
379
100
AcDbEntity
  8
0
100
AcDbLine
 62
250
  6
CONTINUOUS
 10
74.7307319528
 20
-69.1266009505
 11
74.7307319528
 21
-69.4398283416
  0
LINE
  5
37A
100
AcDbEntity
  8
0
100
AcDbLine
 62
250
  6
CONTINUOUS
 10
74.7307319528
 20
-70.1222684907
 11
74.7307319528
 21
-70.4426269332
  0
LINE
  5
37B
100
AcDbEntity
  8
0
100
AcDbLine
 62
250
  6
CONTINUOUS
 10
74.7307319528
 20
-71.0867860569
 11
74.7307319528
 21
-71.4103075052
  0
LINE
  5
37C
100
AcDbEntity
  8
0
100
AcDbLine
 62
250
  6
CONTINUOUS
 10
74.7307319528
 20
-72.1686238701
 11
74.7307319528
 21
-72.4921918572
  0
LINE
  5
37D
100
AcDbEntity
  8
0
100
AcDbLine
 62
250
  6
CONTINUOUS
 10
74.7307319528
 20
-73.0925857247
 11
74.7307319528
 21
-73.4443211199
  0
LINE
  5
37E
100
AcDbEntity
  8
ASSI
100
AcDbLine
 62
7
  6
CONTINUOUS
 10
51.1414159451
 20
-48.0244753128
 11
51.2122086274
 21
-47.9018587903
  0
LINE
  5
37F
100
AcDbEntity
  8
0
100
AcDbLine
 62
7
  6
CONTINUOUS
 10
51.1414159451
 20
-48.0244753128
 11
51.2122086274
 21
-47.9018587903
  0
LINE
  5
380
100
AcDbEntity
  8
ASSI
100
AcDbLine
 62
7
  6
CONTINUOUS
 10
51.4596960009
 20
-47.8814332242
 11
51.565762018
 21
-47.6977214936
  0
LINE
  5
381
100
AcDbEntity
  8
0
100
AcDbLine
 62
7
  6
CONTINUOUS
 10
51.4596960009
 20
-47.8814332242
 11
51.565762018
 21
-47.6977214936
  0
LINE
  5
382
100
AcDbEntity
  8
ASSI
100
AcDbLine
 62
7
  6
CONTINUOUS
 10
51.8132493914
 20
-47.6772959275
 11
51.9193154086
 21
-47.493584197
  0
LINE
  5
383
100
AcDbEntity
  8
0
100
AcDbLine
 62
7
  6
CONTINUOUS
 10
51.8132493914
 20
-47.6772959275
 11
51.9193154086
 21
-47.493584197
  0
LINE
  5
384
100
AcDbEntity
  8
ASSI
100
AcDbLine
 62
7
  6
CONTINUOUS
 10
52.166802782
 20
-47.4731586308
 11
52.2728687992
 21
-47.2894469003
  0
LINE
  5
385
100
AcDbEntity
  8
0
100
AcDbLine
 62
7
  6
CONTINUOUS
 10
52.166802782
 20
-47.4731586308
 11
52.2728687992
 21
-47.2894469003
  0
LINE
  5
386
100
AcDbEntity
  8
ASSI
100
AcDbLine
 62
7
  6
CONTINUOUS
 10
52.5203561726
 20
-47.2690213342
 11
52.6264221898
 21
-47.0853096037
  0
LINE
  5
387
100
AcDbEntity
  8
0
100
AcDbLine
 62
7
  6
CONTINUOUS
 10
52.5203561726
 20
-47.2690213342
 11
52.6264221898
 21
-47.0853096037
  0
LINE
  5
388
100
AcDbEntity
  8
ASSI
100
AcDbLine
 62
7
  6
CONTINUOUS
 10
52.8739095632
 20
-47.0648840375
 11
52.9799755804
 21
-46.881172307
  0
LINE
  5
389
100
AcDbEntity
  8
0
100
AcDbLine
 62
7
  6
CONTINUOUS
 10
52.8739095632
 20
-47.0648840375
 11
52.9799755804
 21
-46.881172307
  0
LINE
  5
38A
100
AcDbEntity
  8
ASSI
100
AcDbLine
 62
250
  6
CONTINUOUS
 10
52.8142831153
 20
-47.93008113
 11
53.1502280803
 21
-47.6033275402
  0
LINE
  5
38B
100
AcDbEntity
  8
0
100
AcDbLine
 62
250
  6
CONTINUOUS
 10
52.8142831153
 20
-47.93008113
 11
53.1502280803
 21
-47.6033275402
  0
LINE
  5
38C
100
AcDbEntity
  8
ASSI
100
AcDbLine
 62
7
  6
CONTINUOUS
 10
52.81820801
 20
-47.9636162945
 11
53.2471923536
 21
-47.5463688616
  0
LINE
  5
38D
100
AcDbEntity
  8
0
100
AcDbLine
 62
7
  6
CONTINUOUS
 10
52.81820801
 20
-47.9636162945
 11
53.2471923536
 21
-47.5463688616
  0
LINE
  5
38E
100
AcDbEntity
  8
ASSI
100
AcDbLine
 62
7
  6
CONTINUOUS
 10
53.512241901
 20
-46.9025905964
 11
51.4683508184
 21
-48.2132434112
  0
LINE
  5
38F
100
AcDbEntity
  8
0
100
AcDbLine
 62
7
  6
CONTINUOUS
 10
53.512241901
 20
-46.9025905964
 11
51.4683508184
 21
-48.2132434112
  0
LINE
  5
390
100
AcDbEntity
  8
ASSI
100
AcDbLine
 62
7
  6
CONTINUOUS
 10
51.7929121156
 20
-48.4006410364
 11
53.5103056663
 21
-47.3918110426
  0
LINE
  5
391
100
AcDbEntity
  8
0
100
AcDbLine
 62
7
  6
CONTINUOUS
 10
51.7929121156
 20
-48.4006410364
 11
53.5103056663
 21
-47.3918110426
  0
LINE
  5
392
100
AcDbEntity
  8
ASSI
100
AcDbLine
 62
7
  6
CONTINUOUS
 10
52.7595936602
 20
-48.0080803196
 11
51.9383367297
 21
-48.4846073861
  0
LINE
  5
393
100
AcDbEntity
  8
0
100
AcDbLine
 62
7
  6
CONTINUOUS
 10
52.7595936602
 20
-48.0080803196
 11
51.9383367297
 21
-48.4846073861
  0
LINE
  5
394
100
AcDbEntity
  8
ASSI
100
AcDbLine
 62
250
  6
CONTINUOUS
 10
52.8142831153
 20
-47.93008113
 11
51.8980687899
 21
-48.4613571823
  0
LINE
  5
395
100
AcDbEntity
  8
0
100
AcDbLine
 62
250
  6
CONTINUOUS
 10
52.8142831153
 20
-47.93008113
 11
51.8980687899
 21
-48.4613571823
  0
LINE
  5
396
100
AcDbEntity
  8
RACCORDO
100
AcDbLine
 62
250
  6
CONTINUOUS
 10
52.6617775289
 20
-51.3519605966
 11
53.5102646622
 21
-50.8620547599
  0
LINE
  5
397
100
AcDbEntity
  8
0
100
AcDbLine
 62
250
  6
CONTINUOUS
 10
75.3179482163
 20
-67.8927357824
 11
75.3179482163
 21
-67.7076932836
  0
LINE
  5
398
100
AcDbEntity
  8
0
100
AcDbLine
 62
250
  6
CONTINUOUS
 10
75.5341232726
 20
-67.5791396589
 11
75.5341232726
 21
-67.752747862
  0
LINE
  5
399
100
AcDbEntity
  8
0
100
AcDbLine
 62
250
  6
CONTINUOUS
 10
75.5832673593
 20
-68.6307799711
 11
75.5832673593
 21
-68.9407855705
  0
LINE
  5
39A
100
AcDbEntity
  8
0
100
AcDbLine
 62
250
  6
CONTINUOUS
 10
75.787168837
 20
-68.8851053087
 11
75.787168837
 21
-68.4441574722
  0
LINE
  5
39B
100
AcDbEntity
  8
0
100
AcDbLine
 62
250
  6
CONTINUOUS
 10
76.0506769133
 20
-72.1633728412
 11
76.0506769133
 21
-71.8780328088
  0
LINE
  5
39C
100
AcDbEntity
  8
0
100
AcDbLine
 62
250
  6
CONTINUOUS
 10
76.0506769133
 20
-70.7611708702
 11
76.0506769133
 21
-70.4514102119
  0
LINE
  5
39D
100
AcDbEntity
  8
0
100
AcDbLine
 62
250
  6
CONTINUOUS
 10
76.0506769133
 20
-70.0016918516
 11
76.0506769133
 21
-69.9562805913
  0
LINE
  5
39E
100
AcDbEntity
  8
0
100
AcDbLine
 62
250
  6
CONTINUOUS
 10
76.0506769133
 20
-69.5047708953
 11
76.0506769133
 21
-69.188018802
  0
LINE
  5
39F
100
AcDbEntity
  8
0
100
AcDbLine
 62
250
  6
CONTINUOUS
 10
76.0506769133
 20
-69.1371755649
 11
76.0506769133
 21
-68.8168987695
  0
LINE
  5
3A0
100
AcDbEntity
  8
0
100
AcDbLine
 62
250
  6
CONTINUOUS
 10
76.0506769133
 20
-68.2027269661
 11
76.0506769133
 21
-67.861466068
  0
LINE
  5
3A1
100
AcDbEntity
  8
0
100
AcDbLine
 62
250
  6
CONTINUOUS
 10
76.0506767369
 20
-66.6366125278
 11
76.0506767369
 21
-66.9480604098
  0
LINE
  5
3A2
100
AcDbEntity
  8
0
100
AcDbLine
 62
250
  6
CONTINUOUS
 10
76.0506767369
 20
-67.4438993964
 11
76.0506767369
 21
-67.7663860847
  0
LINE
  5
3A3
100
AcDbEntity
  8
0
100
AcDbLine
 62
250
  6
CONTINUOUS
 10
76.0506769133
 20
-70.9354774766
 11
76.0506769133
 21
-71.2592667272
  0
LINE
  5
3A4
100
AcDbEntity
  8
ASSI
100
AcDbLine
 62
7
  6
CONTINUOUS
 10
76.3852100377
 20
-6.1814644889
 11
76.3852100377
 21
-76.888039164
  0
LINE
  5
3A5
100
AcDbEntity
  8
0
100
AcDbLine
 62
7
  6
CONTINUOUS
 10
76.3852100377
 20
-6.1814644889
 11
76.3852100377
 21
-76.888039164
  0
LINE
  5
3A6
100
AcDbEntity
  8
ASSI
100
AcDbLine
 62
7
  6
CONTINUOUS
 10
76.597342072
 20
-5.2928334286
 11
76.597342072
 21
-75.5719874204
  0
LINE
  5
3A7
100
AcDbEntity
  8
0
100
AcDbLine
 62
7
  6
CONTINUOUS
 10
76.597342072
 20
-5.2928334286
 11
76.597342072
 21
-75.5719874204
  0
LINE
  5
3A8
100
AcDbEntity
  8
ASSI
100
AcDbLine
 62
250
  6
CONTINUOUS
 10
76.3853228295
 20
-6.1520458097
 11
76.597342072
 21
-5.2928334286
  0
LINE
  5
3A9
100
AcDbEntity
  8
0
100
AcDbLine
 62
250
  6
CONTINUOUS
 10
76.3853228295
 20
-6.1520458097
 11
76.597342072
 21
-5.2928334286
  0
LINE
  5
3AA
100
AcDbEntity
  8
ASSI
100
AcDbLine
 62
7
  6
CONTINUOUS
 10
76.596783648
 20
-75.5797731519
 11
76.3775368921
 21
-77.0318118808
  0
LINE
  5
3AB
100
AcDbEntity
  8
0
100
AcDbLine
 62
7
  6
CONTINUOUS
 10
76.596783648
 20
-75.5797731519
 11
76.3775368921
 21
-77.0318118808
  0
LINE
  5
3AC
100
AcDbEntity
  8
ASSI
100
AcDbLine
 62
250
  6
CONTINUOUS
 10
76.3853228295
 20
-76.9162856003
 11
76.597342072
 21
-75.5719874204
  0
LINE
  5
3AD
100
AcDbEntity
  8
0
100
AcDbLine
 62
250
  6
CONTINUOUS
 10
76.3853228295
 20
-76.9162856003
 11
76.597342072
 21
-75.5719874204
  0
LINE
  5
3AE
100
AcDbEntity
  8
0
100
AcDbLine
 62
250
  6
CONTINUOUS
 10
75.4267385113
 20
-67.306993166
 11
75.4345382341
 21
-67.3023296945
  0
LINE
  5
3AF
100
AcDbEntity
  8
0
100
AcDbLine
 62
250
  6
CONTINUOUS
 10
75.5341232726
 20
-67.752747862
 11
76.0506767369
 21
-67.4438993964
  0
LINE
  5
3B0
100
AcDbEntity
  8
0
100
AcDbLine
 62
250
  6
CONTINUOUS
 10
74.9555976458
 20
-68.1093859947
 11
75.3179482163
 21
-67.8927357824
  0
LINE
  5
3B1
100
AcDbEntity
  8
0
100
AcDbLine
 62
250
  6
CONTINUOUS
 10
74.7307319528
 20
-71.4103075052
 11
76.0506769133
 21
-70.7611708702
  0
LINE
  5
3B2
100
AcDbEntity
  8
0
100
AcDbLine
 62
250
  6
CONTINUOUS
 10
75.1887774752
 20
-70.8968674608
 11
76.0506769133
 21
-70.0016918516
  0
LINE
  5
3B3
100
AcDbEntity
  8
0
100
AcDbLine
 62
250
  6
CONTINUOUS
 10
75.4635692167
 20
-70.3282511532
 11
74.7307319528
 21
-71.0867860569
  0
LINE
  5
3B4
100
AcDbEntity
  8
0
100
AcDbLine
 62
250
  6
CONTINUOUS
 10
74.7307319528
 20
-73.4443211199
 11
76.0506769133
 21
-72.1633728412
  0
LINE
  5
3B5
100
AcDbEntity
  8
0
100
AcDbLine
 62
250
  6
CONTINUOUS
 10
76.0506769133
 20
-67.861466068
 11
74.7307319528
 21
-69.1266009505
  0
LINE
  5
3B6
100
AcDbEntity
  8
0
100
AcDbLine
 62
250
  6
CONTINUOUS
 10
75.639291059
 20
-72.2536755852
 11
74.7307319528
 21
-73.0925857247
  0
LINE
  5
3B7
100
AcDbEntity
  8
0
100
AcDbLine
 62
250
  6
CONTINUOUS
 10
75.787168837
 20
-68.4441574722
 11
76.0506769133
 21
-68.2027269661
  0
LINE
  5
3B8
100
AcDbEntity
  8
0
100
AcDbLine
 62
250
  6
CONTINUOUS
 10
75.0934190063
 20
-69.0724467698
 11
75.5832673593
 21
-68.6307799711
  0
LINE
  5
3B9
100
AcDbEntity
  8
0
100
AcDbLine
 62
250
  6
CONTINUOUS
 10
76.0506769133
 20
-69.188018802
 11
74.7307319528
 21
-70.1222684907
  0
LINE
  5
3BA
100
AcDbEntity
  8
0
100
AcDbLine
 62
250
  6
CONTINUOUS
 10
75.1923707956
 20
-70.0844775815
 11
76.0506769133
 21
-69.5047708953
  0
LINE
  5
3BB
100
AcDbEntity
  8
ASSI
100
AcDbLine
 62
250
  6
CONTINUOUS
 10
74.3703938971
 20
-78.1340316882
 11
76.3852100377
 21
-76.888039164
  0
LINE
  5
3BC
100
AcDbEntity
  8
0
100
AcDbLine
 62
250
  6
CONTINUOUS
 10
74.3703938971
 20
-78.1340316882
 11
76.3852100377
 21
-76.888039164
  0
LINE
  5
3BD
100
AcDbEntity
  8
ASSI
100
AcDbLine
 62
7
  6
CONTINUOUS
 10
74.3699557113
 20
-78.4641359679
 11
76.2002641731
 21
-77.3322457599
  0
LINE
  5
3BE
100
AcDbEntity
  8
0
100
AcDbLine
 62
7
  6
CONTINUOUS
 10
74.3699557113
 20
-78.4641359679
 11
76.2002641731
 21
-77.3322457599
  0
LINE
  5
3BF
100
AcDbEntity
  8
0
100
AcDbLine
 62
250
  6
CONTINUOUS
 10
76.0506767369
 20
-67.7663860847
 11
74.7461533148
 21
-68.5463635413
  0
LINE
  5
3C0
100
AcDbEntity
  8
0
100
AcDbLine
 62
250
  6
CONTINUOUS
 10
74.7306527497
 20
-71.724722861
 11
76.0506769133
 21
-70.9354774766
  0
LINE
  5
3C1
100
AcDbEntity
  8
0
100
AcDbLine
 62
250
  6
CONTINUOUS
 10
76.0506769133
 20
-71.2592667272
 11
74.7306527497
 21
-72.0485121116
  0
LINE
  5
3C2
100
AcDbEntity
  8
SMUSSO
100
AcDbLine
 62
250
  6
CONTINUOUS
 10
73.3092955395
 20
-79.807022917
 11
74.3699557113
 21
-79.194611027
  0
LINE
  5
3C3
100
AcDbEntity
  8
RACCORDO
100
AcDbLine
 62
7
  6
CONTINUOUS
 10
73.1022129185
 20
-80.2647597781
 11
74.1628730902
 21
-79.6523478881
  0
LINE
  5
3C4
100
AcDbEntity
  8
0
100
AcDbLine
 62
250
  6
CONTINUOUS
 10
76.0506769133
 20
-70.4514102119
 11
75.1887774752
 21
-70.8968674608
  0
ARC
  5
3C5
100
AcDbEntity
  8
ASSI
100
AcDbCircle
 62
7
  6
CONTINUOUS
 10
-42.8505412022
 20
7.3686377254
 40
0.3
100
AcDbArc
 50
300.108999349
 51
314.2001403814
  0
ARC
  5
3C6
100
AcDbEntity
  8
ASSI
100
AcDbCircle
 62
7
  6
CONTINUOUS
 10
52.608874258
 20
-47.7484323738
 40
0.3
100
AcDbArc
 50
300.108999349
 51
314.2001403814
  0
ARC
  5
3C7
100
AcDbEntity
  8
ASSI
100
AcDbCircle
 62
7
  6
CONTINUOUS
 10
36.6989715487
 20
-38.5622541808
 40
0.3
100
AcDbArc
 50
300.1089848951
 51
314.2001408884
  0
ARC
  5
3C8
100
AcDbEntity
  8
ASSI
100
AcDbCircle
 62
7
  6
CONTINUOUS
 10
20.789068972
 20
-29.376075831
 40
0.3
100
AcDbArc
 50
300.1089848951
 51
314.2001408884
  0
ARC
  5
3C9
100
AcDbEntity
  8
ASSI
100
AcDbCircle
 62
7
  6
CONTINUOUS
 10
4.8791663953
 20
-20.1898974811
 40
0.3
100
AcDbArc
 50
300.1089848951
 51
314.2001408884
  0
ARC
  5
3CA
100
AcDbEntity
  8
ASSI
100
AcDbCircle
 62
7
  6
CONTINUOUS
 10
-11.0307361814
 20
-11.0037191312
 40
0.3
100
AcDbArc
 50
300.1089848951
 51
314.2001408884
  0
ARC
  5
3CB
100
AcDbEntity
  8
ASSI
100
AcDbCircle
 62
7
  6
CONTINUOUS
 10
-26.9406387581
 20
-1.8175407813
 40
0.3
100
AcDbArc
 50
300.1089848951
 51
314.2001408884
  0
ARC
  5
3CC
100
AcDbEntity
  8
0
100
AcDbCircle
 62
7
  6
CONTINUOUS
 10
-42.8505412022
 20
7.3686377254
 40
0.3
100
AcDbArc
 50
300.1089993398
 51
314.2001403814
  0
ARC
  5
3CD
100
AcDbEntity
  8
0
100
AcDbCircle
 62
7
  6
CONTINUOUS
 10
52.608874258
 20
-47.7484323738
 40
0.3
100
AcDbArc
 50
300.1089993398
 51
314.2001403814
  0
ARC
  5
3CE
100
AcDbEntity
  8
0
100
AcDbCircle
 62
7
  6
CONTINUOUS
 10
36.6989715487
 20
-38.5622541808
 40
0.3
100
AcDbArc
 50
300.1089848867
 51
314.2001408883
  0
ARC
  5
3CF
100
AcDbEntity
  8
0
100
AcDbCircle
 62
7
  6
CONTINUOUS
 10
20.789068972
 20
-29.376075831
 40
0.3
100
AcDbArc
 50
300.1089848867
 51
314.2001408883
  0
ARC
  5
3D0
100
AcDbEntity
  8
0
100
AcDbCircle
 62
7
  6
CONTINUOUS
 10
4.8791663953
 20
-20.1898974811
 40
0.3
100
AcDbArc
 50
300.1089848867
 51
314.2001408883
  0
ARC
  5
3D1
100
AcDbEntity
  8
0
100
AcDbCircle
 62
7
  6
CONTINUOUS
 10
-11.0307361814
 20
-11.0037191312
 40
0.3
100
AcDbArc
 50
300.1089848867
 51
314.2001408883
  0
ARC
  5
3D2
100
AcDbEntity
  8
0
100
AcDbCircle
 62
7
  6
CONTINUOUS
 10
-26.9406387581
 20
-1.8175407813
 40
0.3
100
AcDbArc
 50
300.1089848867
 51
314.2001408883
  0
ARC
  5
3D3
100
AcDbEntity
  8
ASSI
100
AcDbCircle
 62
250
  6
CONTINUOUS
 10
-42.8111187456
 20
7.2312165774
 40
0.171777666
100
AcDbArc
 50
339.5945260157
 51
345.0800020027
  0
ARC
  5
3D4
100
AcDbEntity
  8
ASSI
100
AcDbCircle
 62
250
  6
CONTINUOUS
 10
52.6482967146
 20
-47.8858535218
 40
0.171777666
100
AcDbArc
 50
339.5945260156
 51
345.0800020028
  0
ARC
  5
3D5
100
AcDbEntity
  8
0
100
AcDbCircle
 62
250
  6
CONTINUOUS
 10
-42.8111187456
 20
7.2312165774
 40
0.171777666
100
AcDbArc
 50
339.5945260145
 51
345.0800020027
  0
ARC
  5
3D6
100
AcDbEntity
  8
0
100
AcDbCircle
 62
250
  6
CONTINUOUS
 10
52.6482967146
 20
-47.8858535218
 40
0.171777666
100
AcDbArc
 50
339.5945260145
 51
345.0800020027
  0
ARC
  5
3D7
100
AcDbEntity
  8
ASSI
100
AcDbCircle
 62
250
  6
CONTINUOUS
 10
-42.750098954
 20
7.1956780982
 40
0.1002112887
100
AcDbArc
 50
300.1120046764
 51
305.0045006115
  0
ARC
  5
3D8
100
AcDbEntity
  8
ASSI
100
AcDbCircle
 62
250
  6
CONTINUOUS
 10
52.7093165062
 20
-47.9213920011
 40
0.1002112887
100
AcDbArc
 50
300.1120046761
 51
305.0045006119
  0
ARC
  5
3D9
100
AcDbEntity
  8
0
100
AcDbCircle
 62
250
  6
CONTINUOUS
 10
-42.750098954
 20
7.1956780982
 40
0.1002112887
100
AcDbArc
 50
300.1120046762
 51
305.0045006092
  0
ARC
  5
3DA
100
AcDbEntity
  8
0
100
AcDbCircle
 62
250
  6
CONTINUOUS
 10
52.7093165062
 20
-47.921392001
 40
0.1002112887
100
AcDbArc
 50
300.1120046763
 51
305.0045006091
  0
SPLINE
  5
3DB
100
AcDbEntity
  8
ASSI
100
AcDbSpline
 62
7
  6
CONTINUOUS
 70
0
 71
3
 72
10
 73
6
 74
0
 42
0.0000001
 43
0.0000001
 44
0.0000000001
 40
0.0
 40
0.0
 40
0.0
 40
0.0
 40
0.5286426009
 40
0.7679931249
 40
1.0
 40
1.0
 40
1.0
 40
1.0
 10
-71.9528853834
 20
80.2745662668
 30
0.0
 10
-72.0117357161
 20
80.297651742
 30
0.0
 10
-72.1042740634
 20
80.319011719
 30
0.0
 10
-72.2239850135
 20
80.304842822
 30
0.0
 10
-72.277282072
 20
80.2843851307
 30
0.0
 10
-72.3017176798
 20
80.2712464084
 30
0.0
  0
SPLINE
  5
3DC
100
AcDbEntity
  8
ASSI
100
AcDbSpline
 62
7
  6
CONTINUOUS
 70
0
 71
3
 72
10
 73
6
 74
0
 42
0.0000001
 43
0.0000001
 44
0.0000000001
 40
0.0
 40
0.0
 40
0.0
 40
0.0
 40
0.2320071093
 40
0.4713577349
 40
1.0
 40
1.0
 40
1.0
 40
1.0
 10
76.2002639617
 20
-77.3322454775
 30
0.0
 10
76.223858572
 20
-77.3176521833
 30
0.0
 10
76.2682204458
 20
-77.2817233678
 30
0.0
 10
76.3403390707
 20
-77.1851350791
 30
0.0
 10
76.3681048278
 20
-77.0943167339
 30
0.0
 10
76.3775343324
 20
-77.031810045
 30
0.0
  0
SPLINE
  5
3DD
100
AcDbEntity
  8
ASSI
100
AcDbSpline
 62
250
  6
CONTINUOUS
 70
0
 71
3
 72
9
 73
5
 74
0
 42
0.0000001
 43
0.0000001
 44
0.0000000001
 40
0.0
 40
0.0
 40
0.0
 40
0.0
 40
0.2416065921
 40
1.0
 40
1.0
 40
1.0
 40
1.0
 10
5.0298854141
 20
-20.4495447758
 30
0.0
 10
5.0345601455
 20
-20.4468156527
 30
0.0
 10
5.052978512
 20
-20.4339142248
 30
0.0
 10
5.0667679499
 20
-20.4150501675
 30
0.0
 10
5.0741770765
 20
-20.3997592598
 30
0.0
  0
SPLINE
  5
3DE
100
AcDbEntity
  8
ASSI
100
AcDbSpline
 62
250
  6
CONTINUOUS
 70
0
 71
3
 72
9
 73
5
 74
0
 42
0.0000001
 43
0.0000001
 44
0.0000000001
 40
0.0
 40
0.0
 40
0.0
 40
0.0
 40
0.2431061737
 40
1.0
 40
1.0
 40
1.0
 40
1.0
 10
5.0741770765
 20
-20.3997592598
 30
0.0
 10
5.0752404725
 20
-20.39756463
 30
0.0
 10
5.079384289
 20
-20.3884264292
 30
0.0
 10
5.082613036
 20
-20.3788808005
 30
0.0
 10
5.0845753852
 20
-20.3715460804
 30
0.0
  0
SPLINE
  5
3DF
100
AcDbEntity
  8
ASSI
100
AcDbSpline
 62
250
  6
CONTINUOUS
 70
0
 71
3
 72
9
 73
5
 74
0
 42
0.0000001
 43
0.0000001
 44
0.0000000001
 40
0.0
 40
0.0
 40
0.0
 40
0.0
 40
0.2416065921
 40
1.0
 40
1.0
 40
1.0
 40
1.0
 10
-10.8800171626
 20
-11.2633664259
 30
0.0
 10
-10.8753424312
 20
-11.2606373029
 30
0.0
 10
-10.8569240647
 20
-11.2477358749
 30
0.0
 10
-10.8431346268
 20
-11.2288718176
 30
0.0
 10
-10.8357255002
 20
-11.2135809099
 30
0.0
  0
SPLINE
  5
3E0
100
AcDbEntity
  8
ASSI
100
AcDbSpline
 62
250
  6
CONTINUOUS
 70
0
 71
3
 72
9
 73
5
 74
0
 42
0.0000001
 43
0.0000001
 44
0.0000000001
 40
0.0
 40
0.0
 40
0.0
 40
0.0
 40
0.2431061737
 40
1.0
 40
1.0
 40
1.0
 40
1.0
 10
-10.8357255002
 20
-11.2135809099
 30
0.0
 10
-10.8346621042
 20
-11.2113862801
 30
0.0
 10
-10.8305182877
 20
-11.2022480793
 30
0.0
 10
-10.8272895407
 20
-11.1927024507
 30
0.0
 10
-10.8253271915
 20
-11.1853677305
 30
0.0
  0
SPLINE
  5
3E1
100
AcDbEntity
  8
ASSI
100
AcDbSpline
 62
250
  6
CONTINUOUS
 70
0
 71
3
 72
9
 73
5
 74
0
 42
0.0000001
 43
0.0000001
 44
0.0000000001
 40
0.0
 40
0.0
 40
0.0
 40
0.0
 40
0.2416065921
 40
1.0
 40
1.0
 40
1.0
 40
1.0
 10
-26.7899197393
 20
-2.077188076
 30
0.0
 10
-26.7852450079
 20
-2.074458953
 30
0.0
 10
-26.7668266414
 20
-2.061557525
 30
0.0
 10
-26.7530372035
 20
-2.0426934677
 30
0.0
 10
-26.7456280769
 20
-2.02740256
 30
0.0
  0
SPLINE
  5
3E2
100
AcDbEntity
  8
ASSI
100
AcDbSpline
 62
250
  6
CONTINUOUS
 70
0
 71
3
 72
9
 73
5
 74
0
 42
0.0000001
 43
0.0000001
 44
0.0000000001
 40
0.0
 40
0.0
 40
0.0
 40
0.0
 40
0.2431061737
 40
1.0
 40
1.0
 40
1.0
 40
1.0
 10
-26.7456280769
 20
-2.02740256
 30
0.0
 10
-26.7445646809
 20
-2.0252079302
 30
0.0
 10
-26.7404208644
 20
-2.0160697294
 30
0.0
 10
-26.7371921174
 20
-2.0065241008
 30
0.0
 10
-26.7352297682
 20
-1.9991893806
 30
0.0
  0
SPLINE
  5
3E3
100
AcDbEntity
  8
ASSI
100
AcDbSpline
 62
250
  6
CONTINUOUS
 70
0
 71
3
 72
9
 73
5
 74
0
 42
0.0000001
 43
0.0000001
 44
0.0000000001
 40
0.0
 40
0.0
 40
0.0
 40
0.0
 40
0.2416065921
 40
1.0
 40
1.0
 40
1.0
 40
1.0
 10
36.8496905675
 20
-38.8219014755
 30
0.0
 10
36.8543652989
 20
-38.8191723525
 30
0.0
 10
36.8727836654
 20
-38.8062709245
 30
0.0
 10
36.8865731033
 20
-38.7874068672
 30
0.0
 10
36.8939822299
 20
-38.7721159595
 30
0.0
  0
SPLINE
  5
3E4
100
AcDbEntity
  8
ASSI
100
AcDbSpline
 62
250
  6
CONTINUOUS
 70
0
 71
3
 72
9
 73
5
 74
0
 42
0.0000001
 43
0.0000001
 44
0.0000000001
 40
0.0
 40
0.0
 40
0.0
 40
0.0
 40
0.2431061737
 40
1.0
 40
1.0
 40
1.0
 40
1.0
 10
36.8939822299
 20
-38.7721159595
 30
0.0
 10
36.8950456259
 20
-38.7699213297
 30
0.0
 10
36.8991894424
 20
-38.7607831289
 30
0.0
 10
36.9024181894
 20
-38.7512375003
 30
0.0
 10
36.9043805386
 20
-38.7439027801
 30
0.0
  0
SPLINE
  5
3E5
100
AcDbEntity
  8
ASSI
100
AcDbSpline
 62
250
  6
CONTINUOUS
 70
0
 71
3
 72
9
 73
5
 74
0
 42
0.0000001
 43
0.0000001
 44
0.0000000001
 40
0.0
 40
0.0
 40
0.0
 40
0.0
 40
0.4796483492
 40
1.0
 40
1.0
 40
1.0
 40
1.0
 10
-42.6926136723
 20
7.1135943315
 30
0.0
 10
-42.6831164324
 20
7.1202454174
 30
0.0
 10
-42.665680071
 20
7.1377118943
 30
0.0
 10
-42.654518623
 20
7.1595398101
 30
0.0
 10
-42.6501203543
 20
7.1713243028
 30
0.0
  0
SPLINE
  5
3E6
100
AcDbEntity
  8
ASSI
100
AcDbSpline
 62
250
  6
CONTINUOUS
 70
0
 71
3
 72
9
 73
5
 74
0
 42
0.0000001
 43
0.0000001
 44
0.0000000001
 40
0.0
 40
0.0
 40
0.0
 40
0.0
 40
0.4796483492
 40
1.0
 40
1.0
 40
1.0
 40
1.0
 10
52.7668017879
 20
-48.0034757678
 30
0.0
 10
52.7762990278
 20
-47.9968246818
 30
0.0
 10
52.7937353892
 20
-47.979358205
 30
0.0
 10
52.8048968372
 20
-47.9575302891
 30
0.0
 10
52.8092951058
 20
-47.9457457965
 30
0.0
  0
SPLINE
  5
3E7
100
AcDbEntity
  8
ASSI
100
AcDbSpline
 62
7
  6
CONTINUOUS
 70
0
 71
3
 72
9
 73
5
 74
0
 42
0.0000001
 43
0.0000001
 44
0.0000000001
 40
0.0
 40
0.0
 40
0.0
 40
0.0
 40
0.2419970238
 40
1.0
 40
1.0
 40
1.0
 40
1.0
 10
76.3775343324
 20
-77.031810045
 30
0.0
 10
76.3789283938
 20
-77.0225690334
 30
0.0
 10
76.3838536673
 20
-76.9842583704
 30
0.0
 10
76.3855617345
 20
-76.9455575919
 30
0.0
 10
76.3853228295
 20
-76.9162856003
 30
0.0
  0
SPLINE
  5
3E8
100
AcDbEntity
  8
ASSI
100
AcDbSpline
 62
250
  6
CONTINUOUS
 70
0
 71
3
 72
10
 73
6
 74
0
 42
0.0000001
 43
0.0000001
 44
0.0000000001
 40
0.0
 40
0.0
 40
0.0
 40
0.0
 40
0.360269124
 40
0.641576974
 40
1.0
 40
1.0
 40
1.0
 40
1.0
 10
-26.7352297682
 20
-1.9991893806
 30
0.0
 10
-26.7335171943
 20
-2.0030214231
 30
0.0
 10
-26.7307454874
 20
-2.0100747716
 30
0.0
 10
-26.7277872222
 20
-2.0210078425
 30
0.0
 10
-26.7283141865
 20
-2.0298092252
 30
0.0
 10
-26.7313097086
 20
-2.032718558
 30
0.0
  0
SPLINE
  5
3E9
100
AcDbEntity
  8
ASSI
100
AcDbSpline
 62
250
  6
CONTINUOUS
 70
0
 71
3
 72
9
 73
5
 74
0
 42
0.0000001
 43
0.0000001
 44
0.0000000001
 40
0.0
 40
0.0
 40
0.0
 40
0.0
 40
0.2416065921
 40
1.0
 40
1.0
 40
1.0
 40
1.0
 10
20.9397879908
 20
-29.6357231256
 30
0.0
 10
20.9444627222
 20
-29.6329940026
 30
0.0
 10
20.9628810887
 20
-29.6200925746
 30
0.0
 10
20.9766705266
 20
-29.6012285173
 30
0.0
 10
20.9840796532
 20
-29.5859376096
 30
0.0
  0
SPLINE
  5
3EA
100
AcDbEntity
  8
ASSI
100
AcDbSpline
 62
250
  6
CONTINUOUS
 70
0
 71
3
 72
9
 73
5
 74
0
 42
0.0000001
 43
0.0000001
 44
0.0000000001
 40
0.0
 40
0.0
 40
0.0
 40
0.0
 40
0.2431061737
 40
1.0
 40
1.0
 40
1.0
 40
1.0
 10
20.9840796532
 20
-29.5859376096
 30
0.0
 10
20.9851430492
 20
-29.5837429799
 30
0.0
 10
20.9892868657
 20
-29.574604779
 30
0.0
 10
20.9925156127
 20
-29.5650591504
 30
0.0
 10
20.9944779619
 20
-29.5577244302
 30
0.0
  0
SPLINE
  5
3EB
100
AcDbEntity
  8
ASSI
100
AcDbSpline
 62
250
  6
CONTINUOUS
 70
0
 71
3
 72
10
 73
6
 74
0
 42
0.0000001
 43
0.0000001
 44
0.0000000001
 40
0.0
 40
0.0
 40
0.0
 40
0.0
 40
0.360269124
 40
0.641576974
 40
1.0
 40
1.0
 40
1.0
 40
1.0
 10
-10.8253271915
 20
-11.1853677305
 30
0.0
 10
-10.8236146176
 20
-11.189199773
 30
0.0
 10
-10.8208429107
 20
-11.1962531215
 30
0.0
 10
-10.8178846455
 20
-11.2071861923
 30
0.0
 10
-10.8184116098
 20
-11.2159875751
 30
0.0
 10
-10.8214071319
 20
-11.2188969079
 30
0.0
  0
SPLINE
  5
3EC
100
AcDbEntity
  8
ASSI
100
AcDbSpline
 62
250
  6
CONTINUOUS
 70
0
 71
3
 72
10
 73
6
 74
0
 42
0.0000001
 43
0.0000001
 44
0.0000000001
 40
0.0
 40
0.0
 40
0.0
 40
0.0
 40
0.360269124
 40
0.641576974
 40
1.0
 40
1.0
 40
1.0
 40
1.0
 10
5.0845753852
 20
-20.3715460804
 30
0.0
 10
5.0862879591
 20
-20.3753781228
 30
0.0
 10
5.089059666
 20
-20.3824314714
 30
0.0
 10
5.0920179311
 20
-20.3933645422
 30
0.0
 10
5.0914909669
 20
-20.4021659249
 30
0.0
 10
5.0884954448
 20
-20.4050752577
 30
0.0
  0
SPLINE
  5
3ED
100
AcDbEntity
  8
ASSI
100
AcDbSpline
 62
250
  6
CONTINUOUS
 70
0
 71
3
 72
10
 73
6
 74
0
 42
0.0000001
 43
0.0000001
 44
0.0000000001
 40
0.0
 40
0.0
 40
0.0
 40
0.0
 40
0.360269124
 40
0.641576974
 40
1.0
 40
1.0
 40
1.0
 40
1.0
 10
20.9944779619
 20
-29.5577244302
 30
0.0
 10
20.9961905358
 20
-29.5615564727
 30
0.0
 10
20.9989622427
 20
-29.5686098213
 30
0.0
 10
21.0019205078
 20
-29.5795428921
 30
0.0
 10
21.0013935436
 20
-29.5883442748
 30
0.0
 10
20.9983980215
 20
-29.5912536076
 30
0.0
  0
SPLINE
  5
3EE
100
AcDbEntity
  8
ASSI
100
AcDbSpline
 62
250
  6
CONTINUOUS
 70
0
 71
3
 72
10
 73
6
 74
0
 42
0.0000001
 43
0.0000001
 44
0.0000000001
 40
0.0
 40
0.0
 40
0.0
 40
0.0
 40
0.360269124
 40
0.641576974
 40
1.0
 40
1.0
 40
1.0
 40
1.0
 10
36.9043805386
 20
-38.7439027801
 30
0.0
 10
36.9060931125
 20
-38.7477348226
 30
0.0
 10
36.9088648194
 20
-38.7547881711
 30
0.0
 10
36.9118230845
 20
-38.765721242
 30
0.0
 10
36.9112961203
 20
-38.7745226247
 30
0.0
 10
36.9083005982
 20
-38.7774319575
 30
0.0
  0
SPLINE
  5
3EF
100
AcDbEntity
  8
ASSI
100
AcDbSpline
 62
7
  6
CONTINUOUS
 70
0
 71
3
 72
11
 73
7
 74
0
 42
0.0000001
 43
0.0000001
 44
0.0000000001
 40
0.0
 40
0.0
 40
0.0
 40
0.0
 40
0.2395915069
 40
0.4999945232
 40
0.7604005145
 40
1.0
 40
1.0
 40
1.0
 40
1.0
 10
76.3853228295
 20
-6.1520458097
 30
0.0
 10
76.3861740361
 20
-6.0389046074
 30
0.0
 10
76.3479018847
 20
-5.8020627867
 30
0.0
 10
76.2038820532
 20
-5.4697907453
 30
0.0
 10
75.9881332757
 20
-5.1789272031
 30
0.0
 10
75.8021560864
 20
-5.0273568979
 30
0.0
 10
75.7037454435
 20
-4.9715191491
 30
0.0
  0
SPLINE
  5
3F0
100
AcDbEntity
  8
ASSI
100
AcDbSpline
 62
7
  6
CONTINUOUS
 70
0
 71
3
 72
9
 73
5
 74
0
 42
0.0000001
 43
0.0000001
 44
0.0000000001
 40
0.0
 40
0.0
 40
0.0
 40
0.0
 40
0.2581558503
 40
1.0
 40
1.0
 40
1.0
 40
1.0
 10
-71.8488855675
 20
80.2235207279
 30
0.0
 10
-71.8574829714
 20
80.2285788006
 30
0.0
 10
-71.8911322029
 20
80.2475713448
 30
0.0
 10
-71.9262007717
 20
80.2640985784
 30
0.0
 10
-71.9528853834
 20
80.2745662668
 30
0.0
  0
SPLINE
  5
3F1
100
AcDbEntity
  8
ASSI
100
AcDbSpline
 62
250
  6
CONTINUOUS
 70
0
 71
3
 72
10
 73
6
 74
0
 42
0.0000001
 43
0.0000001
 44
0.0000000001
 40
0.0
 40
0.0
 40
0.0
 40
0.0
 40
0.3605721432
 40
0.6416145128
 40
1.0
 40
1.0
 40
1.0
 40
1.0
 10
-42.6451323449
 20
7.1869889693
 30
0.0
 10
-42.6434175719
 20
7.1831520253
 30
0.0
 10
-42.6406094148
 20
7.1761088995
 30
0.0
 10
-42.6376773105
 20
7.1651595089
 30
0.0
 10
-42.6382127548
 20
7.1563662041
 30
0.0
 10
-42.6412075771
 20
7.1534541519
 30
0.0
  0
SPLINE
  5
3F2
100
AcDbEntity
  8
ASSI
100
AcDbSpline
 62
250
  6
CONTINUOUS
 70
0
 71
3
 72
10
 73
6
 74
0
 42
0.0000001
 43
0.0000001
 44
0.0000000001
 40
0.0
 40
0.0
 40
0.0
 40
0.0
 40
0.3605721432
 40
0.6416145128
 40
1.0
 40
1.0
 40
1.0
 40
1.0
 10
52.8142831153
 20
-47.93008113
 30
0.0
 10
52.8159978883
 20
-47.933918074
 30
0.0
 10
52.8188060454
 20
-47.9409611998
 30
0.0
 10
52.8217381497
 20
-47.9519105904
 30
0.0
 10
52.8212027054
 20
-47.9607038951
 30
0.0
 10
52.8182078831
 20
-47.9636159473
 30
0.0
  0
SPLINE
  5
3F3
100
AcDbEntity
  8
0
100
AcDbSpline
 62
250
  6
CONTINUOUS
 70
0
 71
3
 72
12
 73
8
 74
0
 42
0.0000001
 43
0.0000001
 44
0.0000000001
 40
0.0
 40
0.0
 40
0.0
 40
0.0
 40
0.3333333333
 40
0.5
 40
0.6666666667
 40
0.8333333333
 40
1.0
 40
1.0
 40
1.0
 40
1.0
 10
74.9478268055
 20
-67.8603805137
 30
0.0
 10
74.9450824051
 20
-67.8898095045
 30
0.0
 10
74.9427849458
 20
-67.9330522181
 30
0.0
 10
74.9433012688
 20
-67.988638626
 30
0.0
 10
74.9454781247
 20
-68.0294965424
 30
0.0
 10
74.949628046
 20
-68.0697913268
 30
0.0
 10
74.9534964076
 20
-68.0961708959
 30
0.0
 10
74.9555976458
 20
-68.1093859947
 30
0.0
  0
SPLINE
  5
3F4
100
AcDbEntity
  8
0
100
AcDbSpline
 62
250
  6
CONTINUOUS
 70
0
 71
3
 72
15
 73
11
 74
0
 42
0.0000001
 43
0.0000001
 44
0.0000000001
 40
0.0
 40
0.0
 40
0.0
 40
0.0
 40
0.1666666667
 40
0.3333333333
 40
0.4166666667
 40
0.5
 40
0.5833333333
 40
0.6666666667
 40
0.8333333333
 40
1.0
 40
1.0
 40
1.0
 40
1.0
 10
75.112829366
 20
-67.5788146907
 30
0.0
 10
75.0996739503
 20
-67.5869221439
 30
0.0
 10
75.0739575654
 20
-67.6065400203
 30
0.0
 10
75.0424194006
 20
-67.6394898615
 30
0.0
 10
75.019118361
 20
-67.6699449829
 30
0.0
 10
75.0029609718
 20
-67.6945758901
 30
0.0
 10
74.9884730961
 20
-67.7209501286
 30
0.0
 10
74.9718028303
 20
-67.7576030842
 30
0.0
 10
74.9562356679
 20
-67.8047442996
 30
0.0
 10
74.9495522817
 20
-67.8418777381
 30
0.0
 10
74.9478268054
 20
-67.8603805138
 30
0.0
  0
SPLINE
  5
3F5
100
AcDbEntity
  8
0
100
AcDbSpline
 62
250
  6
CONTINUOUS
 70
0
 71
3
 72
17
 73
13
 74
0
 42
0.0000001
 43
0.0000001
 44
0.0000000001
 40
0.0
 40
0.0
 40
0.0
 40
0.0
 40
0.1428571429
 40
0.2857142857
 40
0.3571428571
 40
0.4285714286
 40
0.5
 40
0.5714285714
 40
0.6428571429
 40
0.7142857143
 40
0.8571428571
 40
1.0
 40
1.0
 40
1.0
 40
1.0
 10
75.3179482163
 20
-67.7076932836
 30
0.0
 10
75.3175203225
 20
-67.6854358391
 30
0.0
 10
75.3141904645
 20
-67.6455448218
 30
0.0
 10
75.3048623994
 20
-67.6079903023
 30
0.0
 10
75.2936440861
 20
-67.5832450269
 30
0.0
 10
75.2832013574
 20
-67.5678518082
 30
0.0
 10
75.269960825
 20
-67.5555626239
 30
0.0
 10
75.2539491479
 20
-67.5474031208
 30
0.0
 10
75.235509345
 20
-67.5430372666
 30
0.0
 10
75.2078922189
 20
-67.5421738883
 30
0.0
 10
75.168627934
 20
-67.5501440976
 30
0.0
 10
75.1322586811
 20
-67.5668455419
 30
0.0
 10
75.112829366
 20
-67.5788146907
 30
0.0
  0
SPLINE
  5
3F6
100
AcDbEntity
  8
0
100
AcDbSpline
 62
250
  6
CONTINUOUS
 70
0
 71
3
 72
17
 73
13
 74
0
 42
0.0000001
 43
0.0000001
 44
0.0000000001
 40
0.0
 40
0.0
 40
0.0
 40
0.0
 40
0.1
 40
0.2
 40
0.3
 40
0.4
 40
0.5
 40
0.6
 40
0.7
 40
0.8
 40
0.9
 40
1.0
 40
1.0
 40
1.0
 40
1.0
 10
75.6503985531
 20
-67.3289850378
 30
0.0
 10
75.6434002246
 20
-67.3362571486
 30
0.0
 10
75.6300894911
 20
-67.3510654133
 30
0.0
 10
75.6111559797
 20
-67.3749186498
 30
0.0
 10
75.5936201927
 20
-67.4000288034
 30
0.0
 10
75.5778664551
 20
-67.4259277138
 30
0.0
 10
75.5642357097
 20
-67.4522060522
 30
0.0
 10
75.5529358447
 20
-67.4786304527
 30
0.0
 10
75.544175843
 20
-67.5054485052
 30
0.0
 10
75.5382105485
 20
-67.5316395132
 30
0.0
 10
75.5348553882
 20
-67.5561925096
 30
0.0
 10
75.5341232726
 20
-67.5715276135
 30
0.0
 10
75.5341232726
 20
-67.5791396589
 30
0.0
  0
SPLINE
  5
3F7
100
AcDbEntity
  8
0
100
AcDbSpline
 62
250
  6
CONTINUOUS
 70
0
 71
3
 72
12
 73
8
 74
0
 42
0.0000001
 43
0.0000001
 44
0.0000000001
 40
0.0
 40
0.0
 40
0.0
 40
0.0
 40
0.1666666667
 40
0.3333333333
 40
0.5
 40
0.6666666667
 40
1.0
 40
1.0
 40
1.0
 40
1.0
 10
76.0506767369
 20
-66.9480604098
 30
0.0
 10
76.0262746995
 20
-66.9708951062
 30
0.0
 10
75.97822323
 20
-67.016160912
 30
0.0
 10
75.9082801804
 20
-67.0822063493
 30
0.0
 10
75.8402178818
 20
-67.1456863223
 30
0.0
 10
75.7521827248
 20
-67.2275163686
 30
0.0
 10
75.6898299662
 20
-67.287997408
 30
0.0
 10
75.6503708682
 20
-67.3290138256
 30
0.0
  0
SPLINE
  5
3F8
100
AcDbEntity
  8
0
100
AcDbSpline
 62
250
  6
CONTINUOUS
 70
0
 71
3
 72
10
 73
6
 74
0
 42
0.0000001
 43
0.0000001
 44
0.0000000001
 40
0.0
 40
0.0
 40
0.0
 40
0.0
 40
0.3333333333
 40
0.6666666667
 40
1.0
 40
1.0
 40
1.0
 40
1.0
 10
75.6934519429
 20
-66.9608794813
 30
0.0
 10
75.734613771
 20
-66.9230900861
 30
0.0
 10
75.8160471063
 20
-66.84902508
 30
0.0
 10
75.9351536944
 20
-66.7414355762
 30
0.0
 10
76.0125865502
 20
-66.6715441516
 30
0.0
 10
76.0506767369
 20
-66.6366125278
 30
0.0
  0
SPLINE
  5
3F9
100
AcDbEntity
  8
0
100
AcDbSpline
 62
250
  6
CONTINUOUS
 70
0
 71
3
 72
16
 73
12
 74
0
 42
0.0000001
 43
0.0000001
 44
0.0000000001
 40
0.0
 40
0.0
 40
0.0
 40
0.0
 40
0.0833333333
 40
0.1666666667
 40
0.25
 40
0.3333333333
 40
0.4166666667
 40
0.5
 40
0.6666666667
 40
0.8333333333
 40
1.0
 40
1.0
 40
1.0
 40
1.0
 10
75.4345382341
 20
-67.3023296945
 30
0.0
 10
75.436892203
 20
-67.2939847514
 30
0.0
 10
75.442420324
 20
-67.2769925561
 30
0.0
 10
75.4534079976
 20
-67.2502699938
 30
0.0
 10
75.4674408896
 20
-67.2220200884
 30
0.0
 10
75.4842569802
 20
-67.1930857911
 30
0.0
 10
75.5033258922
 20
-67.1642235555
 30
0.0
 10
75.531946191
 20
-67.1253521879
 30
0.0
 10
75.5730439089
 20
-67.0767282397
 30
0.0
 10
75.6298718311
 20
-67.0187277198
 30
0.0
 10
75.6717306327
 20
-66.9808211414
 30
0.0
 10
75.6934519429
 20
-66.9608794815
 30
0.0
  0
SPLINE
  5
3FA
100
AcDbEntity
  8
0
100
AcDbSpline
 62
250
  6
CONTINUOUS
 70
0
 71
3
 72
30
 73
26
 74
0
 42
0.0000001
 43
0.0000001
 44
0.0000000001
 40
0.0
 40
0.0
 40
0.0
 40
0.0
 40
0.0526315789
 40
0.1052631579
 40
0.1578947368
 40
0.2105263158
 40
0.2631578947
 40
0.3157894737
 40
0.3684210526
 40
0.4210526316
 40
0.4736842105
 40
0.5263157895
 40
0.5789473684
 40
0.6315789474
 40
0.6842105263
 40
0.7368421053
 40
0.7894736842
 40
0.8157894737
 40
0.8421052632
 40
0.8684210526
 40
0.8947368421
 40
0.9210526316
 40
0.9473684211
 40
0.9736842105
 40
1.0
 40
1.0
 40
1.0
 40
1.0
 10
74.760067979
 20
-67.7389232925
 30
0.0
 10
74.7657601769
 20
-67.716991867
 30
0.0
 10
74.781746458
 20
-67.6694235797
 30
0.0
 10
74.82251256
 20
-67.5814422065
 30
0.0
 10
74.8770430388
 20
-67.4923017192
 30
0.0
 10
74.9427728932
 20
-67.4099483923
 30
0.0
 10
75.0100448356
 20
-67.3454145915
 30
0.0
 10
75.0747554804
 20
-67.2972624639
 30
0.0
 10
75.1316921887
 20
-67.2637833624
 30
0.0
 10
75.1814875917
 20
-67.24186074
 30
0.0
 10
75.224938556
 20
-67.2290725147
 30
0.0
 10
75.2631959396
 20
-67.2234196825
 30
0.0
 10
75.2959469231
 20
-67.2233953954
 30
0.0
 10
75.323941232
 20
-67.2276872265
 30
0.0
 10
75.3474378514
 20
-67.2353923483
 30
0.0
 10
75.3671703008
 20
-67.2455187558
 30
0.0
 10
75.3811881275
 20
-67.2547661972
 30
0.0
 10
75.3912796128
 20
-67.2622155217
 30
0.0
 10
75.3983778885
 20
-67.2677760874
 30
0.0
 10
75.4050271859
 20
-67.2732122469
 30
0.0
 10
75.4113115006
 20
-67.2785481834
 30
0.0
 10
75.4170810137
 20
-67.2844260997
 30
0.0
 10
75.4217837928
 20
-67.2909853891
 30
0.0
 10
75.4251401873
 20
-67.2983706902
 30
0.0
 10
75.4263871146
 20
-67.3040028808
 30
0.0
 10
75.4267385113
 20
-67.306993166
 30
0.0
  0
SPLINE
  5
3FB
100
AcDbEntity
  8
0
100
AcDbSpline
 62
250
  6
CONTINUOUS
 70
0
 71
3
 72
15
 73
11
 74
0
 42
0.0000001
 43
0.0000001
 44
0.0000000001
 40
0.0
 40
0.0
 40
0.0
 40
0.0
 40
0.125
 40
0.25
 40
0.375
 40
0.5
 40
0.625
 40
0.75
 40
0.875
 40
1.0
 40
1.0
 40
1.0
 40
1.0
 10
74.7461533148
 20
-68.5463635413
 30
0.0
 10
74.7410547371
 20
-68.5086843703
 30
0.0
 10
74.7316594531
 20
-68.4359390665
 30
0.0
 10
74.7212055658
 20
-68.3350461175
 30
0.0
 10
74.7145327451
 20
-68.2382515774
 30
0.0
 10
74.7119747581
 20
-68.1431567909
 30
0.0
 10
74.7141025719
 20
-68.0464407207
 30
0.0
 10
74.7218624004
 20
-67.9469339443
 30
0.0
 10
74.736298254
 20
-67.8445247271
 30
0.0
 10
74.750829345
 20
-67.7744806182
 30
0.0
 10
74.760085718
 20
-67.7388550803
 30
0.0
  0
SPLINE
  5
3FC
100
AcDbEntity
  8
0
100
AcDbSpline
 62
7
  6
CONTINUOUS
 70
0
 71
3
 72
10
 73
6
 74
0
 42
0.0000001
 43
0.0000001
 44
0.0000000001
 40
0.0
 40
0.0
 40
0.0
 40
0.0
 40
0.5286426009
 40
0.7679931249
 40
1.0
 40
1.0
 40
1.0
 40
1.0
 10
-71.9528853834
 20
80.2745662668
 30
0.0
 10
-72.0117357161
 20
80.297651742
 30
0.0
 10
-72.1042740634
 20
80.319011719
 30
0.0
 10
-72.2239850135
 20
80.304842822
 30
0.0
 10
-72.277282072
 20
80.2843851307
 30
0.0
 10
-72.3017176798
 20
80.2712464084
 30
0.0
  0
SPLINE
  5
3FD
100
AcDbEntity
  8
0
100
AcDbSpline
 62
7
  6
CONTINUOUS
 70
0
 71
3
 72
10
 73
6
 74
0
 42
0.0000001
 43
0.0000001
 44
0.0000000001
 40
0.0
 40
0.0
 40
0.0
 40
0.0
 40
0.2320071093
 40
0.4713577349
 40
1.0
 40
1.0
 40
1.0
 40
1.0
 10
76.2002639617
 20
-77.3322454775
 30
0.0
 10
76.223858572
 20
-77.3176521833
 30
0.0
 10
76.2682204458
 20
-77.2817233678
 30
0.0
 10
76.3403390707
 20
-77.1851350791
 30
0.0
 10
76.3681048278
 20
-77.0943167339
 30
0.0
 10
76.3775343324
 20
-77.031810045
 30
0.0
  0
SPLINE
  5
3FE
100
AcDbEntity
  8
0
100
AcDbSpline
 62
250
  6
CONTINUOUS
 70
0
 71
3
 72
9
 73
5
 74
0
 42
0.0000001
 43
0.0000001
 44
0.0000000001
 40
0.0
 40
0.0
 40
0.0
 40
0.0
 40
0.2416065921
 40
1.0
 40
1.0
 40
1.0
 40
1.0
 10
5.0298854141
 20
-20.4495447758
 30
0.0
 10
5.0345601455
 20
-20.4468156527
 30
0.0
 10
5.052978512
 20
-20.4339142248
 30
0.0
 10
5.0667679499
 20
-20.4150501675
 30
0.0
 10
5.0741770765
 20
-20.3997592598
 30
0.0
  0
SPLINE
  5
3FF
100
AcDbEntity
  8
0
100
AcDbSpline
 62
250
  6
CONTINUOUS
 70
0
 71
3
 72
9
 73
5
 74
0
 42
0.0000001
 43
0.0000001
 44
0.0000000001
 40
0.0
 40
0.0
 40
0.0
 40
0.0
 40
0.2431061737
 40
1.0
 40
1.0
 40
1.0
 40
1.0
 10
5.0741770765
 20
-20.3997592598
 30
0.0
 10
5.0752404725
 20
-20.39756463
 30
0.0
 10
5.079384289
 20
-20.3884264292
 30
0.0
 10
5.082613036
 20
-20.3788808005
 30
0.0
 10
5.0845753852
 20
-20.3715460804
 30
0.0
  0
SPLINE
  5
400
100
AcDbEntity
  8
0
100
AcDbSpline
 62
250
  6
CONTINUOUS
 70
0
 71
3
 72
9
 73
5
 74
0
 42
0.0000001
 43
0.0000001
 44
0.0000000001
 40
0.0
 40
0.0
 40
0.0
 40
0.0
 40
0.2416065921
 40
1.0
 40
1.0
 40
1.0
 40
1.0
 10
-10.8800171626
 20
-11.2633664259
 30
0.0
 10
-10.8753424312
 20
-11.2606373029
 30
0.0
 10
-10.8569240647
 20
-11.2477358749
 30
0.0
 10
-10.8431346268
 20
-11.2288718176
 30
0.0
 10
-10.8357255002
 20
-11.2135809099
 30
0.0
  0
SPLINE
  5
401
100
AcDbEntity
  8
0
100
AcDbSpline
 62
250
  6
CONTINUOUS
 70
0
 71
3
 72
9
 73
5
 74
0
 42
0.0000001
 43
0.0000001
 44
0.0000000001
 40
0.0
 40
0.0
 40
0.0
 40
0.0
 40
0.2431061737
 40
1.0
 40
1.0
 40
1.0
 40
1.0
 10
-10.8357255002
 20
-11.2135809099
 30
0.0
 10
-10.8346621042
 20
-11.2113862801
 30
0.0
 10
-10.8305182877
 20
-11.2022480793
 30
0.0
 10
-10.8272895407
 20
-11.1927024507
 30
0.0
 10
-10.8253271915
 20
-11.1853677305
 30
0.0
  0
SPLINE
  5
402
100
AcDbEntity
  8
0
100
AcDbSpline
 62
7
  6
CONTINUOUS
 70
0
 71
3
 72
9
 73
5
 74
0
 42
0.0000001
 43
0.0000001
 44
0.0000000001
 40
0.0
 40
0.0
 40
0.0
 40
0.0
 40
0.2419970238
 40
1.0
 40
1.0
 40
1.0
 40
1.0
 10
76.3775343324
 20
-77.031810045
 30
0.0
 10
76.3789283938
 20
-77.0225690334
 30
0.0
 10
76.3838536673
 20
-76.9842583704
 30
0.0
 10
76.3855617345
 20
-76.9455575919
 30
0.0
 10
76.3853228295
 20
-76.9162856003
 30
0.0
  0
SPLINE
  5
403
100
AcDbEntity
  8
0
100
AcDbSpline
 62
250
  6
CONTINUOUS
 70
0
 71
3
 72
9
 73
5
 74
0
 42
0.0000001
 43
0.0000001
 44
0.0000000001
 40
0.0
 40
0.0
 40
0.0
 40
0.0
 40
0.2416065921
 40
1.0
 40
1.0
 40
1.0
 40
1.0
 10
-26.7899197393
 20
-2.077188076
 30
0.0
 10
-26.7852450079
 20
-2.074458953
 30
0.0
 10
-26.7668266414
 20
-2.061557525
 30
0.0
 10
-26.7530372035
 20
-2.0426934677
 30
0.0
 10
-26.7456280769
 20
-2.02740256
 30
0.0
  0
SPLINE
  5
404
100
AcDbEntity
  8
0
100
AcDbSpline
 62
250
  6
CONTINUOUS
 70
0
 71
3
 72
9
 73
5
 74
0
 42
0.0000001
 43
0.0000001
 44
0.0000000001
 40
0.0
 40
0.0
 40
0.0
 40
0.0
 40
0.2431061737
 40
1.0
 40
1.0
 40
1.0
 40
1.0
 10
-26.7456280769
 20
-2.02740256
 30
0.0
 10
-26.7445646809
 20
-2.0252079302
 30
0.0
 10
-26.7404208644
 20
-2.0160697294
 30
0.0
 10
-26.7371921174
 20
-2.0065241008
 30
0.0
 10
-26.7352297682
 20
-1.9991893806
 30
0.0
  0
SPLINE
  5
405
100
AcDbEntity
  8
0
100
AcDbSpline
 62
250
  6
CONTINUOUS
 70
0
 71
3
 72
9
 73
5
 74
0
 42
0.0000001
 43
0.0000001
 44
0.0000000001
 40
0.0
 40
0.0
 40
0.0
 40
0.0
 40
0.4796483492
 40
1.0
 40
1.0
 40
1.0
 40
1.0
 10
-42.6926136723
 20
7.1135943315
 30
0.0
 10
-42.6831164324
 20
7.1202454174
 30
0.0
 10
-42.665680071
 20
7.1377118943
 30
0.0
 10
-42.654518623
 20
7.1595398101
 30
0.0
 10
-42.6501203543
 20
7.1713243028
 30
0.0
  0
SPLINE
  5
406
100
AcDbEntity
  8
0
100
AcDbSpline
 62
250
  6
CONTINUOUS
 70
0
 71
3
 72
9
 73
5
 74
0
 42
0.0000001
 43
0.0000001
 44
0.0000000001
 40
0.0
 40
0.0
 40
0.0
 40
0.0
 40
0.4796483492
 40
1.0
 40
1.0
 40
1.0
 40
1.0
 10
52.7668017879
 20
-48.0034757678
 30
0.0
 10
52.7762990278
 20
-47.9968246818
 30
0.0
 10
52.7937353892
 20
-47.979358205
 30
0.0
 10
52.8048968372
 20
-47.9575302891
 30
0.0
 10
52.8092951058
 20
-47.9457457965
 30
0.0
  0
SPLINE
  5
407
100
AcDbEntity
  8
0
100
AcDbSpline
 62
250
  6
CONTINUOUS
 70
0
 71
3
 72
10
 73
6
 74
0
 42
0.0000001
 43
0.0000001
 44
0.0000000001
 40
0.0
 40
0.0
 40
0.0
 40
0.0
 40
0.360269124
 40
0.641576974
 40
1.0
 40
1.0
 40
1.0
 40
1.0
 10
-26.7352297682
 20
-1.9991893806
 30
0.0
 10
-26.7335171943
 20
-2.0030214231
 30
0.0
 10
-26.7307454874
 20
-2.0100747716
 30
0.0
 10
-26.7277872222
 20
-2.0210078425
 30
0.0
 10
-26.7283141865
 20
-2.0298092252
 30
0.0
 10
-26.7313097086
 20
-2.032718558
 30
0.0
  0
SPLINE
  5
408
100
AcDbEntity
  8
0
100
AcDbSpline
 62
250
  6
CONTINUOUS
 70
0
 71
3
 72
9
 73
5
 74
0
 42
0.0000001
 43
0.0000001
 44
0.0000000001
 40
0.0
 40
0.0
 40
0.0
 40
0.0
 40
0.2416065921
 40
1.0
 40
1.0
 40
1.0
 40
1.0
 10
36.8496905675
 20
-38.8219014755
 30
0.0
 10
36.8543652989
 20
-38.8191723525
 30
0.0
 10
36.8727836654
 20
-38.8062709245
 30
0.0
 10
36.8865731033
 20
-38.7874068672
 30
0.0
 10
36.8939822299
 20
-38.7721159595
 30
0.0
  0
SPLINE
  5
409
100
AcDbEntity
  8
0
100
AcDbSpline
 62
250
  6
CONTINUOUS
 70
0
 71
3
 72
9
 73
5
 74
0
 42
0.0000001
 43
0.0000001
 44
0.0000000001
 40
0.0
 40
0.0
 40
0.0
 40
0.0
 40
0.2431061737
 40
1.0
 40
1.0
 40
1.0
 40
1.0
 10
36.8939822299
 20
-38.7721159595
 30
0.0
 10
36.8950456259
 20
-38.7699213297
 30
0.0
 10
36.8991894424
 20
-38.7607831289
 30
0.0
 10
36.9024181894
 20
-38.7512375003
 30
0.0
 10
36.9043805386
 20
-38.7439027801
 30
0.0
  0
SPLINE
  5
40A
100
AcDbEntity
  8
0
100
AcDbSpline
 62
250
  6
CONTINUOUS
 70
0
 71
3
 72
10
 73
6
 74
0
 42
0.0000001
 43
0.0000001
 44
0.0000000001
 40
0.0
 40
0.0
 40
0.0
 40
0.0
 40
0.360269124
 40
0.641576974
 40
1.0
 40
1.0
 40
1.0
 40
1.0
 10
-10.8253271915
 20
-11.1853677305
 30
0.0
 10
-10.8236146176
 20
-11.189199773
 30
0.0
 10
-10.8208429107
 20
-11.1962531215
 30
0.0
 10
-10.8178846455
 20
-11.2071861923
 30
0.0
 10
-10.8184116098
 20
-11.2159875751
 30
0.0
 10
-10.8214071319
 20
-11.2188969079
 30
0.0
  0
SPLINE
  5
40B
100
AcDbEntity
  8
0
100
AcDbSpline
 62
250
  6
CONTINUOUS
 70
0
 71
3
 72
10
 73
6
 74
0
 42
0.0000001
 43
0.0000001
 44
0.0000000001
 40
0.0
 40
0.0
 40
0.0
 40
0.0
 40
0.360269124
 40
0.641576974
 40
1.0
 40
1.0
 40
1.0
 40
1.0
 10
5.0845753852
 20
-20.3715460804
 30
0.0
 10
5.0862879591
 20
-20.3753781228
 30
0.0
 10
5.089059666
 20
-20.3824314714
 30
0.0
 10
5.0920179311
 20
-20.3933645422
 30
0.0
 10
5.0914909669
 20
-20.4021659249
 30
0.0
 10
5.0884954448
 20
-20.4050752577
 30
0.0
  0
SPLINE
  5
40C
100
AcDbEntity
  8
0
100
AcDbSpline
 62
250
  6
CONTINUOUS
 70
0
 71
3
 72
10
 73
6
 74
0
 42
0.0000001
 43
0.0000001
 44
0.0000000001
 40
0.0
 40
0.0
 40
0.0
 40
0.0
 40
0.360269124
 40
0.641576974
 40
1.0
 40
1.0
 40
1.0
 40
1.0
 10
20.9944779619
 20
-29.5577244302
 30
0.0
 10
20.9961905358
 20
-29.5615564727
 30
0.0
 10
20.9989622427
 20
-29.5686098213
 30
0.0
 10
21.0019205078
 20
-29.5795428921
 30
0.0
 10
21.0013935436
 20
-29.5883442748
 30
0.0
 10
20.9983980215
 20
-29.5912536076
 30
0.0
  0
SPLINE
  5
40D
100
AcDbEntity
  8
0
100
AcDbSpline
 62
250
  6
CONTINUOUS
 70
0
 71
3
 72
10
 73
6
 74
0
 42
0.0000001
 43
0.0000001
 44
0.0000000001
 40
0.0
 40
0.0
 40
0.0
 40
0.0
 40
0.360269124
 40
0.641576974
 40
1.0
 40
1.0
 40
1.0
 40
1.0
 10
36.9043805386
 20
-38.7439027801
 30
0.0
 10
36.9060931125
 20
-38.7477348226
 30
0.0
 10
36.9088648194
 20
-38.7547881711
 30
0.0
 10
36.9118230845
 20
-38.765721242
 30
0.0
 10
36.9112961203
 20
-38.7745226247
 30
0.0
 10
36.9083005982
 20
-38.7774319575
 30
0.0
  0
SPLINE
  5
40E
100
AcDbEntity
  8
0
100
AcDbSpline
 62
250
  6
CONTINUOUS
 70
0
 71
3
 72
9
 73
5
 74
0
 42
0.0000001
 43
0.0000001
 44
0.0000000001
 40
0.0
 40
0.0
 40
0.0
 40
0.0
 40
0.2416065921
 40
1.0
 40
1.0
 40
1.0
 40
1.0
 10
20.9397879908
 20
-29.6357231256
 30
0.0
 10
20.9444627222
 20
-29.6329940026
 30
0.0
 10
20.9628810887
 20
-29.6200925746
 30
0.0
 10
20.9766705266
 20
-29.6012285173
 30
0.0
 10
20.9840796532
 20
-29.5859376096
 30
0.0
  0
SPLINE
  5
40F
100
AcDbEntity
  8
0
100
AcDbSpline
 62
250
  6
CONTINUOUS
 70
0
 71
3
 72
9
 73
5
 74
0
 42
0.0000001
 43
0.0000001
 44
0.0000000001
 40
0.0
 40
0.0
 40
0.0
 40
0.0
 40
0.2431061737
 40
1.0
 40
1.0
 40
1.0
 40
1.0
 10
20.9840796532
 20
-29.5859376096
 30
0.0
 10
20.9851430492
 20
-29.5837429799
 30
0.0
 10
20.9892868657
 20
-29.574604779
 30
0.0
 10
20.9925156127
 20
-29.5650591504
 30
0.0
 10
20.9944779619
 20
-29.5577244302
 30
0.0
  0
SPLINE
  5
410
100
AcDbEntity
  8
0
100
AcDbSpline
 62
7
  6
CONTINUOUS
 70
0
 71
3
 72
11
 73
7
 74
0
 42
0.0000001
 43
0.0000001
 44
0.0000000001
 40
0.0
 40
0.0
 40
0.0
 40
0.0
 40
0.2395915069
 40
0.4999945232
 40
0.7604005145
 40
1.0
 40
1.0
 40
1.0
 40
1.0
 10
76.3853228295
 20
-6.1520458097
 30
0.0
 10
76.3861740361
 20
-6.0389046074
 30
0.0
 10
76.3479018847
 20
-5.8020627867
 30
0.0
 10
76.2038820532
 20
-5.4697907453
 30
0.0
 10
75.9881332757
 20
-5.1789272031
 30
0.0
 10
75.8021560864
 20
-5.0273568979
 30
0.0
 10
75.7037454435
 20
-4.9715191491
 30
0.0
  0
SPLINE
  5
411
100
AcDbEntity
  8
0
100
AcDbSpline
 62
7
  6
CONTINUOUS
 70
0
 71
3
 72
9
 73
5
 74
0
 42
0.0000001
 43
0.0000001
 44
0.0000000001
 40
0.0
 40
0.0
 40
0.0
 40
0.0
 40
0.2581558503
 40
1.0
 40
1.0
 40
1.0
 40
1.0
 10
-71.8488855675
 20
80.2235207279
 30
0.0
 10
-71.8574829714
 20
80.2285788006
 30
0.0
 10
-71.8911322029
 20
80.2475713448
 30
0.0
 10
-71.9262007717
 20
80.2640985784
 30
0.0
 10
-71.9528853834
 20
80.2745662668
 30
0.0
  0
SPLINE
  5
412
100
AcDbEntity
  8
0
100
AcDbSpline
 62
250
  6
CONTINUOUS
 70
0
 71
3
 72
10
 73
6
 74
0
 42
0.0000001
 43
0.0000001
 44
0.0000000001
 40
0.0
 40
0.0
 40
0.0
 40
0.0
 40
0.3605721434
 40
0.6416145127
 40
1.0
 40
1.0
 40
1.0
 40
1.0
 10
-42.6451323449
 20
7.1869889693
 30
0.0
 10
-42.6434175719
 20
7.1831520253
 30
0.0
 10
-42.6406094148
 20
7.1761088995
 30
0.0
 10
-42.6376773105
 20
7.1651595089
 30
0.0
 10
-42.6382127548
 20
7.1563662041
 30
0.0
 10
-42.6412075771
 20
7.1534541519
 30
0.0
  0
SPLINE
  5
413
100
AcDbEntity
  8
0
100
AcDbSpline
 62
250
  6
CONTINUOUS
 70
0
 71
3
 72
10
 73
6
 74
0
 42
0.0000001
 43
0.0000001
 44
0.0000000001
 40
0.0
 40
0.0
 40
0.0
 40
0.0
 40
0.3605721434
 40
0.6416145127
 40
1.0
 40
1.0
 40
1.0
 40
1.0
 10
52.8142831153
 20
-47.93008113
 30
0.0
 10
52.8159978883
 20
-47.933918074
 30
0.0
 10
52.8188060454
 20
-47.9409611998
 30
0.0
 10
52.8217381497
 20
-47.9519105904
 30
0.0
 10
52.8212027054
 20
-47.9607038951
 30
0.0
 10
52.8182078831
 20
-47.9636159473
 30
0.0
  0
SPLINE
  5
414
100
AcDbEntity
  8
SMUSSO
100
AcDbSpline
 62
7
  6
CONTINUOUS
 70
0
 71
3
 72
11
 73
7
 74
0
 42
0.0000001
 43
0.0000001
 44
0.0000000001
 40
0.0
 40
0.0
 40
0.0
 40
0.0
 40
0.2177664653
 40
0.4509472467
 40
0.7101858553
 40
1.0
 40
1.0
 40
1.0
 40
1.0
 10
-75.3295979343
 20
79.6667216481
 30
0.0
 10
-75.2966128404
 20
79.6857668229
 30
0.0
 10
-75.2208163459
 20
79.7132974578
 30
0.0
 10
-75.0949380938
 20
79.7164444189
 30
0.0
 10
-74.9607527242
 20
79.6840861098
 30
0.0
 10
-74.8734732745
 20
79.6425290445
 30
0.0
 10
-74.8295751191
 20
79.6171827997
 30
0.0
  0
SPLINE
  5
415
100
AcDbEntity
  8
SMUSSO
100
AcDbSpline
 62
7
  6
CONTINUOUS
 70
0
 71
3
 72
11
 73
7
 74
0
 42
0.0000001
 43
0.0000001
 44
0.0000000001
 40
0.0
 40
0.0
 40
0.0
 40
0.0
 40
0.2177695416
 40
0.4509576504
 40
0.7101824752
 40
1.0
 40
1.0
 40
1.0
 40
1.0
 10
-76.3902567966
 20
79.0543105142
 30
0.0
 10
-76.4232374236
 20
79.0352679184
 30
0.0
 10
-76.4849666791
 20
78.9833955858
 30
0.0
 10
-76.5506265222
 20
78.8759745126
 30
0.0
 10
-76.5896788699
 20
78.7436049139
 30
0.0
 10
-76.597342072
 20
78.6472582772
 30
0.0
 10
-76.597342072
 20
78.5965752263
 30
0.0
  0
SPLINE
  5
416
100
AcDbEntity
  8
RACCORDO
100
AcDbSpline
 62
7
  6
CONTINUOUS
 70
0
 71
3
 72
11
 73
7
 74
0
 42
0.0000001
 43
0.0000001
 44
0.0000000001
 40
0.0
 40
0.0
 40
0.0
 40
0.0
 40
0.2177664648
 40
0.4509472453
 40
0.7101858544
 40
1.0
 40
1.0
 40
1.0
 40
1.0
 10
-57.964065002
 20
49.3844103373
 30
0.0
 10
-57.9244828894
 20
49.407264547
 30
0.0
 10
-57.8335270963
 20
49.4403013088
 30
0.0
 10
-57.682473194
 20
49.4440776624
 30
0.0
 10
-57.5214507503
 20
49.4052476914
 30
0.0
 10
-57.4167154105
 20
49.3553792131
 30
0.0
 10
-57.3640376238
 20
49.3249637193
 30
0.0
  0
SPLINE
  5
417
100
AcDbEntity
  8
SMUSSO
100
AcDbSpline
 62
7
  6
CONTINUOUS
 70
0
 71
3
 72
11
 73
7
 74
0
 42
0.0000001
 43
0.0000001
 44
0.0000000001
 40
0.0
 40
0.0
 40
0.0
 40
0.0
 40
0.2372289801
 40
0.5000061081
 40
0.7627799116
 40
1.0
 40
1.0
 40
1.0
 40
1.0
 10
74.0164023207
 20
-6.3245796408
 30
0.0
 10
74.0665936735
 20
-6.3535594989
 30
0.0
 10
74.1615819283
 20
-6.4335031038
 30
0.0
 10
74.2724446295
 20
-6.5850063371
 30
0.0
 10
74.3482183158
 20
-6.7567657532
 30
0.0
 10
74.3699557113
 20
-6.8789973326
 30
0.0
 10
74.3699557113
 20
-6.9369520759
 30
0.0
  0
SPLINE
  5
418
100
AcDbEntity
  8
RACCORDO
100
AcDbSpline
 62
7
  6
CONTINUOUS
 70
0
 71
3
 72
11
 73
7
 74
0
 42
0.0000001
 43
0.0000001
 44
0.0000000001
 40
0.0
 40
0.0
 40
0.0
 40
0.0
 40
0.2372212891
 40
0.5000061068
 40
0.7627876004
 40
1.0
 40
1.0
 40
1.0
 40
1.0
 10
52.6617775289
 20
-14.2025630025
 30
0.0
 10
52.7822328268
 20
-14.2721123819
 30
0.0
 10
53.010202172
 20
-14.4639787274
 30
0.0
 10
53.2762836909
 20
-14.8275844034
 30
0.0
 10
53.4581332169
 20
-15.2398155182
 30
0.0
 10
53.5103056663
 20
-15.5331700212
 30
0.0
 10
53.5103056663
 20
-15.6722568467
 30
0.0
  0
SPLINE
  5
419
100
AcDbEntity
  8
SMUSSO
100
AcDbSpline
 62
7
  6
CONTINUOUS
 70
0
 71
3
 72
11
 73
7
 74
0
 42
0.0000001
 43
0.0000001
 44
0.0000000001
 40
0.0
 40
0.0
 40
0.0
 40
0.0
 40
0.2898213059
 40
0.549050743
 40
0.7822355134
 40
1.0
 40
1.0
 40
1.0
 40
1.0
 10
72.6021887583
 20
-80.2152186004
 30
0.0
 10
72.6460880128
 20
-80.2405654797
 30
0.0
 10
72.7333707604
 20
-80.2821135731
 30
0.0
 10
72.8675536112
 20
-80.3144827309
 30
0.0
 10
72.9934312458
 20
-80.3113312111
 30
0.0
 10
73.0692280781
 20
-80.2838017007
 30
0.0
 10
73.102212883
 20
-80.2647566927
 30
0.0
  0
SPLINE
  5
41A
100
AcDbEntity
  8
RACCORDO
100
AcDbSpline
 62
7
  6
CONTINUOUS
 70
0
 71
3
 72
11
 73
7
 74
0
 42
0.0000001
 43
0.0000001
 44
0.0000000001
 40
0.0
 40
0.0
 40
0.0
 40
0.0
 40
0.2898086042
 40
0.549045169
 40
0.7822281919
 40
1.0
 40
1.0
 40
1.0
 40
1.0
 10
53.5103056663
 20
-50.8621257765
 30
0.0
 10
53.5103056663
 20
-50.9229435686
 30
0.0
 10
53.5011238264
 20
-51.0385621046
 30
0.0
 10
53.4542446875
 20
-51.1974007645
 30
0.0
 10
53.3754583735
 20
-51.3263103483
 30
0.0
 10
53.3013820735
 20
-51.3885558608
 30
0.0
 10
53.2618049071
 20
-51.4114072146
 30
0.0
  0
SPLINE
  5
41B
100
AcDbEntity
  8
RACCORDO
100
AcDbSpline
 62
7
  6
CONTINUOUS
 70
0
 71
3
 72
11
 73
7
 74
0
 42
0.0000001
 43
0.0000001
 44
0.0000000001
 40
0.0
 40
0.0
 40
0.0
 40
0.0
 40
0.2372123996
 40
0.4999938932
 40
0.7627787109
 40
1.0
 40
1.0
 40
1.0
 40
1.0
 10
-56.0912454176
 20
14.8700837493
 30
0.0
 10
-56.0912454176
 20
14.7309969238
 30
0.0
 10
-56.0390729683
 20
14.4376424208
 30
0.0
 10
-55.8572234422
 20
14.025411306
 30
0.0
 10
-55.5911419233
 20
13.66180563
 30
0.0
 10
-55.3631725781
 20
13.4699392845
 30
0.0
 10
-55.2427172802
 20
13.4003899052
 30
0.0
  0
SPLINE
  5
41C
100
AcDbEntity
  8
SMUSSO
100
AcDbSpline
 62
7
  6
CONTINUOUS
 70
0
 71
3
 72
11
 73
7
 74
0
 42
0.0000001
 43
0.0000001
 44
0.0000000001
 40
0.0
 40
0.0
 40
0.0
 40
0.0
 40
0.2898086042
 40
0.549045169
 40
0.7822281919
 40
1.0
 40
1.0
 40
1.0
 40
1.0
 10
74.3699557113
 20
-79.194611027
 30
0.0
 10
74.3699557112
 20
-79.2452925204
 30
0.0
 10
74.3623041781
 20
-79.3416413005
 30
0.0
 10
74.323238229
 20
-79.4740068503
 30
0.0
 10
74.2575829673
 20
-79.5814315035
 30
0.0
 10
74.1958527173
 20
-79.6333027639
 30
0.0
 10
74.1628717453
 20
-79.6523455588
 30
0.0
  0
SPLINE
  5
41D
100
AcDbEntity
  8
RACCORDO
100
AcDbSpline
 62
7
  6
CONTINUOUS
 70
0
 71
3
 72
11
 73
7
 74
0
 42
0.0000001
 43
0.0000001
 44
0.0000000001
 40
0.0
 40
0.0
 40
0.0
 40
0.0
 40
0.2898086042
 40
0.549045169
 40
0.7822281919
 40
1.0
 40
1.0
 40
1.0
 40
1.0
 10
-58.2125657612
 20
48.8351288991
 30
0.0
 10
-58.2125657612
 20
48.8959466912
 30
0.0
 10
-58.2033839213
 20
49.0115652273
 30
0.0
 10
-58.1565047824
 20
49.1704038871
 30
0.0
 10
-58.0777184683
 20
49.299313471
 30
0.0
 10
-58.0036421684
 20
49.3615589834
 30
0.0
 10
-57.964065002
 20
49.3844103373
 30
0.0
  0
SPLINE
  5
41E
100
AcDbEntity
  8
SMUSSO
100
AcDbSpline
 62
7
  6
CONTINUOUS
 70
0
 71
3
 72
11
 73
7
 74
0
 42
0.0000001
 43
0.0000001
 44
0.0000000001
 40
0.0
 40
0.0
 40
0.0
 40
0.0
 40
0.2898069851
 40
0.5490547662
 40
0.782231557
 40
1.0
 40
1.0
 40
1.0
 40
1.0
 10
-75.8902352908
 20
79.0047709097
 30
0.0
 10
-75.9341323476
 20
79.0301165203
 30
0.0
 10
-76.0214084994
 20
79.0716825574
 30
0.0
 10
-76.1555963881
 20
79.1040300179
 30
0.0
 10
-76.2814752576
 20
79.1008876151
 30
0.0
 10
-76.3572714139
 20
79.0733558558
 30
0.0
 10
-76.3902567966
 20
79.0543105142
 30
0.0
  0
SPLINE
  5
41F
100
AcDbEntity
  8
RACCORDO
100
AcDbSpline
 62
7
  6
CONTINUOUS
 70
0
 71
3
 72
11
 73
7
 74
0
 42
0.0000001
 43
0.0000001
 44
0.0000000001
 40
0.0
 40
0.0
 40
0.0
 40
0.0
 40
0.2177664648
 40
0.4509472453
 40
0.7101858544
 40
1.0
 40
1.0
 40
1.0
 40
1.0
 10
53.2618049071
 20
-51.4114072146
 30
0.0
 10
53.2222227946
 20
-51.4342614244
 30
0.0
 10
53.1312670014
 20
-51.4672981862
 30
0.0
 10
52.9802130991
 20
-51.4710745397
 30
0.0
 10
52.8191906554
 20
-51.4322445688
 30
0.0
 10
52.7144553156
 20
-51.3823760905
 30
0.0
 10
52.6617775289
 20
-51.3519605966
 30
0.0
  0
SPLINE
  5
420
100
AcDbEntity
  8
SMUSSO
100
AcDbSpline
 62
7
  6
CONTINUOUS
 70
0
 71
3
 72
11
 73
7
 74
0
 42
0.0000001
 43
0.0000001
 44
0.0000000001
 40
0.0
 40
0.0
 40
0.0
 40
0.0
 40
0.2177740748
 40
0.4509520118
 40
0.7102003167
 40
1.0
 40
1.0
 40
1.0
 40
1.0
 10
73.102212883
 20
-80.2647566927
 30
0.0
 10
73.1351941999
 20
-80.2457136987
 30
0.0
 10
73.1969254445
 20
-80.1938435104
 30
0.0
 10
73.262576125
 20
-80.0864152771
 30
0.0
 10
73.3016556753
 20
-79.954053776
 30
0.0
 10
73.3092955396
 20
-79.857702853
 30
0.0
 10
73.3092955395
 20
-79.807022917
 30
0.0
  0
SPLINE
  5
421
100
AcDbEntity
  8
RACCORDO
100
AcDbSpline
 62
7
  6
CONTINUOUS
 70
0
 71
3
 72
11
 73
7
 74
0
 42
0.0000001
 43
0.0000001
 44
0.0000000001
 40
0.0
 40
0.0
 40
0.0
 40
0.0
 40
0.2372212891
 40
0.5000061068
 40
0.7627876004
 40
1.0
 40
1.0
 40
1.0
 40
1.0
 10
-57.3640376238
 20
12.1755661252
 30
0.0
 10
-57.4844929217
 20
12.2451155045
 30
0.0
 10
-57.7124622668
 20
12.4369818501
 30
0.0
 10
-57.9785437858
 20
12.800587526
 30
0.0
 10
-58.1603933118
 20
13.2128186408
 30
0.0
 10
-58.2125657612
 20
13.5061731438
 30
0.0
 10
-58.2125657612
 20
13.6452599693
 30
0.0
  0
SPLINE
  5
422
100
AcDbEntity
  8
SMUSSO
100
AcDbSpline
 62
7
  6
CONTINUOUS
 70
0
 71
3
 72
11
 73
7
 74
0
 42
0.0000001
 43
0.0000001
 44
0.0000000001
 40
0.0
 40
0.0
 40
0.0
 40
0.0
 40
0.2372212893
 40
0.5000061074
 40
0.7627876014
 40
1.0
 40
1.0
 40
1.0
 40
1.0
 10
73.6628489301
 20
-6.1204817991
 30
0.0
 10
73.7632283451
 20
-6.1784396154
 30
0.0
 10
73.9532027997
 20
-6.3383282367
 30
0.0
 10
74.1749373989
 20
-6.6413329672
 30
0.0
 10
74.3264786703
 20
-6.9848588962
 30
0.0
 10
74.3699557113
 20
-7.2293209818
 30
0.0
 10
74.3699557113
 20
-7.3452266692
 30
0.0
  0
SPLINE
  5
423
100
AcDbEntity
  8
SMUSSO
100
AcDbSpline
 62
7
  6
CONTINUOUS
 70
0
 71
3
 72
11
 73
7
 74
0
 42
0.0000001
 43
0.0000001
 44
0.0000000001
 40
0.0
 40
0.0
 40
0.0
 40
0.0
 40
0.2372123791
 40
0.4999939269
 40
0.7627788298
 40
1.0
 40
1.0
 40
1.0
 40
1.0
 10
73.3092955395
 20
-7.9576385592
 30
0.0
 10
73.3092955398
 20
-7.8417328572
 30
0.0
 10
73.2658180534
 20
-7.5972709851
 30
0.0
 10
73.1142795719
 20
-7.2537434424
 30
0.0
 10
72.892541742
 20
-6.9507408762
 30
0.0
 10
72.7025681439
 20
-6.7908514881
 30
0.0
 10
72.6021887583
 20
-6.7328936891
 30
0.0
  0
ELLIPSE
  5
424
100
AcDbEntity
  8
ASSI
100
AcDbEllipse
 62
7
  6
CONTINUOUS
 10
76.5527182633
 20
-75.5449886504
 30
0.0
 11
-0.0319307066
 21
0.0553022874
 31
0.0
 40
0.5636716562
 41
-2.5265807376
 42
-2.3682119497
  0
ELLIPSE
  5
425
100
AcDbEntity
  8
ASSI
100
AcDbEllipse
 62
7
  6
CONTINUOUS
 10
76.5527182633
 20
-5.2683017428
 30
0.0
 11
-0.0311754239
 21
0.0539936769
 31
0.0
 40
0.5913227191
 41
-2.3442738678
 42
-0.7974202594
  0
ELLIPSE
  5
426
100
AcDbEntity
  8
ASSI
100
AcDbEllipse
 62
7
  6
CONTINUOUS
 10
-70.5776659623
 20
79.6829381323
 30
0.0
 11
-0.0319307066
 21
0.0553022874
 31
0.0
 40
0.5636716562
 41
-0.7734729046
 42
-0.6150203534
  0
ELLIPSE
  5
427
100
AcDbEntity
  8
ASSI
100
AcDbEllipse
 62
7
  6
CONTINUOUS
 10
38.5624183804
 20
-37.6383717294
 30
0.0
 11
0.2999993451
 21
0.1746271577
 31
0.0
 40
0.0035896273
 41
-0.7351277754
 42
-0.0020894543
  0
ELLIPSE
  5
428
100
AcDbEntity
  8
ASSI
100
AcDbEllipse
 62
7
  6
CONTINUOUS
 10
22.6525158037
 20
-28.4521933796
 30
0.0
 11
0.2999993451
 21
0.1746271577
 31
0.0
 40
0.0035896273
 41
-0.7351277754
 42
-0.0020894543
  0
ELLIPSE
  5
429
100
AcDbEntity
  8
ASSI
100
AcDbEllipse
 62
7
  6
CONTINUOUS
 10
6.742613227
 20
-19.2660150297
 30
0.0
 11
0.2999993451
 21
0.1746271577
 31
0.0
 40
0.0035896273
 41
-0.7351277754
 42
-0.0020894543
  0
ELLIPSE
  5
42A
100
AcDbEntity
  8
ASSI
100
AcDbEllipse
 62
7
  6
CONTINUOUS
 10
-9.1672893497
 20
-10.0798366798
 30
0.0
 11
0.2999993451
 21
0.1746271577
 31
0.0
 40
0.0035896273
 41
-0.7351277754
 42
-0.0020894543
  0
ELLIPSE
  5
42B
100
AcDbEntity
  8
ASSI
100
AcDbEllipse
 62
7
  6
CONTINUOUS
 10
-25.0771919264
 20
-0.8936583299
 30
0.0
 11
0.2999993451
 21
0.1746271577
 31
0.0
 40
0.0035896273
 41
-0.7351277754
 42
-0.0020894543
  0
ELLIPSE
  5
42C
100
AcDbEntity
  8
ASSI
100
AcDbEllipse
 62
7
  6
CONTINUOUS
 10
-40.849281897
 20
8.3727555667
 30
0.0
 11
0.1999995634
 21
0.1164181051
 31
0.0
 40
0.0035896273
 41
-0.7351277754
 42
-0.6748017824
  0
ELLIPSE
  5
42D
100
AcDbEntity
  8
ASSI
100
AcDbEllipse
 62
7
  6
CONTINUOUS
 10
3.0508156925
 20
-16.4601968468
 30
0.0
 11
0.2999972416
 21
-0.0022477848
 31
0.0
 40
0.5723275643
 41
0.7896864073
 42
2.3081228565
  0
ELLIPSE
  5
42E
100
AcDbEntity
  8
ASSI
100
AcDbEllipse
 62
7
  6
CONTINUOUS
 10
50.7841321726
 20
-43.9638644464
 30
0.0
 11
0.1998333781
 21
-0.0157785196
 31
0.0
 40
0.5172961965
 41
0.8262203412
 42
2.3446567905
  0
ELLIPSE
  5
42F
100
AcDbEntity
  8
ASSI
100
AcDbEllipse
 62
7
  6
CONTINUOUS
 10
-44.6752832875
 20
11.1532056528
 30
0.0
 11
0.1998333781
 21
-0.0157785196
 31
0.0
 40
0.5172961965
 41
0.8262203412
 42
2.3446567905
  0
ELLIPSE
  5
430
100
AcDbEntity
  8
ASSI
100
AcDbEllipse
 62
7
  6
CONTINUOUS
 10
34.8706208459
 20
-34.8325535465
 30
0.0
 11
0.2999972416
 21
-0.0022477848
 31
0.0
 40
0.5723275643
 41
0.7896864073
 42
2.3081228565
  0
ELLIPSE
  5
431
100
AcDbEntity
  8
ASSI
100
AcDbEllipse
 62
7
  6
CONTINUOUS
 10
18.9607182692
 20
-25.6463751966
 30
0.0
 11
0.2999972416
 21
-0.0022477848
 31
0.0
 40
0.5723275643
 41
0.7896864073
 42
2.3081228565
  0
ELLIPSE
  5
432
100
AcDbEntity
  8
ASSI
100
AcDbEllipse
 62
7
  6
CONTINUOUS
 10
-12.8590868842
 20
-7.2740184969
 30
0.0
 11
0.2999972416
 21
-0.0022477848
 31
0.0
 40
0.5723275643
 41
0.7896864073
 42
2.3081228565
  0
ELLIPSE
  5
433
100
AcDbEntity
  8
ASSI
100
AcDbEllipse
 62
7
  6
CONTINUOUS
 10
-28.7689894609
 20
1.912159853
 30
0.0
 11
0.2999972416
 21
-0.0022477848
 31
0.0
 40
0.5723275643
 41
0.7896864073
 42
2.3081228565
  0
ELLIPSE
  5
434
100
AcDbEntity
  8
ASSI
100
AcDbEllipse
 62
7
  6
CONTINUOUS
 10
49.2659046427
 20
-45.2672789593
 30
0.0
 11
0.5413005334
 21
0.8416911418
 31
0.0
 40
0.6067084637
 41
0.7148472392
 42
0.8145158917
  0
ELLIPSE
  5
435
100
AcDbEntity
  8
ASSI
100
AcDbEllipse
 62
7
  6
CONTINUOUS
 10
-46.1935108174
 20
9.8497911399
 30
0.0
 11
0.5413005334
 21
0.8416911418
 31
0.0
 40
0.6067084637
 41
0.7148472392
 42
0.8145158917
  0
ELLIPSE
  5
436
100
AcDbEntity
  8
ASSI
100
AcDbEllipse
 62
7
  6
CONTINUOUS
 10
-40.849281897
 20
8.944120401
 30
0.0
 11
0.1998333781
 21
-0.0157785196
 31
0.0
 40
0.5172961965
 41
-0.692216108
 42
0.8262203412
  0
ELLIPSE
  5
437
100
AcDbEntity
  8
ASSI
100
AcDbEllipse
 62
7
  6
CONTINUOUS
 10
38.5624183804
 20
-36.9641511739
 30
0.0
 11
0.2999972416
 21
-0.0022477848
 31
0.0
 40
0.5723275643
 41
-0.728750042
 42
0.7896864073
  0
ELLIPSE
  5
438
100
AcDbEntity
  8
ASSI
100
AcDbEllipse
 62
7
  6
CONTINUOUS
 10
22.6525158037
 20
-27.777972824
 30
0.0
 11
0.2999972416
 21
-0.0022477848
 31
0.0
 40
0.5723275643
 41
-0.728750042
 42
0.7896864073
  0
ELLIPSE
  5
439
100
AcDbEntity
  8
ASSI
100
AcDbEllipse
 62
7
  6
CONTINUOUS
 10
-9.1672893497
 20
-9.4056161242
 30
0.0
 11
0.2999972416
 21
-0.0022477848
 31
0.0
 40
0.5723275643
 41
-0.728750042
 42
0.7896864073
  0
ELLIPSE
  5
43A
100
AcDbEntity
  8
ASSI
100
AcDbEllipse
 62
7
  6
CONTINUOUS
 10
-25.0771919264
 20
-0.2194377744
 30
0.0
 11
0.2999972416
 21
-0.0022477848
 31
0.0
 40
0.5723275643
 41
-0.728750042
 42
0.7896864073
  0
ELLIPSE
  5
43B
100
AcDbEntity
  8
ASSI
100
AcDbEllipse
 62
7
  6
CONTINUOUS
 10
6.742613227
 20
-18.5917944741
 30
0.0
 11
0.2999972416
 21
-0.0022477848
 31
0.0
 40
0.5723275643
 41
-0.728750042
 42
0.7896864073
  0
ELLIPSE
  5
43C
100
AcDbEntity
  8
ASSI
100
AcDbEllipse
 62
7
  6
CONTINUOUS
 10
-41.9471735592
 20
7.3980092261
 30
0.0
 11
0.4625183445
 21
0.8873459255
 31
0.0
 40
0.5463614449
 41
0.662201126
 42
0.7618697785
  0
ELLIPSE
  5
43D
100
AcDbEntity
  8
ASSI
100
AcDbEllipse
 62
7
  6
CONTINUOUS
 10
76.5659573562
 20
-5.2606766458
 30
0.0
 11
0.1365023326
 21
1.2306519884
 31
0.0
 40
0.0962714138
 41
-3.8917430252
 42
-3.8564132784
  0
ELLIPSE
  5
43E
100
AcDbEntity
  8
ASSI
100
AcDbEllipse
 62
7
  6
CONTINUOUS
 10
76.5659573562
 20
-75.9303247511
 30
0.0
 11
0.1387214801
 21
1.2585231556
 31
0.0
 40
0.0920685296
 41
-3.8374748546
 42
-3.8021451078
  0
ELLIPSE
  5
43F
100
AcDbEntity
  8
ASSI
100
AcDbEllipse
 62
7
  6
CONTINUOUS
 10
-70.9047522131
 20
79.8870628174
 30
0.0
 11
1.1592455945
 21
-0.5090882972
 31
0.0
 40
0.0921189357
 41
-2.4809772198
 42
-2.4456474731
  0
ELLIPSE
  5
440
100
AcDbEntity
  8
ASSI
100
AcDbEllipse
 62
7
  6
CONTINUOUS
 10
76.5659573562
 20
-5.2606766458
 30
0.0
 11
1.1339988709
 21
-0.4970753424
 31
0.0
 40
0.0963242103
 41
-2.4267061945
 42
-2.3913764477
  0
ELLIPSE
  5
441
100
AcDbEntity
  8
0
100
AcDbEllipse
 62
7
  6
CONTINUOUS
 10
76.5527182633
 20
-75.5449886504
 30
0.0
 11
-0.0319307066
 21
0.0553022874
 31
0.0
 40
0.5636716562
 41
-2.5265807376
 42
-2.3682119497
  0
ELLIPSE
  5
442
100
AcDbEntity
  8
0
100
AcDbEllipse
 62
7
  6
CONTINUOUS
 10
76.5527182633
 20
-5.2683017428
 30
0.0
 11
-0.0311754239
 21
0.0539936769
 31
0.0
 40
0.5913227191
 41
-2.3442738678
 42
-0.7974202594
  0
ELLIPSE
  5
443
100
AcDbEntity
  8
0
100
AcDbEllipse
 62
7
  6
CONTINUOUS
 10
-70.5776659623
 20
79.6829381323
 30
0.0
 11
-0.0319307066
 21
0.0553022874
 31
0.0
 40
0.5636716562
 41
-0.7734729046
 42
-0.6150203534
  0
ELLIPSE
  5
444
100
AcDbEntity
  8
0
100
AcDbEllipse
 62
7
  6
CONTINUOUS
 10
38.5624183804
 20
-37.6383717294
 30
0.0
 11
0.2999993451
 21
0.1746271577
 31
0.0
 40
0.0035896273
 41
-0.7351277754
 42
-0.0020894543
  0
ELLIPSE
  5
445
100
AcDbEntity
  8
0
100
AcDbEllipse
 62
7
  6
CONTINUOUS
 10
22.6525158037
 20
-28.4521933796
 30
0.0
 11
0.2999993451
 21
0.1746271577
 31
0.0
 40
0.0035896273
 41
-0.7351277754
 42
-0.0020894543
  0
ELLIPSE
  5
446
100
AcDbEntity
  8
0
100
AcDbEllipse
 62
7
  6
CONTINUOUS
 10
6.742613227
 20
-19.2660150297
 30
0.0
 11
0.2999993451
 21
0.1746271577
 31
0.0
 40
0.0035896273
 41
-0.7351277754
 42
-0.0020894543
  0
ELLIPSE
  5
447
100
AcDbEntity
  8
0
100
AcDbEllipse
 62
7
  6
CONTINUOUS
 10
-9.1672893497
 20
-10.0798366798
 30
0.0
 11
0.2999993451
 21
0.1746271577
 31
0.0
 40
0.0035896273
 41
-0.7351277754
 42
-0.0020894543
  0
ELLIPSE
  5
448
100
AcDbEntity
  8
0
100
AcDbEllipse
 62
7
  6
CONTINUOUS
 10
-25.0771919264
 20
-0.8936583299
 30
0.0
 11
0.2999993451
 21
0.1746271577
 31
0.0
 40
0.0035896273
 41
-0.7351277754
 42
-0.0020894543
  0
ELLIPSE
  5
449
100
AcDbEntity
  8
0
100
AcDbEllipse
 62
7
  6
CONTINUOUS
 10
-40.849281897
 20
8.3727555667
 30
0.0
 11
0.1999995634
 21
0.1164181051
 31
0.0
 40
0.0035896273
 41
-0.7351277754
 42
-0.6748017824
  0
ELLIPSE
  5
44A
100
AcDbEntity
  8
0
100
AcDbEllipse
 62
7
  6
CONTINUOUS
 10
3.0508156925
 20
-16.4601968468
 30
0.0
 11
0.2999972416
 21
-0.0022477848
 31
0.0
 40
0.5723275643
 41
0.7896864073
 42
2.3081228565
  0
ELLIPSE
  5
44B
100
AcDbEntity
  8
0
100
AcDbEllipse
 62
7
  6
CONTINUOUS
 10
50.7841321726
 20
-43.9638644464
 30
0.0
 11
0.1998333781
 21
-0.0157785196
 31
0.0
 40
0.5172961965
 41
0.8262203412
 42
2.3446567905
  0
ELLIPSE
  5
44C
100
AcDbEntity
  8
0
100
AcDbEllipse
 62
7
  6
CONTINUOUS
 10
-44.6752832875
 20
11.1532056528
 30
0.0
 11
0.1998333781
 21
-0.0157785196
 31
0.0
 40
0.5172961965
 41
0.8262203412
 42
2.3446567905
  0
ELLIPSE
  5
44D
100
AcDbEntity
  8
0
100
AcDbEllipse
 62
7
  6
CONTINUOUS
 10
34.8706208459
 20
-34.8325535465
 30
0.0
 11
0.2999972416
 21
-0.0022477848
 31
0.0
 40
0.5723275643
 41
0.7896864073
 42
2.3081228565
  0
ELLIPSE
  5
44E
100
AcDbEntity
  8
0
100
AcDbEllipse
 62
7
  6
CONTINUOUS
 10
18.9607182692
 20
-25.6463751966
 30
0.0
 11
0.2999972416
 21
-0.0022477848
 31
0.0
 40
0.5723275643
 41
0.7896864073
 42
2.3081228565
  0
ELLIPSE
  5
44F
100
AcDbEntity
  8
0
100
AcDbEllipse
 62
7
  6
CONTINUOUS
 10
-12.8590868842
 20
-7.2740184969
 30
0.0
 11
0.2999972416
 21
-0.0022477848
 31
0.0
 40
0.5723275643
 41
0.7896864073
 42
2.3081228565
  0
ELLIPSE
  5
450
100
AcDbEntity
  8
0
100
AcDbEllipse
 62
7
  6
CONTINUOUS
 10
-28.7689894609
 20
1.912159853
 30
0.0
 11
0.2999972416
 21
-0.0022477848
 31
0.0
 40
0.5723275643
 41
0.7896864073
 42
2.3081228565
  0
ELLIPSE
  5
451
100
AcDbEntity
  8
0
100
AcDbEllipse
 62
7
  6
CONTINUOUS
 10
49.2659046427
 20
-45.2672789593
 30
0.0
 11
0.5413005334
 21
0.8416911418
 31
0.0
 40
0.6067084637
 41
0.7148472392
 42
0.8145158917
  0
ELLIPSE
  5
452
100
AcDbEntity
  8
0
100
AcDbEllipse
 62
7
  6
CONTINUOUS
 10
-46.1935108174
 20
9.8497911399
 30
0.0
 11
0.5413005334
 21
0.8416911418
 31
0.0
 40
0.6067084637
 41
0.7148472392
 42
0.8145158917
  0
ELLIPSE
  5
453
100
AcDbEntity
  8
0
100
AcDbEllipse
 62
7
  6
CONTINUOUS
 10
-40.849281897
 20
8.944120401
 30
0.0
 11
0.1998333781
 21
-0.0157785196
 31
0.0
 40
0.5172961965
 41
-0.692216108
 42
0.8262203412
  0
ELLIPSE
  5
454
100
AcDbEntity
  8
0
100
AcDbEllipse
 62
7
  6
CONTINUOUS
 10
38.5624183804
 20
-36.9641511739
 30
0.0
 11
0.2999972416
 21
-0.0022477848
 31
0.0
 40
0.5723275643
 41
-0.728750042
 42
0.7896864073
  0
ELLIPSE
  5
455
100
AcDbEntity
  8
0
100
AcDbEllipse
 62
7
  6
CONTINUOUS
 10
22.6525158037
 20
-27.777972824
 30
0.0
 11
0.2999972416
 21
-0.0022477848
 31
0.0
 40
0.5723275643
 41
-0.728750042
 42
0.7896864073
  0
ELLIPSE
  5
456
100
AcDbEntity
  8
0
100
AcDbEllipse
 62
7
  6
CONTINUOUS
 10
-9.1672893497
 20
-9.4056161242
 30
0.0
 11
0.2999972416
 21
-0.0022477848
 31
0.0
 40
0.5723275643
 41
-0.728750042
 42
0.7896864073
  0
ELLIPSE
  5
457
100
AcDbEntity
  8
0
100
AcDbEllipse
 62
7
  6
CONTINUOUS
 10
-25.0771919264
 20
-0.2194377744
 30
0.0
 11
0.2999972416
 21
-0.0022477848
 31
0.0
 40
0.5723275643
 41
-0.728750042
 42
0.7896864073
  0
ELLIPSE
  5
458
100
AcDbEntity
  8
0
100
AcDbEllipse
 62
7
  6
CONTINUOUS
 10
6.742613227
 20
-18.5917944741
 30
0.0
 11
0.2999972416
 21
-0.0022477848
 31
0.0
 40
0.5723275643
 41
-0.728750042
 42
0.7896864073
  0
ELLIPSE
  5
459
100
AcDbEntity
  8
0
100
AcDbEllipse
 62
7
  6
CONTINUOUS
 10
-41.9471735592
 20
7.3980092261
 30
0.0
 11
0.4625183445
 21
0.8873459255
 31
0.0
 40
0.5463614449
 41
0.662201126
 42
0.7618697785
  0
ELLIPSE
  5
45A
100
AcDbEntity
  8
0
100
AcDbEllipse
 62
7
  6
CONTINUOUS
 10
76.5659573562
 20
-5.2606766458
 30
0.0
 11
0.1365023326
 21
1.2306519884
 31
0.0
 40
0.0962714138
 41
-3.8917430252
 42
-3.8564132784
  0
ELLIPSE
  5
45B
100
AcDbEntity
  8
0
100
AcDbEllipse
 62
7
  6
CONTINUOUS
 10
76.5659573562
 20
-75.9303247511
 30
0.0
 11
0.1387214801
 21
1.2585231556
 31
0.0
 40
0.0920685296
 41
-3.8374748546
 42
-3.8021451078
  0
ELLIPSE
  5
45C
100
AcDbEntity
  8
0
100
AcDbEllipse
 62
7
  6
CONTINUOUS
 10
-70.9047522131
 20
79.8870628174
 30
0.0
 11
1.1592455945
 21
-0.5090882972
 31
0.0
 40
0.0921189357
 41
-2.4809772198
 42
-2.4456474731
  0
ELLIPSE
  5
45D
100
AcDbEntity
  8
0
100
AcDbEllipse
 62
7
  6
CONTINUOUS
 10
76.5659573562
 20
-5.2606766458
 30
0.0
 11
1.1339988709
 21
-0.4970753424
 31
0.0
 40
0.0963242103
 41
-2.4267061945
 42
-2.3913764477
  0
ENDSEC
  0
SECTION
  2
OBJECTS
  0
DICTIONARY
  5
C
100
AcDbDictionary
280
0
281
1
  3
ACAD_GROUP
350
D
  3
ACAD_MLINESTYLE
350
17
  3
ACAD_LAYOUT
350
1A
  3
ACAD_PLOTSETTINGS
350
19
  3
ACAD_PLOTSTYLENAME
350
E
  0
DICTIONARY
  5
D
102
{ACAD_REACTORS
330
C
102
}
100
AcDbDictionary
280
0
281
1
  0
ACDBDICTIONARYWDFLT
  5
E
102
{ACAD_REACTORS
330
C
102
}
100
AcDbDictionary
281
1
  3
Normal
350
F
100
AcDbDictionaryWithDefault
340
F
  0
DICTIONARY
  5
17
102
{ACAD_REACTORS
330
C
102
}
100
AcDbDictionary
280
0
281
1
  3
Standard
350
18
  0
DICTIONARY
  5
19
102
{ACAD_REACTORS
330
C
102
}
100
AcDbDictionary
281
1
  0
DICTIONARY
  5
1A
102
{ACAD_REACTORS
330
C
102
}
100
AcDbDictionary
281
1
  3
Model
350
45E
  3
Layout1
350
45F
  0
ACDBPLACEHOLDER
  5
F
102
{ACAD_REACTORS
330
E
102
}
  0
MLINESTYLE
  5
18
102
{ACAD_REACTORS
330
17
102
}
100
AcDbMlineStyle
  2
STANDARD
 70
0
  3

 62
256
 51
90.0
 52
90.0
 71
2
 49
0.5
 62
256
  6
BYLAYER
 49
-0.5
 62
256
  6
BYLAYER
  0
LAYOUT
  5
45E
102
{ACAD_REACTORS
330
1A
102
}
100
AcDbPlotSettings
  1

  2
none_device
  4
ISO_A4_(297.00_x_210.00_MM)
  6

 40
0.0
 41
0.0
 42
0.0
 43
0.0
 44
297.0
 45
210.0
 46
0.0
 47
0.0
 48
0.0
 49
0.0
140
0.0
141
0.0
142
1.0
143
1.0
 70
1024
 72
1
 73
0
 74
0
  7

 75
0
147
1.0
148
0.0
149
0.0
100
AcDbLayout
  1
Model
 70
0
 71
0
 10
0.0
 20
0.0
 11
297.0
 21
210.0
 12
0.0
 22
0.0
 32
0.0
 14
0.0
 24
0.0
 34
0.0
 15
0.0
 25
0.0
 35
0.0
146
0.0
 13
0.0
 23
0.0
 33
0.0
 16
1.0
 26
0.0
 36
0.0
 17
0.0
 27
1.0
 37
0.0
 76
0
330
21B
345
0
346
0
  0
LAYOUT
  5
45F
102
{ACAD_REACTORS
330
1A
102
}
100
AcDbPlotSettings
  1

  2
none_device
  4
ISO_A4_(297.00_x_210.00_MM)
  6

 40
0.0
 41
0.0
 42
0.0
 43
0.0
 44
297.0
 45
210.0
 46
0.0
 47
0.0
 48
0.0
 49
0.0
140
0.0
141
0.0
142
1.0
143
1.0
 70
0
 72
1
 73
0
 74
0
  7

 75
0
147
1.0
148
0.0
149
0.0
100
AcDbLayout
  1
Layout1
 70
0
 71
1
 10
0.0
 20
0.0
 11
297.0
 21
210.0
 12
0.0
 22
0.0
 32
0.0
 14
0.0
 24
0.0
 34
0.0
 15
0.0
 25
0.0
 35
0.0
146
0.0
 13
0.0
 23
0.0
 33
0.0
 16
1.0
 26
0.0
 36
0.0
 17
0.0
 27
1.0
 37
0.0
 76
0
330
21C
345
0
346
0
  0
ENDSEC
  0
EOF
