  0
SECTION
  2
HEADER
  9
$ACADVER
  1
AC1024
  9
$DWGCODEPAGE
  3
ANSI_1252
  9
$EXTMAX
 10
297.0
 20
210.0
 30
0.0
  9
$EXTMIN
 10
0.0
 20
0.0
 30
0.0
  9
$LIMMIN
 10
0.0
 20
0.0
  9
$LIMMAX
 10
297.0
 20
210.0
  9
$VIEWCTR
 10
148.5
 20
105.0
  9
$VIEWSIZE
 40
210.0
  9
$CLAYER
  8
0
  9
$LTSCALE
 40
16.335
  9
$CELTYPE
  6
BYLAYER
  9
$DIMSCALE
 40
1.0
  9
$DIMASZ
 40
3.0
  9
$DIMEXO
 40
0.5
  9
$DIMDLI
 40
11.286
  9
$DIMEXE
 40
1.5
  9
$DIMCEN
 40
2.673
  9
$DIMLFAC
 40
1.0
  9
$DIMBLK
  1
_FILLED
  9
$DIMALT
 70
0
  9
$DIMALTF
 40
0.0393700787
  9
$DIMTXT
 40
3.0
  9
$DIMTOL
 70
1
  9
$DIMLIM
 70
0
  9
$DIMTFAC
 40
1.0
  9
$DIMTP
 40
0.01
  9
$DIMTM
 40
0.01
  9
$DIMGAP
 40
0.625
  9
$DIMDSEP
 70
44
  9
$AUNITS
 70
0
  9
$PDMODE
 70
3
  9
$PDSIZE
 40
3.0
  9
$HANDSEED
  5
452
  9
$TILEMODE
 70
1
  9
$MEASUREMENT
 70
1
  9
$INSUNITS
 70
4
  0
ENDSEC
  0
SECTION
  2
CLASSES
  0
CLASS
  1
ACDBDICTIONARYWDFLT
  2
AcDbDictionaryWithDefault
  3
AutoCAD 2000
 90
0
 91
1
280
0
281
0
  0
CLASS
  1
ACDBPLACEHOLDER
  2
AcDbPlaceHolder
  3
AutoCAD 2000
 90
0
 91
1
280
0
281
0
  0
CLASS
  1
LAYOUT
  2
AcDbLayout
  3
AutoCAD 2000
 90
0
 91
0
280
0
281
0
  0
ENDSEC
  0
SECTION
  2
TABLES
  0
TABLE
  2
VPORT
  5
8
100
AcDbSymbolTable
 70
2
  0
VPORT
  5
1F4
100
AcDbSymbolTableRecord
100
AcDbViewportTableRecord
  2
*ACTIVE
 70
0
 10
0.0
 20
0.0
 11
1.0
 21
1.0
 12
148.5
 22
105.0
 13
0.0
 23
0.0
 14
1.0
 24
1.0
 15
0.0
 25
0.0
 16
0.0
 26
0.0
 36
1.0
 17
0.0
 27
0.0
 37
0.0
 40
210.0
 41
1.4142857143
 42
50.0
 43
0.0
 44
0.0
 50
0.0
 51
0.0
 71
0
 72
100
 73
1
 74
1
 75
0
 76
0
 77
0
 78
0
  0
ENDTAB
  0
TABLE
  2
LTYPE
  5
5
100
AcDbSymbolTable
 70
6
  0
LTYPE
  5
14
100
AcDbSymbolTableRecord
100
AcDbLinetypeTableRecord
  2
BYBLOCK
 70
0
  3

 72
65
 73
0
 40
0.0
  0
LTYPE
  5
15
100
AcDbSymbolTableRecord
100
AcDbLinetypeTableRecord
  2
BYLAYER
 70
0
  3

 72
65
 73
0
 40
0.0
  0
LTYPE
  5
16
100
AcDbSymbolTableRecord
100
AcDbLinetypeTableRecord
  2
CONTINUOUS
 70
64
  3
Solid line
 72
65
 73
0
 40
0.0
  0
LTYPE
  5
1F5
100
AcDbSymbolTableRecord
100
AcDbLinetypeTableRecord
  2
CENTER
 70
64
  3
____ _ ____ _ ____ _ ____ _ ____ _ ____ _ ____
 72
65
 73
4
 40
0.6
 49
0.375
 74
0
 49
-0.075
 74
0
 49
0.075
 74
0
 49
-0.075
 74
0
  0
LTYPE
  5
1F6
100
AcDbSymbolTableRecord
100
AcDbLinetypeTableRecord
  2
HIDDEN
 70
64
  3
- - - - - - - - - - - - - - - - - - - -
 72
65
 73
2
 40
0.2
 49
0.1
 74
0
 49
-0.1
 74
0
  0
LTYPE
  5
1F7
100
AcDbSymbolTableRecord
100
AcDbLinetypeTableRecord
  2
PHANTOM
 70
64
  3
_____ _ _ _____ _ _ _____ _ _ _____
 72
65
 73
6
 40
0.8
 49
0.45
 74
0
 49
-0.05
 74
0
 49
0.1
 74
0
 49
-0.05
 74
0
 49
0.1
 74
0
 49
-0.05
 74
0
  0
LTYPE
  5
1F8
100
AcDbSymbolTableRecord
100
AcDbLinetypeTableRecord
  2
DOT
 70
64
  3
. . . . . . . . . . . . . . . . . . . .
 72
65
 73
2
 40
0.2
 49
0.1
 74
0
 49
-0.1
 74
0
  0
LTYPE
  5
1F9
100
AcDbSymbolTableRecord
100
AcDbLinetypeTableRecord
  2
DASHED
 70
64
  3
- - - - - - - - - - - - - - - - - - - -
 72
65
 73
2
 40
0.2
 49
0.1
 74
0
 49
-0.1
 74
0
  0
ENDTAB
  0
TABLE
  2
LAYER
  5
2
100
AcDbSymbolTable
 70
36
  0
LAYER
  5
10
100
AcDbSymbolTableRecord
100
AcDbLayerTableRecord
  2
0
 70
0
 62
7
  6
CONTINUOUS
370
-3
390
F
  0
LAYER
  5
1FA
100
AcDbSymbolTableRecord
100
AcDbLayerTableRecord
  2
DEFAULT_1
 70
0
 62
7
  6
CENTER
370
-3
390
F
  0
LAYER
  5
1FB
100
AcDbSymbolTableRecord
100
AcDbLayerTableRecord
  2
DEFAULT_2
 70
0
 62
7
  6
HIDDEN
370
-3
390
F
  0
LAYER
  5
1FC
100
AcDbSymbolTableRecord
100
AcDbLayerTableRecord
  2
DEFAULT_3
 70
0
 62
7
  6
PHANTOM
370
-3
390
F
  0
LAYER
  5
1FD
100
AcDbSymbolTableRecord
100
AcDbLayerTableRecord
  2
ASSI
 70
0
 62
7
  6
CONTINUOUS
370
-3
390
F
  0
LAYER
  5
1FE
100
AcDbSymbolTableRecord
100
AcDbLayerTableRecord
  2
COORDINATE
 70
0
 62
7
  6
CONTINUOUS
370
-3
390
F
  0
LAYER
  5
1FF
100
AcDbSymbolTableRecord
100
AcDbLayerTableRecord
  2
COORD_ORIGINE
 70
0
 62
7
  6
CONTINUOUS
370
-3
390
F
  0
LAYER
  5
200
100
AcDbSymbolTableRecord
100
AcDbLayerTableRecord
  2
COPY_PUBLISH
 70
0
 62
7
  6
CONTINUOUS
370
-3
390
F
  0
LAYER
  5
201
100
AcDbSymbolTableRecord
100
AcDbLayerTableRecord
  2
COSMETIC
 70
0
 62
7
  6
CONTINUOUS
370
-3
390
F
  0
LAYER
  5
202
100
AcDbSymbolTableRecord
100
AcDbLayerTableRecord
  2
COSMETICI
 70
0
 62
7
  6
CONTINUOUS
370
-3
390
F
  0
LAYER
  5
203
100
AcDbSymbolTableRecord
100
AcDbLayerTableRecord
  2
CURVE
 70
0
 62
7
  6
CONTINUOUS
370
-3
390
F
  0
LAYER
  5
204
100
AcDbSymbolTableRecord
100
AcDbLayerTableRecord
  2
CURVE_TASSELLI
 70
0
 62
7
  6
CONTINUOUS
370
-3
390
F
  0
LAYER
  5
205
100
AcDbSymbolTableRecord
100
AcDbLayerTableRecord
  2
DRAFT
 70
0
 62
7
  6
CONTINUOUS
370
-3
390
F
  0
LAYER
  5
206
100
AcDbSymbolTableRecord
100
AcDbLayerTableRecord
  2
IMPORT_IGES
 70
0
 62
7
  6
CONTINUOUS
370
-3
390
F
  0
LAYER
  5
207
100
AcDbSymbolTableRecord
100
AcDbLayerTableRecord
  2
INTFCLR_2
 70
0
 62
7
  6
CONTINUOUS
370
-3
390
F
  0
LAYER
  5
208
100
AcDbSymbolTableRecord
100
AcDbLayerTableRecord
  2
INTF_1
 70
0
 62
7
  6
CONTINUOUS
370
-3
390
F
  0
LAYER
  5
209
100
AcDbSymbolTableRecord
100
AcDbLayerTableRecord
  2
INTF_21
 70
0
 62
7
  6
CONTINUOUS
370
-3
390
F
  0
LAYER
  5
20A
100
AcDbSymbolTableRecord
100
AcDbLayerTableRecord
  2
INTF_7
 70
0
 62
7
  6
CONTINUOUS
370
-3
390
F
  0
LAYER
  5
20B
100
AcDbSymbolTableRecord
100
AcDbLayerTableRecord
  2
NOTE
 70
0
 62
7
  6
CONTINUOUS
370
-3
390
F
  0
LAYER
  5
20C
100
AcDbSymbolTableRecord
100
AcDbLayerTableRecord
  2
PIANI
 70
0
 62
7
  6
CONTINUOUS
370
-3
390
F
  0
LAYER
  5
20D
100
AcDbSymbolTableRecord
100
AcDbLayerTableRecord
  2
PIANI_ORIGINE
 70
0
 62
7
  6
CONTINUOUS
370
-3
390
F
  0
LAYER
  5
20E
100
AcDbSymbolTableRecord
100
AcDbLayerTableRecord
  2
PIANI_RIFERIMENTO
 70
0
 62
7
  6
CONTINUOUS
370
-3
390
F
  0
LAYER
  5
20F
100
AcDbSymbolTableRecord
100
AcDbLayerTableRecord
  2
PUNTI
 70
0
 62
7
  6
CONTINUOUS
370
-3
390
F
  0
LAYER
  5
210
100
AcDbSymbolTableRecord
100
AcDbLayerTableRecord
  2
RACCORDO
 70
0
 62
7
  6
CONTINUOUS
370
-3
390
F
  0
LAYER
  5
211
100
AcDbSymbolTableRecord
100
AcDbLayerTableRecord
  2
RGB__255__255__255__
 70
0
 62
7
  6
CONTINUOUS
370
-3
390
F
  0
LAYER
  5
212
100
AcDbSymbolTableRecord
100
AcDbLayerTableRecord
  2
RGB____0____0____0__
 70
0
 62
7
  6
CONTINUOUS
370
-3
390
F
  0
LAYER
  5
213
100
AcDbSymbolTableRecord
100
AcDbLayerTableRecord
  2
SIMBOLI
 70
0
 62
7
  6
CONTINUOUS
370
-3
390
F
  0
LAYER
  5
214
100
AcDbSymbolTableRecord
100
AcDbLayerTableRecord
  2
SMUSSO
 70
0
 62
7
  6
CONTINUOUS
370
-3
390
F
  0
LAYER
  5
215
100
AcDbSymbolTableRecord
100
AcDbLayerTableRecord
  2
SNAPLINE
 70
0
 62
7
  6
CONTINUOUS
370
-3
390
F
  0
LAYER
  5
216
100
AcDbSymbolTableRecord
100
AcDbLayerTableRecord
  2
SUPERFICI
 70
0
 62
7
  6
CONTINUOUS
370
-3
390
F
  0
LAYER
  5
217
100
AcDbSymbolTableRecord
100
AcDbLayerTableRecord
  2
TRASH
 70
0
 62
7
  6
CONTINUOUS
370
-3
390
F
  0
LAYER
  5
218
100
AcDbSymbolTableRecord
100
AcDbLayerTableRecord
  2
XSEC_DATUMS
 70
0
 62
7
  6
CONTINUOUS
370
-3
390
F
  0
ENDTAB
  0
TABLE
  2
STYLE
  5
3
100
AcDbSymbolTable
 70
1
  0
STYLE
  5
11
100
AcDbSymbolTableRecord
100
AcDbTextStyleTableRecord
  2
STANDARD
 70
0
 40
0.0
 41
0.8
 50
0.0
 71
0
 42
0.2
  3
txt
  4

  0
STYLE
  5
219
100
AcDbSymbolTableRecord
100
AcDbTextStyleTableRecord
  2
TEXTSTYLE_1
 70
0
 40
0.0
 41
0.8
 50
0.0
 71
0
 42
0.2
  3
gdt
  4

  0
ENDTAB
  0
TABLE
  2
VIEW
  5
6
100
AcDbSymbolTable
 70
0
  0
ENDTAB
  0
TABLE
  2
UCS
  5
7
100
AcDbSymbolTable
 70
0
  0
ENDTAB
  0
TABLE
  2
APPID
  5
9
100
AcDbSymbolTable
 70
1
  0
APPID
  5
21A
100
AcDbSymbolTableRecord
100
AcDbRegAppTableRecord
  2
ACAD
 70
0
  0
ENDTAB
  0
TABLE
  2
BLOCK_RECORD
  5
1
100
AcDbSymbolTable
 70
0
  0
BLOCK_RECORD
  5
21B
100
AcDbSymbolTableRecord
100
AcDbBlockTableRecord
  2
*Model_Space
  0
BLOCK_RECORD
  5
21C
100
AcDbSymbolTableRecord
100
AcDbBlockTableRecord
  2
*Paper_Space
  0
BLOCK_RECORD
  5
21D
100
AcDbSymbolTableRecord
100
AcDbBlockTableRecord
  2
_FILLED
  0
ENDTAB
  0
TABLE
  2
DIMSTYLE
  5
A
100
AcDbSymbolTable
 70
1
100
AcDbDimStyleTable
 71
0
  0
DIMSTYLE
105
21E
100
AcDbSymbolTableRecord
100
AcDbDimStyleTableRecord
  2
STANDARD
 70
0
  3

  4

 40
1.0
 41
3.0
 42
0.5
 43
0.38
 44
1.5
 45
0.0
 46
0.0
 47
0.01
 48
0.01
140
3.0
141
0.09
142
0.0
143
25.4
144
1.0
145
0.0
146
1.0
147
0.625
 71
1
 72
0
 73
0
 74
0
 75
0
 76
0
 77
1
 78
8
 79
2
170
0
171
1
172
0
173
0
174
0
175
0
176
0
177
0
178
0
270
2
179
2
271
2
272
2
273
2
274
2
275
0
280
0
281
0
282
0
283
1
284
8
285
0
286
0
287
3
288
0
340
11
278
44
341
21D
342
21D
343
21D
344
21D
  0
ENDTAB
  0
ENDSEC
  0
SECTION
  2
BLOCKS
  0
BLOCK
  5
20
100
AcDbEntity
  8
0
100
AcDbBlockBegin
  2
*Model_Space
 70
0
 10
0.0
 20
0.0
 30
0.0
  3
*Model_Space
  1

  0
ENDBLK
  5
21
100
AcDbEntity
  8
0
100
AcDbBlockEnd
  0
BLOCK
  5
1C
100
AcDbEntity
  8
0
100
AcDbBlockBegin
  2
*Paper_Space
 70
0
 10
0.0
 20
0.0
 30
0.0
  3
*Paper_Space
  1

  0
ENDBLK
  5
1D
100
AcDbEntity
  8
0
100
AcDbBlockEnd
  0
BLOCK
  5
21F
100
AcDbEntity
  8
0
100
AcDbBlockBegin
  2
_FILLED
 70
64
 10
0.0
 20
0.0
  3
_FILLED
  1

  0
SOLID
  5
220
100
AcDbEntity
  8
0
  6
BYBLOCK
 62
0
100
AcDbTrace
 10
0.0
 20
0.0
 11
-1.0
 21
0.3166666667
 12
-1.0
 22
-0.3166666667
 13
-1.0
 23
-0.3166666667
  0
ENDBLK
  5
221
100
AcDbEntity
  8
0
  6
BYBLOCK
 62
0
100
AcDbBlockEnd
  0
ENDSEC
  0
SECTION
  2
ENTITIES
  0
LINE
  5
222
100
AcDbEntity
  8
SMUSSO
100
AcDbLine
 62
7
  6
CONTINUOUS
 10
-76.597342072
 20
78.5491796505
 11
-74.8295751191
 21
79.5698266789
  0
LINE
  5
223
100
AcDbEntity
  8
ASSI
100
AcDbLine
 62
7
  6
CONTINUOUS
 10
-72.3017178175
 20
80.2238906088
 11
-74.1970394534
 21
79.204647968
  0
LINE
  5
224
100
AcDbEntity
  8
0
100
AcDbLine
 62
7
  6
CONTINUOUS
 10
-72.3017178175
 20
80.2238906088
 11
-74.1970394534
 21
79.204647968
  0
LINE
  5
225
100
AcDbEntity
  8
ASSI
100
AcDbLine
 62
250
  6
CONTINUOUS
 10
-71.8244789948
 20
80.1619422584
 11
-73.9108821851
 21
79.0399421413
  0
LINE
  5
226
100
AcDbEntity
  8
0
100
AcDbLine
 62
250
  6
CONTINUOUS
 10
-71.8244789948
 20
80.1619422584
 11
-73.9108821851
 21
79.0399421413
  0
LINE
  5
227
100
AcDbEntity
  8
0
100
AcDbLine
 62
250
  6
CONTINUOUS
 10
74.7307319528
 20
-72.539547978
 11
75.639291059
 21
-72.301031706
  0
LINE
  5
228
100
AcDbEntity
  8
0
100
AcDbLine
 62
250
  6
CONTINUOUS
 10
75.5832673593
 20
-68.9881416913
 11
75.0934190063
 21
-69.1198028906
  0
LINE
  5
229
100
AcDbEntity
  8
0
100
AcDbLine
 62
250
  6
CONTINUOUS
 10
76.0506769133
 20
-68.8642548903
 11
75.787168837
 21
-68.9324614295
  0
LINE
  5
22A
100
AcDbEntity
  8
0
100
AcDbLine
 62
250
  6
CONTINUOUS
 10
74.7307319528
 20
-69.4871844624
 11
76.0506769133
 21
-69.1845316857
  0
LINE
  5
22B
100
AcDbEntity
  8
0
100
AcDbLine
 62
250
  6
CONTINUOUS
 10
76.0506769133
 20
-71.9253889297
 11
74.7307319528
 21
-72.2159799909
  0
LINE
  5
22C
100
AcDbEntity
  8
0
100
AcDbLine
 62
250
  6
CONTINUOUS
 10
74.7307319528
 20
-70.489983054
 11
75.4635692167
 21
-70.375607274
  0
LINE
  5
22D
100
AcDbEntity
  8
0
100
AcDbLine
 62
250
  6
CONTINUOUS
 10
76.0506769133
 20
-70.0036367121
 11
75.1923707956
 21
-70.1318337024
  0
LINE
  5
22E
100
AcDbEntity
  8
SMUSSO
100
AcDbLine
 62
7
  6
CONTINUOUS
 10
-76.597342072
 20
78.5491796505
 11
-76.597342072
 21
5.883285561
  0
LINE
  5
22F
100
AcDbEntity
  8
RACCORDO
100
AcDbLine
 62
250
  6
CONTINUOUS
 10
-58.106499744
 20
48.6040610478
 11
-57.2580126107
 21
49.0939668845
  0
LINE
  5
230
100
AcDbEntity
  8
RACCORDO
100
AcDbLine
 62
7
  6
CONTINUOUS
 10
-58.106499744
 20
48.6040610478
 11
-58.106499744
 21
13.659133201
  0
LINE
  5
231
100
AcDbEntity
  8
RACCORDO
100
AcDbLine
 62
7
  6
CONTINUOUS
 10
-55.9851794004
 20
48.3590015999
 11
-55.9851794004
 21
14.883956981
  0
LINE
  5
232
100
AcDbEntity
  8
ASSI
100
AcDbLine
 62
250
  6
CONTINUOUS
 10
-55.3928436391
 20
48.0169943551
 11
-55.3928436391
 21
13.6082668069
  0
LINE
  5
233
100
AcDbEntity
  8
0
100
AcDbLine
 62
250
  6
CONTINUOUS
 10
-55.3928436391
 20
48.0169943551
 11
-55.3928436391
 21
13.6082668069
  0
LINE
  5
234
100
AcDbEntity
  8
ASSI
100
AcDbLine
 62
7
  6
CONTINUOUS
 10
-55.3086455792
 20
47.9683794505
 11
-55.3086455792
 21
13.5343398664
  0
LINE
  5
235
100
AcDbEntity
  8
0
100
AcDbLine
 62
7
  6
CONTINUOUS
 10
-55.3086455792
 20
47.9683794505
 11
-55.3086455792
 21
13.5343398664
  0
LINE
  5
236
100
AcDbEntity
  8
ASSI
100
AcDbLine
 62
7
  6
CONTINUOUS
 10
-48.1540563656
 20
9.3826003556
 11
-48.1362941293
 21
9.4133654514
  0
LINE
  5
237
100
AcDbEntity
  8
0
100
AcDbLine
 62
7
  6
CONTINUOUS
 10
-48.1540563656
 20
9.3826003556
 11
-48.1362941293
 21
9.4133654514
  0
LINE
  5
238
100
AcDbEntity
  8
ASSI
100
AcDbLine
 62
7
  6
CONTINUOUS
 10
-47.8888067559
 20
9.4337910176
 11
-47.7827407387
 21
9.6175027481
  0
LINE
  5
239
100
AcDbEntity
  8
0
100
AcDbLine
 62
7
  6
CONTINUOUS
 10
-47.8888067559
 20
9.4337910176
 11
-47.7827407387
 21
9.6175027481
  0
LINE
  5
23A
100
AcDbEntity
  8
ASSI
100
AcDbLine
 62
7
  6
CONTINUOUS
 10
-47.5352533653
 20
9.6379283142
 11
-47.4291873481
 21
9.8216400448
  0
LINE
  5
23B
100
AcDbEntity
  8
0
100
AcDbLine
 62
7
  6
CONTINUOUS
 10
-47.5352533653
 20
9.6379283142
 11
-47.4291873481
 21
9.8216400448
  0
LINE
  5
23C
100
AcDbEntity
  8
ASSI
100
AcDbLine
 62
7
  6
CONTINUOUS
 10
-47.1816999747
 20
9.8420656109
 11
-47.0756339575
 21
10.0257773414
  0
LINE
  5
23D
100
AcDbEntity
  8
0
100
AcDbLine
 62
7
  6
CONTINUOUS
 10
-47.1816999747
 20
9.8420656109
 11
-47.0756339575
 21
10.0257773414
  0
LINE
  5
23E
100
AcDbEntity
  8
ASSI
100
AcDbLine
 62
7
  6
CONTINUOUS
 10
-46.8281465841
 20
10.0462029076
 11
-46.7220805669
 21
10.2299146381
  0
LINE
  5
23F
100
AcDbEntity
  8
0
100
AcDbLine
 62
7
  6
CONTINUOUS
 10
-46.8281465841
 20
10.0462029076
 11
-46.7220805669
 21
10.2299146381
  0
LINE
  5
240
100
AcDbEntity
  8
ASSI
100
AcDbLine
 62
7
  6
CONTINUOUS
 10
-46.4745931935
 20
10.2503402042
 11
-46.3685271763
 21
10.4340519348
  0
LINE
  5
241
100
AcDbEntity
  8
0
100
AcDbLine
 62
7
  6
CONTINUOUS
 10
-46.4745931935
 20
10.2503402042
 11
-46.3685271763
 21
10.4340519348
  0
LINE
  5
242
100
AcDbEntity
  8
ASSI
100
AcDbLine
 62
250
  6
CONTINUOUS
 10
-40.7006529319
 20
8.8186401399
 11
-40.7006529319
 21
8.411270502
  0
LINE
  5
243
100
AcDbEntity
  8
0
100
AcDbLine
 62
250
  6
CONTINUOUS
 10
-40.7006529319
 20
8.8186401399
 11
-40.7006529319
 21
8.411270502
  0
LINE
  5
244
100
AcDbEntity
  8
ASSI
100
AcDbLine
 62
7
  6
CONTINUOUS
 10
-40.649281897
 20
8.8852176468
 11
-40.649281897
 21
8.4418157968
  0
LINE
  5
245
100
AcDbEntity
  8
0
100
AcDbLine
 62
7
  6
CONTINUOUS
 10
-40.649281897
 20
8.8852176468
 11
-40.649281897
 21
8.4418157968
  0
LINE
  5
246
100
AcDbEntity
  8
ASSI
100
AcDbLine
 62
7
  6
CONTINUOUS
 10
-44.2649690691
 20
7.1370900923
 11
-44.2472068327
 21
7.1678551881
  0
LINE
  5
247
100
AcDbEntity
  8
0
100
AcDbLine
 62
7
  6
CONTINUOUS
 10
-44.2649690691
 20
7.1370900923
 11
-44.2472068327
 21
7.1678551881
  0
LINE
  5
248
100
AcDbEntity
  8
ASSI
100
AcDbLine
 62
7
  6
CONTINUOUS
 10
-43.9997194593
 20
7.1882807543
 11
-43.8936534422
 21
7.3719924848
  0
LINE
  5
249
100
AcDbEntity
  8
0
100
AcDbLine
 62
7
  6
CONTINUOUS
 10
-43.9997194593
 20
7.1882807543
 11
-43.8936534422
 21
7.3719924848
  0
LINE
  5
24A
100
AcDbEntity
  8
ASSI
100
AcDbLine
 62
7
  6
CONTINUOUS
 10
-43.6461660687
 20
7.3924180509
 11
-43.5401000516
 21
7.5761297815
  0
LINE
  5
24B
100
AcDbEntity
  8
0
100
AcDbLine
 62
7
  6
CONTINUOUS
 10
-43.6461660687
 20
7.3924180509
 11
-43.5401000516
 21
7.5761297815
  0
LINE
  5
24C
100
AcDbEntity
  8
ASSI
100
AcDbLine
 62
7
  6
CONTINUOUS
 10
-43.2926126781
 20
7.5965553476
 11
-43.186546661
 21
7.7802670781
  0
LINE
  5
24D
100
AcDbEntity
  8
0
100
AcDbLine
 62
7
  6
CONTINUOUS
 10
-43.2926126781
 20
7.5965553476
 11
-43.186546661
 21
7.7802670781
  0
LINE
  5
24E
100
AcDbEntity
  8
ASSI
100
AcDbLine
 62
7
  6
CONTINUOUS
 10
-42.9390592876
 20
7.8006926443
 11
-42.8329932704
 21
7.9844043748
  0
LINE
  5
24F
100
AcDbEntity
  8
0
100
AcDbLine
 62
7
  6
CONTINUOUS
 10
-42.9390592876
 20
7.8006926443
 11
-42.8329932704
 21
7.9844043748
  0
LINE
  5
250
100
AcDbEntity
  8
ASSI
100
AcDbLine
 62
7
  6
CONTINUOUS
 10
-42.585505897
 20
8.0048299409
 11
-42.4794398798
 21
8.1885416714
  0
LINE
  5
251
100
AcDbEntity
  8
0
100
AcDbLine
 62
7
  6
CONTINUOUS
 10
-42.585505897
 20
8.0048299409
 11
-42.4794398798
 21
8.1885416714
  0
LINE
  5
252
100
AcDbEntity
  8
RACCORDO
100
AcDbLine
 62
250
  6
CONTINUOUS
 10
-58.106499744
 20
13.659133201
 11
-55.9851794004
 21
14.883956981
  0
LINE
  5
253
100
AcDbEntity
  8
RACCORDO
100
AcDbLine
 62
250
  6
CONTINUOUS
 10
-57.2579716066
 20
12.1894393569
 11
-55.136651263
 21
13.4142631369
  0
LINE
  5
254
100
AcDbEntity
  8
ASSI
100
AcDbLine
 62
250
  6
CONTINUOUS
 10
-42.6451323449
 20
7.1396328485
 11
-42.3091873799
 21
7.4663864383
  0
LINE
  5
255
100
AcDbEntity
  8
0
100
AcDbLine
 62
250
  6
CONTINUOUS
 10
-42.6451323449
 20
7.1396328485
 11
-42.3091873799
 21
7.4663864383
  0
LINE
  5
256
100
AcDbEntity
  8
ASSI
100
AcDbLine
 62
7
  6
CONTINUOUS
 10
-42.6412074502
 20
7.1060976839
 11
-42.2122231066
 21
7.5233451168
  0
LINE
  5
257
100
AcDbEntity
  8
0
100
AcDbLine
 62
7
  6
CONTINUOUS
 10
-42.6412074502
 20
7.1060976839
 11
-42.2122231066
 21
7.5233451168
  0
LINE
  5
258
100
AcDbEntity
  8
ASSI
100
AcDbLine
 62
7
  6
CONTINUOUS
 10
-41.9471735592
 20
8.1671233821
 11
-43.8905670219
 21
6.9209150426
  0
LINE
  5
259
100
AcDbEntity
  8
0
100
AcDbLine
 62
7
  6
CONTINUOUS
 10
-41.9471735592
 20
8.1671233821
 11
-43.8905670219
 21
6.9209150426
  0
LINE
  5
25A
100
AcDbEntity
  8
ASSI
100
AcDbLine
 62
7
  6
CONTINUOUS
 10
-48.1362941293
 20
9.4133654514
 11
-47.994872773
 21
9.4950203701
  0
LINE
  5
25B
100
AcDbEntity
  8
0
100
AcDbLine
 62
7
  6
CONTINUOUS
 10
-48.1362941293
 20
9.4133654514
 11
-47.994872773
 21
9.4950203701
  0
LINE
  5
25C
100
AcDbEntity
  8
ASSI
100
AcDbLine
 62
7
  6
CONTINUOUS
 10
-47.7827407387
 20
9.6175027481
 11
-47.6413193824
 21
9.6991576668
  0
LINE
  5
25D
100
AcDbEntity
  8
0
100
AcDbLine
 62
7
  6
CONTINUOUS
 10
-47.7827407387
 20
9.6175027481
 11
-47.6413193824
 21
9.6991576668
  0
LINE
  5
25E
100
AcDbEntity
  8
ASSI
100
AcDbLine
 62
7
  6
CONTINUOUS
 10
-47.4291873481
 20
9.8216400448
 11
-47.2877659919
 21
9.9032949634
  0
LINE
  5
25F
100
AcDbEntity
  8
0
100
AcDbLine
 62
7
  6
CONTINUOUS
 10
-47.4291873481
 20
9.8216400448
 11
-47.2877659919
 21
9.9032949634
  0
LINE
  5
260
100
AcDbEntity
  8
ASSI
100
AcDbLine
 62
7
  6
CONTINUOUS
 10
-47.0756339575
 20
10.0257773414
 11
-46.9342126013
 21
10.1074322601
  0
LINE
  5
261
100
AcDbEntity
  8
0
100
AcDbLine
 62
7
  6
CONTINUOUS
 10
-47.0756339575
 20
10.0257773414
 11
-46.9342126013
 21
10.1074322601
  0
LINE
  5
262
100
AcDbEntity
  8
ASSI
100
AcDbLine
 62
7
  6
CONTINUOUS
 10
-46.7220805669
 20
10.2299146381
 11
-46.5806592107
 21
10.3115695568
  0
LINE
  5
263
100
AcDbEntity
  8
0
100
AcDbLine
 62
7
  6
CONTINUOUS
 10
-46.7220805669
 20
10.2299146381
 11
-46.5806592107
 21
10.3115695568
  0
LINE
  5
264
100
AcDbEntity
  8
ASSI
100
AcDbLine
 62
7
  6
CONTINUOUS
 10
-46.3685271763
 20
10.4340519348
 11
-46.2271058201
 21
10.5157068534
  0
LINE
  5
265
100
AcDbEntity
  8
0
100
AcDbLine
 62
7
  6
CONTINUOUS
 10
-46.3685271763
 20
10.4340519348
 11
-46.2271058201
 21
10.5157068534
  0
LINE
  5
266
100
AcDbEntity
  8
ASSI
100
AcDbLine
 62
7
  6
CONTINUOUS
 10
-48.3518679184
 20
9.496814267
 11
-46.1935108174
 21
10.6189052959
  0
LINE
  5
267
100
AcDbEntity
  8
0
100
AcDbLine
 62
7
  6
CONTINUOUS
 10
-48.3518679184
 20
9.496814267
 11
-46.1935108174
 21
10.6189052959
  0
LINE
  5
268
100
AcDbEntity
  8
SMUSSO
100
AcDbLine
 62
7
  6
CONTINUOUS
 10
-76.597342072
 20
5.883285561
 11
72.6021887583
 21
-80.2626141762
  0
LINE
  5
269
100
AcDbEntity
  8
ASSI
100
AcDbLine
 62
250
  6
CONTINUOUS
 10
-24.8542484788
 20
-0.3828100546
 11
-24.8542484788
 21
-0.8122078666
  0
LINE
  5
26A
100
AcDbEntity
  8
0
100
AcDbLine
 62
250
  6
CONTINUOUS
 10
-24.8542484788
 20
-0.3828100546
 11
-24.8542484788
 21
-0.8122078666
  0
LINE
  5
26B
100
AcDbEntity
  8
ASSI
100
AcDbLine
 62
7
  6
CONTINUOUS
 10
-24.7771919264
 20
-0.2683053843
 11
-24.7771919264
 21
-0.7663899244
  0
LINE
  5
26C
100
AcDbEntity
  8
0
100
AcDbLine
 62
7
  6
CONTINUOUS
 10
-24.7771919264
 20
-0.2683053843
 11
-24.7771919264
 21
-0.7663899244
  0
LINE
  5
26D
100
AcDbEntity
  8
ASSI
100
AcDbLine
 62
7
  6
CONTINUOUS
 10
-43.5613609703
 20
6.7308355943
 11
-40.7006529319
 21
8.411270502
  0
LINE
  5
26E
100
AcDbEntity
  8
0
100
AcDbLine
 62
7
  6
CONTINUOUS
 10
-43.5613609703
 20
6.7308355943
 11
-40.7006529319
 21
8.411270502
  0
LINE
  5
26F
100
AcDbEntity
  8
ASSI
100
AcDbLine
 62
7
  6
CONTINUOUS
 10
-42.6998218
 20
7.0616336588
 11
-43.4152844026
 21
6.6464928149
  0
LINE
  5
270
100
AcDbEntity
  8
0
100
AcDbLine
 62
7
  6
CONTINUOUS
 10
-42.6998218
 20
7.0616336588
 11
-43.4152844026
 21
6.6464928149
  0
LINE
  5
271
100
AcDbEntity
  8
ASSI
100
AcDbLine
 62
250
  6
CONTINUOUS
 10
-42.6451323449
 20
7.1396328485
 11
-43.4555174994
 21
6.6697229007
  0
LINE
  5
272
100
AcDbEntity
  8
0
100
AcDbLine
 62
250
  6
CONTINUOUS
 10
-42.6451323449
 20
7.1396328485
 11
-43.4555174994
 21
6.6697229007
  0
LINE
  5
273
100
AcDbEntity
  8
ASSI
100
AcDbLine
 62
7
  6
CONTINUOUS
 10
-44.2472068327
 20
7.1678551881
 11
-44.1057854765
 21
7.2495101068
  0
LINE
  5
274
100
AcDbEntity
  8
0
100
AcDbLine
 62
7
  6
CONTINUOUS
 10
-44.2472068327
 20
7.1678551881
 11
-44.1057854765
 21
7.2495101068
  0
LINE
  5
275
100
AcDbEntity
  8
ASSI
100
AcDbLine
 62
7
  6
CONTINUOUS
 10
-43.8936534422
 20
7.3719924848
 11
-43.7522320859
 21
7.4536474035
  0
LINE
  5
276
100
AcDbEntity
  8
0
100
AcDbLine
 62
7
  6
CONTINUOUS
 10
-43.8936534422
 20
7.3719924848
 11
-43.7522320859
 21
7.4536474035
  0
LINE
  5
277
100
AcDbEntity
  8
ASSI
100
AcDbLine
 62
7
  6
CONTINUOUS
 10
-43.5401000516
 20
7.5761297815
 11
-43.3986786953
 21
7.6577847001
  0
LINE
  5
278
100
AcDbEntity
  8
0
100
AcDbLine
 62
7
  6
CONTINUOUS
 10
-43.5401000516
 20
7.5761297815
 11
-43.3986786953
 21
7.6577847001
  0
LINE
  5
279
100
AcDbEntity
  8
ASSI
100
AcDbLine
 62
7
  6
CONTINUOUS
 10
-43.186546661
 20
7.7802670781
 11
-43.0451253047
 21
7.8619219968
  0
LINE
  5
27A
100
AcDbEntity
  8
0
100
AcDbLine
 62
7
  6
CONTINUOUS
 10
-43.186546661
 20
7.7802670781
 11
-43.0451253047
 21
7.8619219968
  0
LINE
  5
27B
100
AcDbEntity
  8
ASSI
100
AcDbLine
 62
7
  6
CONTINUOUS
 10
-42.8329932704
 20
7.9844043748
 11
-42.6915719141
 21
8.0660592934
  0
LINE
  5
27C
100
AcDbEntity
  8
0
100
AcDbLine
 62
7
  6
CONTINUOUS
 10
-42.8329932704
 20
7.9844043748
 11
-42.6915719141
 21
8.0660592934
  0
LINE
  5
27D
100
AcDbEntity
  8
ASSI
100
AcDbLine
 62
7
  6
CONTINUOUS
 10
-42.4794398798
 20
8.1885416714
 11
-42.3380185235
 21
8.2701965901
  0
LINE
  5
27E
100
AcDbEntity
  8
0
100
AcDbLine
 62
7
  6
CONTINUOUS
 10
-42.4794398798
 20
8.1885416714
 11
-42.3380185235
 21
8.2701965901
  0
LINE
  5
27F
100
AcDbEntity
  8
ASSI
100
AcDbLine
 62
7
  6
CONTINUOUS
 10
-42.2319525064
 20
8.2089672376
 11
-44.1766738218
 21
7.0861095231
  0
LINE
  5
280
100
AcDbEntity
  8
0
100
AcDbLine
 62
7
  6
CONTINUOUS
 10
-42.2319525064
 20
8.2089672376
 11
-44.1766738218
 21
7.0861095231
  0
LINE
  5
281
100
AcDbEntity
  8
ASSI
100
AcDbLine
 62
7
  6
CONTINUOUS
 10
-40.7006529319
 20
8.8186401399
 11
-41.8805012032
 21
8.2058252935
  0
LINE
  5
282
100
AcDbEntity
  8
0
100
AcDbLine
 62
7
  6
CONTINUOUS
 10
-40.7006529319
 20
8.8186401399
 11
-41.8805012032
 21
8.2058252935
  0
LINE
  5
283
100
AcDbEntity
  8
ASSI
100
AcDbLine
 62
7
  6
CONTINUOUS
 10
-46.1194636645
 20
10.653349092
 11
-44.8091094088
 21
11.1908114186
  0
LINE
  5
284
100
AcDbEntity
  8
0
100
AcDbLine
 62
7
  6
CONTINUOUS
 10
-46.1194636645
 20
10.653349092
 11
-44.8091094088
 21
11.1908114186
  0
LINE
  5
285
100
AcDbEntity
  8
ASSI
100
AcDbLine
 62
250
  6
CONTINUOUS
 10
-26.7352297682
 20
-2.0465455014
 11
-26.3992848032
 21
-1.7197919116
  0
LINE
  5
286
100
AcDbEntity
  8
0
100
AcDbLine
 62
250
  6
CONTINUOUS
 10
-26.7352297682
 20
-2.0465455014
 11
-26.3992848032
 21
-1.7197919116
  0
LINE
  5
287
100
AcDbEntity
  8
ASSI
100
AcDbLine
 62
7
  6
CONTINUOUS
 10
-26.7313050219
 20
-2.0800808103
 11
-26.3023205299
 21
-1.6628332331
  0
LINE
  5
288
100
AcDbEntity
  8
0
100
AcDbLine
 62
7
  6
CONTINUOUS
 10
-26.7313050219
 20
-2.0800808103
 11
-26.3023205299
 21
-1.6628332331
  0
LINE
  5
289
100
AcDbEntity
  8
ASSI
100
AcDbLine
 62
7
  6
CONTINUOUS
 10
-32.3600243992
 20
0.2633242439
 11
-28.9697286428
 21
1.993416613
  0
LINE
  5
28A
100
AcDbEntity
  8
0
100
AcDbLine
 62
7
  6
CONTINUOUS
 10
-32.3600243992
 20
0.2633242439
 11
-28.9697286428
 21
1.993416613
  0
LINE
  5
28B
100
AcDbEntity
  8
RACCORDO
100
AcDbLine
 62
7
  6
CONTINUOUS
 10
-57.2579716066
 20
12.1894393569
 11
52.5557115117
 21
-51.2156049869
  0
LINE
  5
28C
100
AcDbEntity
  8
RACCORDO
100
AcDbLine
 62
7
  6
CONTINUOUS
 10
-55.136651263
 20
13.4142631369
 11
53.4042396491
 21
-49.2558869389
  0
LINE
  5
28D
100
AcDbEntity
  8
ASSI
100
AcDbLine
 62
7
  6
CONTINUOUS
 10
51.2122086274
 20
-47.9492149111
 11
47.3231213309
 21
-45.7037046478
  0
LINE
  5
28E
100
AcDbEntity
  8
0
100
AcDbLine
 62
7
  6
CONTINUOUS
 10
51.2122086274
 20
-47.9492149111
 11
47.3231213309
 21
-45.7037046478
  0
LINE
  5
28F
100
AcDbEntity
  8
ASSI
100
AcDbLine
 62
7
  6
CONTINUOUS
 10
-44.2472068327
 20
7.1678551881
 11
-48.1362941293
 21
9.4133654514
  0
LINE
  5
290
100
AcDbEntity
  8
0
100
AcDbLine
 62
7
  6
CONTINUOUS
 10
-44.2472068327
 20
7.1678551881
 11
-48.1362941293
 21
9.4133654514
  0
LINE
  5
291
100
AcDbEntity
  8
ASSI
100
AcDbLine
 62
7
  6
CONTINUOUS
 10
51.3536299837
 20
-47.8675599924
 11
51.4596960009
 21
-47.928789345
  0
LINE
  5
292
100
AcDbEntity
  8
0
100
AcDbLine
 62
7
  6
CONTINUOUS
 10
51.3536299837
 20
-47.8675599924
 11
51.4596960009
 21
-47.928789345
  0
LINE
  5
293
100
AcDbEntity
  8
ASSI
100
AcDbLine
 62
7
  6
CONTINUOUS
 10
51.3536299837
 20
-47.8675599924
 11
47.4645426871
 21
-45.6220497291
  0
LINE
  5
294
100
AcDbEntity
  8
0
100
AcDbLine
 62
7
  6
CONTINUOUS
 10
51.3536299837
 20
-47.8675599924
 11
47.4645426871
 21
-45.6220497291
  0
LINE
  5
295
100
AcDbEntity
  8
ASSI
100
AcDbLine
 62
7
  6
CONTINUOUS
 10
-47.994872773
 20
9.4950203701
 11
-43.9997194593
 21
7.1882807543
  0
LINE
  5
296
100
AcDbEntity
  8
0
100
AcDbLine
 62
7
  6
CONTINUOUS
 10
-47.994872773
 20
9.4950203701
 11
-43.9997194593
 21
7.1882807543
  0
LINE
  5
297
100
AcDbEntity
  8
ASSI
100
AcDbLine
 62
7
  6
CONTINUOUS
 10
51.565762018
 20
-47.7450776145
 11
47.6766747215
 21
-45.4995673511
  0
LINE
  5
298
100
AcDbEntity
  8
0
100
AcDbLine
 62
7
  6
CONTINUOUS
 10
51.565762018
 20
-47.7450776145
 11
47.6766747215
 21
-45.4995673511
  0
LINE
  5
299
100
AcDbEntity
  8
ASSI
100
AcDbLine
 62
7
  6
CONTINUOUS
 10
-43.8936534422
 20
7.3719924848
 11
-47.7827407387
 21
9.6175027481
  0
LINE
  5
29A
100
AcDbEntity
  8
0
100
AcDbLine
 62
7
  6
CONTINUOUS
 10
-43.8936534422
 20
7.3719924848
 11
-47.7827407387
 21
9.6175027481
  0
LINE
  5
29B
100
AcDbEntity
  8
ASSI
100
AcDbLine
 62
7
  6
CONTINUOUS
 10
51.7071833743
 20
-47.6634226958
 11
51.8132493914
 21
-47.7246520483
  0
LINE
  5
29C
100
AcDbEntity
  8
0
100
AcDbLine
 62
7
  6
CONTINUOUS
 10
51.7071833743
 20
-47.6634226958
 11
51.8132493914
 21
-47.7246520483
  0
LINE
  5
29D
100
AcDbEntity
  8
ASSI
100
AcDbLine
 62
7
  6
CONTINUOUS
 10
51.7071833743
 20
-47.6634226958
 11
47.8180960777
 21
-45.4179124325
  0
LINE
  5
29E
100
AcDbEntity
  8
0
100
AcDbLine
 62
7
  6
CONTINUOUS
 10
51.7071833743
 20
-47.6634226958
 11
47.8180960777
 21
-45.4179124325
  0
LINE
  5
29F
100
AcDbEntity
  8
ASSI
100
AcDbLine
 62
7
  6
CONTINUOUS
 10
-47.6413193824
 20
9.6991576668
 11
-43.6461660687
 21
7.3924180509
  0
LINE
  5
2A0
100
AcDbEntity
  8
0
100
AcDbLine
 62
7
  6
CONTINUOUS
 10
-47.6413193824
 20
9.6991576668
 11
-43.6461660687
 21
7.3924180509
  0
LINE
  5
2A1
100
AcDbEntity
  8
ASSI
100
AcDbLine
 62
7
  6
CONTINUOUS
 10
51.9193154086
 20
-47.5409403178
 11
48.0302281121
 21
-45.2954300545
  0
LINE
  5
2A2
100
AcDbEntity
  8
0
100
AcDbLine
 62
7
  6
CONTINUOUS
 10
51.9193154086
 20
-47.5409403178
 11
48.0302281121
 21
-45.2954300545
  0
LINE
  5
2A3
100
AcDbEntity
  8
ASSI
100
AcDbLine
 62
7
  6
CONTINUOUS
 10
-43.5401000516
 20
7.5761297815
 11
-47.4291873481
 21
9.8216400448
  0
LINE
  5
2A4
100
AcDbEntity
  8
0
100
AcDbLine
 62
7
  6
CONTINUOUS
 10
-43.5401000516
 20
7.5761297815
 11
-47.4291873481
 21
9.8216400448
  0
LINE
  5
2A5
100
AcDbEntity
  8
ASSI
100
AcDbLine
 62
7
  6
CONTINUOUS
 10
52.0607367649
 20
-47.4592853991
 11
52.166802782
 21
-47.5205147516
  0
LINE
  5
2A6
100
AcDbEntity
  8
0
100
AcDbLine
 62
7
  6
CONTINUOUS
 10
52.0607367649
 20
-47.4592853991
 11
52.166802782
 21
-47.5205147516
  0
LINE
  5
2A7
100
AcDbEntity
  8
ASSI
100
AcDbLine
 62
7
  6
CONTINUOUS
 10
52.0607367649
 20
-47.4592853991
 11
48.1716494683
 21
-45.2137751358
  0
LINE
  5
2A8
100
AcDbEntity
  8
0
100
AcDbLine
 62
7
  6
CONTINUOUS
 10
52.0607367649
 20
-47.4592853991
 11
48.1716494683
 21
-45.2137751358
  0
LINE
  5
2A9
100
AcDbEntity
  8
ASSI
100
AcDbLine
 62
7
  6
CONTINUOUS
 10
-47.2877659919
 20
9.9032949634
 11
-43.2926126781
 21
7.5965553476
  0
LINE
  5
2AA
100
AcDbEntity
  8
0
100
AcDbLine
 62
7
  6
CONTINUOUS
 10
-47.2877659919
 20
9.9032949634
 11
-43.2926126781
 21
7.5965553476
  0
LINE
  5
2AB
100
AcDbEntity
  8
ASSI
100
AcDbLine
 62
7
  6
CONTINUOUS
 10
52.2728687992
 20
-47.3368030211
 11
48.3837815027
 21
-45.0912927578
  0
LINE
  5
2AC
100
AcDbEntity
  8
0
100
AcDbLine
 62
7
  6
CONTINUOUS
 10
52.2728687992
 20
-47.3368030211
 11
48.3837815027
 21
-45.0912927578
  0
LINE
  5
2AD
100
AcDbEntity
  8
ASSI
100
AcDbLine
 62
7
  6
CONTINUOUS
 10
-43.186546661
 20
7.7802670781
 11
-47.0756339575
 21
10.0257773414
  0
LINE
  5
2AE
100
AcDbEntity
  8
0
100
AcDbLine
 62
7
  6
CONTINUOUS
 10
-43.186546661
 20
7.7802670781
 11
-47.0756339575
 21
10.0257773414
  0
LINE
  5
2AF
100
AcDbEntity
  8
ASSI
100
AcDbLine
 62
7
  6
CONTINUOUS
 10
52.4142901555
 20
-47.2551481025
 11
52.5203561726
 21
-47.316377455
  0
LINE
  5
2B0
100
AcDbEntity
  8
0
100
AcDbLine
 62
7
  6
CONTINUOUS
 10
52.4142901555
 20
-47.2551481025
 11
52.5203561726
 21
-47.316377455
  0
LINE
  5
2B1
100
AcDbEntity
  8
ASSI
100
AcDbLine
 62
7
  6
CONTINUOUS
 10
52.4142901555
 20
-47.2551481025
 11
48.5252028589
 21
-45.0096378392
  0
LINE
  5
2B2
100
AcDbEntity
  8
0
100
AcDbLine
 62
7
  6
CONTINUOUS
 10
52.4142901555
 20
-47.2551481025
 11
48.5252028589
 21
-45.0096378392
  0
LINE
  5
2B3
100
AcDbEntity
  8
ASSI
100
AcDbLine
 62
7
  6
CONTINUOUS
 10
-46.9342126013
 20
10.1074322601
 11
-42.9390592876
 21
7.8006926443
  0
LINE
  5
2B4
100
AcDbEntity
  8
0
100
AcDbLine
 62
7
  6
CONTINUOUS
 10
-46.9342126013
 20
10.1074322601
 11
-42.9390592876
 21
7.8006926443
  0
LINE
  5
2B5
100
AcDbEntity
  8
ASSI
100
AcDbLine
 62
7
  6
CONTINUOUS
 10
52.6264221898
 20
-47.1326657245
 11
48.7373348933
 21
-44.8871554612
  0
LINE
  5
2B6
100
AcDbEntity
  8
0
100
AcDbLine
 62
7
  6
CONTINUOUS
 10
52.6264221898
 20
-47.1326657245
 11
48.7373348933
 21
-44.8871554612
  0
LINE
  5
2B7
100
AcDbEntity
  8
ASSI
100
AcDbLine
 62
7
  6
CONTINUOUS
 10
-42.8329932704
 20
7.9844043748
 11
-46.7220805669
 21
10.2299146381
  0
LINE
  5
2B8
100
AcDbEntity
  8
0
100
AcDbLine
 62
7
  6
CONTINUOUS
 10
-42.8329932704
 20
7.9844043748
 11
-46.7220805669
 21
10.2299146381
  0
LINE
  5
2B9
100
AcDbEntity
  8
ASSI
100
AcDbLine
 62
7
  6
CONTINUOUS
 10
52.767843546
 20
-47.0510108058
 11
52.8739095632
 21
-47.1122401583
  0
LINE
  5
2BA
100
AcDbEntity
  8
0
100
AcDbLine
 62
7
  6
CONTINUOUS
 10
52.767843546
 20
-47.0510108058
 11
52.8739095632
 21
-47.1122401583
  0
LINE
  5
2BB
100
AcDbEntity
  8
ASSI
100
AcDbLine
 62
7
  6
CONTINUOUS
 10
52.767843546
 20
-47.0510108058
 11
48.8787562495
 21
-44.8055005425
  0
LINE
  5
2BC
100
AcDbEntity
  8
0
100
AcDbLine
 62
7
  6
CONTINUOUS
 10
52.767843546
 20
-47.0510108058
 11
48.8787562495
 21
-44.8055005425
  0
LINE
  5
2BD
100
AcDbEntity
  8
ASSI
100
AcDbLine
 62
7
  6
CONTINUOUS
 10
-46.5806592107
 20
10.3115695568
 11
-42.585505897
 21
8.0048299409
  0
LINE
  5
2BE
100
AcDbEntity
  8
0
100
AcDbLine
 62
7
  6
CONTINUOUS
 10
-46.5806592107
 20
10.3115695568
 11
-42.585505897
 21
8.0048299409
  0
LINE
  5
2BF
100
AcDbEntity
  8
ASSI
100
AcDbLine
 62
7
  6
CONTINUOUS
 10
52.9799755804
 20
-46.9285284278
 11
49.0908882839
 21
-44.6830181645
  0
LINE
  5
2C0
100
AcDbEntity
  8
0
100
AcDbLine
 62
7
  6
CONTINUOUS
 10
52.9799755804
 20
-46.9285284278
 11
49.0908882839
 21
-44.6830181645
  0
LINE
  5
2C1
100
AcDbEntity
  8
ASSI
100
AcDbLine
 62
7
  6
CONTINUOUS
 10
-42.4794398798
 20
8.1885416714
 11
-46.3685271763
 21
10.4340519348
  0
LINE
  5
2C2
100
AcDbEntity
  8
0
100
AcDbLine
 62
7
  6
CONTINUOUS
 10
-42.4794398798
 20
8.1885416714
 11
-46.3685271763
 21
10.4340519348
  0
LINE
  5
2C3
100
AcDbEntity
  8
ASSI
100
AcDbLine
 62
7
  6
CONTINUOUS
 10
53.1213969366
 20
-46.8468735091
 11
53.2274629538
 21
-46.9081028617
  0
LINE
  5
2C4
100
AcDbEntity
  8
0
100
AcDbLine
 62
7
  6
CONTINUOUS
 10
53.1213969366
 20
-46.8468735091
 11
53.2274629538
 21
-46.9081028617
  0
LINE
  5
2C5
100
AcDbEntity
  8
ASSI
100
AcDbLine
 62
7
  6
CONTINUOUS
 10
53.1213969366
 20
-46.8468735091
 11
49.2323096401
 21
-44.6013632458
  0
LINE
  5
2C6
100
AcDbEntity
  8
0
100
AcDbLine
 62
7
  6
CONTINUOUS
 10
53.1213969366
 20
-46.8468735091
 11
49.2323096401
 21
-44.6013632458
  0
LINE
  5
2C7
100
AcDbEntity
  8
ASSI
100
AcDbLine
 62
7
  6
CONTINUOUS
 10
-46.2271058201
 20
10.5157068534
 11
-42.2319525064
 21
8.2089672376
  0
LINE
  5
2C8
100
AcDbEntity
  8
0
100
AcDbLine
 62
7
  6
CONTINUOUS
 10
-46.2271058201
 20
10.5157068534
 11
-42.2319525064
 21
8.2089672376
  0
LINE
  5
2C9
100
AcDbEntity
  8
ASSI
100
AcDbLine
 62
250
  6
CONTINUOUS
 10
53.4042396491
 20
-46.8875875705
 11
49.2659046427
 21
-44.4981648033
  0
LINE
  5
2CA
100
AcDbEntity
  8
0
100
AcDbLine
 62
250
  6
CONTINUOUS
 10
53.4042396491
 20
-46.8875875705
 11
49.2659046427
 21
-44.4981648033
  0
LINE
  5
2CB
100
AcDbEntity
  8
ASSI
100
AcDbLine
 62
250
  6
CONTINUOUS
 10
-41.9471735592
 20
8.1671233821
 11
-46.1935108174
 21
10.6189052959
  0
LINE
  5
2CC
100
AcDbEntity
  8
0
100
AcDbLine
 62
250
  6
CONTINUOUS
 10
-41.9471735592
 20
8.1671233821
 11
-46.1935108174
 21
10.6189052959
  0
LINE
  5
2CD
100
AcDbEntity
  8
ASSI
100
AcDbLine
 62
250
  6
CONTINUOUS
 10
53.4042396491
 20
-46.8103898764
 11
49.3399517957
 21
-44.4637210073
  0
LINE
  5
2CE
100
AcDbEntity
  8
0
100
AcDbLine
 62
250
  6
CONTINUOUS
 10
53.4042396491
 20
-46.8103898764
 11
49.3399517957
 21
-44.4637210073
  0
LINE
  5
2CF
100
AcDbEntity
  8
ASSI
100
AcDbLine
 62
250
  6
CONTINUOUS
 10
-41.8805012032
 20
8.2058252935
 11
-46.1194636645
 21
10.653349092
  0
LINE
  5
2D0
100
AcDbEntity
  8
0
100
AcDbLine
 62
250
  6
CONTINUOUS
 10
-41.8805012032
 20
8.2058252935
 11
-46.1194636645
 21
10.653349092
  0
LINE
  5
2D1
100
AcDbEntity
  8
ASSI
100
AcDbLine
 62
250
  6
CONTINUOUS
 10
-8.9443459021
 20
-9.5689884045
 11
-8.9443459021
 21
-9.9983862165
  0
LINE
  5
2D2
100
AcDbEntity
  8
0
100
AcDbLine
 62
250
  6
CONTINUOUS
 10
-8.9443459021
 20
-9.5689884045
 11
-8.9443459021
 21
-9.9983862165
  0
LINE
  5
2D3
100
AcDbEntity
  8
ASSI
100
AcDbLine
 62
7
  6
CONTINUOUS
 10
-8.8672893497
 20
-9.4544837342
 11
-8.8672893497
 21
-9.9525682743
  0
LINE
  5
2D4
100
AcDbEntity
  8
0
100
AcDbLine
 62
7
  6
CONTINUOUS
 10
-8.8672893497
 20
-9.4544837342
 11
-8.8672893497
 21
-9.9525682743
  0
LINE
  5
2D5
100
AcDbEntity
  8
ASSI
100
AcDbLine
 62
7
  6
CONTINUOUS
 10
-24.8542484788
 20
-0.3828100546
 11
-27.9068844892
 21
-2.3078629292
  0
LINE
  5
2D6
100
AcDbEntity
  8
0
100
AcDbLine
 62
7
  6
CONTINUOUS
 10
-24.8542484788
 20
-0.3828100546
 11
-27.9068844892
 21
-2.3078629292
  0
LINE
  5
2D7
100
AcDbEntity
  8
ASSI
100
AcDbLine
 62
7
  6
CONTINUOUS
 10
-27.6514583936
 20
-2.4553427555
 11
-24.8542484788
 21
-0.8122078666
  0
LINE
  5
2D8
100
AcDbEntity
  8
0
100
AcDbLine
 62
7
  6
CONTINUOUS
 10
-27.6514583936
 20
-2.4553427555
 11
-24.8542484788
 21
-0.8122078666
  0
LINE
  5
2D9
100
AcDbEntity
  8
ASSI
100
AcDbLine
 62
7
  6
CONTINUOUS
 10
-26.7899193553
 20
-2.1245447676
 11
-27.5053818259
 21
-2.539685535
  0
LINE
  5
2DA
100
AcDbEntity
  8
0
100
AcDbLine
 62
7
  6
CONTINUOUS
 10
-26.7899193553
 20
-2.1245447676
 11
-27.5053818259
 21
-2.539685535
  0
LINE
  5
2DB
100
AcDbEntity
  8
ASSI
100
AcDbLine
 62
250
  6
CONTINUOUS
 10
-26.7352297682
 20
-2.0465455014
 11
-27.5456149227
 21
-2.5164554491
  0
LINE
  5
2DC
100
AcDbEntity
  8
0
100
AcDbLine
 62
250
  6
CONTINUOUS
 10
-26.7352297682
 20
-2.0465455014
 11
-27.5456149227
 21
-2.5164554491
  0
LINE
  5
2DD
100
AcDbEntity
  8
ASSI
100
AcDbLine
 62
7
  6
CONTINUOUS
 10
-44.5338619313
 20
11.1711750451
 11
-40.7078605407
 21
8.9620897933
  0
LINE
  5
2DE
100
AcDbEntity
  8
0
100
AcDbLine
 62
7
  6
CONTINUOUS
 10
-44.5338619313
 20
11.1711750451
 11
-40.7078605407
 21
8.9620897933
  0
LINE
  5
2DF
100
AcDbEntity
  8
ASSI
100
AcDbLine
 62
7
  6
CONTINUOUS
 10
50.9255535289
 20
-43.9458950541
 11
53.4042396491
 21
-45.3770573547
  0
LINE
  5
2E0
100
AcDbEntity
  8
0
100
AcDbLine
 62
7
  6
CONTINUOUS
 10
50.9255535289
 20
-43.9458950541
 11
53.4042396491
 21
-45.3770573547
  0
LINE
  5
2E1
100
AcDbEntity
  8
ASSI
100
AcDbLine
 62
7
  6
CONTINUOUS
 10
-28.5568574266
 20
1.9851485417
 11
-24.8650598921
 21
-0.1464490856
  0
LINE
  5
2E2
100
AcDbEntity
  8
0
100
AcDbLine
 62
7
  6
CONTINUOUS
 10
-28.5568574266
 20
1.9851485417
 11
-24.8650598921
 21
-0.1464490856
  0
LINE
  5
2E3
100
AcDbEntity
  8
ASSI
100
AcDbLine
 62
7
  6
CONTINUOUS
 10
-12.6469548499
 20
-7.2010298082
 11
-8.9551573154
 21
-9.3326274355
  0
LINE
  5
2E4
100
AcDbEntity
  8
0
100
AcDbLine
 62
7
  6
CONTINUOUS
 10
-12.6469548499
 20
-7.2010298082
 11
-8.9551573154
 21
-9.3326274355
  0
LINE
  5
2E5
100
AcDbEntity
  8
ASSI
100
AcDbLine
 62
7
  6
CONTINUOUS
 10
3.2629477268
 20
-16.387208158
 11
6.9547452613
 21
-18.5188057854
  0
LINE
  5
2E6
100
AcDbEntity
  8
0
100
AcDbLine
 62
7
  6
CONTINUOUS
 10
3.2629477268
 20
-16.387208158
 11
6.9547452613
 21
-18.5188057854
  0
LINE
  5
2E7
100
AcDbEntity
  8
ASSI
100
AcDbLine
 62
7
  6
CONTINUOUS
 10
19.1728503035
 20
-25.5733865079
 11
22.864647838
 21
-27.7049841352
  0
LINE
  5
2E8
100
AcDbEntity
  8
0
100
AcDbLine
 62
7
  6
CONTINUOUS
 10
19.1728503035
 20
-25.5733865079
 11
22.864647838
 21
-27.7049841352
  0
LINE
  5
2E9
100
AcDbEntity
  8
ASSI
100
AcDbLine
 62
7
  6
CONTINUOUS
 10
35.0827528802
 20
-34.7595648578
 11
38.7745504147
 21
-36.8911624851
  0
LINE
  5
2EA
100
AcDbEntity
  8
0
100
AcDbLine
 62
7
  6
CONTINUOUS
 10
35.0827528802
 20
-34.7595648578
 11
38.7745504147
 21
-36.8911624851
  0
LINE
  5
2EB
100
AcDbEntity
  8
ASSI
100
AcDbLine
 62
250
  6
CONTINUOUS
 10
-10.8253271915
 20
-11.2327238513
 11
-10.4893822265
 21
-10.9059702615
  0
LINE
  5
2EC
100
AcDbEntity
  8
0
100
AcDbLine
 62
250
  6
CONTINUOUS
 10
-10.8253271915
 20
-11.2327238513
 11
-10.4893822265
 21
-10.9059702615
  0
LINE
  5
2ED
100
AcDbEntity
  8
ASSI
100
AcDbLine
 62
7
  6
CONTINUOUS
 10
-10.8214024452
 20
-11.2662591601
 11
-10.3924179532
 21
-10.8490115829
  0
LINE
  5
2EE
100
AcDbEntity
  8
0
100
AcDbLine
 62
7
  6
CONTINUOUS
 10
-10.8214024452
 20
-11.2662591601
 11
-10.3924179532
 21
-10.8490115829
  0
LINE
  5
2EF
100
AcDbEntity
  8
ASSI
100
AcDbLine
 62
7
  6
CONTINUOUS
 10
-16.4501218225
 20
-8.922854106
 11
-13.0598260661
 21
-7.1927617369
  0
LINE
  5
2F0
100
AcDbEntity
  8
0
100
AcDbLine
 62
7
  6
CONTINUOUS
 10
-16.4501218225
 20
-8.922854106
 11
-13.0598260661
 21
-7.1927617369
  0
LINE
  5
2F1
100
AcDbEntity
  8
ASSI
100
AcDbLine
 62
250
  6
CONTINUOUS
 10
6.9655566746
 20
-18.7551667544
 11
6.9655566746
 21
-19.1845645663
  0
LINE
  5
2F2
100
AcDbEntity
  8
0
100
AcDbLine
 62
250
  6
CONTINUOUS
 10
6.9655566746
 20
-18.7551667544
 11
6.9655566746
 21
-19.1845645663
  0
LINE
  5
2F3
100
AcDbEntity
  8
ASSI
100
AcDbLine
 62
7
  6
CONTINUOUS
 10
7.042613227
 20
-18.6406620841
 11
7.042613227
 21
-19.1387466242
  0
LINE
  5
2F4
100
AcDbEntity
  8
0
100
AcDbLine
 62
7
  6
CONTINUOUS
 10
7.042613227
 20
-18.6406620841
 11
7.042613227
 21
-19.1387466242
  0
LINE
  5
2F5
100
AcDbEntity
  8
ASSI
100
AcDbLine
 62
7
  6
CONTINUOUS
 10
-8.9443459021
 20
-9.5689884045
 11
-11.9969819125
 21
-11.4940412791
  0
LINE
  5
2F6
100
AcDbEntity
  8
0
100
AcDbLine
 62
7
  6
CONTINUOUS
 10
-8.9443459021
 20
-9.5689884045
 11
-11.9969819125
 21
-11.4940412791
  0
LINE
  5
2F7
100
AcDbEntity
  8
ASSI
100
AcDbLine
 62
7
  6
CONTINUOUS
 10
-11.7415558169
 20
-11.6415211054
 11
-8.9443459021
 21
-9.9983862165
  0
LINE
  5
2F8
100
AcDbEntity
  8
0
100
AcDbLine
 62
7
  6
CONTINUOUS
 10
-11.7415558169
 20
-11.6415211054
 11
-8.9443459021
 21
-9.9983862165
  0
LINE
  5
2F9
100
AcDbEntity
  8
ASSI
100
AcDbLine
 62
7
  6
CONTINUOUS
 10
-10.8800167786
 20
-11.3107231175
 11
-11.5954792492
 21
-11.7258638848
  0
LINE
  5
2FA
100
AcDbEntity
  8
0
100
AcDbLine
 62
7
  6
CONTINUOUS
 10
-10.8800167786
 20
-11.3107231175
 11
-11.5954792492
 21
-11.7258638848
  0
LINE
  5
2FB
100
AcDbEntity
  8
ASSI
100
AcDbLine
 62
250
  6
CONTINUOUS
 10
-10.8253271915
 20
-11.2327238513
 11
-11.635712346
 21
-11.702633799
  0
LINE
  5
2FC
100
AcDbEntity
  8
0
100
AcDbLine
 62
250
  6
CONTINUOUS
 10
-10.8253271915
 20
-11.2327238513
 11
-11.635712346
 21
-11.702633799
  0
LINE
  5
2FD
100
AcDbEntity
  8
RACCORDO
100
AcDbLine
 62
7
  6
CONTINUOUS
 10
52.5557115117
 20
-14.3111484759
 11
-57.2579716066
 21
49.0938958679
  0
LINE
  5
2FE
100
AcDbEntity
  8
ASSI
100
AcDbLine
 62
250
  6
CONTINUOUS
 10
22.8754592513
 20
-27.9413451043
 11
22.8754592513
 21
-28.3707429162
  0
LINE
  5
2FF
100
AcDbEntity
  8
0
100
AcDbLine
 62
250
  6
CONTINUOUS
 10
22.8754592513
 20
-27.9413451043
 11
22.8754592513
 21
-28.3707429162
  0
LINE
  5
300
100
AcDbEntity
  8
ASSI
100
AcDbLine
 62
7
  6
CONTINUOUS
 10
22.9525158037
 20
-27.8268404339
 11
22.9525158037
 21
-28.324924974
  0
LINE
  5
301
100
AcDbEntity
  8
0
100
AcDbLine
 62
7
  6
CONTINUOUS
 10
22.9525158037
 20
-27.8268404339
 11
22.9525158037
 21
-28.324924974
  0
LINE
  5
302
100
AcDbEntity
  8
ASSI
100
AcDbLine
 62
250
  6
CONTINUOUS
 10
5.0845753852
 20
-20.4189022012
 11
5.4205203502
 21
-20.0921486114
  0
LINE
  5
303
100
AcDbEntity
  8
0
100
AcDbLine
 62
250
  6
CONTINUOUS
 10
5.0845753852
 20
-20.4189022012
 11
5.4205203502
 21
-20.0921486114
  0
LINE
  5
304
100
AcDbEntity
  8
ASSI
100
AcDbLine
 62
7
  6
CONTINUOUS
 10
5.0885001315
 20
-20.45243751
 11
5.5174846235
 21
-20.0351899328
  0
LINE
  5
305
100
AcDbEntity
  8
0
100
AcDbLine
 62
7
  6
CONTINUOUS
 10
5.0885001315
 20
-20.45243751
 11
5.5174846235
 21
-20.0351899328
  0
LINE
  5
306
100
AcDbEntity
  8
ASSI
100
AcDbLine
 62
7
  6
CONTINUOUS
 10
6.9655566746
 20
-18.7551667544
 11
3.9129206642
 21
-20.680219629
  0
LINE
  5
307
100
AcDbEntity
  8
0
100
AcDbLine
 62
7
  6
CONTINUOUS
 10
6.9655566746
 20
-18.7551667544
 11
3.9129206642
 21
-20.680219629
  0
LINE
  5
308
100
AcDbEntity
  8
ASSI
100
AcDbLine
 62
7
  6
CONTINUOUS
 10
4.1683467598
 20
-20.8276994553
 11
6.9655566746
 21
-19.1845645663
  0
LINE
  5
309
100
AcDbEntity
  8
0
100
AcDbLine
 62
7
  6
CONTINUOUS
 10
4.1683467598
 20
-20.8276994553
 11
6.9655566746
 21
-19.1845645663
  0
LINE
  5
30A
100
AcDbEntity
  8
ASSI
100
AcDbLine
 62
7
  6
CONTINUOUS
 10
5.0298857981
 20
-20.4969014674
 11
4.3144233275
 21
-20.9120422347
  0
LINE
  5
30B
100
AcDbEntity
  8
0
100
AcDbLine
 62
7
  6
CONTINUOUS
 10
5.0298857981
 20
-20.4969014674
 11
4.3144233275
 21
-20.9120422347
  0
LINE
  5
30C
100
AcDbEntity
  8
ASSI
100
AcDbLine
 62
250
  6
CONTINUOUS
 10
5.0845753852
 20
-20.4189022012
 11
4.2741902307
 21
-20.8888121489
  0
LINE
  5
30D
100
AcDbEntity
  8
0
100
AcDbLine
 62
250
  6
CONTINUOUS
 10
5.0845753852
 20
-20.4189022012
 11
4.2741902307
 21
-20.8888121489
  0
LINE
  5
30E
100
AcDbEntity
  8
ASSI
100
AcDbLine
 62
7
  6
CONTINUOUS
 10
-0.5402192458
 20
-18.1090324559
 11
2.8500765106
 21
-16.3789400867
  0
LINE
  5
30F
100
AcDbEntity
  8
0
100
AcDbLine
 62
7
  6
CONTINUOUS
 10
-0.5402192458
 20
-18.1090324559
 11
2.8500765106
 21
-16.3789400867
  0
LINE
  5
310
100
AcDbEntity
  8
ASSI
100
AcDbLine
 62
250
  6
CONTINUOUS
 10
75.7037454435
 20
-5.0188752699
 11
76.5537865765
 21
-5.2647492183
  0
LINE
  5
311
100
AcDbEntity
  8
0
100
AcDbLine
 62
250
  6
CONTINUOUS
 10
75.7037454435
 20
-5.0188752699
 11
76.5537865765
 21
-5.2647492183
  0
LINE
  5
312
100
AcDbEntity
  8
SMUSSO
100
AcDbLine
 62
7
  6
CONTINUOUS
 10
71.8950819771
 20
-8.00499468
 11
-76.597342072
 21
77.7326699188
  0
LINE
  5
313
100
AcDbEntity
  8
SMUSSO
100
AcDbLine
 62
7
  6
CONTINUOUS
 10
72.6021887583
 20
-7.5967595416
 11
73.3092955395
 21
-8.00499468
  0
LINE
  5
314
100
AcDbEntity
  8
SMUSSO
100
AcDbLine
 62
7
  6
CONTINUOUS
 10
72.6021887583
 20
-6.7802498099
 11
-75.8902352908
 21
78.9574147889
  0
LINE
  5
315
100
AcDbEntity
  8
ASSI
100
AcDbLine
 62
250
  6
CONTINUOUS
 10
20.9944779619
 20
-29.605080551
 11
21.3304229269
 21
-29.2783269612
  0
LINE
  5
316
100
AcDbEntity
  8
0
100
AcDbLine
 62
250
  6
CONTINUOUS
 10
20.9944779619
 20
-29.605080551
 11
21.3304229269
 21
-29.2783269612
  0
LINE
  5
317
100
AcDbEntity
  8
ASSI
100
AcDbLine
 62
7
  6
CONTINUOUS
 10
20.9984027082
 20
-29.6386158599
 11
21.4273872002
 21
-29.2213682827
  0
LINE
  5
318
100
AcDbEntity
  8
0
100
AcDbLine
 62
7
  6
CONTINUOUS
 10
20.9984027082
 20
-29.6386158599
 11
21.4273872002
 21
-29.2213682827
  0
LINE
  5
319
100
AcDbEntity
  8
ASSI
100
AcDbLine
 62
7
  6
CONTINUOUS
 10
22.8754592513
 20
-27.9413451043
 11
19.8228232409
 21
-29.8663979788
  0
LINE
  5
31A
100
AcDbEntity
  8
0
100
AcDbLine
 62
7
  6
CONTINUOUS
 10
22.8754592513
 20
-27.9413451043
 11
19.8228232409
 21
-29.8663979788
  0
LINE
  5
31B
100
AcDbEntity
  8
ASSI
100
AcDbLine
 62
7
  6
CONTINUOUS
 10
20.0782493364
 20
-30.0138778052
 11
22.8754592513
 21
-28.3707429162
  0
LINE
  5
31C
100
AcDbEntity
  8
0
100
AcDbLine
 62
7
  6
CONTINUOUS
 10
20.0782493364
 20
-30.0138778052
 11
22.8754592513
 21
-28.3707429162
  0
LINE
  5
31D
100
AcDbEntity
  8
ASSI
100
AcDbLine
 62
7
  6
CONTINUOUS
 10
20.9397883748
 20
-29.6830798173
 11
20.2243259042
 21
-30.0982205846
  0
LINE
  5
31E
100
AcDbEntity
  8
0
100
AcDbLine
 62
7
  6
CONTINUOUS
 10
20.9397883748
 20
-29.6830798173
 11
20.2243259042
 21
-30.0982205846
  0
LINE
  5
31F
100
AcDbEntity
  8
ASSI
100
AcDbLine
 62
250
  6
CONTINUOUS
 10
20.9944779619
 20
-29.605080551
 11
20.1840928074
 21
-30.0749904988
  0
LINE
  5
320
100
AcDbEntity
  8
0
100
AcDbLine
 62
250
  6
CONTINUOUS
 10
20.9944779619
 20
-29.605080551
 11
20.1840928074
 21
-30.0749904988
  0
LINE
  5
321
100
AcDbEntity
  8
ASSI
100
AcDbLine
 62
7
  6
CONTINUOUS
 10
15.3696833309
 20
-27.2952108057
 11
18.7599790873
 21
-25.5651184366
  0
LINE
  5
322
100
AcDbEntity
  8
0
100
AcDbLine
 62
7
  6
CONTINUOUS
 10
15.3696833309
 20
-27.2952108057
 11
18.7599790873
 21
-25.5651184366
  0
LINE
  5
323
100
AcDbEntity
  8
SMUSSO
100
AcDbLine
 62
7
  6
CONTINUOUS
 10
-74.8295751191
 20
79.5698266789
 11
74.3699557113
 21
-6.5760730583
  0
LINE
  5
324
100
AcDbEntity
  8
ASSI
100
AcDbLine
 62
7
  6
CONTINUOUS
 10
-71.8244789948
 20
80.1619422584
 11
75.6782109523
 21
-5.0042622742
  0
LINE
  5
325
100
AcDbEntity
  8
0
100
AcDbLine
 62
7
  6
CONTINUOUS
 10
-71.8244789948
 20
80.1619422584
 11
75.6782109523
 21
-5.0042622742
  0
LINE
  5
326
100
AcDbEntity
  8
ASSI
100
AcDbLine
 62
7
  6
CONTINUOUS
 10
-70.5787342755
 20
79.6877243181
 11
76.5537865765
 21
-5.2647492183
  0
LINE
  5
327
100
AcDbEntity
  8
0
100
AcDbLine
 62
7
  6
CONTINUOUS
 10
-70.5787342755
 20
79.6877243181
 11
76.5537865765
 21
-5.2647492183
  0
LINE
  5
328
100
AcDbEntity
  8
ASSI
100
AcDbLine
 62
250
  6
CONTINUOUS
 10
38.785361828
 20
-37.1275234541
 11
38.785361828
 21
-37.5569212661
  0
LINE
  5
329
100
AcDbEntity
  8
0
100
AcDbLine
 62
250
  6
CONTINUOUS
 10
38.785361828
 20
-37.1275234541
 11
38.785361828
 21
-37.5569212661
  0
LINE
  5
32A
100
AcDbEntity
  8
ASSI
100
AcDbLine
 62
7
  6
CONTINUOUS
 10
38.8624183804
 20
-37.0130187838
 11
38.8624183804
 21
-37.5111033239
  0
LINE
  5
32B
100
AcDbEntity
  8
0
100
AcDbLine
 62
7
  6
CONTINUOUS
 10
38.8624183804
 20
-37.0130187838
 11
38.8624183804
 21
-37.5111033239
  0
LINE
  5
32C
100
AcDbEntity
  8
SMUSSO
100
AcDbLine
 62
7
  6
CONTINUOUS
 10
72.6021887583
 20
-6.7802498099
 11
73.6628489301
 21
-6.1678379199
  0
LINE
  5
32D
100
AcDbEntity
  8
ASSI
100
AcDbLine
 62
250
  6
CONTINUOUS
 10
73.6633948117
 20
-6.1675958566
 11
75.6782109523
 21
-5.0042622742
  0
LINE
  5
32E
100
AcDbEntity
  8
0
100
AcDbLine
 62
250
  6
CONTINUOUS
 10
73.6633948117
 20
-6.1675958566
 11
75.6782109523
 21
-5.0042622742
  0
LINE
  5
32F
100
AcDbEntity
  8
SMUSSO
100
AcDbLine
 62
7
  6
CONTINUOUS
 10
72.6021887583
 20
-7.5967595416
 11
71.8950819771
 21
-8.00499468
  0
LINE
  5
330
100
AcDbEntity
  8
ASSI
100
AcDbLine
 62
250
  6
CONTINUOUS
 10
74.3703938971
 20
-7.3921541921
 11
76.3852100377
 21
-6.2288206098
  0
LINE
  5
331
100
AcDbEntity
  8
0
100
AcDbLine
 62
250
  6
CONTINUOUS
 10
74.3703938971
 20
-7.3921541921
 11
76.3852100377
 21
-6.2288206098
  0
LINE
  5
332
100
AcDbEntity
  8
SMUSSO
100
AcDbLine
 62
7
  6
CONTINUOUS
 10
73.3092955395
 20
-8.00499468
 11
74.3699557113
 21
-7.39258279
  0
LINE
  5
333
100
AcDbEntity
  8
ASSI
100
AcDbLine
 62
7
  6
CONTINUOUS
 10
38.785361828
 20
-37.1275234541
 11
35.7327258176
 21
-39.0525763287
  0
LINE
  5
334
100
AcDbEntity
  8
0
100
AcDbLine
 62
7
  6
CONTINUOUS
 10
38.785361828
 20
-37.1275234541
 11
35.7327258176
 21
-39.0525763287
  0
LINE
  5
335
100
AcDbEntity
  8
ASSI
100
AcDbLine
 62
7
  6
CONTINUOUS
 10
35.9881519131
 20
-39.200056155
 11
38.785361828
 21
-37.5569212661
  0
LINE
  5
336
100
AcDbEntity
  8
0
100
AcDbLine
 62
7
  6
CONTINUOUS
 10
35.9881519131
 20
-39.200056155
 11
38.785361828
 21
-37.5569212661
  0
LINE
  5
337
100
AcDbEntity
  8
ASSI
100
AcDbLine
 62
7
  6
CONTINUOUS
 10
36.8496909515
 20
-38.8692581671
 11
36.1342284809
 21
-39.2843989345
  0
LINE
  5
338
100
AcDbEntity
  8
0
100
AcDbLine
 62
7
  6
CONTINUOUS
 10
36.8496909515
 20
-38.8692581671
 11
36.1342284809
 21
-39.2843989345
  0
LINE
  5
339
100
AcDbEntity
  8
ASSI
100
AcDbLine
 62
250
  6
CONTINUOUS
 10
36.9043805386
 20
-38.7912589009
 11
36.0939953841
 21
-39.2611688486
  0
LINE
  5
33A
100
AcDbEntity
  8
0
100
AcDbLine
 62
250
  6
CONTINUOUS
 10
36.9043805386
 20
-38.7912589009
 11
36.0939953841
 21
-39.2611688486
  0
LINE
  5
33B
100
AcDbEntity
  8
ASSI
100
AcDbLine
 62
7
  6
CONTINUOUS
 10
31.2795859076
 20
-36.4813891556
 11
34.6698816639
 21
-34.7512967865
  0
LINE
  5
33C
100
AcDbEntity
  8
0
100
AcDbLine
 62
7
  6
CONTINUOUS
 10
31.2795859076
 20
-36.4813891556
 11
34.6698816639
 21
-34.7512967865
  0
LINE
  5
33D
100
AcDbEntity
  8
ASSI
100
AcDbLine
 62
250
  6
CONTINUOUS
 10
-71.8488855675
 20
80.1761646071
 11
-70.5787342755
 21
79.6877243181
  0
LINE
  5
33E
100
AcDbEntity
  8
0
100
AcDbLine
 62
250
  6
CONTINUOUS
 10
-71.8488855675
 20
80.1761646071
 11
-70.5787342755
 21
79.6877243181
  0
LINE
  5
33F
100
AcDbEntity
  8
ASSI
100
AcDbLine
 62
7
  6
CONTINUOUS
 10
-70.5857600488
 20
79.691135439
 11
-71.9528856928
 21
80.2272132718
  0
LINE
  5
340
100
AcDbEntity
  8
0
100
AcDbLine
 62
7
  6
CONTINUOUS
 10
-70.5857600488
 20
79.691135439
 11
-71.9528856928
 21
80.2272132718
  0
LINE
  5
341
100
AcDbEntity
  8
RACCORDO
100
AcDbLine
 62
7
  6
CONTINUOUS
 10
53.4042396491
 20
-50.7257701667
 11
53.4042396491
 21
-15.78084232
  0
LINE
  5
342
100
AcDbEntity
  8
ASSI
100
AcDbLine
 62
250
  6
CONTINUOUS
 10
36.9043805386
 20
-38.7912589009
 11
37.2403255036
 21
-38.4645053111
  0
LINE
  5
343
100
AcDbEntity
  8
0
100
AcDbLine
 62
250
  6
CONTINUOUS
 10
36.9043805386
 20
-38.7912589009
 11
37.2403255036
 21
-38.4645053111
  0
LINE
  5
344
100
AcDbEntity
  8
ASSI
100
AcDbLine
 62
7
  6
CONTINUOUS
 10
36.9083052849
 20
-38.8247942098
 11
37.3372897769
 21
-38.4075466326
  0
LINE
  5
345
100
AcDbEntity
  8
0
100
AcDbLine
 62
7
  6
CONTINUOUS
 10
36.9083052849
 20
-38.8247942098
 11
37.3372897769
 21
-38.4075466326
  0
LINE
  5
346
100
AcDbEntity
  8
ASSI
100
AcDbLine
 62
7
  6
CONTINUOUS
 10
49.3399517957
 20
-44.4637210073
 11
50.6503060514
 21
-43.9262586806
  0
LINE
  5
347
100
AcDbEntity
  8
0
100
AcDbLine
 62
7
  6
CONTINUOUS
 10
49.3399517957
 20
-44.4637210073
 11
50.6503060514
 21
-43.9262586806
  0
LINE
  5
348
100
AcDbEntity
  8
ASSI
100
AcDbLine
 62
7
  6
CONTINUOUS
 10
47.3053590945
 20
-45.7344697436
 11
47.3231213309
 21
-45.7037046478
  0
LINE
  5
349
100
AcDbEntity
  8
0
100
AcDbLine
 62
7
  6
CONTINUOUS
 10
47.3053590945
 20
-45.7344697436
 11
47.3231213309
 21
-45.7037046478
  0
LINE
  5
34A
100
AcDbEntity
  8
ASSI
100
AcDbLine
 62
7
  6
CONTINUOUS
 10
47.5706087043
 20
-45.6832790817
 11
47.6766747215
 21
-45.4995673511
  0
LINE
  5
34B
100
AcDbEntity
  8
0
100
AcDbLine
 62
7
  6
CONTINUOUS
 10
47.5706087043
 20
-45.6832790817
 11
47.6766747215
 21
-45.4995673511
  0
LINE
  5
34C
100
AcDbEntity
  8
ASSI
100
AcDbLine
 62
7
  6
CONTINUOUS
 10
47.9241620949
 20
-45.479141785
 11
48.0302281121
 21
-45.2954300545
  0
LINE
  5
34D
100
AcDbEntity
  8
0
100
AcDbLine
 62
7
  6
CONTINUOUS
 10
47.9241620949
 20
-45.479141785
 11
48.0302281121
 21
-45.2954300545
  0
LINE
  5
34E
100
AcDbEntity
  8
ASSI
100
AcDbLine
 62
7
  6
CONTINUOUS
 10
48.2777154855
 20
-45.2750044883
 11
48.3837815027
 21
-45.0912927578
  0
LINE
  5
34F
100
AcDbEntity
  8
0
100
AcDbLine
 62
7
  6
CONTINUOUS
 10
48.2777154855
 20
-45.2750044883
 11
48.3837815027
 21
-45.0912927578
  0
LINE
  5
350
100
AcDbEntity
  8
ASSI
100
AcDbLine
 62
7
  6
CONTINUOUS
 10
48.6312688761
 20
-45.0708671917
 11
48.7373348933
 21
-44.8871554612
  0
LINE
  5
351
100
AcDbEntity
  8
0
100
AcDbLine
 62
7
  6
CONTINUOUS
 10
48.6312688761
 20
-45.0708671917
 11
48.7373348933
 21
-44.8871554612
  0
LINE
  5
352
100
AcDbEntity
  8
ASSI
100
AcDbLine
 62
7
  6
CONTINUOUS
 10
48.9848222667
 20
-44.866729895
 11
49.0908882839
 21
-44.6830181645
  0
LINE
  5
353
100
AcDbEntity
  8
0
100
AcDbLine
 62
7
  6
CONTINUOUS
 10
48.9848222667
 20
-44.866729895
 11
49.0908882839
 21
-44.6830181645
  0
LINE
  5
354
100
AcDbEntity
  8
ASSI
100
AcDbLine
 62
7
  6
CONTINUOUS
 10
47.3231213309
 20
-45.7037046478
 11
47.4645426871
 21
-45.6220497291
  0
LINE
  5
355
100
AcDbEntity
  8
0
100
AcDbLine
 62
7
  6
CONTINUOUS
 10
47.3231213309
 20
-45.7037046478
 11
47.4645426871
 21
-45.6220497291
  0
LINE
  5
356
100
AcDbEntity
  8
ASSI
100
AcDbLine
 62
7
  6
CONTINUOUS
 10
47.6766747215
 20
-45.4995673511
 11
47.8180960777
 21
-45.4179124325
  0
LINE
  5
357
100
AcDbEntity
  8
0
100
AcDbLine
 62
7
  6
CONTINUOUS
 10
47.6766747215
 20
-45.4995673511
 11
47.8180960777
 21
-45.4179124325
  0
LINE
  5
358
100
AcDbEntity
  8
ASSI
100
AcDbLine
 62
7
  6
CONTINUOUS
 10
48.0302281121
 20
-45.2954300545
 11
48.1716494683
 21
-45.2137751358
  0
LINE
  5
359
100
AcDbEntity
  8
0
100
AcDbLine
 62
7
  6
CONTINUOUS
 10
48.0302281121
 20
-45.2954300545
 11
48.1716494683
 21
-45.2137751358
  0
LINE
  5
35A
100
AcDbEntity
  8
ASSI
100
AcDbLine
 62
7
  6
CONTINUOUS
 10
48.3837815027
 20
-45.0912927578
 11
48.5252028589
 21
-45.0096378392
  0
LINE
  5
35B
100
AcDbEntity
  8
0
100
AcDbLine
 62
7
  6
CONTINUOUS
 10
48.3837815027
 20
-45.0912927578
 11
48.5252028589
 21
-45.0096378392
  0
LINE
  5
35C
100
AcDbEntity
  8
ASSI
100
AcDbLine
 62
7
  6
CONTINUOUS
 10
48.7373348933
 20
-44.8871554612
 11
48.8787562495
 21
-44.8055005425
  0
LINE
  5
35D
100
AcDbEntity
  8
0
100
AcDbLine
 62
7
  6
CONTINUOUS
 10
48.7373348933
 20
-44.8871554612
 11
48.8787562495
 21
-44.8055005425
  0
LINE
  5
35E
100
AcDbEntity
  8
ASSI
100
AcDbLine
 62
7
  6
CONTINUOUS
 10
49.0908882839
 20
-44.6830181645
 11
49.2323096401
 21
-44.6013632458
  0
LINE
  5
35F
100
AcDbEntity
  8
0
100
AcDbLine
 62
7
  6
CONTINUOUS
 10
49.0908882839
 20
-44.6830181645
 11
49.2323096401
 21
-44.6013632458
  0
LINE
  5
360
100
AcDbEntity
  8
ASSI
100
AcDbLine
 62
7
  6
CONTINUOUS
 10
51.2122086274
 20
-47.9492149111
 11
51.3536299837
 21
-47.8675599924
  0
LINE
  5
361
100
AcDbEntity
  8
0
100
AcDbLine
 62
7
  6
CONTINUOUS
 10
51.2122086274
 20
-47.9492149111
 11
51.3536299837
 21
-47.8675599924
  0
LINE
  5
362
100
AcDbEntity
  8
ASSI
100
AcDbLine
 62
7
  6
CONTINUOUS
 10
51.565762018
 20
-47.7450776145
 11
51.7071833743
 21
-47.6634226958
  0
LINE
  5
363
100
AcDbEntity
  8
0
100
AcDbLine
 62
7
  6
CONTINUOUS
 10
51.565762018
 20
-47.7450776145
 11
51.7071833743
 21
-47.6634226958
  0
LINE
  5
364
100
AcDbEntity
  8
ASSI
100
AcDbLine
 62
7
  6
CONTINUOUS
 10
51.9193154086
 20
-47.5409403178
 11
52.0607367649
 21
-47.4592853991
  0
LINE
  5
365
100
AcDbEntity
  8
0
100
AcDbLine
 62
7
  6
CONTINUOUS
 10
51.9193154086
 20
-47.5409403178
 11
52.0607367649
 21
-47.4592853991
  0
LINE
  5
366
100
AcDbEntity
  8
ASSI
100
AcDbLine
 62
7
  6
CONTINUOUS
 10
52.2728687992
 20
-47.3368030211
 11
52.4142901555
 21
-47.2551481025
  0
LINE
  5
367
100
AcDbEntity
  8
0
100
AcDbLine
 62
7
  6
CONTINUOUS
 10
52.2728687992
 20
-47.3368030211
 11
52.4142901555
 21
-47.2551481025
  0
LINE
  5
368
100
AcDbEntity
  8
ASSI
100
AcDbLine
 62
7
  6
CONTINUOUS
 10
52.6264221898
 20
-47.1326657245
 11
52.767843546
 21
-47.0510108058
  0
LINE
  5
369
100
AcDbEntity
  8
0
100
AcDbLine
 62
7
  6
CONTINUOUS
 10
52.6264221898
 20
-47.1326657245
 11
52.767843546
 21
-47.0510108058
  0
LINE
  5
36A
100
AcDbEntity
  8
ASSI
100
AcDbLine
 62
7
  6
CONTINUOUS
 10
52.9799755804
 20
-46.9285284278
 11
53.1213969366
 21
-46.8468735091
  0
LINE
  5
36B
100
AcDbEntity
  8
0
100
AcDbLine
 62
7
  6
CONTINUOUS
 10
52.9799755804
 20
-46.9285284278
 11
53.1213969366
 21
-46.8468735091
  0
LINE
  5
36C
100
AcDbEntity
  8
ASSI
100
AcDbLine
 62
7
  6
CONTINUOUS
 10
53.2274629538
 20
-46.9081028617
 11
51.2827416383
 21
-48.0309605761
  0
LINE
  5
36D
100
AcDbEntity
  8
0
100
AcDbLine
 62
7
  6
CONTINUOUS
 10
53.2274629538
 20
-46.9081028617
 11
51.2827416383
 21
-48.0309605761
  0
LINE
  5
36E
100
AcDbEntity
  8
ASSI
100
AcDbLine
 62
7
  6
CONTINUOUS
 10
47.1075475418
 20
-45.6202558323
 11
49.2659046427
 21
-44.4981648033
  0
LINE
  5
36F
100
AcDbEntity
  8
0
100
AcDbLine
 62
7
  6
CONTINUOUS
 10
47.1075475418
 20
-45.6202558323
 11
49.2659046427
 21
-44.4981648033
  0
LINE
  5
370
100
AcDbEntity
  8
SMUSSO
100
AcDbLine
 62
7
  6
CONTINUOUS
 10
71.8950819771
 20
-79.8543790378
 11
71.8950819771
 21
-8.00499468
  0
LINE
  5
371
100
AcDbEntity
  8
SMUSSO
100
AcDbLine
 62
7
  6
CONTINUOUS
 10
72.6021887583
 20
-6.7802498099
 11
72.6021887583
 21
-7.5967595416
  0
LINE
  5
372
100
AcDbEntity
  8
SMUSSO
100
AcDbLine
 62
7
  6
CONTINUOUS
 10
73.3092955395
 20
-79.8543790378
 11
73.3092955395
 21
-8.00499468
  0
LINE
  5
373
100
AcDbEntity
  8
SMUSSO
100
AcDbLine
 62
7
  6
CONTINUOUS
 10
74.3699557113
 20
-6.5760730583
 11
74.3699557113
 21
-79.2419671478
  0
LINE
  5
374
100
AcDbEntity
  8
0
100
AcDbLine
 62
250
  6
CONTINUOUS
 10
74.7306527497
 20
-72.0958682324
 11
74.7306527497
 21
-71.7720789818
  0
LINE
  5
375
100
AcDbEntity
  8
0
100
AcDbLine
 62
250
  6
CONTINUOUS
 10
74.7307319528
 20
-69.1739570713
 11
74.7307319528
 21
-69.4871844624
  0
LINE
  5
376
100
AcDbEntity
  8
0
100
AcDbLine
 62
250
  6
CONTINUOUS
 10
74.7307319528
 20
-70.1696246115
 11
74.7307319528
 21
-70.489983054
  0
LINE
  5
377
100
AcDbEntity
  8
0
100
AcDbLine
 62
250
  6
CONTINUOUS
 10
74.7307319528
 20
-71.1341421777
 11
74.7307319528
 21
-71.457663626
  0
LINE
  5
378
100
AcDbEntity
  8
0
100
AcDbLine
 62
250
  6
CONTINUOUS
 10
74.7307319528
 20
-72.2159799909
 11
74.7307319528
 21
-72.539547978
  0
LINE
  5
379
100
AcDbEntity
  8
0
100
AcDbLine
 62
250
  6
CONTINUOUS
 10
74.7307319528
 20
-73.1399418455
 11
74.7307319528
 21
-73.4916772407
  0
LINE
  5
37A
100
AcDbEntity
  8
ASSI
100
AcDbLine
 62
7
  6
CONTINUOUS
 10
51.1944463911
 20
-47.9799800069
 11
51.2122086274
 21
-47.9492149111
  0
LINE
  5
37B
100
AcDbEntity
  8
0
100
AcDbLine
 62
7
  6
CONTINUOUS
 10
51.1944463911
 20
-47.9799800069
 11
51.2122086274
 21
-47.9492149111
  0
LINE
  5
37C
100
AcDbEntity
  8
ASSI
100
AcDbLine
 62
7
  6
CONTINUOUS
 10
51.4596960009
 20
-47.928789345
 11
51.565762018
 21
-47.7450776145
  0
LINE
  5
37D
100
AcDbEntity
  8
0
100
AcDbLine
 62
7
  6
CONTINUOUS
 10
51.4596960009
 20
-47.928789345
 11
51.565762018
 21
-47.7450776145
  0
LINE
  5
37E
100
AcDbEntity
  8
ASSI
100
AcDbLine
 62
7
  6
CONTINUOUS
 10
51.8132493914
 20
-47.7246520483
 11
51.9193154086
 21
-47.5409403178
  0
LINE
  5
37F
100
AcDbEntity
  8
0
100
AcDbLine
 62
7
  6
CONTINUOUS
 10
51.8132493914
 20
-47.7246520483
 11
51.9193154086
 21
-47.5409403178
  0
LINE
  5
380
100
AcDbEntity
  8
ASSI
100
AcDbLine
 62
7
  6
CONTINUOUS
 10
52.166802782
 20
-47.5205147516
 11
52.2728687992
 21
-47.3368030211
  0
LINE
  5
381
100
AcDbEntity
  8
0
100
AcDbLine
 62
7
  6
CONTINUOUS
 10
52.166802782
 20
-47.5205147516
 11
52.2728687992
 21
-47.3368030211
  0
LINE
  5
382
100
AcDbEntity
  8
ASSI
100
AcDbLine
 62
7
  6
CONTINUOUS
 10
52.5203561726
 20
-47.316377455
 11
52.6264221898
 21
-47.1326657245
  0
LINE
  5
383
100
AcDbEntity
  8
0
100
AcDbLine
 62
7
  6
CONTINUOUS
 10
52.5203561726
 20
-47.316377455
 11
52.6264221898
 21
-47.1326657245
  0
LINE
  5
384
100
AcDbEntity
  8
ASSI
100
AcDbLine
 62
7
  6
CONTINUOUS
 10
52.8739095632
 20
-47.1122401583
 11
52.9799755804
 21
-46.9285284278
  0
LINE
  5
385
100
AcDbEntity
  8
0
100
AcDbLine
 62
7
  6
CONTINUOUS
 10
52.8739095632
 20
-47.1122401583
 11
52.9799755804
 21
-46.9285284278
  0
LINE
  5
386
100
AcDbEntity
  8
ASSI
100
AcDbLine
 62
250
  6
CONTINUOUS
 10
52.8142831153
 20
-47.9774372508
 11
53.1502280803
 21
-47.650683661
  0
LINE
  5
387
100
AcDbEntity
  8
0
100
AcDbLine
 62
250
  6
CONTINUOUS
 10
52.8142831153
 20
-47.9774372508
 11
53.1502280803
 21
-47.650683661
  0
LINE
  5
388
100
AcDbEntity
  8
ASSI
100
AcDbLine
 62
7
  6
CONTINUOUS
 10
52.81820801
 20
-48.0109724153
 11
53.2471923536
 21
-47.5937249824
  0
LINE
  5
389
100
AcDbEntity
  8
0
100
AcDbLine
 62
7
  6
CONTINUOUS
 10
52.81820801
 20
-48.0109724153
 11
53.2471923536
 21
-47.5937249824
  0
LINE
  5
38A
100
AcDbEntity
  8
ASSI
100
AcDbLine
 62
7
  6
CONTINUOUS
 10
53.4042396491
 20
-47.0192035659
 11
51.5688484383
 21
-48.1961550567
  0
LINE
  5
38B
100
AcDbEntity
  8
0
100
AcDbLine
 62
7
  6
CONTINUOUS
 10
53.4042396491
 20
-47.0192035659
 11
51.5688484383
 21
-48.1961550567
  0
LINE
  5
38C
100
AcDbEntity
  8
ASSI
100
AcDbLine
 62
7
  6
CONTINUOUS
 10
51.8980544898
 20
-48.3862345049
 11
53.4042396491
 21
-47.5014723813
  0
LINE
  5
38D
100
AcDbEntity
  8
0
100
AcDbLine
 62
7
  6
CONTINUOUS
 10
51.8980544898
 20
-48.3862345049
 11
53.4042396491
 21
-47.5014723813
  0
LINE
  5
38E
100
AcDbEntity
  8
ASSI
100
AcDbLine
 62
7
  6
CONTINUOUS
 10
52.7595936602
 20
-48.0554364404
 11
52.0441310576
 21
-48.4705772843
  0
LINE
  5
38F
100
AcDbEntity
  8
0
100
AcDbLine
 62
7
  6
CONTINUOUS
 10
52.7595936602
 20
-48.0554364404
 11
52.0441310576
 21
-48.4705772843
  0
LINE
  5
390
100
AcDbEntity
  8
ASSI
100
AcDbLine
 62
250
  6
CONTINUOUS
 10
52.8142831153
 20
-47.9774372508
 11
52.0038979608
 21
-48.4473471985
  0
LINE
  5
391
100
AcDbEntity
  8
0
100
AcDbLine
 62
250
  6
CONTINUOUS
 10
52.8142831153
 20
-47.9774372508
 11
52.0038979608
 21
-48.4473471985
  0
LINE
  5
392
100
AcDbEntity
  8
RACCORDO
100
AcDbLine
 62
250
  6
CONTINUOUS
 10
52.5557115117
 20
-51.2156049869
 11
53.404198645
 21
-50.7256991502
  0
LINE
  5
393
100
AcDbEntity
  8
0
100
AcDbLine
 62
250
  6
CONTINUOUS
 10
75.3179482163
 20
-67.9400919032
 11
75.3179482163
 21
-67.7550494044
  0
LINE
  5
394
100
AcDbEntity
  8
0
100
AcDbLine
 62
250
  6
CONTINUOUS
 10
75.5341232726
 20
-67.6264957797
 11
75.5341232726
 21
-67.8001039828
  0
LINE
  5
395
100
AcDbEntity
  8
0
100
AcDbLine
 62
250
  6
CONTINUOUS
 10
75.5832673593
 20
-68.678136092
 11
75.5832673593
 21
-68.9881416913
  0
LINE
  5
396
100
AcDbEntity
  8
0
100
AcDbLine
 62
250
  6
CONTINUOUS
 10
75.787168837
 20
-68.9324614295
 11
75.787168837
 21
-68.491513593
  0
LINE
  5
397
100
AcDbEntity
  8
0
100
AcDbLine
 62
250
  6
CONTINUOUS
 10
76.0506769133
 20
-72.210728962
 11
76.0506769133
 21
-71.9253889297
  0
LINE
  5
398
100
AcDbEntity
  8
0
100
AcDbLine
 62
250
  6
CONTINUOUS
 10
76.0506769133
 20
-70.808526991
 11
76.0506769133
 21
-70.4987663327
  0
LINE
  5
399
100
AcDbEntity
  8
0
100
AcDbLine
 62
250
  6
CONTINUOUS
 10
76.0506769133
 20
-70.0490479724
 11
76.0506769133
 21
-70.0036367121
  0
LINE
  5
39A
100
AcDbEntity
  8
0
100
AcDbLine
 62
250
  6
CONTINUOUS
 10
76.0506769133
 20
-69.5521270161
 11
76.0506769133
 21
-69.2353749228
  0
LINE
  5
39B
100
AcDbEntity
  8
0
100
AcDbLine
 62
250
  6
CONTINUOUS
 10
76.0506769133
 20
-69.1845316857
 11
76.0506769133
 21
-68.8642548903
  0
LINE
  5
39C
100
AcDbEntity
  8
0
100
AcDbLine
 62
250
  6
CONTINUOUS
 10
76.0506769133
 20
-68.2500830869
 11
76.0506769133
 21
-67.9088221888
  0
LINE
  5
39D
100
AcDbEntity
  8
0
100
AcDbLine
 62
250
  6
CONTINUOUS
 10
76.0506767369
 20
-66.6839686486
 11
76.0506767369
 21
-66.9954165306
  0
LINE
  5
39E
100
AcDbEntity
  8
0
100
AcDbLine
 62
250
  6
CONTINUOUS
 10
76.0506767369
 20
-67.4912555172
 11
76.0506767369
 21
-67.8137422055
  0
LINE
  5
39F
100
AcDbEntity
  8
0
100
AcDbLine
 62
250
  6
CONTINUOUS
 10
76.0506769133
 20
-70.9828335974
 11
76.0506769133
 21
-71.306622848
  0
LINE
  5
3A0
100
AcDbEntity
  8
ASSI
100
AcDbLine
 62
7
  6
CONTINUOUS
 10
76.3852100377
 20
-6.2288206098
 11
76.3852100377
 21
-76.9353952848
  0
LINE
  5
3A1
100
AcDbEntity
  8
0
100
AcDbLine
 62
7
  6
CONTINUOUS
 10
76.3852100377
 20
-6.2288206098
 11
76.3852100377
 21
-76.9353952848
  0
LINE
  5
3A2
100
AcDbEntity
  8
ASSI
100
AcDbLine
 62
7
  6
CONTINUOUS
 10
76.597342072
 20
-5.3401895494
 11
76.597342072
 21
-75.6193435412
  0
LINE
  5
3A3
100
AcDbEntity
  8
0
100
AcDbLine
 62
7
  6
CONTINUOUS
 10
76.597342072
 20
-5.3401895494
 11
76.597342072
 21
-75.6193435412
  0
LINE
  5
3A4
100
AcDbEntity
  8
ASSI
100
AcDbLine
 62
250
  6
CONTINUOUS
 10
76.3853228295
 20
-6.1994019305
 11
76.597342072
 21
-5.3401895494
  0
LINE
  5
3A5
100
AcDbEntity
  8
0
100
AcDbLine
 62
250
  6
CONTINUOUS
 10
76.3853228295
 20
-6.1994019305
 11
76.597342072
 21
-5.3401895494
  0
LINE
  5
3A6
100
AcDbEntity
  8
ASSI
100
AcDbLine
 62
7
  6
CONTINUOUS
 10
76.596783648
 20
-75.6271292727
 11
76.3775368921
 21
-77.0791680016
  0
LINE
  5
3A7
100
AcDbEntity
  8
0
100
AcDbLine
 62
7
  6
CONTINUOUS
 10
76.596783648
 20
-75.6271292727
 11
76.3775368921
 21
-77.0791680016
  0
LINE
  5
3A8
100
AcDbEntity
  8
ASSI
100
AcDbLine
 62
250
  6
CONTINUOUS
 10
76.3853228295
 20
-76.9636417211
 11
76.597342072
 21
-75.6193435412
  0
LINE
  5
3A9
100
AcDbEntity
  8
0
100
AcDbLine
 62
250
  6
CONTINUOUS
 10
76.3853228295
 20
-76.9636417211
 11
76.597342072
 21
-75.6193435412
  0
LINE
  5
3AA
100
AcDbEntity
  8
0
100
AcDbLine
 62
250
  6
CONTINUOUS
 10
75.4267385113
 20
-67.3543492868
 11
75.4345382341
 21
-67.3496858153
  0
LINE
  5
3AB
100
AcDbEntity
  8
0
100
AcDbLine
 62
250
  6
CONTINUOUS
 10
75.5341232726
 20
-67.8001039828
 11
76.0506767369
 21
-67.4912555172
  0
LINE
  5
3AC
100
AcDbEntity
  8
0
100
AcDbLine
 62
250
  6
CONTINUOUS
 10
74.9555976458
 20
-68.1567421155
 11
75.3179482163
 21
-67.9400919032
  0
LINE
  5
3AD
100
AcDbEntity
  8
0
100
AcDbLine
 62
250
  6
CONTINUOUS
 10
74.7307319528
 20
-71.457663626
 11
76.0506769133
 21
-70.808526991
  0
LINE
  5
3AE
100
AcDbEntity
  8
0
100
AcDbLine
 62
250
  6
CONTINUOUS
 10
75.1887774752
 20
-70.9442235816
 11
76.0506769133
 21
-70.0490479724
  0
LINE
  5
3AF
100
AcDbEntity
  8
0
100
AcDbLine
 62
250
  6
CONTINUOUS
 10
75.4635692167
 20
-70.375607274
 11
74.7307319528
 21
-71.1341421777
  0
LINE
  5
3B0
100
AcDbEntity
  8
0
100
AcDbLine
 62
250
  6
CONTINUOUS
 10
74.7307319528
 20
-73.4916772407
 11
76.0506769133
 21
-72.210728962
  0
LINE
  5
3B1
100
AcDbEntity
  8
0
100
AcDbLine
 62
250
  6
CONTINUOUS
 10
76.0506769133
 20
-67.9088221888
 11
74.7307319528
 21
-69.1739570713
  0
LINE
  5
3B2
100
AcDbEntity
  8
0
100
AcDbLine
 62
250
  6
CONTINUOUS
 10
75.639291059
 20
-72.301031706
 11
74.7307319528
 21
-73.1399418455
  0
LINE
  5
3B3
100
AcDbEntity
  8
0
100
AcDbLine
 62
250
  6
CONTINUOUS
 10
75.787168837
 20
-68.491513593
 11
76.0506769133
 21
-68.2500830869
  0
LINE
  5
3B4
100
AcDbEntity
  8
0
100
AcDbLine
 62
250
  6
CONTINUOUS
 10
75.0934190063
 20
-69.1198028906
 11
75.5832673593
 21
-68.678136092
  0
LINE
  5
3B5
100
AcDbEntity
  8
0
100
AcDbLine
 62
250
  6
CONTINUOUS
 10
76.0506769133
 20
-69.2353749228
 11
74.7307319528
 21
-70.1696246115
  0
LINE
  5
3B6
100
AcDbEntity
  8
0
100
AcDbLine
 62
250
  6
CONTINUOUS
 10
75.1923707956
 20
-70.1318337024
 11
76.0506769133
 21
-69.5521270161
  0
LINE
  5
3B7
100
AcDbEntity
  8
ASSI
100
AcDbLine
 62
250
  6
CONTINUOUS
 10
74.3703938971
 20
-78.181387809
 11
76.3852100377
 21
-76.9353952848
  0
LINE
  5
3B8
100
AcDbEntity
  8
0
100
AcDbLine
 62
250
  6
CONTINUOUS
 10
74.3703938971
 20
-78.181387809
 11
76.3852100377
 21
-76.9353952848
  0
LINE
  5
3B9
100
AcDbEntity
  8
ASSI
100
AcDbLine
 62
7
  6
CONTINUOUS
 10
74.3699557113
 20
-78.5114920887
 11
76.2002641731
 21
-77.3796018807
  0
LINE
  5
3BA
100
AcDbEntity
  8
0
100
AcDbLine
 62
7
  6
CONTINUOUS
 10
74.3699557113
 20
-78.5114920887
 11
76.2002641731
 21
-77.3796018807
  0
LINE
  5
3BB
100
AcDbEntity
  8
0
100
AcDbLine
 62
250
  6
CONTINUOUS
 10
76.0506767369
 20
-67.8137422055
 11
74.7461533148
 21
-68.5937196621
  0
LINE
  5
3BC
100
AcDbEntity
  8
0
100
AcDbLine
 62
250
  6
CONTINUOUS
 10
74.7306527497
 20
-71.7720789818
 11
76.0506769133
 21
-70.9828335974
  0
LINE
  5
3BD
100
AcDbEntity
  8
0
100
AcDbLine
 62
250
  6
CONTINUOUS
 10
76.0506769133
 20
-71.306622848
 11
74.7306527497
 21
-72.0958682324
  0
LINE
  5
3BE
100
AcDbEntity
  8
SMUSSO
100
AcDbLine
 62
7
  6
CONTINUOUS
 10
72.6021887583
 20
-80.2626141762
 11
74.3699557113
 21
-79.2419671478
  0
LINE
  5
3BF
100
AcDbEntity
  8
0
100
AcDbLine
 62
250
  6
CONTINUOUS
 10
76.0506769133
 20
-70.4987663327
 11
75.1887774752
 21
-70.9442235816
  0
ARC
  5
3C0
100
AcDbEntity
  8
ASSI
100
AcDbCircle
 62
7
  6
CONTINUOUS
 10
-42.8505412022
 20
7.3212816046
 40
0.3
100
AcDbArc
 50
300.108999349
 51
314.2001403814
  0
ARC
  5
3C1
100
AcDbEntity
  8
ASSI
100
AcDbCircle
 62
7
  6
CONTINUOUS
 10
52.608874258
 20
-47.7957884946
 40
0.3
100
AcDbArc
 50
300.108999349
 51
314.2001403814
  0
ARC
  5
3C2
100
AcDbEntity
  8
ASSI
100
AcDbCircle
 62
7
  6
CONTINUOUS
 10
36.6989715487
 20
-38.6096103016
 40
0.3
100
AcDbArc
 50
300.1089848951
 51
314.2001408884
  0
ARC
  5
3C3
100
AcDbEntity
  8
ASSI
100
AcDbCircle
 62
7
  6
CONTINUOUS
 10
20.789068972
 20
-29.4234319518
 40
0.3
100
AcDbArc
 50
300.1089848951
 51
314.2001408884
  0
ARC
  5
3C4
100
AcDbEntity
  8
ASSI
100
AcDbCircle
 62
7
  6
CONTINUOUS
 10
4.8791663953
 20
-20.2372536019
 40
0.3
100
AcDbArc
 50
300.1089848951
 51
314.2001408884
  0
ARC
  5
3C5
100
AcDbEntity
  8
ASSI
100
AcDbCircle
 62
7
  6
CONTINUOUS
 10
-11.0307361814
 20
-11.051075252
 40
0.3
100
AcDbArc
 50
300.1089848951
 51
314.2001408884
  0
ARC
  5
3C6
100
AcDbEntity
  8
ASSI
100
AcDbCircle
 62
7
  6
CONTINUOUS
 10
-26.9406387581
 20
-1.8648969021
 40
0.3
100
AcDbArc
 50
300.1089848951
 51
314.2001408884
  0
ARC
  5
3C7
100
AcDbEntity
  8
0
100
AcDbCircle
 62
7
  6
CONTINUOUS
 10
-42.8505412022
 20
7.3212816046
 40
0.3
100
AcDbArc
 50
300.1089993398
 51
314.2001403814
  0
ARC
  5
3C8
100
AcDbEntity
  8
0
100
AcDbCircle
 62
7
  6
CONTINUOUS
 10
52.608874258
 20
-47.7957884946
 40
0.3
100
AcDbArc
 50
300.1089993398
 51
314.2001403814
  0
ARC
  5
3C9
100
AcDbEntity
  8
0
100
AcDbCircle
 62
7
  6
CONTINUOUS
 10
36.6989715487
 20
-38.6096103016
 40
0.3
100
AcDbArc
 50
300.1089848867
 51
314.2001408883
  0
ARC
  5
3CA
100
AcDbEntity
  8
0
100
AcDbCircle
 62
7
  6
CONTINUOUS
 10
20.789068972
 20
-29.4234319518
 40
0.3
100
AcDbArc
 50
300.1089848867
 51
314.2001408883
  0
ARC
  5
3CB
100
AcDbEntity
  8
0
100
AcDbCircle
 62
7
  6
CONTINUOUS
 10
4.8791663953
 20
-20.2372536019
 40
0.3
100
AcDbArc
 50
300.1089848867
 51
314.2001408883
  0
ARC
  5
3CC
100
AcDbEntity
  8
0
100
AcDbCircle
 62
7
  6
CONTINUOUS
 10
-11.0307361814
 20
-11.051075252
 40
0.3
100
AcDbArc
 50
300.1089848867
 51
314.2001408883
  0
ARC
  5
3CD
100
AcDbEntity
  8
0
100
AcDbCircle
 62
7
  6
CONTINUOUS
 10
-26.9406387581
 20
-1.8648969021
 40
0.3
100
AcDbArc
 50
300.1089848867
 51
314.2001408883
  0
ARC
  5
3CE
100
AcDbEntity
  8
ASSI
100
AcDbCircle
 62
250
  6
CONTINUOUS
 10
-42.8111187456
 20
7.1838604566
 40
0.171777666
100
AcDbArc
 50
339.5945260156
 51
345.0800020029
  0
ARC
  5
3CF
100
AcDbEntity
  8
ASSI
100
AcDbCircle
 62
250
  6
CONTINUOUS
 10
52.6482967146
 20
-47.9332096426
 40
0.171777666
100
AcDbArc
 50
339.5945260156
 51
345.0800020029
  0
ARC
  5
3D0
100
AcDbEntity
  8
0
100
AcDbCircle
 62
250
  6
CONTINUOUS
 10
-42.8111187456
 20
7.1838604566
 40
0.171777666
100
AcDbArc
 50
339.5945260144
 51
345.0800020029
  0
ARC
  5
3D1
100
AcDbEntity
  8
0
100
AcDbCircle
 62
250
  6
CONTINUOUS
 10
52.6482967146
 20
-47.9332096426
 40
0.171777666
100
AcDbArc
 50
339.5945260145
 51
345.0800020027
  0
ARC
  5
3D2
100
AcDbEntity
  8
ASSI
100
AcDbCircle
 62
250
  6
CONTINUOUS
 10
-42.750098954
 20
7.1483219774
 40
0.1002112887
100
AcDbArc
 50
300.1120046762
 51
305.0045006116
  0
ARC
  5
3D3
100
AcDbEntity
  8
ASSI
100
AcDbCircle
 62
250
  6
CONTINUOUS
 10
52.7093165062
 20
-47.9687481218
 40
0.1002112887
100
AcDbArc
 50
300.1120046764
 51
305.0045006117
  0
ARC
  5
3D4
100
AcDbEntity
  8
0
100
AcDbCircle
 62
250
  6
CONTINUOUS
 10
-42.750098954
 20
7.1483219774
 40
0.1002112887
100
AcDbArc
 50
300.1120046762
 51
305.0045006092
  0
ARC
  5
3D5
100
AcDbEntity
  8
0
100
AcDbCircle
 62
250
  6
CONTINUOUS
 10
52.7093165062
 20
-47.9687481219
 40
0.1002112887
100
AcDbArc
 50
300.1120046763
 51
305.0045006092
  0
SPLINE
  5
3D6
100
AcDbEntity
  8
ASSI
100
AcDbSpline
 62
7
  6
CONTINUOUS
 70
0
 71
3
 72
10
 73
6
 74
0
 42
0.0000001
 43
0.0000001
 44
0.0000000001
 40
0.0
 40
0.0
 40
0.0
 40
0.0
 40
0.5286426009
 40
0.7679931249
 40
1.0
 40
1.0
 40
1.0
 40
1.0
 10
-71.9528853834
 20
80.227210146
 30
0.0
 10
-72.0117357161
 20
80.2502956212
 30
0.0
 10
-72.1042740634
 20
80.2716555982
 30
0.0
 10
-72.2239850135
 20
80.2574867012
 30
0.0
 10
-72.277282072
 20
80.2370290098
 30
0.0
 10
-72.3017176798
 20
80.2238902876
 30
0.0
  0
SPLINE
  5
3D7
100
AcDbEntity
  8
ASSI
100
AcDbSpline
 62
7
  6
CONTINUOUS
 70
0
 71
3
 72
10
 73
6
 74
0
 42
0.0000001
 43
0.0000001
 44
0.0000000001
 40
0.0
 40
0.0
 40
0.0
 40
0.0
 40
0.2320071093
 40
0.4713577349
 40
1.0
 40
1.0
 40
1.0
 40
1.0
 10
76.2002639617
 20
-77.3796015983
 30
0.0
 10
76.223858572
 20
-77.3650083041
 30
0.0
 10
76.2682204458
 20
-77.3290794886
 30
0.0
 10
76.3403390707
 20
-77.2324911999
 30
0.0
 10
76.3681048278
 20
-77.1416728547
 30
0.0
 10
76.3775343324
 20
-77.0791661658
 30
0.0
  0
SPLINE
  5
3D8
100
AcDbEntity
  8
ASSI
100
AcDbSpline
 62
250
  6
CONTINUOUS
 70
0
 71
3
 72
9
 73
5
 74
0
 42
0.0000001
 43
0.0000001
 44
0.0000000001
 40
0.0
 40
0.0
 40
0.0
 40
0.0
 40
0.2416065921
 40
1.0
 40
1.0
 40
1.0
 40
1.0
 10
5.0298854141
 20
-20.4969008966
 30
0.0
 10
5.0345601455
 20
-20.4941717735
 30
0.0
 10
5.052978512
 20
-20.4812703456
 30
0.0
 10
5.0667679499
 20
-20.4624062883
 30
0.0
 10
5.0741770765
 20
-20.4471153806
 30
0.0
  0
SPLINE
  5
3D9
100
AcDbEntity
  8
ASSI
100
AcDbSpline
 62
250
  6
CONTINUOUS
 70
0
 71
3
 72
9
 73
5
 74
0
 42
0.0000001
 43
0.0000001
 44
0.0000000001
 40
0.0
 40
0.0
 40
0.0
 40
0.0
 40
0.2431061737
 40
1.0
 40
1.0
 40
1.0
 40
1.0
 10
5.0741770765
 20
-20.4471153806
 30
0.0
 10
5.0752404725
 20
-20.4449207508
 30
0.0
 10
5.079384289
 20
-20.43578255
 30
0.0
 10
5.082613036
 20
-20.4262369213
 30
0.0
 10
5.0845753852
 20
-20.4189022012
 30
0.0
  0
SPLINE
  5
3DA
100
AcDbEntity
  8
ASSI
100
AcDbSpline
 62
250
  6
CONTINUOUS
 70
0
 71
3
 72
9
 73
5
 74
0
 42
0.0000001
 43
0.0000001
 44
0.0000000001
 40
0.0
 40
0.0
 40
0.0
 40
0.0
 40
0.2416065921
 40
1.0
 40
1.0
 40
1.0
 40
1.0
 10
-10.8800171626
 20
-11.3107225467
 30
0.0
 10
-10.8753424312
 20
-11.3079934237
 30
0.0
 10
-10.8569240647
 20
-11.2950919957
 30
0.0
 10
-10.8431346268
 20
-11.2762279384
 30
0.0
 10
-10.8357255002
 20
-11.2609370307
 30
0.0
  0
SPLINE
  5
3DB
100
AcDbEntity
  8
ASSI
100
AcDbSpline
 62
250
  6
CONTINUOUS
 70
0
 71
3
 72
9
 73
5
 74
0
 42
0.0000001
 43
0.0000001
 44
0.0000000001
 40
0.0
 40
0.0
 40
0.0
 40
0.0
 40
0.2431061737
 40
1.0
 40
1.0
 40
1.0
 40
1.0
 10
-10.8357255002
 20
-11.2609370307
 30
0.0
 10
-10.8346621042
 20
-11.2587424009
 30
0.0
 10
-10.8305182877
 20
-11.2496042001
 30
0.0
 10
-10.8272895407
 20
-11.2400585715
 30
0.0
 10
-10.8253271915
 20
-11.2327238513
 30
0.0
  0
SPLINE
  5
3DC
100
AcDbEntity
  8
ASSI
100
AcDbSpline
 62
250
  6
CONTINUOUS
 70
0
 71
3
 72
9
 73
5
 74
0
 42
0.0000001
 43
0.0000001
 44
0.0000000001
 40
0.0
 40
0.0
 40
0.0
 40
0.0
 40
0.2416065921
 40
1.0
 40
1.0
 40
1.0
 40
1.0
 10
-26.7899197393
 20
-2.1245441968
 30
0.0
 10
-26.7852450079
 20
-2.1218150738
 30
0.0
 10
-26.7668266414
 20
-2.1089136458
 30
0.0
 10
-26.7530372035
 20
-2.0900495885
 30
0.0
 10
-26.7456280769
 20
-2.0747586808
 30
0.0
  0
SPLINE
  5
3DD
100
AcDbEntity
  8
ASSI
100
AcDbSpline
 62
250
  6
CONTINUOUS
 70
0
 71
3
 72
9
 73
5
 74
0
 42
0.0000001
 43
0.0000001
 44
0.0000000001
 40
0.0
 40
0.0
 40
0.0
 40
0.0
 40
0.2431061737
 40
1.0
 40
1.0
 40
1.0
 40
1.0
 10
-26.7456280769
 20
-2.0747586808
 30
0.0
 10
-26.7445646809
 20
-2.072564051
 30
0.0
 10
-26.7404208644
 20
-2.0634258502
 30
0.0
 10
-26.7371921174
 20
-2.0538802216
 30
0.0
 10
-26.7352297682
 20
-2.0465455014
 30
0.0
  0
SPLINE
  5
3DE
100
AcDbEntity
  8
ASSI
100
AcDbSpline
 62
250
  6
CONTINUOUS
 70
0
 71
3
 72
9
 73
5
 74
0
 42
0.0000001
 43
0.0000001
 44
0.0000000001
 40
0.0
 40
0.0
 40
0.0
 40
0.0
 40
0.2416065921
 40
1.0
 40
1.0
 40
1.0
 40
1.0
 10
36.8496905675
 20
-38.8692575963
 30
0.0
 10
36.8543652989
 20
-38.8665284733
 30
0.0
 10
36.8727836654
 20
-38.8536270453
 30
0.0
 10
36.8865731033
 20
-38.834762988
 30
0.0
 10
36.8939822299
 20
-38.8194720803
 30
0.0
  0
SPLINE
  5
3DF
100
AcDbEntity
  8
ASSI
100
AcDbSpline
 62
250
  6
CONTINUOUS
 70
0
 71
3
 72
9
 73
5
 74
0
 42
0.0000001
 43
0.0000001
 44
0.0000000001
 40
0.0
 40
0.0
 40
0.0
 40
0.0
 40
0.2431061737
 40
1.0
 40
1.0
 40
1.0
 40
1.0
 10
36.8939822299
 20
-38.8194720803
 30
0.0
 10
36.8950456259
 20
-38.8172774505
 30
0.0
 10
36.8991894424
 20
-38.8081392497
 30
0.0
 10
36.9024181894
 20
-38.7985936211
 30
0.0
 10
36.9043805386
 20
-38.7912589009
 30
0.0
  0
SPLINE
  5
3E0
100
AcDbEntity
  8
ASSI
100
AcDbSpline
 62
250
  6
CONTINUOUS
 70
0
 71
3
 72
9
 73
5
 74
0
 42
0.0000001
 43
0.0000001
 44
0.0000000001
 40
0.0
 40
0.0
 40
0.0
 40
0.0
 40
0.4796483492
 40
1.0
 40
1.0
 40
1.0
 40
1.0
 10
-42.6926136723
 20
7.0662382106
 30
0.0
 10
-42.6831164324
 20
7.0728892966
 30
0.0
 10
-42.665680071
 20
7.0903557735
 30
0.0
 10
-42.654518623
 20
7.1121836893
 30
0.0
 10
-42.6501203543
 20
7.123968182
 30
0.0
  0
SPLINE
  5
3E1
100
AcDbEntity
  8
ASSI
100
AcDbSpline
 62
250
  6
CONTINUOUS
 70
0
 71
3
 72
9
 73
5
 74
0
 42
0.0000001
 43
0.0000001
 44
0.0000000001
 40
0.0
 40
0.0
 40
0.0
 40
0.0
 40
0.4796483492
 40
1.0
 40
1.0
 40
1.0
 40
1.0
 10
52.7668017879
 20
-48.0508318886
 30
0.0
 10
52.7762990278
 20
-48.0441808026
 30
0.0
 10
52.7937353892
 20
-48.0267143258
 30
0.0
 10
52.8048968372
 20
-48.00488641
 30
0.0
 10
52.8092951058
 20
-47.9931019173
 30
0.0
  0
SPLINE
  5
3E2
100
AcDbEntity
  8
ASSI
100
AcDbSpline
 62
7
  6
CONTINUOUS
 70
0
 71
3
 72
9
 73
5
 74
0
 42
0.0000001
 43
0.0000001
 44
0.0000000001
 40
0.0
 40
0.0
 40
0.0
 40
0.0
 40
0.2419970238
 40
1.0
 40
1.0
 40
1.0
 40
1.0
 10
76.3775343324
 20
-77.0791661658
 30
0.0
 10
76.3789283938
 20
-77.0699251542
 30
0.0
 10
76.3838536673
 20
-77.0316144912
 30
0.0
 10
76.3855617345
 20
-76.9929137128
 30
0.0
 10
76.3853228295
 20
-76.9636417211
 30
0.0
  0
SPLINE
  5
3E3
100
AcDbEntity
  8
ASSI
100
AcDbSpline
 62
250
  6
CONTINUOUS
 70
0
 71
3
 72
10
 73
6
 74
0
 42
0.0000001
 43
0.0000001
 44
0.0000000001
 40
0.0
 40
0.0
 40
0.0
 40
0.0
 40
0.360269124
 40
0.641576974
 40
1.0
 40
1.0
 40
1.0
 40
1.0
 10
-26.7352297682
 20
-2.0465455014
 30
0.0
 10
-26.7335171943
 20
-2.0503775439
 30
0.0
 10
-26.7307454874
 20
-2.0574308925
 30
0.0
 10
-26.7277872222
 20
-2.0683639633
 30
0.0
 10
-26.7283141865
 20
-2.077165346
 30
0.0
 10
-26.7313097086
 20
-2.0800746788
 30
0.0
  0
SPLINE
  5
3E4
100
AcDbEntity
  8
ASSI
100
AcDbSpline
 62
250
  6
CONTINUOUS
 70
0
 71
3
 72
9
 73
5
 74
0
 42
0.0000001
 43
0.0000001
 44
0.0000000001
 40
0.0
 40
0.0
 40
0.0
 40
0.0
 40
0.2416065921
 40
1.0
 40
1.0
 40
1.0
 40
1.0
 10
20.9397879908
 20
-29.6830792465
 30
0.0
 10
20.9444627222
 20
-29.6803501234
 30
0.0
 10
20.9628810887
 20
-29.6674486954
 30
0.0
 10
20.9766705266
 20
-29.6485846381
 30
0.0
 10
20.9840796532
 20
-29.6332937304
 30
0.0
  0
SPLINE
  5
3E5
100
AcDbEntity
  8
ASSI
100
AcDbSpline
 62
250
  6
CONTINUOUS
 70
0
 71
3
 72
9
 73
5
 74
0
 42
0.0000001
 43
0.0000001
 44
0.0000000001
 40
0.0
 40
0.0
 40
0.0
 40
0.0
 40
0.2431061737
 40
1.0
 40
1.0
 40
1.0
 40
1.0
 10
20.9840796532
 20
-29.6332937304
 30
0.0
 10
20.9851430492
 20
-29.6310991007
 30
0.0
 10
20.9892868657
 20
-29.6219608999
 30
0.0
 10
20.9925156127
 20
-29.6124152712
 30
0.0
 10
20.9944779619
 20
-29.605080551
 30
0.0
  0
SPLINE
  5
3E6
100
AcDbEntity
  8
ASSI
100
AcDbSpline
 62
250
  6
CONTINUOUS
 70
0
 71
3
 72
10
 73
6
 74
0
 42
0.0000001
 43
0.0000001
 44
0.0000000001
 40
0.0
 40
0.0
 40
0.0
 40
0.0
 40
0.360269124
 40
0.641576974
 40
1.0
 40
1.0
 40
1.0
 40
1.0
 10
-10.8253271915
 20
-11.2327238513
 30
0.0
 10
-10.8236146176
 20
-11.2365558938
 30
0.0
 10
-10.8208429107
 20
-11.2436092423
 30
0.0
 10
-10.8178846455
 20
-11.2545423131
 30
0.0
 10
-10.8184116098
 20
-11.2633436959
 30
0.0
 10
-10.8214071319
 20
-11.2662530287
 30
0.0
  0
SPLINE
  5
3E7
100
AcDbEntity
  8
ASSI
100
AcDbSpline
 62
250
  6
CONTINUOUS
 70
0
 71
3
 72
10
 73
6
 74
0
 42
0.0000001
 43
0.0000001
 44
0.0000000001
 40
0.0
 40
0.0
 40
0.0
 40
0.0
 40
0.360269124
 40
0.641576974
 40
1.0
 40
1.0
 40
1.0
 40
1.0
 10
5.0845753852
 20
-20.4189022012
 30
0.0
 10
5.0862879591
 20
-20.4227342436
 30
0.0
 10
5.089059666
 20
-20.4297875922
 30
0.0
 10
5.0920179311
 20
-20.440720663
 30
0.0
 10
5.0914909669
 20
-20.4495220457
 30
0.0
 10
5.0884954448
 20
-20.4524313785
 30
0.0
  0
SPLINE
  5
3E8
100
AcDbEntity
  8
ASSI
100
AcDbSpline
 62
250
  6
CONTINUOUS
 70
0
 71
3
 72
10
 73
6
 74
0
 42
0.0000001
 43
0.0000001
 44
0.0000000001
 40
0.0
 40
0.0
 40
0.0
 40
0.0
 40
0.360269124
 40
0.641576974
 40
1.0
 40
1.0
 40
1.0
 40
1.0
 10
20.9944779619
 20
-29.605080551
 30
0.0
 10
20.9961905358
 20
-29.6089125935
 30
0.0
 10
20.9989622427
 20
-29.6159659421
 30
0.0
 10
21.0019205078
 20
-29.6268990129
 30
0.0
 10
21.0013935436
 20
-29.6357003956
 30
0.0
 10
20.9983980215
 20
-29.6386097284
 30
0.0
  0
SPLINE
  5
3E9
100
AcDbEntity
  8
ASSI
100
AcDbSpline
 62
250
  6
CONTINUOUS
 70
0
 71
3
 72
10
 73
6
 74
0
 42
0.0000001
 43
0.0000001
 44
0.0000000001
 40
0.0
 40
0.0
 40
0.0
 40
0.0
 40
0.360269124
 40
0.641576974
 40
1.0
 40
1.0
 40
1.0
 40
1.0
 10
36.9043805386
 20
-38.7912589009
 30
0.0
 10
36.9060931125
 20
-38.7950909434
 30
0.0
 10
36.9088648194
 20
-38.8021442919
 30
0.0
 10
36.9118230845
 20
-38.8130773628
 30
0.0
 10
36.9112961203
 20
-38.8218787455
 30
0.0
 10
36.9083005982
 20
-38.8247880783
 30
0.0
  0
SPLINE
  5
3EA
100
AcDbEntity
  8
ASSI
100
AcDbSpline
 62
7
  6
CONTINUOUS
 70
0
 71
3
 72
11
 73
7
 74
0
 42
0.0000001
 43
0.0000001
 44
0.0000000001
 40
0.0
 40
0.0
 40
0.0
 40
0.0
 40
0.2395915069
 40
0.4999945232
 40
0.7604005145
 40
1.0
 40
1.0
 40
1.0
 40
1.0
 10
76.3853228295
 20
-6.1994019305
 30
0.0
 10
76.3861740361
 20
-6.0862607282
 30
0.0
 10
76.3479018847
 20
-5.8494189075
 30
0.0
 10
76.2038820532
 20
-5.5171468661
 30
0.0
 10
75.9881332757
 20
-5.2262833239
 30
0.0
 10
75.8021560864
 20
-5.0747130188
 30
0.0
 10
75.7037454435
 20
-5.0188752699
 30
0.0
  0
SPLINE
  5
3EB
100
AcDbEntity
  8
ASSI
100
AcDbSpline
 62
7
  6
CONTINUOUS
 70
0
 71
3
 72
9
 73
5
 74
0
 42
0.0000001
 43
0.0000001
 44
0.0000000001
 40
0.0
 40
0.0
 40
0.0
 40
0.0
 40
0.2581558503
 40
1.0
 40
1.0
 40
1.0
 40
1.0
 10
-71.8488855675
 20
80.1761646071
 30
0.0
 10
-71.8574829714
 20
80.1812226798
 30
0.0
 10
-71.8911322029
 20
80.200215224
 30
0.0
 10
-71.9262007717
 20
80.2167424576
 30
0.0
 10
-71.9528853834
 20
80.227210146
 30
0.0
  0
SPLINE
  5
3EC
100
AcDbEntity
  8
ASSI
100
AcDbSpline
 62
250
  6
CONTINUOUS
 70
0
 71
3
 72
10
 73
6
 74
0
 42
0.0000001
 43
0.0000001
 44
0.0000000001
 40
0.0
 40
0.0
 40
0.0
 40
0.0
 40
0.3605721432
 40
0.6416145128
 40
1.0
 40
1.0
 40
1.0
 40
1.0
 10
-42.6451323449
 20
7.1396328485
 30
0.0
 10
-42.6434175719
 20
7.1357959045
 30
0.0
 10
-42.6406094148
 20
7.1287527787
 30
0.0
 10
-42.6376773105
 20
7.1178033881
 30
0.0
 10
-42.6382127548
 20
7.1090100833
 30
0.0
 10
-42.6412075771
 20
7.1060980311
 30
0.0
  0
SPLINE
  5
3ED
100
AcDbEntity
  8
ASSI
100
AcDbSpline
 62
250
  6
CONTINUOUS
 70
0
 71
3
 72
10
 73
6
 74
0
 42
0.0000001
 43
0.0000001
 44
0.0000000001
 40
0.0
 40
0.0
 40
0.0
 40
0.0
 40
0.3605721432
 40
0.6416145128
 40
1.0
 40
1.0
 40
1.0
 40
1.0
 10
52.8142831153
 20
-47.9774372508
 30
0.0
 10
52.8159978883
 20
-47.9812741948
 30
0.0
 10
52.8188060454
 20
-47.9883173206
 30
0.0
 10
52.8217381497
 20
-47.9992667112
 30
0.0
 10
52.8212027054
 20
-48.0080600159
 30
0.0
 10
52.8182078831
 20
-48.0109720682
 30
0.0
  0
SPLINE
  5
3EE
100
AcDbEntity
  8
0
100
AcDbSpline
 62
250
  6
CONTINUOUS
 70
0
 71
3
 72
12
 73
8
 74
0
 42
0.0000001
 43
0.0000001
 44
0.0000000001
 40
0.0
 40
0.0
 40
0.0
 40
0.0
 40
0.3333333333
 40
0.5
 40
0.6666666667
 40
0.8333333333
 40
1.0
 40
1.0
 40
1.0
 40
1.0
 10
74.9478268055
 20
-67.9077366345
 30
0.0
 10
74.9450824051
 20
-67.9371656253
 30
0.0
 10
74.9427849458
 20
-67.9804083389
 30
0.0
 10
74.9433012688
 20
-68.0359947468
 30
0.0
 10
74.9454781247
 20
-68.0768526632
 30
0.0
 10
74.949628046
 20
-68.1171474476
 30
0.0
 10
74.9534964076
 20
-68.1435270167
 30
0.0
 10
74.9555976458
 20
-68.1567421155
 30
0.0
  0
SPLINE
  5
3EF
100
AcDbEntity
  8
0
100
AcDbSpline
 62
250
  6
CONTINUOUS
 70
0
 71
3
 72
15
 73
11
 74
0
 42
0.0000001
 43
0.0000001
 44
0.0000000001
 40
0.0
 40
0.0
 40
0.0
 40
0.0
 40
0.1666666667
 40
0.3333333333
 40
0.4166666667
 40
0.5
 40
0.5833333333
 40
0.6666666667
 40
0.8333333333
 40
1.0
 40
1.0
 40
1.0
 40
1.0
 10
75.112829366
 20
-67.6261708115
 30
0.0
 10
75.0996739503
 20
-67.6342782648
 30
0.0
 10
75.0739575654
 20
-67.6538961411
 30
0.0
 10
75.0424194006
 20
-67.6868459823
 30
0.0
 10
75.019118361
 20
-67.7173011037
 30
0.0
 10
75.0029609718
 20
-67.7419320109
 30
0.0
 10
74.9884730961
 20
-67.7683062494
 30
0.0
 10
74.9718028303
 20
-67.804959205
 30
0.0
 10
74.9562356679
 20
-67.8521004204
 30
0.0
 10
74.9495522817
 20
-67.8892338589
 30
0.0
 10
74.9478268054
 20
-67.9077366346
 30
0.0
  0
SPLINE
  5
3F0
100
AcDbEntity
  8
0
100
AcDbSpline
 62
250
  6
CONTINUOUS
 70
0
 71
3
 72
17
 73
13
 74
0
 42
0.0000001
 43
0.0000001
 44
0.0000000001
 40
0.0
 40
0.0
 40
0.0
 40
0.0
 40
0.1428571429
 40
0.2857142857
 40
0.3571428571
 40
0.4285714286
 40
0.5
 40
0.5714285714
 40
0.6428571429
 40
0.7142857143
 40
0.8571428571
 40
1.0
 40
1.0
 40
1.0
 40
1.0
 10
75.3179482163
 20
-67.7550494044
 30
0.0
 10
75.3175203225
 20
-67.7327919599
 30
0.0
 10
75.3141904645
 20
-67.6929009426
 30
0.0
 10
75.3048623994
 20
-67.6553464231
 30
0.0
 10
75.2936440861
 20
-67.6306011477
 30
0.0
 10
75.2832013574
 20
-67.615207929
 30
0.0
 10
75.269960825
 20
-67.6029187447
 30
0.0
 10
75.2539491479
 20
-67.5947592416
 30
0.0
 10
75.235509345
 20
-67.5903933874
 30
0.0
 10
75.2078922189
 20
-67.5895300091
 30
0.0
 10
75.168627934
 20
-67.5975002184
 30
0.0
 10
75.1322586811
 20
-67.6142016627
 30
0.0
 10
75.112829366
 20
-67.6261708115
 30
0.0
  0
SPLINE
  5
3F1
100
AcDbEntity
  8
0
100
AcDbSpline
 62
250
  6
CONTINUOUS
 70
0
 71
3
 72
17
 73
13
 74
0
 42
0.0000001
 43
0.0000001
 44
0.0000000001
 40
0.0
 40
0.0
 40
0.0
 40
0.0
 40
0.1
 40
0.2
 40
0.3
 40
0.4
 40
0.5
 40
0.6
 40
0.7
 40
0.8
 40
0.9
 40
1.0
 40
1.0
 40
1.0
 40
1.0
 10
75.6503985531
 20
-67.3763411586
 30
0.0
 10
75.6434002246
 20
-67.3836132694
 30
0.0
 10
75.6300894911
 20
-67.3984215341
 30
0.0
 10
75.6111559797
 20
-67.4222747706
 30
0.0
 10
75.5936201927
 20
-67.4473849242
 30
0.0
 10
75.5778664551
 20
-67.4732838346
 30
0.0
 10
75.5642357097
 20
-67.4995621731
 30
0.0
 10
75.5529358447
 20
-67.5259865736
 30
0.0
 10
75.544175843
 20
-67.552804626
 30
0.0
 10
75.5382105485
 20
-67.578995634
 30
0.0
 10
75.5348553882
 20
-67.6035486304
 30
0.0
 10
75.5341232726
 20
-67.6188837343
 30
0.0
 10
75.5341232726
 20
-67.6264957797
 30
0.0
  0
SPLINE
  5
3F2
100
AcDbEntity
  8
0
100
AcDbSpline
 62
250
  6
CONTINUOUS
 70
0
 71
3
 72
12
 73
8
 74
0
 42
0.0000001
 43
0.0000001
 44
0.0000000001
 40
0.0
 40
0.0
 40
0.0
 40
0.0
 40
0.1666666667
 40
0.3333333333
 40
0.5
 40
0.6666666667
 40
1.0
 40
1.0
 40
1.0
 40
1.0
 10
76.0506767369
 20
-66.9954165306
 30
0.0
 10
76.0262746995
 20
-67.018251227
 30
0.0
 10
75.97822323
 20
-67.0635170328
 30
0.0
 10
75.9082801804
 20
-67.1295624701
 30
0.0
 10
75.8402178818
 20
-67.1930424431
 30
0.0
 10
75.7521827248
 20
-67.2748724894
 30
0.0
 10
75.6898299662
 20
-67.3353535288
 30
0.0
 10
75.6503708682
 20
-67.3763699464
 30
0.0
  0
SPLINE
  5
3F3
100
AcDbEntity
  8
0
100
AcDbSpline
 62
250
  6
CONTINUOUS
 70
0
 71
3
 72
10
 73
6
 74
0
 42
0.0000001
 43
0.0000001
 44
0.0000000001
 40
0.0
 40
0.0
 40
0.0
 40
0.0
 40
0.3333333333
 40
0.6666666667
 40
1.0
 40
1.0
 40
1.0
 40
1.0
 10
75.6934519429
 20
-67.0082356021
 30
0.0
 10
75.734613771
 20
-66.9704462069
 30
0.0
 10
75.8160471063
 20
-66.8963812008
 30
0.0
 10
75.9351536944
 20
-66.788791697
 30
0.0
 10
76.0125865502
 20
-66.7189002724
 30
0.0
 10
76.0506767369
 20
-66.6839686486
 30
0.0
  0
SPLINE
  5
3F4
100
AcDbEntity
  8
0
100
AcDbSpline
 62
250
  6
CONTINUOUS
 70
0
 71
3
 72
16
 73
12
 74
0
 42
0.0000001
 43
0.0000001
 44
0.0000000001
 40
0.0
 40
0.0
 40
0.0
 40
0.0
 40
0.0833333333
 40
0.1666666667
 40
0.25
 40
0.3333333333
 40
0.4166666667
 40
0.5
 40
0.6666666667
 40
0.8333333333
 40
1.0
 40
1.0
 40
1.0
 40
1.0
 10
75.4345382341
 20
-67.3496858153
 30
0.0
 10
75.436892203
 20
-67.3413408722
 30
0.0
 10
75.442420324
 20
-67.3243486769
 30
0.0
 10
75.4534079976
 20
-67.2976261147
 30
0.0
 10
75.4674408896
 20
-67.2693762092
 30
0.0
 10
75.4842569802
 20
-67.2404419119
 30
0.0
 10
75.5033258922
 20
-67.2115796763
 30
0.0
 10
75.531946191
 20
-67.1727083087
 30
0.0
 10
75.5730439089
 20
-67.1240843605
 30
0.0
 10
75.6298718311
 20
-67.0660838406
 30
0.0
 10
75.6717306327
 20
-67.0281772622
 30
0.0
 10
75.6934519429
 20
-67.0082356023
 30
0.0
  0
SPLINE
  5
3F5
100
AcDbEntity
  8
0
100
AcDbSpline
 62
250
  6
CONTINUOUS
 70
0
 71
3
 72
30
 73
26
 74
0
 42
0.0000001
 43
0.0000001
 44
0.0000000001
 40
0.0
 40
0.0
 40
0.0
 40
0.0
 40
0.0526315789
 40
0.1052631579
 40
0.1578947368
 40
0.2105263158
 40
0.2631578947
 40
0.3157894737
 40
0.3684210526
 40
0.4210526316
 40
0.4736842105
 40
0.5263157895
 40
0.5789473684
 40
0.6315789474
 40
0.6842105263
 40
0.7368421053
 40
0.7894736842
 40
0.8157894737
 40
0.8421052632
 40
0.8684210526
 40
0.8947368421
 40
0.9210526316
 40
0.9473684211
 40
0.9736842105
 40
1.0
 40
1.0
 40
1.0
 40
1.0
 10
74.760067979
 20
-67.7862794133
 30
0.0
 10
74.7657601769
 20
-67.7643479878
 30
0.0
 10
74.781746458
 20
-67.7167797005
 30
0.0
 10
74.82251256
 20
-67.6287983273
 30
0.0
 10
74.8770430388
 20
-67.53965784
 30
0.0
 10
74.9427728932
 20
-67.4573045131
 30
0.0
 10
75.0100448356
 20
-67.3927707123
 30
0.0
 10
75.0747554804
 20
-67.3446185847
 30
0.0
 10
75.1316921887
 20
-67.3111394832
 30
0.0
 10
75.1814875917
 20
-67.2892168608
 30
0.0
 10
75.224938556
 20
-67.2764286355
 30
0.0
 10
75.2631959396
 20
-67.2707758033
 30
0.0
 10
75.2959469231
 20
-67.2707515162
 30
0.0
 10
75.323941232
 20
-67.2750433473
 30
0.0
 10
75.3474378514
 20
-67.2827484691
 30
0.0
 10
75.3671703008
 20
-67.2928748766
 30
0.0
 10
75.3811881275
 20
-67.302122318
 30
0.0
 10
75.3912796128
 20
-67.3095716425
 30
0.0
 10
75.3983778885
 20
-67.3151322082
 30
0.0
 10
75.4050271859
 20
-67.3205683677
 30
0.0
 10
75.4113115006
 20
-67.3259043042
 30
0.0
 10
75.4170810137
 20
-67.3317822205
 30
0.0
 10
75.4217837928
 20
-67.3383415099
 30
0.0
 10
75.4251401873
 20
-67.345726811
 30
0.0
 10
75.4263871146
 20
-67.3513590017
 30
0.0
 10
75.4267385113
 20
-67.3543492868
 30
0.0
  0
SPLINE
  5
3F6
100
AcDbEntity
  8
0
100
AcDbSpline
 62
250
  6
CONTINUOUS
 70
0
 71
3
 72
15
 73
11
 74
0
 42
0.0000001
 43
0.0000001
 44
0.0000000001
 40
0.0
 40
0.0
 40
0.0
 40
0.0
 40
0.125
 40
0.25
 40
0.375
 40
0.5
 40
0.625
 40
0.75
 40
0.875
 40
1.0
 40
1.0
 40
1.0
 40
1.0
 10
74.7461533148
 20
-68.5937196621
 30
0.0
 10
74.7410547371
 20
-68.5560404911
 30
0.0
 10
74.7316594531
 20
-68.4832951873
 30
0.0
 10
74.7212055658
 20
-68.3824022384
 30
0.0
 10
74.7145327451
 20
-68.2856076982
 30
0.0
 10
74.7119747581
 20
-68.1905129117
 30
0.0
 10
74.7141025719
 20
-68.0937968415
 30
0.0
 10
74.7218624004
 20
-67.9942900651
 30
0.0
 10
74.736298254
 20
-67.8918808479
 30
0.0
 10
74.750829345
 20
-67.821836739
 30
0.0
 10
74.760085718
 20
-67.7862112012
 30
0.0
  0
SPLINE
  5
3F7
100
AcDbEntity
  8
0
100
AcDbSpline
 62
7
  6
CONTINUOUS
 70
0
 71
3
 72
10
 73
6
 74
0
 42
0.0000001
 43
0.0000001
 44
0.0000000001
 40
0.0
 40
0.0
 40
0.0
 40
0.0
 40
0.5286426009
 40
0.7679931249
 40
1.0
 40
1.0
 40
1.0
 40
1.0
 10
-71.9528853834
 20
80.227210146
 30
0.0
 10
-72.0117357161
 20
80.2502956212
 30
0.0
 10
-72.1042740634
 20
80.2716555982
 30
0.0
 10
-72.2239850135
 20
80.2574867012
 30
0.0
 10
-72.277282072
 20
80.2370290098
 30
0.0
 10
-72.3017176798
 20
80.2238902876
 30
0.0
  0
SPLINE
  5
3F8
100
AcDbEntity
  8
0
100
AcDbSpline
 62
7
  6
CONTINUOUS
 70
0
 71
3
 72
10
 73
6
 74
0
 42
0.0000001
 43
0.0000001
 44
0.0000000001
 40
0.0
 40
0.0
 40
0.0
 40
0.0
 40
0.2320071093
 40
0.4713577349
 40
1.0
 40
1.0
 40
1.0
 40
1.0
 10
76.2002639617
 20
-77.3796015983
 30
0.0
 10
76.223858572
 20
-77.3650083041
 30
0.0
 10
76.2682204458
 20
-77.3290794886
 30
0.0
 10
76.3403390707
 20
-77.2324911999
 30
0.0
 10
76.3681048278
 20
-77.1416728547
 30
0.0
 10
76.3775343324
 20
-77.0791661658
 30
0.0
  0
SPLINE
  5
3F9
100
AcDbEntity
  8
0
100
AcDbSpline
 62
250
  6
CONTINUOUS
 70
0
 71
3
 72
9
 73
5
 74
0
 42
0.0000001
 43
0.0000001
 44
0.0000000001
 40
0.0
 40
0.0
 40
0.0
 40
0.0
 40
0.2416065921
 40
1.0
 40
1.0
 40
1.0
 40
1.0
 10
5.0298854141
 20
-20.4969008966
 30
0.0
 10
5.0345601455
 20
-20.4941717735
 30
0.0
 10
5.052978512
 20
-20.4812703456
 30
0.0
 10
5.0667679499
 20
-20.4624062883
 30
0.0
 10
5.0741770765
 20
-20.4471153806
 30
0.0
  0
SPLINE
  5
3FA
100
AcDbEntity
  8
0
100
AcDbSpline
 62
250
  6
CONTINUOUS
 70
0
 71
3
 72
9
 73
5
 74
0
 42
0.0000001
 43
0.0000001
 44
0.0000000001
 40
0.0
 40
0.0
 40
0.0
 40
0.0
 40
0.2431061737
 40
1.0
 40
1.0
 40
1.0
 40
1.0
 10
5.0741770765
 20
-20.4471153806
 30
0.0
 10
5.0752404725
 20
-20.4449207508
 30
0.0
 10
5.079384289
 20
-20.43578255
 30
0.0
 10
5.082613036
 20
-20.4262369213
 30
0.0
 10
5.0845753852
 20
-20.4189022012
 30
0.0
  0
SPLINE
  5
3FB
100
AcDbEntity
  8
0
100
AcDbSpline
 62
250
  6
CONTINUOUS
 70
0
 71
3
 72
9
 73
5
 74
0
 42
0.0000001
 43
0.0000001
 44
0.0000000001
 40
0.0
 40
0.0
 40
0.0
 40
0.0
 40
0.2416065921
 40
1.0
 40
1.0
 40
1.0
 40
1.0
 10
-10.8800171626
 20
-11.3107225467
 30
0.0
 10
-10.8753424312
 20
-11.3079934237
 30
0.0
 10
-10.8569240647
 20
-11.2950919957
 30
0.0
 10
-10.8431346268
 20
-11.2762279384
 30
0.0
 10
-10.8357255002
 20
-11.2609370307
 30
0.0
  0
SPLINE
  5
3FC
100
AcDbEntity
  8
0
100
AcDbSpline
 62
250
  6
CONTINUOUS
 70
0
 71
3
 72
9
 73
5
 74
0
 42
0.0000001
 43
0.0000001
 44
0.0000000001
 40
0.0
 40
0.0
 40
0.0
 40
0.0
 40
0.2431061737
 40
1.0
 40
1.0
 40
1.0
 40
1.0
 10
-10.8357255002
 20
-11.2609370307
 30
0.0
 10
-10.8346621042
 20
-11.2587424009
 30
0.0
 10
-10.8305182877
 20
-11.2496042001
 30
0.0
 10
-10.8272895407
 20
-11.2400585715
 30
0.0
 10
-10.8253271915
 20
-11.2327238513
 30
0.0
  0
SPLINE
  5
3FD
100
AcDbEntity
  8
0
100
AcDbSpline
 62
7
  6
CONTINUOUS
 70
0
 71
3
 72
9
 73
5
 74
0
 42
0.0000001
 43
0.0000001
 44
0.0000000001
 40
0.0
 40
0.0
 40
0.0
 40
0.0
 40
0.2419970238
 40
1.0
 40
1.0
 40
1.0
 40
1.0
 10
76.3775343324
 20
-77.0791661658
 30
0.0
 10
76.3789283938
 20
-77.0699251542
 30
0.0
 10
76.3838536673
 20
-77.0316144912
 30
0.0
 10
76.3855617345
 20
-76.9929137128
 30
0.0
 10
76.3853228295
 20
-76.9636417211
 30
0.0
  0
SPLINE
  5
3FE
100
AcDbEntity
  8
0
100
AcDbSpline
 62
250
  6
CONTINUOUS
 70
0
 71
3
 72
9
 73
5
 74
0
 42
0.0000001
 43
0.0000001
 44
0.0000000001
 40
0.0
 40
0.0
 40
0.0
 40
0.0
 40
0.2416065921
 40
1.0
 40
1.0
 40
1.0
 40
1.0
 10
-26.7899197393
 20
-2.1245441968
 30
0.0
 10
-26.7852450079
 20
-2.1218150738
 30
0.0
 10
-26.7668266414
 20
-2.1089136458
 30
0.0
 10
-26.7530372035
 20
-2.0900495885
 30
0.0
 10
-26.7456280769
 20
-2.0747586808
 30
0.0
  0
SPLINE
  5
3FF
100
AcDbEntity
  8
0
100
AcDbSpline
 62
250
  6
CONTINUOUS
 70
0
 71
3
 72
9
 73
5
 74
0
 42
0.0000001
 43
0.0000001
 44
0.0000000001
 40
0.0
 40
0.0
 40
0.0
 40
0.0
 40
0.2431061737
 40
1.0
 40
1.0
 40
1.0
 40
1.0
 10
-26.7456280769
 20
-2.0747586808
 30
0.0
 10
-26.7445646809
 20
-2.072564051
 30
0.0
 10
-26.7404208644
 20
-2.0634258502
 30
0.0
 10
-26.7371921174
 20
-2.0538802216
 30
0.0
 10
-26.7352297682
 20
-2.0465455014
 30
0.0
  0
SPLINE
  5
400
100
AcDbEntity
  8
0
100
AcDbSpline
 62
250
  6
CONTINUOUS
 70
0
 71
3
 72
9
 73
5
 74
0
 42
0.0000001
 43
0.0000001
 44
0.0000000001
 40
0.0
 40
0.0
 40
0.0
 40
0.0
 40
0.4796483492
 40
1.0
 40
1.0
 40
1.0
 40
1.0
 10
-42.6926136723
 20
7.0662382106
 30
0.0
 10
-42.6831164324
 20
7.0728892966
 30
0.0
 10
-42.665680071
 20
7.0903557734
 30
0.0
 10
-42.654518623
 20
7.1121836893
 30
0.0
 10
-42.6501203543
 20
7.123968182
 30
0.0
  0
SPLINE
  5
401
100
AcDbEntity
  8
0
100
AcDbSpline
 62
250
  6
CONTINUOUS
 70
0
 71
3
 72
9
 73
5
 74
0
 42
0.0000001
 43
0.0000001
 44
0.0000000001
 40
0.0
 40
0.0
 40
0.0
 40
0.0
 40
0.4796483492
 40
1.0
 40
1.0
 40
1.0
 40
1.0
 10
52.7668017879
 20
-48.0508318886
 30
0.0
 10
52.7762990278
 20
-48.0441808026
 30
0.0
 10
52.7937353892
 20
-48.0267143258
 30
0.0
 10
52.8048968372
 20
-48.00488641
 30
0.0
 10
52.8092951058
 20
-47.9931019173
 30
0.0
  0
SPLINE
  5
402
100
AcDbEntity
  8
0
100
AcDbSpline
 62
250
  6
CONTINUOUS
 70
0
 71
3
 72
10
 73
6
 74
0
 42
0.0000001
 43
0.0000001
 44
0.0000000001
 40
0.0
 40
0.0
 40
0.0
 40
0.0
 40
0.360269124
 40
0.641576974
 40
1.0
 40
1.0
 40
1.0
 40
1.0
 10
-26.7352297682
 20
-2.0465455014
 30
0.0
 10
-26.7335171943
 20
-2.0503775439
 30
0.0
 10
-26.7307454874
 20
-2.0574308925
 30
0.0
 10
-26.7277872222
 20
-2.0683639633
 30
0.0
 10
-26.7283141865
 20
-2.077165346
 30
0.0
 10
-26.7313097086
 20
-2.0800746788
 30
0.0
  0
SPLINE
  5
403
100
AcDbEntity
  8
0
100
AcDbSpline
 62
250
  6
CONTINUOUS
 70
0
 71
3
 72
9
 73
5
 74
0
 42
0.0000001
 43
0.0000001
 44
0.0000000001
 40
0.0
 40
0.0
 40
0.0
 40
0.0
 40
0.2416065921
 40
1.0
 40
1.0
 40
1.0
 40
1.0
 10
36.8496905675
 20
-38.8692575963
 30
0.0
 10
36.8543652989
 20
-38.8665284733
 30
0.0
 10
36.8727836654
 20
-38.8536270453
 30
0.0
 10
36.8865731033
 20
-38.834762988
 30
0.0
 10
36.8939822299
 20
-38.8194720803
 30
0.0
  0
SPLINE
  5
404
100
AcDbEntity
  8
0
100
AcDbSpline
 62
250
  6
CONTINUOUS
 70
0
 71
3
 72
9
 73
5
 74
0
 42
0.0000001
 43
0.0000001
 44
0.0000000001
 40
0.0
 40
0.0
 40
0.0
 40
0.0
 40
0.2431061737
 40
1.0
 40
1.0
 40
1.0
 40
1.0
 10
36.8939822299
 20
-38.8194720803
 30
0.0
 10
36.8950456259
 20
-38.8172774505
 30
0.0
 10
36.8991894424
 20
-38.8081392497
 30
0.0
 10
36.9024181894
 20
-38.7985936211
 30
0.0
 10
36.9043805386
 20
-38.7912589009
 30
0.0
  0
SPLINE
  5
405
100
AcDbEntity
  8
0
100
AcDbSpline
 62
250
  6
CONTINUOUS
 70
0
 71
3
 72
10
 73
6
 74
0
 42
0.0000001
 43
0.0000001
 44
0.0000000001
 40
0.0
 40
0.0
 40
0.0
 40
0.0
 40
0.360269124
 40
0.641576974
 40
1.0
 40
1.0
 40
1.0
 40
1.0
 10
-10.8253271915
 20
-11.2327238513
 30
0.0
 10
-10.8236146176
 20
-11.2365558938
 30
0.0
 10
-10.8208429107
 20
-11.2436092423
 30
0.0
 10
-10.8178846455
 20
-11.2545423131
 30
0.0
 10
-10.8184116098
 20
-11.2633436959
 30
0.0
 10
-10.8214071319
 20
-11.2662530287
 30
0.0
  0
SPLINE
  5
406
100
AcDbEntity
  8
0
100
AcDbSpline
 62
250
  6
CONTINUOUS
 70
0
 71
3
 72
10
 73
6
 74
0
 42
0.0000001
 43
0.0000001
 44
0.0000000001
 40
0.0
 40
0.0
 40
0.0
 40
0.0
 40
0.360269124
 40
0.641576974
 40
1.0
 40
1.0
 40
1.0
 40
1.0
 10
5.0845753852
 20
-20.4189022012
 30
0.0
 10
5.0862879591
 20
-20.4227342436
 30
0.0
 10
5.089059666
 20
-20.4297875922
 30
0.0
 10
5.0920179311
 20
-20.440720663
 30
0.0
 10
5.0914909669
 20
-20.4495220457
 30
0.0
 10
5.0884954448
 20
-20.4524313785
 30
0.0
  0
SPLINE
  5
407
100
AcDbEntity
  8
0
100
AcDbSpline
 62
250
  6
CONTINUOUS
 70
0
 71
3
 72
10
 73
6
 74
0
 42
0.0000001
 43
0.0000001
 44
0.0000000001
 40
0.0
 40
0.0
 40
0.0
 40
0.0
 40
0.360269124
 40
0.641576974
 40
1.0
 40
1.0
 40
1.0
 40
1.0
 10
20.9944779619
 20
-29.605080551
 30
0.0
 10
20.9961905358
 20
-29.6089125935
 30
0.0
 10
20.9989622427
 20
-29.6159659421
 30
0.0
 10
21.0019205078
 20
-29.6268990129
 30
0.0
 10
21.0013935436
 20
-29.6357003956
 30
0.0
 10
20.9983980215
 20
-29.6386097284
 30
0.0
  0
SPLINE
  5
408
100
AcDbEntity
  8
0
100
AcDbSpline
 62
250
  6
CONTINUOUS
 70
0
 71
3
 72
10
 73
6
 74
0
 42
0.0000001
 43
0.0000001
 44
0.0000000001
 40
0.0
 40
0.0
 40
0.0
 40
0.0
 40
0.360269124
 40
0.641576974
 40
1.0
 40
1.0
 40
1.0
 40
1.0
 10
36.9043805386
 20
-38.7912589009
 30
0.0
 10
36.9060931125
 20
-38.7950909434
 30
0.0
 10
36.9088648194
 20
-38.8021442919
 30
0.0
 10
36.9118230845
 20
-38.8130773628
 30
0.0
 10
36.9112961203
 20
-38.8218787455
 30
0.0
 10
36.9083005982
 20
-38.8247880783
 30
0.0
  0
SPLINE
  5
409
100
AcDbEntity
  8
0
100
AcDbSpline
 62
250
  6
CONTINUOUS
 70
0
 71
3
 72
9
 73
5
 74
0
 42
0.0000001
 43
0.0000001
 44
0.0000000001
 40
0.0
 40
0.0
 40
0.0
 40
0.0
 40
0.2416065921
 40
1.0
 40
1.0
 40
1.0
 40
1.0
 10
20.9397879908
 20
-29.6830792465
 30
0.0
 10
20.9444627222
 20
-29.6803501234
 30
0.0
 10
20.9628810887
 20
-29.6674486954
 30
0.0
 10
20.9766705266
 20
-29.6485846381
 30
0.0
 10
20.9840796532
 20
-29.6332937304
 30
0.0
  0
SPLINE
  5
40A
100
AcDbEntity
  8
0
100
AcDbSpline
 62
250
  6
CONTINUOUS
 70
0
 71
3
 72
9
 73
5
 74
0
 42
0.0000001
 43
0.0000001
 44
0.0000000001
 40
0.0
 40
0.0
 40
0.0
 40
0.0
 40
0.2431061737
 40
1.0
 40
1.0
 40
1.0
 40
1.0
 10
20.9840796532
 20
-29.6332937304
 30
0.0
 10
20.9851430492
 20
-29.6310991007
 30
0.0
 10
20.9892868657
 20
-29.6219608999
 30
0.0
 10
20.9925156127
 20
-29.6124152712
 30
0.0
 10
20.9944779619
 20
-29.605080551
 30
0.0
  0
SPLINE
  5
40B
100
AcDbEntity
  8
0
100
AcDbSpline
 62
7
  6
CONTINUOUS
 70
0
 71
3
 72
11
 73
7
 74
0
 42
0.0000001
 43
0.0000001
 44
0.0000000001
 40
0.0
 40
0.0
 40
0.0
 40
0.0
 40
0.2395915069
 40
0.4999945232
 40
0.7604005145
 40
1.0
 40
1.0
 40
1.0
 40
1.0
 10
76.3853228295
 20
-6.1994019305
 30
0.0
 10
76.3861740361
 20
-6.0862607282
 30
0.0
 10
76.3479018847
 20
-5.8494189075
 30
0.0
 10
76.2038820532
 20
-5.5171468661
 30
0.0
 10
75.9881332757
 20
-5.2262833239
 30
0.0
 10
75.8021560864
 20
-5.0747130188
 30
0.0
 10
75.7037454435
 20
-5.0188752699
 30
0.0
  0
SPLINE
  5
40C
100
AcDbEntity
  8
0
100
AcDbSpline
 62
7
  6
CONTINUOUS
 70
0
 71
3
 72
9
 73
5
 74
0
 42
0.0000001
 43
0.0000001
 44
0.0000000001
 40
0.0
 40
0.0
 40
0.0
 40
0.0
 40
0.2581558503
 40
1.0
 40
1.0
 40
1.0
 40
1.0
 10
-71.8488855675
 20
80.1761646071
 30
0.0
 10
-71.8574829714
 20
80.1812226798
 30
0.0
 10
-71.8911322029
 20
80.200215224
 30
0.0
 10
-71.9262007717
 20
80.2167424576
 30
0.0
 10
-71.9528853834
 20
80.227210146
 30
0.0
  0
SPLINE
  5
40D
100
AcDbEntity
  8
0
100
AcDbSpline
 62
250
  6
CONTINUOUS
 70
0
 71
3
 72
10
 73
6
 74
0
 42
0.0000001
 43
0.0000001
 44
0.0000000001
 40
0.0
 40
0.0
 40
0.0
 40
0.0
 40
0.3605721434
 40
0.6416145127
 40
1.0
 40
1.0
 40
1.0
 40
1.0
 10
-42.6451323449
 20
7.1396328485
 30
0.0
 10
-42.6434175719
 20
7.1357959045
 30
0.0
 10
-42.6406094148
 20
7.1287527786
 30
0.0
 10
-42.6376773105
 20
7.1178033881
 30
0.0
 10
-42.6382127548
 20
7.1090100833
 30
0.0
 10
-42.6412075771
 20
7.1060980311
 30
0.0
  0
SPLINE
  5
40E
100
AcDbEntity
  8
0
100
AcDbSpline
 62
250
  6
CONTINUOUS
 70
0
 71
3
 72
10
 73
6
 74
0
 42
0.0000001
 43
0.0000001
 44
0.0000000001
 40
0.0
 40
0.0
 40
0.0
 40
0.0
 40
0.3605721434
 40
0.6416145127
 40
1.0
 40
1.0
 40
1.0
 40
1.0
 10
52.8142831153
 20
-47.9774372508
 30
0.0
 10
52.8159978883
 20
-47.9812741948
 30
0.0
 10
52.8188060454
 20
-47.9883173206
 30
0.0
 10
52.8217381497
 20
-47.9992667112
 30
0.0
 10
52.8212027054
 20
-48.0080600159
 30
0.0
 10
52.8182078831
 20
-48.0109720682
 30
0.0
  0
SPLINE
  5
40F
100
AcDbEntity
  8
RACCORDO
100
AcDbSpline
 62
7
  6
CONTINUOUS
 70
0
 71
3
 72
11
 73
7
 74
0
 42
0.0000001
 43
0.0000001
 44
0.0000000001
 40
0.0
 40
0.0
 40
0.0
 40
0.0
 40
0.2177664648
 40
0.4509472453
 40
0.7101858544
 40
1.0
 40
1.0
 40
1.0
 40
1.0
 10
-57.8579989849
 20
49.153342486
 30
0.0
 10
-57.8184168723
 20
49.1761966957
 30
0.0
 10
-57.7274610792
 20
49.2092334575
 30
0.0
 10
-57.5764071768
 20
49.2130098111
 30
0.0
 10
-57.4153847331
 20
49.1741798401
 30
0.0
 10
-57.3106493933
 20
49.1243113618
 30
0.0
 10
-57.2579716066
 20
49.0938958679
 30
0.0
  0
SPLINE
  5
410
100
AcDbEntity
  8
RACCORDO
100
AcDbSpline
 62
7
  6
CONTINUOUS
 70
0
 71
3
 72
11
 73
7
 74
0
 42
0.0000001
 43
0.0000001
 44
0.0000000001
 40
0.0
 40
0.0
 40
0.0
 40
0.0
 40
0.2372123996
 40
0.4999938932
 40
0.7627787109
 40
1.0
 40
1.0
 40
1.0
 40
1.0
 10
-55.9851794004
 20
14.883956981
 30
0.0
 10
-55.9851794004
 20
14.7448701555
 30
0.0
 10
-55.9330069511
 20
14.4515156525
 30
0.0
 10
-55.751157425
 20
14.0392845377
 30
0.0
 10
-55.4850759061
 20
13.6756788618
 30
0.0
 10
-55.257106561
 20
13.4838125162
 30
0.0
 10
-55.136651263
 20
13.4142631369
 30
0.0
  0
SPLINE
  5
411
100
AcDbEntity
  8
RACCORDO
100
AcDbSpline
 62
7
  6
CONTINUOUS
 70
0
 71
3
 72
11
 73
7
 74
0
 42
0.0000001
 43
0.0000001
 44
0.0000000001
 40
0.0
 40
0.0
 40
0.0
 40
0.0
 40
0.2372212891
 40
0.5000061068
 40
0.7627876004
 40
1.0
 40
1.0
 40
1.0
 40
1.0
 10
52.5557115117
 20
-14.3111484759
 30
0.0
 10
52.6761668096
 20
-14.3806978552
 30
0.0
 10
52.9041361548
 20
-14.5725642007
 30
0.0
 10
53.1702176737
 20
-14.9361698767
 30
0.0
 10
53.3520671998
 20
-15.3484009915
 30
0.0
 10
53.4042396491
 20
-15.6417554945
 30
0.0
 10
53.4042396491
 20
-15.78084232
 30
0.0
  0
SPLINE
  5
412
100
AcDbEntity
  8
RACCORDO
100
AcDbSpline
 62
7
  6
CONTINUOUS
 70
0
 71
3
 72
11
 73
7
 74
0
 42
0.0000001
 43
0.0000001
 44
0.0000000001
 40
0.0
 40
0.0
 40
0.0
 40
0.0
 40
0.2898086042
 40
0.549045169
 40
0.7822281919
 40
1.0
 40
1.0
 40
1.0
 40
1.0
 10
53.4042396491
 20
-50.7257701667
 30
0.0
 10
53.4042396491
 20
-50.7865879589
 30
0.0
 10
53.3950578092
 20
-50.9022064949
 30
0.0
 10
53.3481786703
 20
-51.0610451548
 30
0.0
 10
53.2693923563
 20
-51.1899547386
 30
0.0
 10
53.1953160563
 20
-51.2522002511
 30
0.0
 10
53.15573889
 20
-51.2750516049
 30
0.0
  0
SPLINE
  5
413
100
AcDbEntity
  8
RACCORDO
100
AcDbSpline
 62
7
  6
CONTINUOUS
 70
0
 71
3
 72
11
 73
7
 74
0
 42
0.0000001
 43
0.0000001
 44
0.0000000001
 40
0.0
 40
0.0
 40
0.0
 40
0.0
 40
0.2898086042
 40
0.549045169
 40
0.7822281919
 40
1.0
 40
1.0
 40
1.0
 40
1.0
 10
-58.106499744
 20
48.6040610478
 30
0.0
 10
-58.106499744
 20
48.6648788399
 30
0.0
 10
-58.0973179041
 20
48.780497376
 30
0.0
 10
-58.0504387652
 20
48.9393360358
 30
0.0
 10
-57.9716524512
 20
49.0682456196
 30
0.0
 10
-57.8975761512
 20
49.1304911321
 30
0.0
 10
-57.8579989849
 20
49.153342486
 30
0.0
  0
SPLINE
  5
414
100
AcDbEntity
  8
RACCORDO
100
AcDbSpline
 62
7
  6
CONTINUOUS
 70
0
 71
3
 72
11
 73
7
 74
0
 42
0.0000001
 43
0.0000001
 44
0.0000000001
 40
0.0
 40
0.0
 40
0.0
 40
0.0
 40
0.2177664648
 40
0.4509472453
 40
0.7101858544
 40
1.0
 40
1.0
 40
1.0
 40
1.0
 10
53.15573889
 20
-51.2750516049
 30
0.0
 10
53.1161567774
 20
-51.2979058147
 30
0.0
 10
53.0252009843
 20
-51.3309425765
 30
0.0
 10
52.8741470819
 20
-51.33471893
 30
0.0
 10
52.7131246383
 20
-51.2958889591
 30
0.0
 10
52.6083892984
 20
-51.2460204808
 30
0.0
 10
52.5557115117
 20
-51.2156049869
 30
0.0
  0
SPLINE
  5
415
100
AcDbEntity
  8
RACCORDO
100
AcDbSpline
 62
7
  6
CONTINUOUS
 70
0
 71
3
 72
11
 73
7
 74
0
 42
0.0000001
 43
0.0000001
 44
0.0000000001
 40
0.0
 40
0.0
 40
0.0
 40
0.0
 40
0.2372212891
 40
0.5000061068
 40
0.7627876004
 40
1.0
 40
1.0
 40
1.0
 40
1.0
 10
-57.2579716066
 20
12.1894393569
 30
0.0
 10
-57.3784269045
 20
12.2589887363
 30
0.0
 10
-57.6063962497
 20
12.4508550818
 30
0.0
 10
-57.8724777686
 20
12.8144607577
 30
0.0
 10
-58.0543272946
 20
13.2266918725
 30
0.0
 10
-58.106499744
 20
13.5200463755
 30
0.0
 10
-58.106499744
 20
13.659133201
 30
0.0
  0
ELLIPSE
  5
416
100
AcDbEntity
  8
ASSI
100
AcDbEllipse
 62
7
  6
CONTINUOUS
 10
76.5527182633
 20
-75.5923447712
 30
0.0
 11
-0.0319307066
 21
0.0553022874
 31
0.0
 40
0.5636716562
 41
-2.5265807376
 42
-2.3682119497
  0
ELLIPSE
  5
417
100
AcDbEntity
  8
ASSI
100
AcDbEllipse
 62
7
  6
CONTINUOUS
 10
76.5527182633
 20
-5.3156578636
 30
0.0
 11
-0.0311754239
 21
0.0539936769
 31
0.0
 40
0.5913227191
 41
-2.3442738678
 42
-0.7974202594
  0
ELLIPSE
  5
418
100
AcDbEntity
  8
ASSI
100
AcDbEllipse
 62
7
  6
CONTINUOUS
 10
-70.5776659623
 20
79.6355820115
 30
0.0
 11
-0.0319307066
 21
0.0553022874
 31
0.0
 40
0.5636716562
 41
-0.7734729046
 42
-0.6150203534
  0
ELLIPSE
  5
419
100
AcDbEntity
  8
ASSI
100
AcDbEllipse
 62
7
  6
CONTINUOUS
 10
38.5624183804
 20
-37.6857278502
 30
0.0
 11
0.2999993451
 21
0.1746271577
 31
0.0
 40
0.0035896273
 41
-0.7351277754
 42
-0.0020894543
  0
ELLIPSE
  5
41A
100
AcDbEntity
  8
ASSI
100
AcDbEllipse
 62
7
  6
CONTINUOUS
 10
22.6525158037
 20
-28.4995495004
 30
0.0
 11
0.2999993451
 21
0.1746271577
 31
0.0
 40
0.0035896273
 41
-0.7351277754
 42
-0.0020894543
  0
ELLIPSE
  5
41B
100
AcDbEntity
  8
ASSI
100
AcDbEllipse
 62
7
  6
CONTINUOUS
 10
6.742613227
 20
-19.3133711505
 30
0.0
 11
0.2999993451
 21
0.1746271577
 31
0.0
 40
0.0035896273
 41
-0.7351277754
 42
-0.0020894543
  0
ELLIPSE
  5
41C
100
AcDbEntity
  8
ASSI
100
AcDbEllipse
 62
7
  6
CONTINUOUS
 10
-9.1672893497
 20
-10.1271928006
 30
0.0
 11
0.2999993451
 21
0.1746271577
 31
0.0
 40
0.0035896273
 41
-0.7351277754
 42
-0.0020894543
  0
ELLIPSE
  5
41D
100
AcDbEntity
  8
ASSI
100
AcDbEllipse
 62
7
  6
CONTINUOUS
 10
-25.0771919264
 20
-0.9410144508
 30
0.0
 11
0.2999993451
 21
0.1746271577
 31
0.0
 40
0.0035896273
 41
-0.7351277754
 42
-0.0020894543
  0
ELLIPSE
  5
41E
100
AcDbEntity
  8
ASSI
100
AcDbEllipse
 62
7
  6
CONTINUOUS
 10
-40.849281897
 20
8.3253994459
 30
0.0
 11
0.1999995634
 21
0.1164181051
 31
0.0
 40
0.0035896273
 41
-0.7351277754
 42
-0.6748017824
  0
ELLIPSE
  5
41F
100
AcDbEntity
  8
ASSI
100
AcDbEllipse
 62
7
  6
CONTINUOUS
 10
3.0508156925
 20
-16.5075529676
 30
0.0
 11
0.2999972416
 21
-0.0022477848
 31
0.0
 40
0.5723275643
 41
0.7896864073
 42
2.3081228565
  0
ELLIPSE
  5
420
100
AcDbEntity
  8
ASSI
100
AcDbEllipse
 62
7
  6
CONTINUOUS
 10
50.7841321726
 20
-44.0112205672
 30
0.0
 11
0.1998333781
 21
-0.0157785196
 31
0.0
 40
0.5172961965
 41
0.8262203412
 42
2.3446567905
  0
ELLIPSE
  5
421
100
AcDbEntity
  8
ASSI
100
AcDbEllipse
 62
7
  6
CONTINUOUS
 10
-44.6752832875
 20
11.105849532
 30
0.0
 11
0.1998333781
 21
-0.0157785196
 31
0.0
 40
0.5172961965
 41
0.8262203412
 42
2.3446567905
  0
ELLIPSE
  5
422
100
AcDbEntity
  8
ASSI
100
AcDbEllipse
 62
7
  6
CONTINUOUS
 10
34.8706208459
 20
-34.8799096673
 30
0.0
 11
0.2999972416
 21
-0.0022477848
 31
0.0
 40
0.5723275643
 41
0.7896864073
 42
2.3081228565
  0
ELLIPSE
  5
423
100
AcDbEntity
  8
ASSI
100
AcDbEllipse
 62
7
  6
CONTINUOUS
 10
18.9607182692
 20
-25.6937313175
 30
0.0
 11
0.2999972416
 21
-0.0022477848
 31
0.0
 40
0.5723275643
 41
0.7896864073
 42
2.3081228565
  0
ELLIPSE
  5
424
100
AcDbEntity
  8
ASSI
100
AcDbEllipse
 62
7
  6
CONTINUOUS
 10
-12.8590868842
 20
-7.3213746177
 30
0.0
 11
0.2999972416
 21
-0.0022477848
 31
0.0
 40
0.5723275643
 41
0.7896864073
 42
2.3081228565
  0
ELLIPSE
  5
425
100
AcDbEntity
  8
ASSI
100
AcDbEllipse
 62
7
  6
CONTINUOUS
 10
-28.7689894609
 20
1.8648037322
 30
0.0
 11
0.2999972416
 21
-0.0022477848
 31
0.0
 40
0.5723275643
 41
0.7896864073
 42
2.3081228565
  0
ELLIPSE
  5
426
100
AcDbEntity
  8
ASSI
100
AcDbEllipse
 62
7
  6
CONTINUOUS
 10
49.2659046427
 20
-45.3146350801
 30
0.0
 11
0.5413005334
 21
0.8416911418
 31
0.0
 40
0.6067084637
 41
0.7148472392
 42
0.8145158917
  0
ELLIPSE
  5
427
100
AcDbEntity
  8
ASSI
100
AcDbEllipse
 62
7
  6
CONTINUOUS
 10
-46.1935108174
 20
9.8024350191
 30
0.0
 11
0.5413005334
 21
0.8416911418
 31
0.0
 40
0.6067084637
 41
0.7148472392
 42
0.8145158917
  0
ELLIPSE
  5
428
100
AcDbEntity
  8
ASSI
100
AcDbEllipse
 62
7
  6
CONTINUOUS
 10
-40.849281897
 20
8.8967642802
 30
0.0
 11
0.1998333781
 21
-0.0157785196
 31
0.0
 40
0.5172961965
 41
-0.692216108
 42
0.8262203412
  0
ELLIPSE
  5
429
100
AcDbEntity
  8
ASSI
100
AcDbEllipse
 62
7
  6
CONTINUOUS
 10
38.5624183804
 20
-37.0115072947
 30
0.0
 11
0.2999972416
 21
-0.0022477848
 31
0.0
 40
0.5723275643
 41
-0.728750042
 42
0.7896864073
  0
ELLIPSE
  5
42A
100
AcDbEntity
  8
ASSI
100
AcDbEllipse
 62
7
  6
CONTINUOUS
 10
22.6525158037
 20
-27.8253289448
 30
0.0
 11
0.2999972416
 21
-0.0022477848
 31
0.0
 40
0.5723275643
 41
-0.728750042
 42
0.7896864073
  0
ELLIPSE
  5
42B
100
AcDbEntity
  8
ASSI
100
AcDbEllipse
 62
7
  6
CONTINUOUS
 10
-9.1672893497
 20
-9.452972245
 30
0.0
 11
0.2999972416
 21
-0.0022477848
 31
0.0
 40
0.5723275643
 41
-0.728750042
 42
0.7896864073
  0
ELLIPSE
  5
42C
100
AcDbEntity
  8
ASSI
100
AcDbEllipse
 62
7
  6
CONTINUOUS
 10
-25.0771919264
 20
-0.2667938952
 30
0.0
 11
0.2999972416
 21
-0.0022477848
 31
0.0
 40
0.5723275643
 41
-0.728750042
 42
0.7896864073
  0
ELLIPSE
  5
42D
100
AcDbEntity
  8
ASSI
100
AcDbEllipse
 62
7
  6
CONTINUOUS
 10
6.742613227
 20
-18.6391505949
 30
0.0
 11
0.2999972416
 21
-0.0022477848
 31
0.0
 40
0.5723275643
 41
-0.728750042
 42
0.7896864073
  0
ELLIPSE
  5
42E
100
AcDbEntity
  8
ASSI
100
AcDbEllipse
 62
7
  6
CONTINUOUS
 10
-41.9471735592
 20
7.3506531053
 30
0.0
 11
0.4625183445
 21
0.8873459255
 31
0.0
 40
0.5463614449
 41
0.662201126
 42
0.7618697785
  0
ELLIPSE
  5
42F
100
AcDbEntity
  8
ASSI
100
AcDbEllipse
 62
7
  6
CONTINUOUS
 10
76.5659573562
 20
-5.3080327666
 30
0.0
 11
0.1365023326
 21
1.2306519884
 31
0.0
 40
0.0962714138
 41
-3.8917430252
 42
-3.8564132784
  0
ELLIPSE
  5
430
100
AcDbEntity
  8
ASSI
100
AcDbEllipse
 62
7
  6
CONTINUOUS
 10
76.5659573562
 20
-75.9776808719
 30
0.0
 11
0.1387214801
 21
1.2585231556
 31
0.0
 40
0.0920685296
 41
-3.8374748546
 42
-3.8021451078
  0
ELLIPSE
  5
431
100
AcDbEntity
  8
ASSI
100
AcDbEllipse
 62
7
  6
CONTINUOUS
 10
-70.9047522131
 20
79.8397066966
 30
0.0
 11
1.1592455945
 21
-0.5090882972
 31
0.0
 40
0.0921189357
 41
-2.4809772198
 42
-2.4456474731
  0
ELLIPSE
  5
432
100
AcDbEntity
  8
ASSI
100
AcDbEllipse
 62
7
  6
CONTINUOUS
 10
76.5659573562
 20
-5.3080327666
 30
0.0
 11
1.1339988709
 21
-0.4970753424
 31
0.0
 40
0.0963242103
 41
-2.4267061945
 42
-2.3913764477
  0
ELLIPSE
  5
433
100
AcDbEntity
  8
0
100
AcDbEllipse
 62
7
  6
CONTINUOUS
 10
76.5527182633
 20
-75.5923447712
 30
0.0
 11
-0.0319307066
 21
0.0553022874
 31
0.0
 40
0.5636716562
 41
-2.5265807376
 42
-2.3682119497
  0
ELLIPSE
  5
434
100
AcDbEntity
  8
0
100
AcDbEllipse
 62
7
  6
CONTINUOUS
 10
76.5527182633
 20
-5.3156578636
 30
0.0
 11
-0.0311754239
 21
0.0539936769
 31
0.0
 40
0.5913227191
 41
-2.3442738678
 42
-0.7974202594
  0
ELLIPSE
  5
435
100
AcDbEntity
  8
0
100
AcDbEllipse
 62
7
  6
CONTINUOUS
 10
-70.5776659623
 20
79.6355820115
 30
0.0
 11
-0.0319307066
 21
0.0553022874
 31
0.0
 40
0.5636716562
 41
-0.7734729046
 42
-0.6150203534
  0
ELLIPSE
  5
436
100
AcDbEntity
  8
0
100
AcDbEllipse
 62
7
  6
CONTINUOUS
 10
38.5624183804
 20
-37.6857278502
 30
0.0
 11
0.2999993451
 21
0.1746271577
 31
0.0
 40
0.0035896273
 41
-0.7351277754
 42
-0.0020894543
  0
ELLIPSE
  5
437
100
AcDbEntity
  8
0
100
AcDbEllipse
 62
7
  6
CONTINUOUS
 10
22.6525158037
 20
-28.4995495004
 30
0.0
 11
0.2999993451
 21
0.1746271577
 31
0.0
 40
0.0035896273
 41
-0.7351277754
 42
-0.0020894543
  0
ELLIPSE
  5
438
100
AcDbEntity
  8
0
100
AcDbEllipse
 62
7
  6
CONTINUOUS
 10
6.742613227
 20
-19.3133711505
 30
0.0
 11
0.2999993451
 21
0.1746271577
 31
0.0
 40
0.0035896273
 41
-0.7351277754
 42
-0.0020894543
  0
ELLIPSE
  5
439
100
AcDbEntity
  8
0
100
AcDbEllipse
 62
7
  6
CONTINUOUS
 10
-9.1672893497
 20
-10.1271928006
 30
0.0
 11
0.2999993451
 21
0.1746271577
 31
0.0
 40
0.0035896273
 41
-0.7351277754
 42
-0.0020894543
  0
ELLIPSE
  5
43A
100
AcDbEntity
  8
0
100
AcDbEllipse
 62
7
  6
CONTINUOUS
 10
-25.0771919264
 20
-0.9410144508
 30
0.0
 11
0.2999993451
 21
0.1746271577
 31
0.0
 40
0.0035896273
 41
-0.7351277754
 42
-0.0020894543
  0
ELLIPSE
  5
43B
100
AcDbEntity
  8
0
100
AcDbEllipse
 62
7
  6
CONTINUOUS
 10
-40.849281897
 20
8.3253994459
 30
0.0
 11
0.1999995634
 21
0.1164181051
 31
0.0
 40
0.0035896273
 41
-0.7351277754
 42
-0.6748017824
  0
ELLIPSE
  5
43C
100
AcDbEntity
  8
0
100
AcDbEllipse
 62
7
  6
CONTINUOUS
 10
3.0508156925
 20
-16.5075529676
 30
0.0
 11
0.2999972416
 21
-0.0022477848
 31
0.0
 40
0.5723275643
 41
0.7896864073
 42
2.3081228565
  0
ELLIPSE
  5
43D
100
AcDbEntity
  8
0
100
AcDbEllipse
 62
7
  6
CONTINUOUS
 10
50.7841321726
 20
-44.0112205672
 30
0.0
 11
0.1998333781
 21
-0.0157785196
 31
0.0
 40
0.5172961965
 41
0.8262203412
 42
2.3446567905
  0
ELLIPSE
  5
43E
100
AcDbEntity
  8
0
100
AcDbEllipse
 62
7
  6
CONTINUOUS
 10
-44.6752832875
 20
11.105849532
 30
0.0
 11
0.1998333781
 21
-0.0157785196
 31
0.0
 40
0.5172961965
 41
0.8262203412
 42
2.3446567905
  0
ELLIPSE
  5
43F
100
AcDbEntity
  8
0
100
AcDbEllipse
 62
7
  6
CONTINUOUS
 10
34.8706208459
 20
-34.8799096673
 30
0.0
 11
0.2999972416
 21
-0.0022477848
 31
0.0
 40
0.5723275643
 41
0.7896864073
 42
2.3081228565
  0
ELLIPSE
  5
440
100
AcDbEntity
  8
0
100
AcDbEllipse
 62
7
  6
CONTINUOUS
 10
18.9607182692
 20
-25.6937313175
 30
0.0
 11
0.2999972416
 21
-0.0022477848
 31
0.0
 40
0.5723275643
 41
0.7896864073
 42
2.3081228565
  0
ELLIPSE
  5
441
100
AcDbEntity
  8
0
100
AcDbEllipse
 62
7
  6
CONTINUOUS
 10
-12.8590868842
 20
-7.3213746177
 30
0.0
 11
0.2999972416
 21
-0.0022477848
 31
0.0
 40
0.5723275643
 41
0.7896864073
 42
2.3081228565
  0
ELLIPSE
  5
442
100
AcDbEntity
  8
0
100
AcDbEllipse
 62
7
  6
CONTINUOUS
 10
-28.7689894609
 20
1.8648037322
 30
0.0
 11
0.2999972416
 21
-0.0022477848
 31
0.0
 40
0.5723275643
 41
0.7896864073
 42
2.3081228565
  0
ELLIPSE
  5
443
100
AcDbEntity
  8
0
100
AcDbEllipse
 62
7
  6
CONTINUOUS
 10
49.2659046427
 20
-45.3146350801
 30
0.0
 11
0.5413005334
 21
0.8416911418
 31
0.0
 40
0.6067084637
 41
0.7148472392
 42
0.8145158917
  0
ELLIPSE
  5
444
100
AcDbEntity
  8
0
100
AcDbEllipse
 62
7
  6
CONTINUOUS
 10
-46.1935108174
 20
9.8024350191
 30
0.0
 11
0.5413005334
 21
0.8416911418
 31
0.0
 40
0.6067084637
 41
0.7148472392
 42
0.8145158917
  0
ELLIPSE
  5
445
100
AcDbEntity
  8
0
100
AcDbEllipse
 62
7
  6
CONTINUOUS
 10
-40.849281897
 20
8.8967642802
 30
0.0
 11
0.1998333781
 21
-0.0157785196
 31
0.0
 40
0.5172961965
 41
-0.692216108
 42
0.8262203412
  0
ELLIPSE
  5
446
100
AcDbEntity
  8
0
100
AcDbEllipse
 62
7
  6
CONTINUOUS
 10
38.5624183804
 20
-37.0115072947
 30
0.0
 11
0.2999972416
 21
-0.0022477848
 31
0.0
 40
0.5723275643
 41
-0.728750042
 42
0.7896864073
  0
ELLIPSE
  5
447
100
AcDbEntity
  8
0
100
AcDbEllipse
 62
7
  6
CONTINUOUS
 10
22.6525158037
 20
-27.8253289448
 30
0.0
 11
0.2999972416
 21
-0.0022477848
 31
0.0
 40
0.5723275643
 41
-0.728750042
 42
0.7896864073
  0
ELLIPSE
  5
448
100
AcDbEntity
  8
0
100
AcDbEllipse
 62
7
  6
CONTINUOUS
 10
-9.1672893497
 20
-9.452972245
 30
0.0
 11
0.2999972416
 21
-0.0022477848
 31
0.0
 40
0.5723275643
 41
-0.728750042
 42
0.7896864073
  0
ELLIPSE
  5
449
100
AcDbEntity
  8
0
100
AcDbEllipse
 62
7
  6
CONTINUOUS
 10
-25.0771919264
 20
-0.2667938952
 30
0.0
 11
0.2999972416
 21
-0.0022477848
 31
0.0
 40
0.5723275643
 41
-0.728750042
 42
0.7896864073
  0
ELLIPSE
  5
44A
100
AcDbEntity
  8
0
100
AcDbEllipse
 62
7
  6
CONTINUOUS
 10
6.742613227
 20
-18.6391505949
 30
0.0
 11
0.2999972416
 21
-0.0022477848
 31
0.0
 40
0.5723275643
 41
-0.728750042
 42
0.7896864073
  0
ELLIPSE
  5
44B
100
AcDbEntity
  8
0
100
AcDbEllipse
 62
7
  6
CONTINUOUS
 10
-41.9471735592
 20
7.3506531053
 30
0.0
 11
0.4625183445
 21
0.8873459255
 31
0.0
 40
0.5463614449
 41
0.662201126
 42
0.7618697785
  0
ELLIPSE
  5
44C
100
AcDbEntity
  8
0
100
AcDbEllipse
 62
7
  6
CONTINUOUS
 10
76.5659573562
 20
-5.3080327666
 30
0.0
 11
0.1365023326
 21
1.2306519884
 31
0.0
 40
0.0962714138
 41
-3.8917430252
 42
-3.8564132784
  0
ELLIPSE
  5
44D
100
AcDbEntity
  8
0
100
AcDbEllipse
 62
7
  6
CONTINUOUS
 10
76.5659573562
 20
-75.9776808719
 30
0.0
 11
0.1387214801
 21
1.2585231556
 31
0.0
 40
0.0920685296
 41
-3.8374748546
 42
-3.8021451078
  0
ELLIPSE
  5
44E
100
AcDbEntity
  8
0
100
AcDbEllipse
 62
7
  6
CONTINUOUS
 10
-70.9047522131
 20
79.8397066966
 30
0.0
 11
1.1592455945
 21
-0.5090882972
 31
0.0
 40
0.0921189357
 41
-2.4809772198
 42
-2.4456474731
  0
ELLIPSE
  5
44F
100
AcDbEntity
  8
0
100
AcDbEllipse
 62
7
  6
CONTINUOUS
 10
76.5659573562
 20
-5.3080327666
 30
0.0
 11
1.1339988709
 21
-0.4970753424
 31
0.0
 40
0.0963242103
 41
-2.4267061945
 42
-2.3913764477
  0
ENDSEC
  0
SECTION
  2
OBJECTS
  0
DICTIONARY
  5
C
100
AcDbDictionary
280
0
281
1
  3
ACAD_GROUP
350
D
  3
ACAD_MLINESTYLE
350
17
  3
ACAD_LAYOUT
350
1A
  3
ACAD_PLOTSETTINGS
350
19
  3
ACAD_PLOTSTYLENAME
350
E
  0
DICTIONARY
  5
D
102
{ACAD_REACTORS
330
C
102
}
100
AcDbDictionary
280
0
281
1
  0
ACDBDICTIONARYWDFLT
  5
E
102
{ACAD_REACTORS
330
C
102
}
100
AcDbDictionary
281
1
  3
Normal
350
F
100
AcDbDictionaryWithDefault
340
F
  0
DICTIONARY
  5
17
102
{ACAD_REACTORS
330
C
102
}
100
AcDbDictionary
280
0
281
1
  3
Standard
350
18
  0
DICTIONARY
  5
19
102
{ACAD_REACTORS
330
C
102
}
100
AcDbDictionary
281
1
  0
DICTIONARY
  5
1A
102
{ACAD_REACTORS
330
C
102
}
100
AcDbDictionary
281
1
  3
Model
350
450
  3
Layout1
350
451
  0
ACDBPLACEHOLDER
  5
F
102
{ACAD_REACTORS
330
E
102
}
  0
MLINESTYLE
  5
18
102
{ACAD_REACTORS
330
17
102
}
100
AcDbMlineStyle
  2
STANDARD
 70
0
  3

 62
256
 51
90.0
 52
90.0
 71
2
 49
0.5
 62
256
  6
BYLAYER
 49
-0.5
 62
256
  6
BYLAYER
  0
LAYOUT
  5
450
102
{ACAD_REACTORS
330
1A
102
}
100
AcDbPlotSettings
  1

  2
none_device
  4
ISO_A4_(297.00_x_210.00_MM)
  6

 40
0.0
 41
0.0
 42
0.0
 43
0.0
 44
297.0
 45
210.0
 46
0.0
 47
0.0
 48
0.0
 49
0.0
140
0.0
141
0.0
142
1.0
143
1.0
 70
1024
 72
1
 73
0
 74
0
  7

 75
0
147
1.0
148
0.0
149
0.0
100
AcDbLayout
  1
Model
 70
0
 71
0
 10
0.0
 20
0.0
 11
297.0
 21
210.0
 12
0.0
 22
0.0
 32
0.0
 14
0.0
 24
0.0
 34
0.0
 15
0.0
 25
0.0
 35
0.0
146
0.0
 13
0.0
 23
0.0
 33
0.0
 16
1.0
 26
0.0
 36
0.0
 17
0.0
 27
1.0
 37
0.0
 76
0
330
21B
345
0
346
0
  0
LAYOUT
  5
451
102
{ACAD_REACTORS
330
1A
102
}
100
AcDbPlotSettings
  1

  2
none_device
  4
ISO_A4_(297.00_x_210.00_MM)
  6

 40
0.0
 41
0.0
 42
0.0
 43
0.0
 44
297.0
 45
210.0
 46
0.0
 47
0.0
 48
0.0
 49
0.0
140
0.0
141
0.0
142
1.0
143
1.0
 70
0
 72
1
 73
0
 74
0
  7

 75
0
147
1.0
148
0.0
149
0.0
100
AcDbLayout
  1
Layout1
 70
0
 71
1
 10
0.0
 20
0.0
 11
297.0
 21
210.0
 12
0.0
 22
0.0
 32
0.0
 14
0.0
 24
0.0
 34
0.0
 15
0.0
 25
0.0
 35
0.0
146
0.0
 13
0.0
 23
0.0
 33
0.0
 16
1.0
 26
0.0
 36
0.0
 17
0.0
 27
1.0
 37
0.0
 76
0
330
21C
345
0
346
0
  0
ENDSEC
  0
EOF
