  0
SECTION
  2
HEADER
  9
$ACADVER
  1
AC1021
  9
$DWGCODEPAGE
  3
ANSI_1252
  9
$EXTMAX
 10
297.0
 20
210.0
 30
0.0
  9
$EXTMIN
 10
0.0
 20
0.0
 30
0.0
  9
$LIMMIN
 10
0.0
 20
0.0
  9
$LIMMAX
 10
297.0
 20
210.0
  9
$VIEWCTR
 10
148.5
 20
105.0
  9
$VIEWSIZE
 40
210.0
  9
$CLAYER
  8
0
  9
$LTSCALE
 40
16.335
  9
$CELTYPE
  6
BYLAYER
  9
$DIMSCALE
 40
1.0
  9
$DIMASZ
 40
3.0
  9
$DIMEXO
 40
0.5
  9
$DIMDLI
 40
11.286
  9
$DIMEXE
 40
1.5
  9
$DIMCEN
 40
2.673
  9
$DIMLFAC
 40
1.0
  9
$DIMBLK
  1
_FILLED
  9
$DIMALT
 70
0
  9
$DIMALTF
 40
25.4
  9
$DIMTXT
 40
3.0
  9
$DIMTOL
 70
1
  9
$DIMLIM
 70
0
  9
$DIMTFAC
 40
1.0
  9
$DIMTP
 40
0.01
  9
$DIMTM
 40
0.01
  9
$DIMGAP
 40
0.625
  9
$DIMDSEP
 70
44
  9
$AUNITS
 70
0
  9
$PDMODE
 70
3
  9
$PDSIZE
 40
3.0
  9
$HANDSEED
  5
3A5
  9
$TILEMODE
 70
1
  9
$MEASUREMENT
 70
1
  9
$INSUNITS
 70
4
  0
ENDSEC
  0
SECTION
  2
CLASSES
  0
CLASS
  1
ACDBDICTIONARYWDFLT
  2
AcDbDictionaryWithDefault
  3
AutoCAD 2000
 90
0
 91
1
280
0
281
0
  0
CLASS
  1
ACDBPLACEHOLDER
  2
AcDbPlaceHolder
  3
AutoCAD 2000
 90
0
 91
1
280
0
281
0
  0
CLASS
  1
LAYOUT
  2
AcDbLayout
  3
AutoCAD 2000
 90
0
 91
0
280
0
281
0
  0
ENDSEC
  0
SECTION
  2
TABLES
  0
TABLE
  2
VPORT
  5
8
100
AcDbSymbolTable
 70
2
  0
VPORT
  5
1F4
100
AcDbSymbolTableRecord
100
AcDbViewportTableRecord
  2
*ACTIVE
 70
0
 10
0.0
 20
0.0
 11
1.0
 21
1.0
 12
148.5
 22
105.0
 13
0.0
 23
0.0
 14
1.0
 24
1.0
 15
0.0
 25
0.0
 16
0.0
 26
0.0
 36
1.0
 17
0.0
 27
0.0
 37
0.0
 40
210.0
 41
1.4142857143
 42
50.0
 43
0.0
 44
0.0
 50
0.0
 51
0.0
 71
0
 72
100
 73
1
 74
1
 75
0
 76
0
 77
0
 78
0
  0
ENDTAB
  0
TABLE
  2
LTYPE
  5
5
100
AcDbSymbolTable
 70
6
  0
LTYPE
  5
14
100
AcDbSymbolTableRecord
100
AcDbLinetypeTableRecord
  2
BYBLOCK
 70
0
  3

 72
65
 73
0
 40
0.0
  0
LTYPE
  5
15
100
AcDbSymbolTableRecord
100
AcDbLinetypeTableRecord
  2
BYLAYER
 70
0
  3

 72
65
 73
0
 40
0.0
  0
LTYPE
  5
16
100
AcDbSymbolTableRecord
100
AcDbLinetypeTableRecord
  2
CONTINUOUS
 70
64
  3
Solid line
 72
65
 73
0
 40
0.0
  0
LTYPE
  5
1F5
100
AcDbSymbolTableRecord
100
AcDbLinetypeTableRecord
  2
CENTER
 70
64
  3
____ _ ____ _ ____ _ ____ _ ____ _ ____ _ ____
 72
65
 73
4
 40
0.6
 49
0.375
 74
0
 49
-0.075
 74
0
 49
0.075
 74
0
 49
-0.075
 74
0
  0
LTYPE
  5
1F6
100
AcDbSymbolTableRecord
100
AcDbLinetypeTableRecord
  2
HIDDEN
 70
64
  3
- - - - - - - - - - - - - - - - - - - -
 72
65
 73
2
 40
0.2
 49
0.1
 74
0
 49
-0.1
 74
0
  0
LTYPE
  5
1F7
100
AcDbSymbolTableRecord
100
AcDbLinetypeTableRecord
  2
PHANTOM
 70
64
  3
_____ _ _ _____ _ _ _____ _ _ _____
 72
65
 73
6
 40
0.8
 49
0.45
 74
0
 49
-0.05
 74
0
 49
0.1
 74
0
 49
-0.05
 74
0
 49
0.1
 74
0
 49
-0.05
 74
0
  0
LTYPE
  5
1F8
100
AcDbSymbolTableRecord
100
AcDbLinetypeTableRecord
  2
DOT
 70
64
  3
. . . . . . . . . . . . . . . . . . . .
 72
65
 73
2
 40
0.2
 49
0.1
 74
0
 49
-0.1
 74
0
  0
LTYPE
  5
1F9
100
AcDbSymbolTableRecord
100
AcDbLinetypeTableRecord
  2
DASHED
 70
64
  3
- - - - - - - - - - - - - - - - - - - -
 72
65
 73
2
 40
0.2
 49
0.1
 74
0
 49
-0.1
 74
0
  0
ENDTAB
  0
TABLE
  2
LAYER
  5
2
100
AcDbSymbolTable
 70
36
  0
LAYER
  5
10
100
AcDbSymbolTableRecord
100
AcDbLayerTableRecord
  2
0
 70
0
 62
7
  6
CONTINUOUS
370
-3
390
F
  0
LAYER
  5
1FA
100
AcDbSymbolTableRecord
100
AcDbLayerTableRecord
  2
DEFAULT_1
 70
0
 62
7
  6
CENTER
370
-3
390
F
  0
LAYER
  5
1FB
100
AcDbSymbolTableRecord
100
AcDbLayerTableRecord
  2
DEFAULT_2
 70
0
 62
7
  6
HIDDEN
370
-3
390
F
  0
LAYER
  5
1FC
100
AcDbSymbolTableRecord
100
AcDbLayerTableRecord
  2
DEFAULT_3
 70
0
 62
7
  6
PHANTOM
370
-3
390
F
  0
LAYER
  5
1FD
100
AcDbSymbolTableRecord
100
AcDbLayerTableRecord
  2
ASSI
 70
0
 62
7
  6
CONTINUOUS
370
-3
390
F
  0
LAYER
  5
1FE
100
AcDbSymbolTableRecord
100
AcDbLayerTableRecord
  2
COORDINATE
 70
0
 62
7
  6
CONTINUOUS
370
-3
390
F
  0
LAYER
  5
1FF
100
AcDbSymbolTableRecord
100
AcDbLayerTableRecord
  2
COORD_ORIGINE
 70
0
 62
7
  6
CONTINUOUS
370
-3
390
F
  0
LAYER
  5
200
100
AcDbSymbolTableRecord
100
AcDbLayerTableRecord
  2
COPY_PUBLISH
 70
0
 62
7
  6
CONTINUOUS
370
-3
390
F
  0
LAYER
  5
201
100
AcDbSymbolTableRecord
100
AcDbLayerTableRecord
  2
COSMETIC
 70
0
 62
7
  6
CONTINUOUS
370
-3
390
F
  0
LAYER
  5
202
100
AcDbSymbolTableRecord
100
AcDbLayerTableRecord
  2
COSMETICI
 70
0
 62
7
  6
CONTINUOUS
370
-3
390
F
  0
LAYER
  5
203
100
AcDbSymbolTableRecord
100
AcDbLayerTableRecord
  2
CURVE
 70
0
 62
7
  6
CONTINUOUS
370
-3
390
F
  0
LAYER
  5
204
100
AcDbSymbolTableRecord
100
AcDbLayerTableRecord
  2
CURVE_TASSELLI
 70
0
 62
7
  6
CONTINUOUS
370
-3
390
F
  0
LAYER
  5
205
100
AcDbSymbolTableRecord
100
AcDbLayerTableRecord
  2
DRAFT
 70
0
 62
7
  6
CONTINUOUS
370
-3
390
F
  0
LAYER
  5
206
100
AcDbSymbolTableRecord
100
AcDbLayerTableRecord
  2
IMPORT_IGES
 70
0
 62
7
  6
CONTINUOUS
370
-3
390
F
  0
LAYER
  5
207
100
AcDbSymbolTableRecord
100
AcDbLayerTableRecord
  2
INTFCLR_2
 70
0
 62
7
  6
CONTINUOUS
370
-3
390
F
  0
LAYER
  5
208
100
AcDbSymbolTableRecord
100
AcDbLayerTableRecord
  2
INTF_1
 70
0
 62
7
  6
CONTINUOUS
370
-3
390
F
  0
LAYER
  5
209
100
AcDbSymbolTableRecord
100
AcDbLayerTableRecord
  2
INTF_7
 70
0
 62
7
  6
CONTINUOUS
370
-3
390
F
  0
LAYER
  5
20A
100
AcDbSymbolTableRecord
100
AcDbLayerTableRecord
  2
NOTE
 70
0
 62
7
  6
CONTINUOUS
370
-3
390
F
  0
LAYER
  5
20B
100
AcDbSymbolTableRecord
100
AcDbLayerTableRecord
  2
PIANI
 70
0
 62
7
  6
CONTINUOUS
370
-3
390
F
  0
LAYER
  5
20C
100
AcDbSymbolTableRecord
100
AcDbLayerTableRecord
  2
PIANI_ORIGINE
 70
0
 62
7
  6
CONTINUOUS
370
-3
390
F
  0
LAYER
  5
20D
100
AcDbSymbolTableRecord
100
AcDbLayerTableRecord
  2
PIANI_RIFERIMENTO
 70
0
 62
7
  6
CONTINUOUS
370
-3
390
F
  0
LAYER
  5
20E
100
AcDbSymbolTableRecord
100
AcDbLayerTableRecord
  2
PUNTI
 70
0
 62
7
  6
CONTINUOUS
370
-3
390
F
  0
LAYER
  5
20F
100
AcDbSymbolTableRecord
100
AcDbLayerTableRecord
  2
RACCORDO
 70
0
 62
7
  6
CONTINUOUS
370
-3
390
F
  0
LAYER
  5
210
100
AcDbSymbolTableRecord
100
AcDbLayerTableRecord
  2
RGB__255__255__255__
 70
0
 62
7
  6
CONTINUOUS
370
-3
390
F
  0
LAYER
  5
211
100
AcDbSymbolTableRecord
100
AcDbLayerTableRecord
  2
RGB____0____0____0__
 70
0
 62
7
  6
CONTINUOUS
370
-3
390
F
  0
LAYER
  5
212
100
AcDbSymbolTableRecord
100
AcDbLayerTableRecord
  2
SIMBOLI
 70
0
 62
7
  6
CONTINUOUS
370
-3
390
F
  0
LAYER
  5
213
100
AcDbSymbolTableRecord
100
AcDbLayerTableRecord
  2
SMUSSO
 70
0
 62
7
  6
CONTINUOUS
370
-3
390
F
  0
LAYER
  5
214
100
AcDbSymbolTableRecord
100
AcDbLayerTableRecord
  2
SNAPLINE
 70
0
 62
7
  6
CONTINUOUS
370
-3
390
F
  0
LAYER
  5
215
100
AcDbSymbolTableRecord
100
AcDbLayerTableRecord
  2
SUPERFICI
 70
0
 62
7
  6
CONTINUOUS
370
-3
390
F
  0
LAYER
  5
216
100
AcDbSymbolTableRecord
100
AcDbLayerTableRecord
  2
TRASH
 70
0
 62
7
  6
CONTINUOUS
370
-3
390
F
  0
LAYER
  5
217
100
AcDbSymbolTableRecord
100
AcDbLayerTableRecord
  2
WHITE
 70
0
 62
7
  6
CONTINUOUS
370
-3
390
F
  0
LAYER
  5
218
100
AcDbSymbolTableRecord
100
AcDbLayerTableRecord
  2
XSEC_DATUMS
 70
0
 62
7
  6
CONTINUOUS
370
-3
390
F
  0
ENDTAB
  0
TABLE
  2
STYLE
  5
3
100
AcDbSymbolTable
 70
1
  0
STYLE
  5
11
100
AcDbSymbolTableRecord
100
AcDbTextStyleTableRecord
  2
STANDARD
 70
0
 40
0.0
 41
0.8
 50
0.0
 71
0
 42
0.2
  3
txt
  4

  0
STYLE
  5
219
100
AcDbSymbolTableRecord
100
AcDbTextStyleTableRecord
  2
TEXTSTYLE_1
 70
0
 40
0.0
 41
0.8
 50
0.0
 71
0
 42
0.2
  3
gdt
  4

  0
ENDTAB
  0
TABLE
  2
VIEW
  5
6
100
AcDbSymbolTable
 70
0
  0
ENDTAB
  0
TABLE
  2
UCS
  5
7
100
AcDbSymbolTable
 70
0
  0
ENDTAB
  0
TABLE
  2
APPID
  5
9
100
AcDbSymbolTable
 70
1
  0
APPID
  5
21A
100
AcDbSymbolTableRecord
100
AcDbRegAppTableRecord
  2
ACAD
 70
0
  0
ENDTAB
  0
TABLE
  2
BLOCK_RECORD
  5
1
100
AcDbSymbolTable
 70
0
  0
BLOCK_RECORD
  5
21B
100
AcDbSymbolTableRecord
100
AcDbBlockTableRecord
  2
*Model_Space
  0
BLOCK_RECORD
  5
21C
100
AcDbSymbolTableRecord
100
AcDbBlockTableRecord
  2
*Paper_Space
  0
BLOCK_RECORD
  5
21D
100
AcDbSymbolTableRecord
100
AcDbBlockTableRecord
  2
_FILLED
  0
ENDTAB
  0
TABLE
  2
DIMSTYLE
  5
A
100
AcDbSymbolTable
 70
1
100
AcDbDimStyleTable
 71
0
  0
DIMSTYLE
105
21E
100
AcDbSymbolTableRecord
100
AcDbDimStyleTableRecord
  2
STANDARD
 70
0
  3

  4

 40
1.0
 41
3.0
 42
0.5
 43
0.38
 44
1.5
 45
0.0
 46
0.0
 47
0.01
 48
0.01
140
3.0
141
0.09
142
0.0
143
25.4
144
1.0
145
0.0
146
1.0
147
0.625
 71
1.0
 72
0.0
 73
0
 74
0
 75
0
 76
0
 77
1
 78
8
 79
2
170
0
171
1
172
0
173
0
174
0
175
0
176
0
177
0
178
0
270
2
179
2
271
2
272
2
273
2
274
2
275
0
280
0
281
0
282
0
283
1
284
8
285
0
286
0
287
3
288
0
340
11
278
44
341
21D
342
21D
343
21D
344
21D
  0
ENDTAB
  0
ENDSEC
  0
SECTION
  2
BLOCKS
  0
BLOCK
  5
20
100
AcDbEntity
  8
0
100
AcDbBlockBegin
  2
*Model_Space
 70
0
 10
0.0
 20
0.0
 30
0.0
  3
*Model_Space
  1

  0
ENDBLK
  5
21
100
AcDbEntity
  8
0
100
AcDbBlockEnd
  0
BLOCK
  5
1C
100
AcDbEntity
  8
0
100
AcDbBlockBegin
  2
*Paper_Space
 70
0
 10
0.0
 20
0.0
 30
0.0
  3
*Paper_Space
  1

  0
ENDBLK
  5
1D
100
AcDbEntity
  8
0
100
AcDbBlockEnd
  0
BLOCK
  5
21F
100
AcDbEntity
  8
0
100
AcDbBlockBegin
  2
_FILLED
 70
64
 10
0.0
 20
0.0
  3
_FILLED
  1

  0
SOLID
  5
220
100
AcDbEntity
  8
0
  6
BYBLOCK
 62
0
100
AcDbTrace
 10
0.0
 20
0.0
 11
-1.0
 21
0.3166666667
 12
-1.0
 22
-0.3166666667
 13
-1.0
 23
-0.3166666667
  0
ENDBLK
  5
221
100
AcDbEntity
  8
0
  6
BYBLOCK
 62
0
100
AcDbBlockEnd
  0
ENDSEC
  0
SECTION
  2
ENTITIES
  0
LINE
  5
222
100
AcDbEntity
  8
ASSI
100
AcDbLine
 62
7
  6
CONTINUOUS
 10
77.7161101235
 20
184.3764116197
 11
81.5039239107
 21
186.8799785111
  0
LINE
  5
223
100
AcDbEntity
  8
ASSI
100
AcDbLine
 62
7
  6
CONTINUOUS
 10
78.4236473928
 20
184.7848558136
 11
82.21146118
 21
187.2884227049
  0
LINE
  5
224
100
AcDbEntity
  8
ASSI
100
AcDbLine
 62
7
  6
CONTINUOUS
 10
78.4028837787
 20
184.7720164626
 11
78.4236473928
 21
184.7848558136
  0
LINE
  5
225
100
AcDbEntity
  8
ASSI
100
AcDbLine
 62
7
  6
CONTINUOUS
 10
81.5039239107
 20
186.8799785111
 11
82.21146118
 21
187.2884227049
  0
LINE
  5
226
100
AcDbEntity
  8
ASSI
100
AcDbLine
 62
7
  6
CONTINUOUS
 10
78.4028837787
 20
184.7720164626
 11
77.716485431
 21
184.3757752582
  0
LINE
  5
227
100
AcDbEntity
  8
ASSI
100
AcDbLine
 62
7
  6
CONTINUOUS
 10
78.0201944788
 20
183.3567880242
 11
77.7412185447
 21
183.1957419487
  0
LINE
  5
228
100
AcDbEntity
  8
ASSI
100
AcDbLine
 62
7
  6
CONTINUOUS
 10
78.0201944788
 20
183.3567880242
 11
78.4028837787
 21
184.7720164626
  0
LINE
  5
229
100
AcDbEntity
  8
ASSI
100
AcDbLine
 62
7
  6
CONTINUOUS
 10
77.7412185447
 20
112.3641083493
 11
77.716485431
 21
112.8203439268
  0
LINE
  5
22A
100
AcDbEntity
  8
ASSI
100
AcDbLine
 62
7
  6
CONTINUOUS
 10
77.7412185447
 20
183.1957419487
 11
77.716485431
 21
184.3757752582
  0
LINE
  5
22B
100
AcDbEntity
  8
ASSI
100
AcDbLine
 62
7
  6
CONTINUOUS
 10
77.716485431
 20
112.8203439268
 11
77.7161101235
 21
112.8445367875
  0
LINE
  5
22C
100
AcDbEntity
  8
ASSI
100
AcDbLine
 62
7
  6
CONTINUOUS
 10
77.7161101235
 20
184.3764116197
 11
77.7161101235
 21
112.8445367875
  0
LINE
  5
22D
100
AcDbEntity
  8
ASSI
100
AcDbLine
 62
7
  6
CONTINUOUS
 10
77.7412185447
 20
183.1957419487
 11
77.7412185447
 21
112.3641083493
  0
LINE
  5
22E
100
AcDbEntity
  8
ASSI
100
AcDbLine
 62
7
  6
CONTINUOUS
 10
96.282011021
 20
155.612507598
 11
96.2822768653
 21
155.6126406722
  0
LINE
  5
22F
100
AcDbEntity
  8
ASSI
100
AcDbLine
 62
250
  6
CONTINUOUS
 10
96.1720672745
 20
155.3801517821
 11
96.4933163051
 21
155.5406032552
  0
LWPOLYLINE
  5
230
100
AcDbEntity
  8
ASSI
100
AcDbPolyline
 62
7
  6
CONTINUOUS
 90
13
 70
0
 10
96.2820005261
 20
155.6125014034
 10
96.2842187555
 20
155.6135378972
 10
96.2892294569
 20
155.6152839482
 10
96.2959879687
 20
155.6167239212
 10
96.3047042326
 20
155.617553454
 10
96.3154865897
 20
155.6174591894
 10
96.3283416264
 20
155.6161325282
 10
96.3432625413
 20
155.6132872197
 10
96.3599351893
 20
155.6087346701
 10
96.3778161715
 20
155.602460572
 10
96.3965721147
 20
155.5945022819
 10
96.4160567506
 20
155.5848664043
 10
96.4302830066
 20
155.5769979242
  0
LWPOLYLINE
  5
231
100
AcDbEntity
  8
ASSI
100
AcDbPolyline
 62
250
  6
CONTINUOUS
 90
14
 70
0
 10
96.1720672745
 20
155.3801517821
 10
96.1724657369
 20
155.4056432183
 10
96.1743412686
 20
155.4302693426
 10
96.1776920556
 20
155.4539197098
 10
96.1825133884
 20
155.476510037
 10
96.188791717
 20
155.4979100242
 10
96.1964894145
 20
155.517958929
 10
96.2055623307
 20
155.5365633551
 10
96.2159701753
 20
155.5536644503
 10
96.2276558226
 20
155.5691816523
 10
96.2405501352
 20
155.5830479954
 10
96.2546021945
 20
155.5952321952
 10
96.2697782146
 20
155.605713683
 10
96.282011021
 20
155.612507598
  0
LWPOLYLINE
  5
232
100
AcDbEntity
  8
ASSI
100
AcDbPolyline
 62
250
  6
CONTINUOUS
 90
25
 70
0
 10
95.8942462462
 20
155.3829517557
 10
95.8952664254
 20
155.4191120823
 10
95.8983019926
 20
155.453742231
 10
95.9033529479
 20
155.4868422018
 10
95.9104626309
 20
155.5185729381
 10
95.919587702
 20
155.5487734965
 10
95.9305981417
 20
155.5769610467
 10
95.943524577
 20
155.6030721738
 10
95.9583363809
 20
155.6271702927
 10
95.9748116531
 20
155.6489628167
 10
95.992949979
 20
155.6684034826
 10
96.0127517732
 20
155.6855385537
 10
96.033996379
 20
155.7002142336
 10
96.0565895602
 20
155.7124259541
 10
96.0806255529
 20
155.7221782835
 10
96.1061664091
 20
155.7293311295
 10
96.1333338005
 20
155.7339390666
 10
96.1620060555
 20
155.7359475204
 10
96.1918802108
 20
155.7350526763
 10
96.2231085991
 20
155.7311381537
 10
96.2555388877
 20
155.7243203331
 10
96.288411115
 20
155.7146445418
 10
96.3214719605
 20
155.7021258888
 10
96.3549747448
 20
155.6867492652
 10
96.3889194678
 20
155.6685146709
  0
LINE
  5
233
100
AcDbEntity
  8
ASSI
100
AcDbLine
 62
7
  6
CONTINUOUS
 10
225.9101680547
 20
26.8132138953
 11
227.3271271856
 21
26.4370344395
  0
LINE
  5
234
100
AcDbEntity
  8
ASSI
100
AcDbLine
 62
7
  6
CONTINUOUS
 10
77.7412185447
 20
112.3641083493
 11
78.0201944788
 21
111.8809078578
  0
LWPOLYLINE
  5
235
100
AcDbEntity
  8
ASSI
100
AcDbPolyline
 62
250
  6
CONTINUOUS
 90
9
 70
0
 10
96.3889194678
 20
155.6685146709
 10
96.3896601691
 20
155.6522514325
 10
96.391874514
 20
155.6370138965
 10
96.3955393071
 20
155.6229616774
 10
96.4006161592
 20
155.6102419736
 10
96.4070518899
 20
155.5989880254
 10
96.4147790843
 20
155.5893177188
 10
96.4237167992
 20
155.5813323513
 10
96.4302830066
 20
155.5769979242
  0
LINE
  5
236
100
AcDbEntity
  8
ASSI
100
AcDbLine
 62
250
  6
CONTINUOUS
 10
95.8942462462
 20
119.2142371743
 11
95.8942462462
 21
155.3829517557
  0
LINE
  5
237
100
AcDbEntity
  8
ASSI
100
AcDbLine
 62
250
  6
CONTINUOUS
 10
96.1720672745
 20
119.2114372007
 11
96.1720672745
 21
155.3801517821
  0
LINE
  5
238
100
AcDbEntity
  8
ASSI
100
AcDbLine
 62
7
  6
CONTINUOUS
 10
97.201694453
 20
155.1315945906
 11
97.201694453
 21
119.8059271523
  0
LINE
  5
239
100
AcDbEntity
  8
ASSI
100
AcDbLine
 62
7
  6
CONTINUOUS
 10
97.7426871651
 20
120.1183081015
 11
97.7426871651
 21
154.8192321789
  0
LINE
  5
23A
100
AcDbEntity
  8
0
100
AcDbLine
 62
250
  6
CONTINUOUS
 10
97.9000962315
 20
119.6880511834
 11
97.9000962315
 21
154.7283461568
  0
LINE
  5
23B
100
AcDbEntity
  8
0
100
AcDbLine
 62
7
  6
CONTINUOUS
 10
97.9842942914
 20
119.5920128399
 11
97.9842942914
 21
154.6797312522
  0
LWPOLYLINE
  5
23C
100
AcDbEntity
  8
ASSI
100
AcDbPolyline
 62
250
  6
CONTINUOUS
 90
16
 70
0
 10
96.3889194678
 20
118.3574380223
 10
96.3896601816
 20
118.3745567519
 10
96.3918745598
 20
118.3923514907
 10
96.3955394
 20
118.4106358321
 10
96.400616306
 20
118.4292182408
 10
96.4070520908
 20
118.447904063
 10
96.4147793341
 20
118.4664975644
 10
96.4237170871
 20
118.4848039757
 10
96.433771722
 20
118.5026315375
 10
96.4448379147
 20
118.5197935114
 10
96.4567997431
 20
118.5361101263
 10
96.4695319047
 20
118.5514104683
 10
96.4829010326
 20
118.5655342741
 10
96.4967670858
 20
118.5783336004
 10
96.5109848153
 20
118.5896743751
 10
96.5254052899
 20
118.5994378064
  0
LINE
  5
23D
100
AcDbEntity
  8
0
100
AcDbLine
 62
7
  6
CONTINUOUS
 10
105.6215176172
 20
115.1611836908
 11
105.6869758273
 21
115.2745606362
  0
LINE
  5
23E
100
AcDbEntity
  8
0
100
AcDbLine
 62
7
  6
CONTINUOUS
 10
105.9344632007
 20
115.2949862024
 11
106.0405292178
 21
115.4786979329
  0
LINE
  5
23F
100
AcDbEntity
  8
0
100
AcDbLine
 62
7
  6
CONTINUOUS
 10
106.2880165913
 20
115.4991234991
 11
106.3940826084
 21
115.6828352296
  0
LINE
  5
240
100
AcDbEntity
  8
0
100
AcDbLine
 62
7
  6
CONTINUOUS
 10
106.6415699819
 20
115.7032607957
 11
106.747635999
 21
115.8869725262
  0
LINE
  5
241
100
AcDbEntity
  8
0
100
AcDbLine
 62
7
  6
CONTINUOUS
 10
106.9951233724
 20
115.9073980924
 11
107.1011893896
 21
116.0911098229
  0
LINE
  5
242
100
AcDbEntity
  8
0
100
AcDbLine
 62
250
  6
CONTINUOUS
 10
112.7690636341
 20
114.4756980281
 11
112.7690636341
 21
114.0683283902
  0
LINE
  5
243
100
AcDbEntity
  8
0
100
AcDbLine
 62
7
  6
CONTINUOUS
 10
112.820434669
 20
114.5422755349
 11
112.820434669
 21
114.098873685
  0
LINE
  5
244
100
AcDbEntity
  8
0
100
AcDbLine
 62
250
  6
CONTINUOUS
 10
110.8190367465
 20
112.7795275323
 11
110.8245842211
 21
112.7966907366
  0
LINE
  5
245
100
AcDbEntity
  8
0
100
AcDbLine
 62
7
  6
CONTINUOUS
 10
109.5106049137
 20
112.9156734275
 11
109.5760631238
 21
113.0290503729
  0
LINE
  5
246
100
AcDbEntity
  8
0
100
AcDbLine
 62
7
  6
CONTINUOUS
 10
109.8235504972
 20
113.0494759391
 11
109.9296165144
 21
113.2331876696
  0
LINE
  5
247
100
AcDbEntity
  8
0
100
AcDbLine
 62
7
  6
CONTINUOUS
 10
110.1771038878
 20
113.2536132358
 11
110.283169905
 21
113.4373249663
  0
LINE
  5
248
100
AcDbEntity
  8
0
100
AcDbLine
 62
7
  6
CONTINUOUS
 10
110.5306572784
 20
113.4577505324
 11
110.6367232956
 21
113.6414622629
  0
LINE
  5
249
100
AcDbEntity
  8
0
100
AcDbLine
 62
7
  6
CONTINUOUS
 10
110.884210669
 20
113.6618878291
 11
110.9902766862
 21
113.8455995596
  0
LINE
  5
24A
100
AcDbEntity
  8
ASSI
100
AcDbLine
 62
250
  6
CONTINUOUS
 10
96.1720672745
 20
119.2114372007
 11
97.7426871651
 21
120.1183081015
  0
LINE
  5
24B
100
AcDbEntity
  8
ASSI
100
AcDbLine
 62
250
  6
CONTINUOUS
 10
96.5254052899
 20
118.5994378064
 11
98.0960251805
 21
119.5063087072
  0
LINE
  5
24C
100
AcDbEntity
  8
ASSI
100
AcDbLine
 62
7
  6
CONTINUOUS
 10
78.0201944788
 20
111.8809078578
 11
78.4028837787
 21
111.6314671157
  0
LWPOLYLINE
  5
24D
100
AcDbEntity
  8
0
100
AcDbPolyline
 62
250
  6
CONTINUOUS
 90
11
 70
0
 10
110.8245842211
 20
112.7966907366
 10
110.8265530171
 20
112.7921056594
 10
110.8282163741
 20
112.7877543721
 10
110.8295597044
 20
112.7836546129
 10
110.8305620461
 20
112.7798479408
 10
110.8312206745
 20
112.7763241037
 10
110.8315273369
 20
112.773043525
 10
110.8314466929
 20
112.7700393486
 10
110.8309403127
 20
112.767361008
 10
110.829959591
 20
112.7650292917
 10
110.8285088519
 20
112.7631553155
  0
LINE
  5
24E
100
AcDbEntity
  8
0
100
AcDbLine
 62
250
  6
CONTINUOUS
 10
110.8245842211
 20
112.7966907366
 11
111.160529186
 21
113.1234443264
  0
LINE
  5
24F
100
AcDbEntity
  8
0
100
AcDbLine
 62
7
  6
CONTINUOUS
 10
110.8285090786
 20
112.7631555359
 11
111.2574934593
 21
113.180403005
  0
LWPOLYLINE
  5
250
100
AcDbEntity
  8
0
100
AcDbPolyline
 62
250
  6
CONTINUOUS
 90
6
 70
0
 10
110.769894791
 20
112.7186915615
 10
110.782206504
 20
112.72711601
 10
110.7934806578
 20
112.7375697771
 10
110.8034263551
 20
112.7498545554
 10
110.8119661544
 20
112.7638757276
 10
110.8190367465
 20
112.7795275323
  0
LINE
  5
251
100
AcDbEntity
  8
0
100
AcDbLine
 62
7
  6
CONTINUOUS
 10
111.5225430068
 20
113.8241812702
 11
109.8237856871
 21
112.734846774
  0
LINE
  5
252
100
AcDbEntity
  8
0
100
AcDbLine
 62
7
  6
CONTINUOUS
 10
105.6869758273
 20
115.2745606362
 11
105.8283971835
 21
115.3562155549
  0
LINE
  5
253
100
AcDbEntity
  8
0
100
AcDbLine
 62
7
  6
CONTINUOUS
 10
106.0405292178
 20
115.4786979329
 11
106.1819505741
 21
115.5603528516
  0
LINE
  5
254
100
AcDbEntity
  8
0
100
AcDbLine
 62
7
  6
CONTINUOUS
 10
106.3940826084
 20
115.6828352296
 11
106.5355039647
 21
115.7644901482
  0
LINE
  5
255
100
AcDbEntity
  8
0
100
AcDbLine
 62
7
  6
CONTINUOUS
 10
106.747635999
 20
115.8869725262
 11
106.8890573553
 21
115.9686274449
  0
LINE
  5
256
100
AcDbEntity
  8
0
100
AcDbLine
 62
7
  6
CONTINUOUS
 10
107.1011893896
 20
116.0911098229
 11
107.2426107459
 21
116.1727647416
  0
LINE
  5
257
100
AcDbEntity
  8
0
100
AcDbLine
 62
7
  6
CONTINUOUS
 10
105.3895446096
 20
115.2951219981
 11
107.2762057485
 21
116.2759631841
  0
LINE
  5
258
100
AcDbEntity
  8
ASSI
100
AcDbLine
 62
7
  6
CONTINUOUS
 10
78.4236473928
 20
111.6190462901
 11
226.6410912682
 21
26.0401517974
  0
LINE
  5
259
100
AcDbEntity
  8
ASSI
100
AcDbLine
 62
7
  6
CONTINUOUS
 10
78.0201944788
 20
111.8809078578
 11
225.6311921206
 21
26.6521678198
  0
LINE
  5
25A
100
AcDbEntity
  8
ASSI
100
AcDbLine
 62
7
  6
CONTINUOUS
 10
78.4236473928
 20
111.6190462901
 11
78.4028837787
 21
111.6314671157
  0
LINE
  5
25B
100
AcDbEntity
  8
ASSI
100
AcDbLine
 62
7
  6
CONTINUOUS
 10
225.6311921206
 20
26.6521678198
 11
226.640728838
 21
26.040793235
  0
LINE
  5
25C
100
AcDbEntity
  8
0
100
AcDbLine
 62
250
  6
CONTINUOUS
 10
128.6154680872
 20
105.2742478335
 11
128.6154680872
 21
104.8452251395
  0
LINE
  5
25D
100
AcDbEntity
  8
0
100
AcDbLine
 62
7
  6
CONTINUOUS
 10
128.6925246395
 20
105.3887525038
 11
128.6925246395
 21
104.990706719
  0
LINE
  5
25E
100
AcDbEntity
  8
0
100
AcDbLine
 62
7
  6
CONTINUOUS
 10
110.1642982233
 20
112.5382391033
 11
112.7690636341
 21
114.0683283902
  0
LINE
  5
25F
100
AcDbEntity
  8
0
100
AcDbLine
 62
7
  6
CONTINUOUS
 10
110.7698947329
 20
112.7186915278
 11
110.3119618077
 21
112.4529800003
  0
LINE
  5
260
100
AcDbEntity
  8
0
100
AcDbLine
 62
250
  6
CONTINUOUS
 10
110.8245842211
 20
112.7966907366
 11
110.2718135276
 21
112.4761611141
  0
LINE
  5
261
100
AcDbEntity
  8
0
100
AcDbLine
 62
7
  6
CONTINUOUS
 10
109.5760631238
 20
113.0290503729
 11
109.71748448
 21
113.1107052916
  0
LINE
  5
262
100
AcDbEntity
  8
0
100
AcDbLine
 62
7
  6
CONTINUOUS
 10
109.9296165144
 20
113.2331876696
 11
110.0710378706
 21
113.3148425883
  0
LINE
  5
263
100
AcDbEntity
  8
0
100
AcDbLine
 62
7
  6
CONTINUOUS
 10
110.283169905
 20
113.4373249663
 11
110.4245912612
 21
113.5189798849
  0
LINE
  5
264
100
AcDbEntity
  8
0
100
AcDbLine
 62
7
  6
CONTINUOUS
 10
110.6367232956
 20
113.6414622629
 11
110.7781446518
 21
113.7231171816
  0
LINE
  5
265
100
AcDbEntity
  8
0
100
AcDbLine
 62
7
  6
CONTINUOUS
 10
110.9902766862
 20
113.8455995596
 11
111.1316980424
 21
113.9272544783
  0
LINE
  5
266
100
AcDbEntity
  8
0
100
AcDbLine
 62
7
  6
CONTINUOUS
 10
111.2377640596
 20
113.8660251257
 11
109.5512087966
 21
112.8922292544
  0
LINE
  5
267
100
AcDbEntity
  8
0
100
AcDbLine
 62
7
  6
CONTINUOUS
 10
112.7690636341
 20
114.4756980281
 11
111.5892153628
 21
113.8628831816
  0
LINE
  5
268
100
AcDbEntity
  8
0
100
AcDbLine
 62
7
  6
CONTINUOUS
 10
107.3502529014
 20
116.3104069801
 11
108.6606071571
 21
116.8478693068
  0
LINE
  5
269
100
AcDbEntity
  8
ASSI
100
AcDbLine
 62
7
  6
CONTINUOUS
 10
225.9101680547
 20
97.6448474947
 11
227.3271271856
 21
97.9924657708
  0
LWPOLYLINE
  5
26A
100
AcDbEntity
  8
CURVE
100
AcDbPolyline
 62
250
  6
CONTINUOUS
 90
73
 70
0
 10
154.516485719
 20
82.2033008588
 10
154.5201579181
 20
82.2020346279
 10
154.5237194698
 20
82.2013452463
 10
154.5271895986
 20
82.2010978475
 10
154.530587529
 20
82.2011575651
 10
154.5339324856
 20
82.2013895329
 10
154.5442563578
 20
82.2024514728
 10
154.5542752462
 20
82.2039724707
 10
154.5640198928
 20
82.206039706
 10
154.5738631416
 20
82.2088266742
 10
154.5834468292
 20
82.212230356
 10
154.5927732553
 20
82.2161862852
 10
154.6018447192
 20
82.2206299959
 10
154.6126012051
 20
82.2266577969
 10
154.6229696196
 20
82.2333196182
 10
154.6329403511
 20
82.2406154014
 10
154.6425037881
 20
82.2485450881
 10
154.6509678695
 20
82.2564316792
 10
154.6590675465
 20
82.2648477524
 10
154.6667941883
 20
82.2737818883
 10
154.6741391637
 20
82.2832226675
 10
154.6810938419
 20
82.2931586706
 10
154.6884575628
 20
82.3049412472
 10
154.6953076581
 20
82.3173203874
 10
154.7016376766
 20
82.3302775739
 10
154.7074411672
 20
82.3437942891
 10
154.7127116785
 20
82.3578520157
 10
154.7171715519
 20
82.3715280924
 10
154.7211591105
 20
82.3856416403
 10
154.7246777485
 20
82.4001693571
 10
154.7277308603
 20
82.4150879407
 10
154.7303218401
 20
82.430374089
 10
154.7324540823
 20
82.4460044998
 10
154.7342808591
 20
82.463625844
 10
154.7355703355
 20
82.4816112674
 10
154.7363397418
 20
82.499933974
 10
154.736604051
 20
82.5199643586
 10
154.736294569
 20
82.5403269202
 10
154.7354178372
 20
82.5609954991
 10
154.7342983827
 20
82.5778758774
 10
154.7327979684
 20
82.5949331695
 10
154.7309005429
 20
82.6121621582
 10
154.7287313171
 20
82.6285830418
 10
154.7261883022
 20
82.6451437105
 10
154.7232660089
 20
82.6618355112
 10
154.7195740914
 20
82.6804964679
 10
154.7154065485
 20
82.6992856779
 10
154.7107614113
 20
82.7181806205
 10
154.7056367113
 20
82.737158775
 10
154.7000304797
 20
82.7561976209
 10
154.6945008454
 20
82.7735839074
 10
154.6885753574
 20
82.7909832194
 10
154.682259815
 20
82.8083768734
 10
154.6755600177
 20
82.8257461857
 10
154.6684817647
 20
82.8430724729
 10
154.6599117331
 20
82.8628541912
 10
154.6508647603
 20
82.8825286207
 10
154.6413534433
 20
82.9020695359
 10
154.631390379
 20
82.9214507115
 10
154.6211560268
 20
82.9403453082
 10
154.610511359
 20
82.9590374385
 10
154.599471472
 20
82.9775047834
 10
154.588051462
 20
82.9957250237
 10
154.5762664252
 20
83.0136758405
 10
154.5641314579
 20
83.0313349145
 10
154.5516616564
 20
83.0486799268
 10
154.542368951
 20
83.0611072672
 10
154.53290571
 20
83.073318249
 10
154.5232712751
 20
83.0852752336
 10
154.5134649883
 20
83.096940582
 10
154.5034861911
 20
83.1082766555
 10
154.4933342255
 20
83.1192458153
 10
154.4830084331
 20
83.1298104226
  0
LWPOLYLINE
  5
26B
100
AcDbEntity
  8
IMPORT_IGES
100
AcDbPolyline
 62
7
  6
CONTINUOUS
 90
73
 70
0
 10
154.516485719
 20
82.2033008588
 10
154.5201579181
 20
82.2020346279
 10
154.5237194698
 20
82.2013452463
 10
154.5271895986
 20
82.2010978475
 10
154.530587529
 20
82.2011575651
 10
154.5339324856
 20
82.2013895329
 10
154.5442563578
 20
82.2024514728
 10
154.5542752462
 20
82.2039724707
 10
154.5640198928
 20
82.206039706
 10
154.5738631416
 20
82.2088266742
 10
154.5834468292
 20
82.212230356
 10
154.5927732553
 20
82.2161862852
 10
154.6018447192
 20
82.2206299959
 10
154.6126012051
 20
82.2266577969
 10
154.6229696196
 20
82.2333196182
 10
154.6329403511
 20
82.2406154014
 10
154.6425037881
 20
82.2485450881
 10
154.6509678695
 20
82.2564316792
 10
154.6590675465
 20
82.2648477524
 10
154.6667941883
 20
82.2737818883
 10
154.6741391637
 20
82.2832226675
 10
154.6810938419
 20
82.2931586706
 10
154.6884575628
 20
82.3049412472
 10
154.6953076581
 20
82.3173203874
 10
154.7016376766
 20
82.3302775739
 10
154.7074411672
 20
82.3437942891
 10
154.7127116785
 20
82.3578520157
 10
154.7171715519
 20
82.3715280924
 10
154.7211591105
 20
82.3856416403
 10
154.7246777485
 20
82.4001693571
 10
154.7277308603
 20
82.4150879407
 10
154.7303218401
 20
82.430374089
 10
154.7324540823
 20
82.4460044998
 10
154.7342808591
 20
82.463625844
 10
154.7355703355
 20
82.4816112674
 10
154.7363397418
 20
82.499933974
 10
154.736604051
 20
82.5199643586
 10
154.736294569
 20
82.5403269202
 10
154.7354178372
 20
82.5609954991
 10
154.7342983827
 20
82.5778758774
 10
154.7327979684
 20
82.5949331695
 10
154.7309005429
 20
82.6121621582
 10
154.7287313171
 20
82.6285830418
 10
154.7261883022
 20
82.6451437105
 10
154.7232660089
 20
82.6618355112
 10
154.7195740914
 20
82.6804964679
 10
154.7154065485
 20
82.6992856779
 10
154.7107614113
 20
82.7181806205
 10
154.7056367113
 20
82.737158775
 10
154.7000304797
 20
82.7561976209
 10
154.6945008454
 20
82.7735839074
 10
154.6885753574
 20
82.7909832194
 10
154.682259815
 20
82.8083768734
 10
154.6755600177
 20
82.8257461857
 10
154.6684817647
 20
82.8430724729
 10
154.6599117331
 20
82.8628541912
 10
154.6508647603
 20
82.8825286207
 10
154.6413534433
 20
82.9020695359
 10
154.631390379
 20
82.9214507115
 10
154.6211560268
 20
82.9403453082
 10
154.610511359
 20
82.9590374385
 10
154.599471472
 20
82.9775047834
 10
154.588051462
 20
82.9957250237
 10
154.5762664252
 20
83.0136758405
 10
154.5641314579
 20
83.0313349145
 10
154.5516616564
 20
83.0486799268
 10
154.542368951
 20
83.0611072672
 10
154.53290571
 20
83.073318249
 10
154.5232712751
 20
83.0852752336
 10
154.5134649883
 20
83.096940582
 10
154.5034861911
 20
83.1082766555
 10
154.4933342255
 20
83.1192458153
 10
154.4830084331
 20
83.1298104226
  0
LWPOLYLINE
  5
26C
100
AcDbEntity
  8
CURVE
100
AcDbPolyline
 62
250
  6
CONTINUOUS
 90
23
 70
0
 10
153.9943333753
 20
83.1458788389
 10
154.0061430713
 20
83.1413314303
 10
154.0179736951
 20
83.1366575749
 10
154.0298240416
 20
83.1318463435
 10
154.0416929058
 20
83.1268868069
 10
154.0535790829
 20
83.1217680358
 10
154.0654813679
 20
83.1164791009
 10
154.0773985557
 20
83.111009073
 10
154.0893294415
 20
83.1053470228
 10
154.1012728202
 20
83.0994820212
 10
154.1132274869
 20
83.0934031387
 10
154.1251922366
 20
83.0870994462
 10
154.136434547
 20
83.0809686376
 10
154.1476820223
 20
83.0746361378
 10
154.1589320003
 20
83.0681080963
 10
154.1701818183
 20
83.0613906628
 10
154.1814288141
 20
83.0544899869
 10
154.1926703252
 20
83.0474122181
 10
154.2039036891
 20
83.0401635062
 10
154.2151262435
 20
83.0327500008
 10
154.226335326
 20
83.0251778514
 10
154.2375282741
 20
83.0174532076
 10
154.2487024254
 20
83.0095822192
  0
LWPOLYLINE
  5
26D
100
AcDbEntity
  8
IMPORT_IGES
100
AcDbPolyline
 62
7
  6
CONTINUOUS
 90
23
 70
0
 10
153.9943333753
 20
83.1458788389
 10
154.0061430713
 20
83.1413314303
 10
154.0179736951
 20
83.1366575749
 10
154.0298240416
 20
83.1318463435
 10
154.0416929058
 20
83.1268868069
 10
154.0535790829
 20
83.1217680358
 10
154.0654813679
 20
83.1164791009
 10
154.0773985557
 20
83.111009073
 10
154.0893294415
 20
83.1053470228
 10
154.1012728202
 20
83.0994820212
 10
154.1132274869
 20
83.0934031387
 10
154.1251922366
 20
83.0870994462
 10
154.136434547
 20
83.0809686376
 10
154.1476820223
 20
83.0746361378
 10
154.1589320003
 20
83.0681080963
 10
154.1701818183
 20
83.0613906628
 10
154.1814288141
 20
83.0544899869
 10
154.1926703252
 20
83.0474122181
 10
154.2039036891
 20
83.0401635062
 10
154.2151262435
 20
83.0327500008
 10
154.226335326
 20
83.0251778514
 10
154.2375282741
 20
83.0174532076
 10
154.2487024254
 20
83.0095822192
  0
LINE
  5
26E
100
AcDbEntity
  8
CURVE
100
AcDbLine
 62
250
  6
CONTINUOUS
 10
153.5863652652
 20
81.8913319465
 11
153.2441507851
 21
82.0889222983
  0
LINE
  5
26F
100
AcDbEntity
  8
IMPORT_IGES
100
AcDbLine
 62
7
  6
CONTINUOUS
 10
153.5863652652
 20
81.8913319465
 11
153.2441507851
 21
82.0889222983
  0
LINE
  5
270
100
AcDbEntity
  8
CURVE
100
AcDbLine
 62
250
  6
CONTINUOUS
 10
152.6282616148
 20
82.4445289864
 11
152.3070896888
 21
82.6299696312
  0
LINE
  5
271
100
AcDbEntity
  8
IMPORT_IGES
100
AcDbLine
 62
7
  6
CONTINUOUS
 10
152.6282616148
 20
82.4445289864
 11
152.3070896888
 21
82.6299696312
  0
LINE
  5
272
100
AcDbEntity
  8
CURVE
100
AcDbLine
 62
250
  6
CONTINUOUS
 10
152.2561041271
 20
82.6594080556
 11
151.9384664552
 21
82.8428080663
  0
LINE
  5
273
100
AcDbEntity
  8
IMPORT_IGES
100
AcDbLine
 62
7
  6
CONTINUOUS
 10
152.2561041271
 20
82.6594080556
 11
151.9384664552
 21
82.8428080663
  0
LINE
  5
274
100
AcDbEntity
  8
CURVE
100
AcDbLine
 62
250
  6
CONTINUOUS
 10
151.4856944881
 20
83.1042329256
 11
151.4401566114
 21
83.1305259249
  0
LINE
  5
275
100
AcDbEntity
  8
IMPORT_IGES
100
AcDbLine
 62
7
  6
CONTINUOUS
 10
151.4856944881
 20
83.1042329256
 11
151.4401566114
 21
83.1305259249
  0
LINE
  5
276
100
AcDbEntity
  8
CURVE
100
AcDbLine
 62
250
  6
CONTINUOUS
 10
150.9891810321
 20
83.3909135723
 11
150.678554088
 21
83.5702656768
  0
LINE
  5
277
100
AcDbEntity
  8
IMPORT_IGES
100
AcDbLine
 62
7
  6
CONTINUOUS
 10
150.9891810321
 20
83.3909135723
 11
150.678554088
 21
83.5702656768
  0
LINE
  5
278
100
AcDbEntity
  8
CURVE
100
AcDbLine
 62
250
  6
CONTINUOUS
 10
149.5585695938
 20
84.216930687
 11
149.2724320462
 21
84.3821429209
  0
LINE
  5
279
100
AcDbEntity
  8
IMPORT_IGES
100
AcDbLine
 62
7
  6
CONTINUOUS
 10
149.5585695938
 20
84.216930687
 11
149.2724320462
 21
84.3821429209
  0
LINE
  5
27A
100
AcDbEntity
  8
CURVE
100
AcDbLine
 62
250
  6
CONTINUOUS
 10
150.1790656656
 20
83.8586640318
 11
150.5037607342
 21
83.6711891686
  0
LINE
  5
27B
100
AcDbEntity
  8
IMPORT_IGES
100
AcDbLine
 62
7
  6
CONTINUOUS
 10
150.1790656656
 20
83.8586640318
 11
150.5037607342
 21
83.6711891686
  0
LINE
  5
27C
100
AcDbEntity
  8
CURVE
100
AcDbLine
 62
250
  6
CONTINUOUS
 10
153.6817115147
 20
81.8362798768
 11
154.0050997637
 21
81.6495595548
  0
LINE
  5
27D
100
AcDbEntity
  8
IMPORT_IGES
100
AcDbLine
 62
7
  6
CONTINUOUS
 10
153.6817115147
 20
81.8362798768
 11
154.0050997637
 21
81.6495595548
  0
LINE
  5
27E
100
AcDbEntity
  8
CURVE
100
AcDbLine
 62
250
  6
CONTINUOUS
 10
154.5023249437
 20
81.3624679676
 11
154.8146435257
 21
81.1821391326
  0
LINE
  5
27F
100
AcDbEntity
  8
IMPORT_IGES
100
AcDbLine
 62
7
  6
CONTINUOUS
 10
154.5023249437
 20
81.3624679676
 11
154.8146435257
 21
81.1821391326
  0
LINE
  5
280
100
AcDbEntity
  8
CURVE
100
AcDbLine
 62
250
  6
CONTINUOUS
 10
153.1600376089
 20
82.4960499624
 11
152.7178572927
 21
82.7513593351
  0
LINE
  5
281
100
AcDbEntity
  8
IMPORT_IGES
100
AcDbLine
 62
7
  6
CONTINUOUS
 10
153.1600376089
 20
82.4960499624
 11
152.7178572927
 21
82.7513593351
  0
LINE
  5
282
100
AcDbEntity
  8
ASSI
100
AcDbLine
 62
7
  6
CONTINUOUS
 10
77.7161101235
 20
184.3764116197
 11
77.716485431
 21
184.3757752582
  0
LWPOLYLINE
  5
283
100
AcDbEntity
  8
0
100
AcDbPolyline
 62
7
  6
CONTINUOUS
 90
5
 70
0
 10
128.6446081816
 20
104.8694150409
 10
128.6675883867
 20
104.8990115229
 10
128.6835466395
 20
104.9333749761
 10
128.69156489
 20
104.9715175959
 10
128.692446656
 20
104.99062682
  0
LINE
  5
284
100
AcDbEntity
  8
0
100
AcDbLine
 62
7
  6
CONTINUOUS
 10
127.4256181623
 20
104.1459092972
 11
127.0828374923
 21
103.8125070257
  0
LINE
  5
285
100
AcDbEntity
  8
0
100
AcDbLine
 62
7
  6
CONTINUOUS
 10
128.6154680872
 20
104.8452251395
 11
128.6446081816
 21
104.8694150409
  0
LINE
  5
286
100
AcDbEntity
  8
0
100
AcDbLine
 62
7
  6
CONTINUOUS
 10
121.3837779533
 20
106.0602521203
 11
124.4999879231
 21
107.6504745012
  0
LWPOLYLINE
  5
287
100
AcDbEntity
  8
ASSI
100
AcDbPolyline
 62
250
  6
CONTINUOUS
 90
16
 70
0
 10
95.8942462462
 20
119.2142371743
 10
95.9094421652
 20
119.2063185844
 10
95.925960308
 20
119.1993382857
 10
95.9436276455
 20
119.1933693977
 10
95.9622591105
 20
119.1884744449
 10
95.9816595367
 20
119.1847047025
 10
96.0016257026
 20
119.1820996589
 10
96.0219484608
 20
119.1806866021
 10
96.0424149283
 20
119.1804803342
 10
96.0628107169
 20
119.1814830157
 10
96.0829221788
 20
119.1836841436
 10
96.1025386443
 20
119.1870606607
 10
96.1214546291
 20
119.1915771976
 10
96.1394719865
 20
119.1971864434
 10
96.1564019827
 20
119.2038296404
 10
96.1720672745
 20
119.2114372007
  0
LINE
  5
288
100
AcDbEntity
  8
CURVE
100
AcDbLine
 62
250
  6
CONTINUOUS
 10
152.784275493
 20
82.990464382
 11
153.0951476347
 21
82.8109707035
  0
LINE
  5
289
100
AcDbEntity
  8
IMPORT_IGES
100
AcDbLine
 62
7
  6
CONTINUOUS
 10
152.784275493
 20
82.990464382
 11
153.0951476347
 21
82.8109707035
  0
LINE
  5
28A
100
AcDbEntity
  8
CURVE
100
AcDbLine
 62
250
  6
CONTINUOUS
 10
154.0050997637
 20
82.3524474327
 11
154.179193315
 21
82.2519279981
  0
LINE
  5
28B
100
AcDbEntity
  8
IMPORT_IGES
100
AcDbLine
 62
7
  6
CONTINUOUS
 10
154.0050997637
 20
82.3524474327
 11
154.179193315
 21
82.2519279981
  0
LINE
  5
28C
100
AcDbEntity
  8
CURVE
100
AcDbLine
 62
250
  6
CONTINUOUS
 10
154.1798931886
 20
82.5456789817
 11
153.9943333753
 21
82.6528188923
  0
LINE
  5
28D
100
AcDbEntity
  8
IMPORT_IGES
100
AcDbLine
 62
7
  6
CONTINUOUS
 10
154.1798931886
 20
82.5456789817
 11
153.9943333753
 21
82.6528188923
  0
LINE
  5
28E
100
AcDbEntity
  8
CURVE
100
AcDbLine
 62
250
  6
CONTINUOUS
 10
148.779306911
 20
86.462950324
 11
149.1320256302
 21
86.2592949561
  0
LINE
  5
28F
100
AcDbEntity
  8
IMPORT_IGES
100
AcDbLine
 62
7
  6
CONTINUOUS
 10
148.779306911
 20
86.462950324
 11
149.1320256302
 21
86.2592949561
  0
LINE
  5
290
100
AcDbEntity
  8
CURVE
100
AcDbLine
 62
250
  6
CONTINUOUS
 10
149.7340978
 20
85.9116660311
 11
150.0585713758
 21
85.724319055
  0
LINE
  5
291
100
AcDbEntity
  8
IMPORT_IGES
100
AcDbLine
 62
7
  6
CONTINUOUS
 10
149.7340978
 20
85.9116660311
 11
150.0585713758
 21
85.724319055
  0
LINE
  5
292
100
AcDbEntity
  8
CURVE
100
AcDbLine
 62
250
  6
CONTINUOUS
 10
150.819007173
 20
85.2852529562
 11
151.143433339
 21
85.097933354
  0
LINE
  5
293
100
AcDbEntity
  8
IMPORT_IGES
100
AcDbLine
 62
7
  6
CONTINUOUS
 10
150.819007173
 20
85.2852529562
 11
151.143433339
 21
85.097933354
  0
LINE
  5
294
100
AcDbEntity
  8
CURVE
100
AcDbLine
 62
250
  6
CONTINUOUS
 10
151.7893936717
 20
84.7249639537
 11
152.1106470833
 21
84.53947626
  0
LINE
  5
295
100
AcDbEntity
  8
IMPORT_IGES
100
AcDbLine
 62
7
  6
CONTINUOUS
 10
151.7893936717
 20
84.7249639537
 11
152.1106470833
 21
84.53947626
  0
LINE
  5
296
100
AcDbEntity
  8
CURVE
100
AcDbLine
 62
250
  6
CONTINUOUS
 10
152.7949952986
 20
84.1443421774
 11
153.1090979754
 21
83.9629832284
  0
LINE
  5
297
100
AcDbEntity
  8
IMPORT_IGES
100
AcDbLine
 62
7
  6
CONTINUOUS
 10
152.7949952986
 20
84.1443421774
 11
153.1090979754
 21
83.9629832284
  0
LINE
  5
298
100
AcDbEntity
  8
CURVE
100
AcDbLine
 62
250
  6
CONTINUOUS
 10
150.5037607342
 20
85.4673800731
 11
150.1790656656
 21
85.6548549363
  0
LINE
  5
299
100
AcDbEntity
  8
IMPORT_IGES
100
AcDbLine
 62
7
  6
CONTINUOUS
 10
150.5037607342
 20
85.4673800731
 11
150.1790656656
 21
85.6548549363
  0
LINE
  5
29A
100
AcDbEntity
  8
ASSI
100
AcDbLine
 62
250
  6
CONTINUOUS
 10
207.2624671315
 20
54.3404411731
 11
96.3889194678
 21
118.3574380223
  0
LINE
  5
29B
100
AcDbEntity
  8
ASSI
100
AcDbLine
 62
250
  6
CONTINUOUS
 10
207.3989529536
 20
54.5824409573
 11
96.5254052899
 21
118.5994378064
  0
LINE
  5
29C
100
AcDbEntity
  8
ASSI
100
AcDbLine
 62
7
  6
CONTINUOUS
 10
97.5550324684
 20
119.193927758
 11
207.6985617094
 21
55.5984343969
  0
LINE
  5
29D
100
AcDbEntity
  8
ASSI
100
AcDbLine
 62
7
  6
CONTINUOUS
 10
207.6985617094
 20
56.2231777578
 11
98.0960251805
 21
119.5063087072
  0
LINE
  5
29E
100
AcDbEntity
  8
0
100
AcDbLine
 62
7
  6
CONTINUOUS
 10
205.035478584
 20
57.9119802737
 11
201.1463912874
 21
60.157490537
  0
LINE
  5
29F
100
AcDbEntity
  8
0
100
AcDbLine
 62
7
  6
CONTINUOUS
 10
109.5760631238
 20
113.0290503729
 11
105.6869758273
 21
115.2745606362
  0
LINE
  5
2A0
100
AcDbEntity
  8
0
100
AcDbLine
 62
7
  6
CONTINUOUS
 10
205.1768999402
 20
57.9936351924
 11
205.2829659574
 21
57.9324058398
  0
LINE
  5
2A1
100
AcDbEntity
  8
0
100
AcDbLine
 62
7
  6
CONTINUOUS
 10
205.1768999402
 20
57.9936351924
 11
201.2878126437
 21
60.2391454557
  0
LINE
  5
2A2
100
AcDbEntity
  8
0
100
AcDbLine
 62
7
  6
CONTINUOUS
 10
105.8283971835
 20
115.3562155549
 11
109.8235504972
 21
113.0494759391
  0
LINE
  5
2A3
100
AcDbEntity
  8
0
100
AcDbLine
 62
7
  6
CONTINUOUS
 10
205.3890319746
 20
58.1161175704
 11
201.499944678
 21
60.3616278337
  0
LINE
  5
2A4
100
AcDbEntity
  8
0
100
AcDbLine
 62
7
  6
CONTINUOUS
 10
109.9296165144
 20
113.2331876696
 11
106.0405292178
 21
115.4786979329
  0
LINE
  5
2A5
100
AcDbEntity
  8
0
100
AcDbLine
 62
7
  6
CONTINUOUS
 10
205.5304533308
 20
58.197772489
 11
205.636519348
 21
58.1365431365
  0
LINE
  5
2A6
100
AcDbEntity
  8
0
100
AcDbLine
 62
7
  6
CONTINUOUS
 10
205.5304533308
 20
58.197772489
 11
201.6413660343
 21
60.4432827523
  0
LINE
  5
2A7
100
AcDbEntity
  8
0
100
AcDbLine
 62
7
  6
CONTINUOUS
 10
106.1819505741
 20
115.5603528516
 11
110.1771038878
 21
113.2536132358
  0
LINE
  5
2A8
100
AcDbEntity
  8
0
100
AcDbLine
 62
7
  6
CONTINUOUS
 10
205.7425853651
 20
58.320254867
 11
201.8534980686
 21
60.5657651303
  0
LINE
  5
2A9
100
AcDbEntity
  8
0
100
AcDbLine
 62
7
  6
CONTINUOUS
 10
110.283169905
 20
113.4373249663
 11
106.3940826084
 21
115.6828352296
  0
LINE
  5
2AA
100
AcDbEntity
  8
0
100
AcDbLine
 62
7
  6
CONTINUOUS
 10
205.8840067214
 20
58.4019097857
 11
205.9900727386
 21
58.3406804332
  0
LINE
  5
2AB
100
AcDbEntity
  8
0
100
AcDbLine
 62
7
  6
CONTINUOUS
 10
205.8840067214
 20
58.4019097857
 11
201.9949194249
 21
60.647420049
  0
LINE
  5
2AC
100
AcDbEntity
  8
0
100
AcDbLine
 62
7
  6
CONTINUOUS
 10
106.5355039647
 20
115.7644901482
 11
110.5306572784
 21
113.4577505324
  0
LINE
  5
2AD
100
AcDbEntity
  8
0
100
AcDbLine
 62
7
  6
CONTINUOUS
 10
206.0961387557
 20
58.5243921637
 11
202.2070514592
 21
60.769902427
  0
LINE
  5
2AE
100
AcDbEntity
  8
0
100
AcDbLine
 62
7
  6
CONTINUOUS
 10
110.6367232956
 20
113.6414622629
 11
106.747635999
 21
115.8869725262
  0
LINE
  5
2AF
100
AcDbEntity
  8
0
100
AcDbLine
 62
7
  6
CONTINUOUS
 10
206.237560112
 20
58.6060470824
 11
206.3436261292
 21
58.5448177298
  0
LINE
  5
2B0
100
AcDbEntity
  8
0
100
AcDbLine
 62
7
  6
CONTINUOUS
 10
206.237560112
 20
58.6060470824
 11
202.3484728155
 21
60.8515573457
  0
LINE
  5
2B1
100
AcDbEntity
  8
0
100
AcDbLine
 62
7
  6
CONTINUOUS
 10
106.8890573553
 20
115.9686274449
 11
110.884210669
 21
113.6618878291
  0
LINE
  5
2B2
100
AcDbEntity
  8
0
100
AcDbLine
 62
7
  6
CONTINUOUS
 10
206.4496921463
 20
58.7285294604
 11
202.5606048498
 21
60.9740397237
  0
LINE
  5
2B3
100
AcDbEntity
  8
0
100
AcDbLine
 62
7
  6
CONTINUOUS
 10
110.9902766862
 20
113.8455995596
 11
107.1011893896
 21
116.0911098229
  0
LINE
  5
2B4
100
AcDbEntity
  8
0
100
AcDbLine
 62
7
  6
CONTINUOUS
 10
206.5911135026
 20
58.810184379
 11
206.6971795198
 21
58.7489550265
  0
LINE
  5
2B5
100
AcDbEntity
  8
0
100
AcDbLine
 62
7
  6
CONTINUOUS
 10
206.5911135026
 20
58.810184379
 11
202.702026206
 21
61.0556946423
  0
LINE
  5
2B6
100
AcDbEntity
  8
0
100
AcDbLine
 62
7
  6
CONTINUOUS
 10
107.2426107459
 20
116.1727647416
 11
111.2377640596
 21
113.8660251257
  0
LINE
  5
2B7
100
AcDbEntity
  8
0
100
AcDbLine
 62
250
  6
CONTINUOUS
 10
206.981958467
 20
58.707111171
 11
202.7356212087
 21
61.1588930848
  0
LINE
  5
2B8
100
AcDbEntity
  8
0
100
AcDbLine
 62
250
  6
CONTINUOUS
 10
111.5225430068
 20
113.8241812702
 11
107.2762057485
 21
116.2759631841
  0
LINE
  5
2B9
100
AcDbEntity
  8
0
100
AcDbLine
 62
250
  6
CONTINUOUS
 10
207.048630823
 20
58.7458130824
 11
202.8096683616
 21
61.1933368809
  0
LINE
  5
2BA
100
AcDbEntity
  8
0
100
AcDbLine
 62
250
  6
CONTINUOUS
 10
111.5892153628
 20
113.8628831816
 11
107.3502529014
 21
116.3104069801
  0
LWPOLYLINE
  5
2BB
100
AcDbEntity
  8
CURVE
100
AcDbPolyline
 62
250
  6
CONTINUOUS
 90
46
 70
0
 10
154.179193315
 20
82.2519279981
 10
154.1845047604
 20
82.2487748448
 10
154.1898246222
 20
82.2454440605
 10
154.1951470152
 20
82.2419390602
 10
154.2004660542
 20
82.2382632587
 10
154.2057758537
 20
82.2344200709
 10
154.2110705287
 20
82.2304129119
 10
154.2163441938
 20
82.2262451964
 10
154.2215909638
 20
82.2219203394
 10
154.2268049534
 20
82.2174417558
 10
154.2319802773
 20
82.2128128606
 10
154.2371110504
 20
82.2080370685
 10
154.2421913873
 20
82.2031177946
 10
154.2472154027
 20
82.1980584538
 10
154.2521772115
 20
82.1928624609
 10
154.2570709284
 20
82.1875332309
 10
154.2618906681
 20
82.1820741787
 10
154.2665108502
 20
82.1766335638
 10
154.2710528585
 20
82.171078546
 10
154.2755143479
 20
82.1654147453
 10
154.2798929732
 20
82.1596477812
 10
154.2841863892
 20
82.1537832736
 10
154.2883922508
 20
82.1478268422
 10
154.2925082128
 20
82.1417841068
 10
154.29653193
 20
82.1356606872
 10
154.3004610574
 20
82.1294622029
 10
154.3042932497
 20
82.1231942739
 10
154.3080261618
 20
82.1168625199
 10
154.3116574486
 20
82.1104725606
 10
154.3151847648
 20
82.1040300158
 10
154.3188719769
 20
82.097026084
 10
154.3224369181
 20
82.089972877
 10
154.3258810816
 20
82.0828757938
 10
154.329205961
 20
82.0757402329
 10
154.3324130494
 20
82.0685715932
 10
154.3355038404
 20
82.0613752734
 10
154.3384798272
 20
82.0541566722
 10
154.3413425031
 20
82.0469211885
 10
154.3440933617
 20
82.0396742209
 10
154.3467338961
 20
82.0324211682
 10
154.3492655999
 20
82.0251674291
 10
154.3516899662
 20
82.0179184025
 10
154.3540084885
 20
82.010679487
 10
154.3562226602
 20
82.0034560814
 10
154.3583339745
 20
81.9962535844
 10
154.3603439249
 20
81.9890773949
  0
LWPOLYLINE
  5
2BC
100
AcDbEntity
  8
IMPORT_IGES
100
AcDbPolyline
 62
7
  6
CONTINUOUS
 90
46
 70
0
 10
154.179193315
 20
82.2519279981
 10
154.1845047604
 20
82.2487748448
 10
154.1898246222
 20
82.2454440605
 10
154.1951470152
 20
82.2419390602
 10
154.2004660542
 20
82.2382632587
 10
154.2057758537
 20
82.2344200709
 10
154.2110705287
 20
82.2304129119
 10
154.2163441938
 20
82.2262451964
 10
154.2215909638
 20
82.2219203394
 10
154.2268049534
 20
82.2174417558
 10
154.2319802773
 20
82.2128128606
 10
154.2371110504
 20
82.2080370685
 10
154.2421913873
 20
82.2031177946
 10
154.2472154027
 20
82.1980584538
 10
154.2521772115
 20
82.1928624609
 10
154.2570709284
 20
82.1875332309
 10
154.2618906681
 20
82.1820741787
 10
154.2665108502
 20
82.1766335638
 10
154.2710528585
 20
82.171078546
 10
154.2755143479
 20
82.1654147453
 10
154.2798929732
 20
82.1596477812
 10
154.2841863892
 20
82.1537832736
 10
154.2883922508
 20
82.1478268422
 10
154.2925082128
 20
82.1417841068
 10
154.29653193
 20
82.1356606872
 10
154.3004610574
 20
82.1294622029
 10
154.3042932497
 20
82.1231942739
 10
154.3080261618
 20
82.1168625199
 10
154.3116574486
 20
82.1104725606
 10
154.3151847648
 20
82.1040300158
 10
154.3188719769
 20
82.097026084
 10
154.3224369181
 20
82.089972877
 10
154.3258810816
 20
82.0828757938
 10
154.329205961
 20
82.0757402329
 10
154.3324130494
 20
82.0685715932
 10
154.3355038404
 20
82.0613752734
 10
154.3384798272
 20
82.0541566722
 10
154.3413425031
 20
82.0469211885
 10
154.3440933617
 20
82.0396742209
 10
154.3467338961
 20
82.0324211682
 10
154.3492655999
 20
82.0251674291
 10
154.3516899662
 20
82.0179184025
 10
154.3540084885
 20
82.010679487
 10
154.3562226602
 20
82.0034560814
 10
154.3583339745
 20
81.9962535844
 10
154.3603439249
 20
81.9890773949
  0
LWPOLYLINE
  5
2BD
100
AcDbEntity
  8
ASSI
100
AcDbPolyline
 62
250
  6
CONTINUOUS
 90
25
 70
0
 10
96.5254052899
 20
118.5994378064
 10
96.5025053325
 20
118.61312001
 10
96.4796752432
 20
118.6284673935
 10
96.4570049629
 20
118.6454259316
 10
96.4345567151
 20
118.6639542584
 10
96.4124509047
 20
118.6839672079
 10
96.3908617233
 20
118.7053207588
 10
96.3698928848
 20
118.7279040492
 10
96.3496084939
 20
118.7516335439
 10
96.3301140082
 20
118.7763823923
 10
96.3115031639
 20
118.802016642
 10
96.2938255976
 20
118.8284488395
 10
96.2771175373
 20
118.8556190558
 10
96.26149773
 20
118.8833175484
 10
96.2469710837
 20
118.9115266036
 10
96.2334399493
 20
118.9404900899
 10
96.2209477048
 20
118.970230173
 10
96.209655675
 20
119.0004975655
 10
96.199675935
 20
119.0311291247
 10
96.1910759842
 20
119.06209136
 10
96.1839744116
 20
119.0931306698
 10
96.178500962
 20
119.1237541886
 10
96.1746914943
 20
119.1537118365
 10
96.1725432341
 20
119.1829831554
 10
96.1720672745
 20
119.2114372007
  0
LWPOLYLINE
  5
2BE
100
AcDbEntity
  8
ASSI
100
AcDbPolyline
 62
250
  6
CONTINUOUS
 90
25
 70
0
 10
96.3889194678
 20
118.3574380223
 10
96.3570925586
 20
118.3769924443
 10
96.3255830736
 20
118.3986906842
 10
96.2943910128
 20
118.422532742
 10
96.2633553186
 20
118.4486616532
 10
96.2326370487
 20
118.4769343823
 10
96.2027193759
 20
118.5069218227
 10
96.1736419056
 20
118.5386364705
 10
96.1453650324
 20
118.5720658297
 10
96.1182531127
 20
118.6067433051
 10
96.0923464203
 20
118.6426451646
 10
96.0676046814
 20
118.6797951404
 10
96.0442714308
 20
118.7177978343
 10
96.0223977475
 20
118.7565149429
 10
96.0019325526
 20
118.7960847695
 10
95.9829661443
 20
118.8365268262
 10
95.9653904166
 20
118.8780440221
 10
95.9493134755
 20
118.920433448
 10
95.9351499369
 20
118.9631058896
 10
95.922924419
 20
119.0062230255
 10
95.9126123036
 20
119.049623177
 10
95.9045543524
 20
119.0922320927
 10
95.8988641528
 20
119.133691689
 10
95.8954281174
 20
119.1743600495
 10
95.8942462462
 20
119.2142371743
  0
LWPOLYLINE
  5
2BF
100
AcDbEntity
  8
ASSI
100
AcDbPolyline
 62
250
  6
CONTINUOUS
 90
9
 70
0
 10
207.7571403531
 20
54.6260040883
 10
207.7434257273
 20
54.6347780991
 10
207.7313362091
 20
54.6443155438
 10
207.7209984323
 20
54.6545165122
 10
207.7125206802
 20
54.6652741438
 10
207.7059917503
 20
54.676475749
 10
207.7014800254
 20
54.6880039894
 10
207.6990327588
 20
54.6997381036
 10
207.6985617423
 20
54.7075927381
  0
LWPOLYLINE
  5
2C0
100
AcDbEntity
  8
CURVE
100
AcDbPolyline
 62
250
  6
CONTINUOUS
 90
49
 70
0
 10
154.2487024254
 20
83.0095822192
 10
154.2546532797
 20
83.0052558003
 10
154.2606045397
 20
83.0007434118
 10
154.2665496509
 20
82.9960493605
 10
154.2724820588
 20
82.9911779529
 10
154.2783952089
 20
82.9861334956
 10
154.2842825466
 20
82.9809202954
 10
154.2901375176
 20
82.9755426588
 10
154.2959535673
 20
82.9700048925
 10
154.3017241411
 20
82.9643113031
 10
154.3074426846
 20
82.9584661972
 10
154.3131026433
 20
82.9524738815
 10
154.3186974626
 20
82.9463386627
 10
154.3242205881
 20
82.9400648473
 10
154.3296654652
 20
82.933656742
 10
154.3350255394
 20
82.9271186534
 10
154.3402942563
 20
82.9204548881
 10
154.3454650613
 20
82.9136697529
 10
154.3505314
 20
82.9067675543
 10
154.3554867177
 20
82.899752599
 10
154.3603244601
 20
82.8926291935
 10
154.3650380726
 20
82.8854016446
 10
154.3696210006
 20
82.8780742589
 10
154.3740666898
 20
82.870651343
 10
154.3783685855
 20
82.8631372036
 10
154.3824989339
 20
82.8555781669
 10
154.3864786675
 20
82.8479423521
 10
154.3903059033
 20
82.8402389637
 10
154.3939787583
 20
82.8324772059
 10
154.3974953494
 20
82.8246662834
 10
154.4008537934
 20
82.8168154004
 10
154.4040522075
 20
82.8089337614
 10
154.4070887084
 20
82.8010305709
 10
154.4099614131
 20
82.7931150333
 10
154.4126684387
 20
82.785196353
 10
154.4152079019
 20
82.7772837344
 10
154.4175779197
 20
82.769386382
 10
154.4197766091
 20
82.7615135002
 10
154.421802087
 20
82.7536742935
 10
154.4236524704
 20
82.7458779661
 10
154.4253258761
 20
82.7381337227
 10
154.4268204212
 20
82.7304507676
 10
154.4281342225
 20
82.7228383052
 10
154.4292653969
 20
82.71530554
 10
154.4302120615
 20
82.7078616763
 10
154.4309723332
 20
82.7005159187
 10
154.4315443288
 20
82.6932774716
 10
154.4319261654
 20
82.6861555393
 10
154.4321159598
 20
82.6791593264
  0
LWPOLYLINE
  5
2C1
100
AcDbEntity
  8
IMPORT_IGES
100
AcDbPolyline
 62
7
  6
CONTINUOUS
 90
49
 70
0
 10
154.2487024254
 20
83.0095822192
 10
154.2546532797
 20
83.0052558003
 10
154.2606045397
 20
83.0007434118
 10
154.2665496509
 20
82.9960493605
 10
154.2724820588
 20
82.9911779529
 10
154.2783952089
 20
82.9861334956
 10
154.2842825466
 20
82.9809202954
 10
154.2901375176
 20
82.9755426588
 10
154.2959535673
 20
82.9700048925
 10
154.3017241411
 20
82.9643113031
 10
154.3074426846
 20
82.9584661972
 10
154.3131026433
 20
82.9524738815
 10
154.3186974626
 20
82.9463386627
 10
154.3242205881
 20
82.9400648473
 10
154.3296654652
 20
82.933656742
 10
154.3350255394
 20
82.9271186534
 10
154.3402942563
 20
82.9204548881
 10
154.3454650613
 20
82.9136697529
 10
154.3505314
 20
82.9067675543
 10
154.3554867177
 20
82.899752599
 10
154.3603244601
 20
82.8926291935
 10
154.3650380726
 20
82.8854016446
 10
154.3696210006
 20
82.8780742589
 10
154.3740666898
 20
82.870651343
 10
154.3783685855
 20
82.8631372036
 10
154.3824989339
 20
82.8555781669
 10
154.3864786675
 20
82.8479423521
 10
154.3903059033
 20
82.8402389637
 10
154.3939787583
 20
82.8324772059
 10
154.3974953494
 20
82.8246662834
 10
154.4008537934
 20
82.8168154004
 10
154.4040522075
 20
82.8089337614
 10
154.4070887084
 20
82.8010305709
 10
154.4099614131
 20
82.7931150333
 10
154.4126684387
 20
82.785196353
 10
154.4152079019
 20
82.7772837344
 10
154.4175779197
 20
82.769386382
 10
154.4197766091
 20
82.7615135002
 10
154.421802087
 20
82.7536742935
 10
154.4236524704
 20
82.7458779661
 10
154.4253258761
 20
82.7381337227
 10
154.4268204212
 20
82.7304507676
 10
154.4281342225
 20
82.7228383052
 10
154.4292653969
 20
82.71530554
 10
154.4302120615
 20
82.7078616763
 10
154.4309723332
 20
82.7005159187
 10
154.4315443288
 20
82.6932774716
 10
154.4319261654
 20
82.6861555393
 10
154.4321159598
 20
82.6791593264
  0
LWPOLYLINE
  5
2C2
100
AcDbEntity
  8
CURVE
100
AcDbPolyline
 62
250
  6
CONTINUOUS
 90
30
 70
0
 10
154.4830084331
 20
83.1298104226
 10
154.464211847
 20
83.1481378691
 10
154.4452327388
 20
83.1659372369
 10
154.4260877364
 20
83.183227165
 10
154.406793468
 20
83.2000262922
 10
154.3873665616
 20
83.2163532575
 10
154.3678236452
 20
83.2322266997
 10
154.348181347
 20
83.2476652578
 10
154.3284562951
 20
83.2626875707
 10
154.3086651174
 20
83.2773122772
 10
154.288824442
 20
83.2915580163
 10
154.2689508971
 20
83.3054434268
 10
154.2490611106
 20
83.3189871478
 10
154.219826556
 20
83.3383076693
 10
154.190594066
 20
83.3569699138
 10
154.1613648707
 20
83.3750133694
 10
154.1321401998
 20
83.3924775244
 10
154.102921283
 20
83.4094018669
 10
154.0737093504
 20
83.4258258853
 10
154.0445056316
 20
83.4417890677
 10
154.0153113566
 20
83.4573309024
 10
153.9781094911
 20
83.476586386
 10
153.9409299095
 20
83.4952470237
 10
153.9037775491
 20
83.5133385702
 10
153.8666573471
 20
83.53088678
 10
153.8295742406
 20
83.5479174078
 10
153.7925331669
 20
83.5644562081
 10
153.7555390632
 20
83.5805289356
 10
153.7185968668
 20
83.5961613447
 10
153.6817115147
 20
83.6113791902
  0
LWPOLYLINE
  5
2C3
100
AcDbEntity
  8
IMPORT_IGES
100
AcDbPolyline
 62
7
  6
CONTINUOUS
 90
30
 70
0
 10
154.4830084331
 20
83.1298104226
 10
154.464211847
 20
83.1481378691
 10
154.4452327388
 20
83.1659372369
 10
154.4260877364
 20
83.183227165
 10
154.406793468
 20
83.2000262922
 10
154.3873665616
 20
83.2163532575
 10
154.3678236452
 20
83.2322266997
 10
154.348181347
 20
83.2476652578
 10
154.3284562951
 20
83.2626875707
 10
154.3086651174
 20
83.2773122772
 10
154.288824442
 20
83.2915580163
 10
154.2689508971
 20
83.3054434268
 10
154.2490611106
 20
83.3189871478
 10
154.219826556
 20
83.3383076693
 10
154.190594066
 20
83.3569699138
 10
154.1613648707
 20
83.3750133694
 10
154.1321401998
 20
83.3924775244
 10
154.102921283
 20
83.4094018669
 10
154.0737093504
 20
83.4258258853
 10
154.0445056316
 20
83.4417890677
 10
154.0153113566
 20
83.4573309024
 10
153.9781094911
 20
83.476586386
 10
153.9409299095
 20
83.4952470237
 10
153.9037775491
 20
83.5133385702
 10
153.8666573471
 20
83.53088678
 10
153.8295742406
 20
83.5479174078
 10
153.7925331669
 20
83.5644562081
 10
153.7555390632
 20
83.5805289356
 10
153.7185968668
 20
83.5961613447
 10
153.6817115147
 20
83.6113791902
  0
LINE
  5
2C4
100
AcDbEntity
  8
0
100
AcDbLine
 62
250
  6
CONTINUOUS
 10
144.5253706639
 20
96.0880694836
 11
144.5253706639
 21
95.6590467896
  0
LINE
  5
2C5
100
AcDbEntity
  8
0
100
AcDbLine
 62
7
  6
CONTINUOUS
 10
144.6024272162
 20
96.202574154
 11
144.6024272162
 21
95.8045283692
  0
LINE
  5
2C6
100
AcDbEntity
  8
0
100
AcDbLine
 62
7
  6
CONTINUOUS
 10
128.6154680872
 20
105.2742478335
 11
125.8096219598
 21
103.5048252598
  0
LWPOLYLINE
  5
2C7
100
AcDbEntity
  8
0
100
AcDbPolyline
 62
7
  6
CONTINUOUS
 90
9
 70
0
 10
126.8497370321
 20
103.6310631434
 10
126.8757588753
 20
103.6468260946
 10
126.9052588317
 20
103.6660955829
 10
126.934808397
 20
103.6868361168
 10
126.9644260382
 20
103.70911215
 10
126.9940444945
 20
103.7328269324
 10
127.0236413454
 20
103.7579482142
 10
127.0532390113
 20
103.7845082453
 10
127.0828374923
 20
103.8125070257
  0
LINE
  5
2C8
100
AcDbEntity
  8
0
100
AcDbLine
 62
7
  6
CONTINUOUS
 10
126.0742008
 20
103.3520607534
 11
128.6061172417
 21
104.8393571552
  0
LINE
  5
2C9
100
AcDbEntity
  8
0
100
AcDbLine
 62
7
  6
CONTINUOUS
 10
126.8497135386
 20
103.6311055662
 11
126.2218643844
 21
103.2668016504
  0
LINE
  5
2CA
100
AcDbEntity
  8
0
100
AcDbLine
 62
250
  6
CONTINUOUS
 10
127.0828374923
 20
103.8125070257
 11
126.1817161043
 21
103.2899827642
  0
LINE
  5
2CB
100
AcDbEntity
  8
0
100
AcDbLine
 62
7
  6
CONTINUOUS
 10
108.9358546346
 20
116.8282329333
 11
112.7618560252
 21
114.6191476814
  0
LINE
  5
2CC
100
AcDbEntity
  8
0
100
AcDbLine
 62
7
  6
CONTINUOUS
 10
204.3952700948
 20
61.711162834
 11
207.6985617094
 21
59.8038836558
  0
LINE
  5
2CD
100
AcDbEntity
  8
0
100
AcDbLine
 62
7
  6
CONTINUOUS
 10
124.9128591394
 20
107.6422064299
 11
128.6046566739
 21
105.5106088025
  0
LINE
  5
2CE
100
AcDbEntity
  8
0
100
AcDbLine
 62
7
  6
CONTINUOUS
 10
140.8227617161
 20
98.45602808
 11
144.5145592506
 21
96.3244304527
  0
LINE
  5
2CF
100
AcDbEntity
  8
0
100
AcDbLine
 62
7
  6
CONTINUOUS
 10
156.7326642928
 20
89.2698497301
 11
160.4244618273
 21
87.1382521028
  0
LINE
  5
2D0
100
AcDbEntity
  8
0
100
AcDbLine
 62
7
  6
CONTINUOUS
 10
172.6425668694
 20
80.0836713802
 11
176.334364404
 21
77.9520737529
  0
LINE
  5
2D1
100
AcDbEntity
  8
0
100
AcDbLine
 62
7
  6
CONTINUOUS
 10
188.5524694461
 20
70.8974930304
 11
192.2442669807
 21
68.765895403
  0
LINE
  5
2D2
100
AcDbEntity
  8
CURVE
100
AcDbLine
 62
250
  6
CONTINUOUS
 10
151.4401566114
 20
83.1305259249
 11
151.0592505296
 21
84.5232648898
  0
LINE
  5
2D3
100
AcDbEntity
  8
IMPORT_IGES
100
AcDbLine
 62
7
  6
CONTINUOUS
 10
151.4401566114
 20
83.1305259249
 11
151.0592505296
 21
84.5232648898
  0
LINE
  5
2D4
100
AcDbEntity
  8
CURVE
100
AcDbLine
 62
250
  6
CONTINUOUS
 10
151.143433339
 20
85.097933354
 11
151.4646986031
 21
83.9152480995
  0
LINE
  5
2D5
100
AcDbEntity
  8
IMPORT_IGES
100
AcDbLine
 62
7
  6
CONTINUOUS
 10
151.143433339
 20
85.097933354
 11
151.4646986031
 21
83.9152480995
  0
LINE
  5
2D6
100
AcDbEntity
  8
CURVE
100
AcDbLine
 62
250
  6
CONTINUOUS
 10
149.2724320462
 20
84.3821429209
 11
148.779306911
 21
86.462950324
  0
LINE
  5
2D7
100
AcDbEntity
  8
IMPORT_IGES
100
AcDbLine
 62
7
  6
CONTINUOUS
 10
149.2724320462
 20
84.3821429209
 11
148.779306911
 21
86.462950324
  0
LINE
  5
2D8
100
AcDbEntity
  8
CURVE
100
AcDbLine
 62
250
  6
CONTINUOUS
 10
149.1320256302
 20
86.2592949561
 11
149.4285333361
 21
84.8517956527
  0
LINE
  5
2D9
100
AcDbEntity
  8
IMPORT_IGES
100
AcDbLine
 62
7
  6
CONTINUOUS
 10
149.1320256302
 20
86.2592949561
 11
149.4285333361
 21
84.8517956527
  0
LINE
  5
2DA
100
AcDbEntity
  8
CURVE
100
AcDbLine
 62
250
  6
CONTINUOUS
 10
152.1106470833
 20
84.53947626
 11
152.2561041271
 21
82.6594080556
  0
LINE
  5
2DB
100
AcDbEntity
  8
IMPORT_IGES
100
AcDbLine
 62
7
  6
CONTINUOUS
 10
152.1106470833
 20
84.53947626
 11
152.2561041271
 21
82.6594080556
  0
LINE
  5
2DC
100
AcDbEntity
  8
CURVE
100
AcDbLine
 62
250
  6
CONTINUOUS
 10
151.9384664552
 20
82.8428080663
 11
151.8717571291
 21
84.049244583
  0
LINE
  5
2DD
100
AcDbEntity
  8
IMPORT_IGES
100
AcDbLine
 62
7
  6
CONTINUOUS
 10
151.9384664552
 20
82.8428080663
 11
151.8717571291
 21
84.049244583
  0
LWPOLYLINE
  5
2DE
100
AcDbEntity
  8
CURVE
100
AcDbPolyline
 62
250
  6
CONTINUOUS
 90
58
 70
0
 10
154.4321159598
 20
82.6791593264
 10
154.4321648753
 20
82.6708039864
 10
154.4320841002
 20
82.6624994911
 10
154.4318655881
 20
82.6542593898
 10
154.4315012924
 20
82.6460972316
 10
154.4309831667
 20
82.6380265659
 10
154.4303031644
 20
82.6300609418
 10
154.4294532391
 20
82.6222139085
 10
154.4284253443
 20
82.6144990155
 10
154.4272114335
 20
82.6069298117
 10
154.4258034601
 20
82.5995198466
 10
154.4241933778
 20
82.5922826693
 10
154.42237314
 20
82.5852318291
 10
154.4203347002
 20
82.5783808752
 10
154.418070012
 20
82.5717433568
 10
154.4155710288
 20
82.5653328232
 10
154.4128297041
 20
82.5591628236
 10
154.4101021506
 20
82.5537355006
 10
154.4071691627
 20
82.5485281048
 10
154.4040352105
 20
82.5435475612
 10
154.4007047638
 20
82.5388007945
 10
154.3971822927
 20
82.5342947299
 10
154.3934722673
 20
82.5300362921
 10
154.3895791575
 20
82.5260324061
 10
154.3855074334
 20
82.5222899969
 10
154.381261565
 20
82.5188159893
 10
154.3768460222
 20
82.5156173083
 10
154.3722652751
 20
82.5127008789
 10
154.3675237937
 20
82.5100736259
 10
154.3626260481
 20
82.5077424743
 10
154.3575765081
 20
82.5057143489
 10
154.3521491594
 20
82.5039252603
 10
154.346568989
 20
82.5024646316
 10
154.3408436878
 20
82.5013232254
 10
154.3349809464
 20
82.5004918044
 10
154.3289884557
 20
82.4999611311
 10
154.3228739064
 20
82.4997219682
 10
154.3166449893
 20
82.4997650782
 10
154.3103093952
 20
82.5000812236
 10
154.3038748148
 20
82.5006611672
 10
154.2973489389
 20
82.5014956715
 10
154.2907394582
 20
82.5025754991
 10
154.2840540636
 20
82.5038914125
 10
154.2773004457
 20
82.5054341744
 10
154.2704862955
 20
82.5071945474
 10
154.2636193035
 20
82.509163294
 10
154.2567071606
 20
82.5113311768
 10
154.2497575576
 20
82.5136889585
 10
154.2427781853
 20
82.5162274017
 10
154.2357767343
 20
82.5189372688
 10
154.2287608955
 20
82.5218093226
 10
154.2217383596
 20
82.5248343255
 10
154.2147168174
 20
82.5280030403
 10
154.2077039596
 20
82.5313062294
 10
154.2007074771
 20
82.5347346555
 10
154.1937350606
 20
82.5382790812
 10
154.1867944009
 20
82.5419302691
 10
154.1798931886
 20
82.5456789817
  0
LWPOLYLINE
  5
2DF
100
AcDbEntity
  8
IMPORT_IGES
100
AcDbPolyline
 62
7
  6
CONTINUOUS
 90
58
 70
0
 10
154.4321159598
 20
82.6791593264
 10
154.4321648753
 20
82.6708039864
 10
154.4320841002
 20
82.6624994911
 10
154.4318655881
 20
82.6542593898
 10
154.4315012924
 20
82.6460972316
 10
154.4309831667
 20
82.6380265659
 10
154.4303031644
 20
82.6300609418
 10
154.4294532391
 20
82.6222139085
 10
154.4284253443
 20
82.6144990155
 10
154.4272114335
 20
82.6069298117
 10
154.4258034601
 20
82.5995198466
 10
154.4241933778
 20
82.5922826693
 10
154.42237314
 20
82.5852318291
 10
154.4203347002
 20
82.5783808752
 10
154.418070012
 20
82.5717433568
 10
154.4155710288
 20
82.5653328232
 10
154.4128297041
 20
82.5591628236
 10
154.4101021506
 20
82.5537355006
 10
154.4071691627
 20
82.5485281048
 10
154.4040352105
 20
82.5435475612
 10
154.4007047638
 20
82.5388007945
 10
154.3971822927
 20
82.5342947299
 10
154.3934722673
 20
82.5300362921
 10
154.3895791575
 20
82.5260324061
 10
154.3855074334
 20
82.5222899969
 10
154.381261565
 20
82.5188159893
 10
154.3768460222
 20
82.5156173083
 10
154.3722652751
 20
82.5127008789
 10
154.3675237937
 20
82.5100736259
 10
154.3626260481
 20
82.5077424743
 10
154.3575765081
 20
82.5057143489
 10
154.3521491594
 20
82.5039252603
 10
154.346568989
 20
82.5024646316
 10
154.3408436878
 20
82.5013232254
 10
154.3349809464
 20
82.5004918044
 10
154.3289884557
 20
82.4999611311
 10
154.3228739064
 20
82.4997219682
 10
154.3166449893
 20
82.4997650782
 10
154.3103093952
 20
82.5000812236
 10
154.3038748148
 20
82.5006611672
 10
154.2973489389
 20
82.5014956715
 10
154.2907394582
 20
82.5025754991
 10
154.2840540636
 20
82.5038914125
 10
154.2773004457
 20
82.5054341744
 10
154.2704862955
 20
82.5071945474
 10
154.2636193035
 20
82.509163294
 10
154.2567071606
 20
82.5113311768
 10
154.2497575576
 20
82.5136889585
 10
154.2427781853
 20
82.5162274017
 10
154.2357767343
 20
82.5189372688
 10
154.2287608955
 20
82.5218093226
 10
154.2217383596
 20
82.5248343255
 10
154.2147168174
 20
82.5280030403
 10
154.2077039596
 20
82.5313062294
 10
154.2007074771
 20
82.5347346555
 10
154.1937350606
 20
82.5382790812
 10
154.1867944009
 20
82.5419302691
 10
154.1798931886
 20
82.5456789817
  0
LINE
  5
2E0
100
AcDbEntity
  8
CURVE
100
AcDbLine
 62
250
  6
CONTINUOUS
 10
150.1790656656
 20
85.6548549363
 11
150.1790656656
 21
83.8586640318
  0
LINE
  5
2E1
100
AcDbEntity
  8
IMPORT_IGES
100
AcDbLine
 62
7
  6
CONTINUOUS
 10
150.1790656656
 20
85.6548549363
 11
150.1790656656
 21
83.8586640318
  0
LINE
  5
2E2
100
AcDbEntity
  8
CURVE
100
AcDbLine
 62
250
  6
CONTINUOUS
 10
150.5037607342
 20
83.6711891686
 11
150.5037607342
 21
85.4673800731
  0
LINE
  5
2E3
100
AcDbEntity
  8
IMPORT_IGES
100
AcDbLine
 62
7
  6
CONTINUOUS
 10
150.5037607342
 20
83.6711891686
 11
150.5037607342
 21
85.4673800731
  0
LINE
  5
2E4
100
AcDbEntity
  8
CURVE
100
AcDbLine
 62
250
  6
CONTINUOUS
 10
153.6817115147
 20
83.6113791902
 11
153.6817115147
 21
81.8362798768
  0
LINE
  5
2E5
100
AcDbEntity
  8
IMPORT_IGES
100
AcDbLine
 62
7
  6
CONTINUOUS
 10
153.6817115147
 20
83.6113791902
 11
153.6817115147
 21
81.8362798768
  0
LINE
  5
2E6
100
AcDbEntity
  8
CURVE
100
AcDbLine
 62
250
  6
CONTINUOUS
 10
153.9943333753
 20
82.6528188923
 11
153.9943333753
 21
83.1458788389
  0
LINE
  5
2E7
100
AcDbEntity
  8
IMPORT_IGES
100
AcDbLine
 62
7
  6
CONTINUOUS
 10
153.9943333753
 20
82.6528188923
 11
153.9943333753
 21
83.1458788389
  0
LINE
  5
2E8
100
AcDbEntity
  8
CURVE
100
AcDbLine
 62
250
  6
CONTINUOUS
 10
154.0050997637
 20
81.6495595548
 11
154.0050997637
 21
82.3524474327
  0
LINE
  5
2E9
100
AcDbEntity
  8
IMPORT_IGES
100
AcDbLine
 62
7
  6
CONTINUOUS
 10
154.0050997637
 20
81.6495595548
 11
154.0050997637
 21
82.3524474327
  0
LINE
  5
2EA
100
AcDbEntity
  8
CURVE
100
AcDbLine
 62
250
  6
CONTINUOUS
 10
154.516485719
 20
82.1926875711
 11
154.516485719
 21
82.2033008588
  0
LINE
  5
2EB
100
AcDbEntity
  8
IMPORT_IGES
100
AcDbLine
 62
7
  6
CONTINUOUS
 10
154.516485719
 20
82.1926875711
 11
154.516485719
 21
82.2033008588
  0
LINE
  5
2EC
100
AcDbEntity
  8
CURVE
100
AcDbLine
 62
250
  6
CONTINUOUS
 10
151.0592505296
 20
84.5232648898
 11
150.9891810321
 21
83.3909135723
  0
LINE
  5
2ED
100
AcDbEntity
  8
IMPORT_IGES
100
AcDbLine
 62
7
  6
CONTINUOUS
 10
151.0592505296
 20
84.5232648898
 11
150.9891810321
 21
83.3909135723
  0
LINE
  5
2EE
100
AcDbEntity
  8
CURVE
100
AcDbLine
 62
250
  6
CONTINUOUS
 10
150.678554088
 20
83.5702656768
 11
150.819007173
 21
85.2852529562
  0
LINE
  5
2EF
100
AcDbEntity
  8
IMPORT_IGES
100
AcDbLine
 62
7
  6
CONTINUOUS
 10
150.678554088
 20
83.5702656768
 11
150.819007173
 21
85.2852529562
  0
LWPOLYLINE
  5
2F0
100
AcDbEntity
  8
0
100
AcDbPolyline
 62
7
  6
CONTINUOUS
 90
5
 70
0
 10
144.5545107583
 20
95.683236691
 10
144.5774909634
 20
95.712833173
 10
144.5934492162
 20
95.7471966262
 10
144.6014674667
 20
95.785339246
 10
144.6023492327
 20
95.8044484701
  0
LINE
  5
2F1
100
AcDbEntity
  8
0
100
AcDbLine
 62
7
  6
CONTINUOUS
 10
143.335520739
 20
94.9597309473
 11
142.992740069
 21
94.6263286758
  0
LINE
  5
2F2
100
AcDbEntity
  8
0
100
AcDbLine
 62
7
  6
CONTINUOUS
 10
137.29368053
 20
96.8740737704
 11
140.4098904998
 21
98.4642961513
  0
LWPOLYLINE
  5
2F3
100
AcDbEntity
  8
CURVE
100
AcDbPolyline
 62
250
  6
CONTINUOUS
 90
5
 70
0
 10
154.3603439249
 20
81.9890773949
 10
154.3656998646
 20
81.9690216135
 10
154.370797307
 20
81.9490101521
 10
154.3756811817
 20
81.9290357383
 10
154.3803964181
 20
81.9090910998
  0
LWPOLYLINE
  5
2F4
100
AcDbEntity
  8
IMPORT_IGES
100
AcDbPolyline
 62
7
  6
CONTINUOUS
 90
5
 70
0
 10
154.3603439249
 20
81.9890773949
 10
154.3656998646
 20
81.9690216135
 10
154.370797307
 20
81.9490101521
 10
154.3756811817
 20
81.9290357383
 10
154.3803964181
 20
81.9090910998
  0
LINE
  5
2F5
100
AcDbEntity
  8
CURVE
100
AcDbLine
 62
250
  6
CONTINUOUS
 10
153.1090979754
 20
83.9629832284
 11
153.5863652652
 21
81.8913319465
  0
LINE
  5
2F6
100
AcDbEntity
  8
IMPORT_IGES
100
AcDbLine
 62
7
  6
CONTINUOUS
 10
153.1090979754
 20
83.9629832284
 11
153.5863652652
 21
81.8913319465
  0
LINE
  5
2F7
100
AcDbEntity
  8
CURVE
100
AcDbLine
 62
250
  6
CONTINUOUS
 10
154.3803964181
 20
81.9090910998
 11
154.3895006945
 21
81.8692620596
  0
LINE
  5
2F8
100
AcDbEntity
  8
IMPORT_IGES
100
AcDbLine
 62
7
  6
CONTINUOUS
 10
154.3803964181
 20
81.9090910998
 11
154.3895006945
 21
81.8692620596
  0
LINE
  5
2F9
100
AcDbEntity
  8
CURVE
100
AcDbLine
 62
250
  6
CONTINUOUS
 10
154.3895006945
 20
81.8692620596
 11
154.4557667395
 21
81.574533074
  0
LINE
  5
2FA
100
AcDbEntity
  8
IMPORT_IGES
100
AcDbLine
 62
7
  6
CONTINUOUS
 10
154.3895006945
 20
81.8692620596
 11
154.4557667395
 21
81.574533074
  0
LWPOLYLINE
  5
2FB
100
AcDbEntity
  8
CURVE
100
AcDbPolyline
 62
250
  6
CONTINUOUS
 90
37
 70
0
 10
154.6883386497
 20
81.8049027429
 10
154.6851113465
 20
81.8194661222
 10
154.681790381
 20
81.8340484417
 10
154.6783593719
 20
81.848650194
 10
154.6748019377
 20
81.8632718719
 10
154.6711016971
 20
81.8779139678
 10
154.6672422689
 20
81.8925769744
 10
154.6632072716
 20
81.9072613844
 10
154.6589803239
 20
81.9219676902
 10
154.6545450445
 20
81.9366963846
 10
154.649885052
 20
81.9514479601
 10
154.6449839651
 20
81.9662229093
 10
154.6414747875
 20
81.9763679315
 10
154.6378377389
 20
81.9865173106
 10
154.6340660392
 20
81.9966641796
 10
154.6301529081
 20
82.006801671
 10
154.6260915656
 20
82.0169229175
 10
154.6218752315
 20
82.027021052
 10
154.6174971257
 20
82.037089207
 10
154.6129504679
 20
82.0471205153
 10
154.6082284781
 20
82.0571081096
 10
154.6033243761
 20
82.0670451226
 10
154.5982313818
 20
82.0769246869
 10
154.5929427149
 20
82.0867399354
 10
154.5879230604
 20
82.0956660135
 10
154.5827391875
 20
82.1045174482
 10
154.577396717
 20
82.1132793123
 10
154.5719012697
 20
82.1219366784
 10
154.5662584664
 20
82.1304746194
 10
154.560473928
 20
82.1388782079
 10
154.554553275
 20
82.1471325168
 10
154.5485021285
 20
82.1552226188
 10
154.5423261091
 20
82.1631335866
 10
154.5360308377
 20
82.170850493
 10
154.529621935
 20
82.1783584107
 10
154.5231050219
 20
82.1856424125
 10
154.516485719
 20
82.1926875711
  0
LWPOLYLINE
  5
2FC
100
AcDbEntity
  8
IMPORT_IGES
100
AcDbPolyline
 62
7
  6
CONTINUOUS
 90
37
 70
0
 10
154.6883386497
 20
81.8049027429
 10
154.6851113465
 20
81.8194661222
 10
154.681790381
 20
81.8340484417
 10
154.6783593719
 20
81.848650194
 10
154.6748019377
 20
81.8632718719
 10
154.6711016971
 20
81.8779139678
 10
154.6672422689
 20
81.8925769744
 10
154.6632072716
 20
81.9072613844
 10
154.6589803239
 20
81.9219676902
 10
154.6545450445
 20
81.9366963846
 10
154.649885052
 20
81.9514479601
 10
154.6449839651
 20
81.9662229093
 10
154.6414747875
 20
81.9763679315
 10
154.6378377389
 20
81.9865173106
 10
154.6340660392
 20
81.9966641796
 10
154.6301529081
 20
82.006801671
 10
154.6260915656
 20
82.0169229175
 10
154.6218752315
 20
82.027021052
 10
154.6174971257
 20
82.037089207
 10
154.6129504679
 20
82.0471205153
 10
154.6082284781
 20
82.0571081096
 10
154.6033243761
 20
82.0670451226
 10
154.5982313818
 20
82.0769246869
 10
154.5929427149
 20
82.0867399354
 10
154.5879230604
 20
82.0956660135
 10
154.5827391875
 20
82.1045174482
 10
154.577396717
 20
82.1132793123
 10
154.5719012697
 20
82.1219366784
 10
154.5662584664
 20
82.1304746194
 10
154.560473928
 20
82.1388782079
 10
154.554553275
 20
82.1471325168
 10
154.5485021285
 20
82.1552226188
 10
154.5423261091
 20
82.1631335866
 10
154.5360308377
 20
82.170850493
 10
154.529621935
 20
82.1783584107
 10
154.5231050219
 20
82.1856424125
 10
154.516485719
 20
82.1926875711
  0
LINE
  5
2FD
100
AcDbEntity
  8
CURVE
100
AcDbLine
 62
250
  6
CONTINUOUS
 10
154.4557667395
 20
81.574533074
 11
154.5023249437
 21
81.3624679676
  0
LINE
  5
2FE
100
AcDbEntity
  8
IMPORT_IGES
100
AcDbLine
 62
7
  6
CONTINUOUS
 10
154.4557667395
 20
81.574533074
 11
154.5023249437
 21
81.3624679676
  0
LINE
  5
2FF
100
AcDbEntity
  8
CURVE
100
AcDbLine
 62
250
  6
CONTINUOUS
 10
154.6945777942
 20
81.7758308348
 11
154.6883386497
 21
81.8049027429
  0
LINE
  5
300
100
AcDbEntity
  8
IMPORT_IGES
100
AcDbLine
 62
7
  6
CONTINUOUS
 10
154.6945777942
 20
81.7758308348
 11
154.6883386497
 21
81.8049027429
  0
LINE
  5
301
100
AcDbEntity
  8
CURVE
100
AcDbLine
 62
250
  6
CONTINUOUS
 10
153.2441507851
 20
82.0889222983
 11
153.1600376089
 21
82.4960499624
  0
LINE
  5
302
100
AcDbEntity
  8
IMPORT_IGES
100
AcDbLine
 62
7
  6
CONTINUOUS
 10
153.2441507851
 20
82.0889222983
 11
153.1600376089
 21
82.4960499624
  0
LINE
  5
303
100
AcDbEntity
  8
CURVE
100
AcDbLine
 62
250
  6
CONTINUOUS
 10
154.7188085756
 20
81.6587209253
 11
154.6945777942
 21
81.7758308348
  0
LINE
  5
304
100
AcDbEntity
  8
IMPORT_IGES
100
AcDbLine
 62
7
  6
CONTINUOUS
 10
154.7188085756
 20
81.6587209253
 11
154.6945777942
 21
81.7758308348
  0
LINE
  5
305
100
AcDbEntity
  8
CURVE
100
AcDbLine
 62
250
  6
CONTINUOUS
 10
154.8146435257
 20
81.1821391326
 11
154.79982953
 21
81.2548159866
  0
LINE
  5
306
100
AcDbEntity
  8
IMPORT_IGES
100
AcDbLine
 62
7
  6
CONTINUOUS
 10
154.8146435257
 20
81.1821391326
 11
154.79982953
 21
81.2548159866
  0
LINE
  5
307
100
AcDbEntity
  8
CURVE
100
AcDbLine
 62
250
  6
CONTINUOUS
 10
154.79982953
 20
81.2548159866
 11
154.7188085756
 21
81.6587209253
  0
LINE
  5
308
100
AcDbEntity
  8
IMPORT_IGES
100
AcDbLine
 62
7
  6
CONTINUOUS
 10
154.79982953
 20
81.2548159866
 11
154.7188085756
 21
81.6587209253
  0
LINE
  5
309
100
AcDbEntity
  8
CURVE
100
AcDbLine
 62
250
  6
CONTINUOUS
 10
153.0951476347
 20
82.8109707035
 11
152.9459459557
 21
83.5636671574
  0
LINE
  5
30A
100
AcDbEntity
  8
IMPORT_IGES
100
AcDbLine
 62
7
  6
CONTINUOUS
 10
153.0951476347
 20
82.8109707035
 11
152.9459459557
 21
83.5636671574
  0
LINE
  5
30B
100
AcDbEntity
  8
0
100
AcDbLine
 62
250
  6
CONTINUOUS
 10
160.4352732405
 20
86.9018911338
 11
160.4352732405
 21
86.4728684397
  0
LINE
  5
30C
100
AcDbEntity
  8
0
100
AcDbLine
 62
7
  6
CONTINUOUS
 10
160.5123297929
 20
87.0163958041
 11
160.5123297929
 21
86.6183500193
  0
LINE
  5
30D
100
AcDbEntity
  8
CURVE
100
AcDbLine
 62
250
  6
CONTINUOUS
 10
152.9459459557
 20
83.5636671574
 11
152.784275493
 21
82.990464382
  0
LINE
  5
30E
100
AcDbEntity
  8
IMPORT_IGES
100
AcDbLine
 62
7
  6
CONTINUOUS
 10
152.9459459557
 20
83.5636671574
 11
152.784275493
 21
82.990464382
  0
LINE
  5
30F
100
AcDbEntity
  8
CURVE
100
AcDbLine
 62
250
  6
CONTINUOUS
 10
149.4285333361
 20
84.8517956527
 11
149.7340978
 21
85.9116660311
  0
LINE
  5
310
100
AcDbEntity
  8
IMPORT_IGES
100
AcDbLine
 62
7
  6
CONTINUOUS
 10
149.4285333361
 20
84.8517956527
 11
149.7340978
 21
85.9116660311
  0
LINE
  5
311
100
AcDbEntity
  8
CURVE
100
AcDbLine
 62
250
  6
CONTINUOUS
 10
152.7178572927
 20
82.7513593351
 11
152.6282616148
 21
82.4445289864
  0
LINE
  5
312
100
AcDbEntity
  8
IMPORT_IGES
100
AcDbLine
 62
7
  6
CONTINUOUS
 10
152.7178572927
 20
82.7513593351
 11
152.6282616148
 21
82.4445289864
  0
LINE
  5
313
100
AcDbEntity
  8
CURVE
100
AcDbLine
 62
250
  6
CONTINUOUS
 10
152.3070896888
 20
82.6299696312
 11
152.7949952986
 21
84.1443421774
  0
LINE
  5
314
100
AcDbEntity
  8
IMPORT_IGES
100
AcDbLine
 62
7
  6
CONTINUOUS
 10
152.3070896888
 20
82.6299696312
 11
152.7949952986
 21
84.1443421774
  0
LINE
  5
315
100
AcDbEntity
  8
CURVE
100
AcDbLine
 62
250
  6
CONTINUOUS
 10
150.0585713758
 20
85.724319055
 11
149.5585695938
 21
84.216930687
  0
LINE
  5
316
100
AcDbEntity
  8
IMPORT_IGES
100
AcDbLine
 62
7
  6
CONTINUOUS
 10
150.0585713758
 20
85.724319055
 11
149.5585695938
 21
84.216930687
  0
LINE
  5
317
100
AcDbEntity
  8
CURVE
100
AcDbLine
 62
250
  6
CONTINUOUS
 10
151.4646986031
 20
83.9152480995
 11
151.7893936717
 21
84.7249639537
  0
LINE
  5
318
100
AcDbEntity
  8
IMPORT_IGES
100
AcDbLine
 62
7
  6
CONTINUOUS
 10
151.4646986031
 20
83.9152480995
 11
151.7893936717
 21
84.7249639537
  0
LINE
  5
319
100
AcDbEntity
  8
CURVE
100
AcDbLine
 62
250
  6
CONTINUOUS
 10
151.8717571291
 20
84.049244583
 11
151.4856944881
 21
83.1042329256
  0
LINE
  5
31A
100
AcDbEntity
  8
IMPORT_IGES
100
AcDbLine
 62
7
  6
CONTINUOUS
 10
151.8717571291
 20
84.049244583
 11
151.4856944881
 21
83.1042329256
  0
LINE
  5
31B
100
AcDbEntity
  8
0
100
AcDbLine
 62
7
  6
CONTINUOUS
 10
144.5253706639
 20
95.6590467896
 11
144.5545107583
 21
95.683236691
  0
LINE
  5
31C
100
AcDbEntity
  8
0
100
AcDbLine
 62
7
  6
CONTINUOUS
 10
144.5253706639
 20
96.0880694836
 11
141.7195245365
 21
94.3186469099
  0
LWPOLYLINE
  5
31D
100
AcDbEntity
  8
0
100
AcDbPolyline
 62
7
  6
CONTINUOUS
 90
9
 70
0
 10
142.7596396088
 20
94.4448847935
 10
142.785661452
 20
94.4606477447
 10
142.8151614084
 20
94.479917233
 10
142.8447109737
 20
94.5006577669
 10
142.8743286149
 20
94.5229338001
 10
142.9039470712
 20
94.5466485826
 10
142.9335439221
 20
94.5717698643
 10
142.963141588
 20
94.5983298954
 10
142.992740069
 20
94.6263286758
  0
LINE
  5
31E
100
AcDbEntity
  8
0
100
AcDbLine
 62
7
  6
CONTINUOUS
 10
141.9841033767
 20
94.1658824035
 11
144.5160198184
 21
95.6531788053
  0
LINE
  5
31F
100
AcDbEntity
  8
0
100
AcDbLine
 62
7
  6
CONTINUOUS
 10
142.7596161153
 20
94.4449272163
 11
142.1317669611
 21
94.0806233006
  0
LINE
  5
320
100
AcDbEntity
  8
0
100
AcDbLine
 62
250
  6
CONTINUOUS
 10
142.992740069
 20
94.6263286758
 11
142.091618681
 21
94.1038044143
  0
LINE
  5
321
100
AcDbEntity
  8
ASSI
100
AcDbLine
 62
7
  6
CONTINUOUS
 10
96.430335992
 20
155.5769672986
 11
207.3038836557
 21
91.5599704495
  0
LINE
  5
322
100
AcDbEntity
  8
ASSI
100
AcDbLine
 62
250
  6
CONTINUOUS
 10
96.3889194678
 20
155.6685146709
 11
207.2624671315
 21
91.6515178217
  0
LWPOLYLINE
  5
323
100
AcDbEntity
  8
ASSI
100
AcDbPolyline
 62
7
  6
CONTINUOUS
 90
27
 70
0
 10
207.3039045489
 20
91.5599583911
 10
207.3146485929
 20
91.5535615545
 10
207.3359305443
 20
91.5397755405
 10
207.3580490149
 20
91.5239035242
 10
207.380702393
 20
91.5060217782
 10
207.4037196833
 20
91.4861468316
 10
207.4269441994
 20
91.4643035955
 10
207.4501166947
 20
91.4406384484
 10
207.4730743735
 20
91.41523627
 10
207.4956604178
 20
91.3881955399
 10
207.5176497005
 20
91.3597232479
 10
207.5388970963
 20
91.3299599864
 10
207.5592656108
 20
91.2990585101
 10
207.5785722126
 20
91.2672722213
 10
207.5967049707
 20
91.2347785046
 10
207.6135631711
 20
91.2017617729
 10
207.6290144912
 20
91.1685058834
 10
207.6429920527
 20
91.135204847
 10
207.6554430375
 20
91.1020549225
 10
207.6662952634
 20
91.069355765
 10
207.6755377947
 20
91.0372934905
 10
207.6831747924
 20
91.00605257
 10
207.6892034666
 20
90.9759331523
 10
207.6936759699
 20
90.9470877233
 10
207.696659447
 20
90.9196748734
 10
207.6982332886
 20
90.8939939342
 10
207.6985617172
 20
90.8764059403
  0
LWPOLYLINE
  5
324
100
AcDbEntity
  8
ASSI
100
AcDbPolyline
 62
250
  6
CONTINUOUS
 90
5
 70
0
 10
207.2624671315
 20
91.6515178217
 10
207.2942940408
 20
91.6319633997
 10
207.3258035258
 20
91.6102651598
 10
207.3569955866
 20
91.586423102
 10
207.3880312807
 20
91.5602941908
  0
LWPOLYLINE
  5
325
100
AcDbEntity
  8
ASSI
100
AcDbPolyline
 62
250
  6
CONTINUOUS
 90
9
 70
0
 10
207.7571403531
 20
90.7947186697
 10
207.7434258367
 20
90.8034926029
 10
207.7313363837
 20
90.8130299715
 10
207.7209986323
 20
90.8232308707
 10
207.7125208716
 20
90.8339884451
 10
207.7059919069
 20
90.8451900081
 10
207.7014801297
 20
90.856718222
 10
207.6990328013
 20
90.8684523279
 10
207.6985617094
 20
90.8763735884
  0
LINE
  5
326
100
AcDbEntity
  8
0
100
AcDbLine
 62
250
  6
CONTINUOUS
 10
176.3451758172
 20
77.7157127839
 11
176.3451758172
 21
77.2866900898
  0
LINE
  5
327
100
AcDbEntity
  8
0
100
AcDbLine
 62
7
  6
CONTINUOUS
 10
176.4222323696
 20
77.8302174542
 11
176.4222323696
 21
77.4321716694
  0
LWPOLYLINE
  5
328
100
AcDbEntity
  8
0
100
AcDbPolyline
 62
7
  6
CONTINUOUS
 90
5
 70
0
 10
160.464413335
 20
86.4970583411
 10
160.4873935401
 20
86.5266548231
 10
160.5033517929
 20
86.5610182763
 10
160.5113700434
 20
86.5991608961
 10
160.5122518094
 20
86.6182701202
  0
LINE
  5
329
100
AcDbEntity
  8
0
100
AcDbLine
 62
7
  6
CONTINUOUS
 10
159.2454233157
 20
85.7735525974
 11
158.9026426457
 21
85.4401503259
  0
LINE
  5
32A
100
AcDbEntity
  8
0
100
AcDbLine
 62
7
  6
CONTINUOUS
 10
160.4352732405
 20
86.4728684397
 11
160.464413335
 21
86.4970583411
  0
LINE
  5
32B
100
AcDbEntity
  8
0
100
AcDbLine
 62
7
  6
CONTINUOUS
 10
160.4352732405
 20
86.9018911338
 11
157.6294271132
 21
85.13246856
  0
LWPOLYLINE
  5
32C
100
AcDbEntity
  8
0
100
AcDbPolyline
 62
7
  6
CONTINUOUS
 90
9
 70
0
 10
158.6695421855
 20
85.2587064437
 10
158.6955640287
 20
85.2744693949
 10
158.7250639851
 20
85.2937388832
 10
158.7546135504
 20
85.3144794171
 10
158.7842311916
 20
85.3367554502
 10
158.8138496479
 20
85.3604702327
 10
158.8434464988
 20
85.3855915145
 10
158.8730441647
 20
85.4121515455
 10
158.9026426457
 20
85.4401503259
  0
LINE
  5
32D
100
AcDbEntity
  8
0
100
AcDbLine
 62
7
  6
CONTINUOUS
 10
157.8940059534
 20
84.9797040537
 11
160.4259223951
 21
86.4670004554
  0
LINE
  5
32E
100
AcDbEntity
  8
0
100
AcDbLine
 62
7
  6
CONTINUOUS
 10
158.669518692
 20
85.2587488664
 11
158.0416695378
 21
84.8944449507
  0
LINE
  5
32F
100
AcDbEntity
  8
0
100
AcDbLine
 62
250
  6
CONTINUOUS
 10
158.9026426457
 20
85.4401503259
 11
158.0015212577
 21
84.9176260645
  0
LINE
  5
330
100
AcDbEntity
  8
0
100
AcDbLine
 62
7
  6
CONTINUOUS
 10
153.2035831684
 20
87.6878953849
 11
156.3197930765
 21
89.2781178014
  0
LWPOLYLINE
  5
331
100
AcDbEntity
  8
ASSI
100
AcDbPolyline
 62
250
  6
CONTINUOUS
 90
16
 70
0
 10
95.8942462462
 20
155.3829517557
 10
95.9094422997
 20
155.3750331026
 10
95.9259605741
 20
155.3680527663
 10
95.9436280314
 20
155.3620838636
 10
95.9622595956
 20
155.3571889157
 10
95.981660095
 20
155.3534191934
 10
96.0016263065
 20
155.35081418
 10
96.0219490792
 20
155.3494011589
 10
96.0424155296
 20
155.3491949273
 10
96.0628112753
 20
155.3501976413
 10
96.0829226698
 20
155.3523987939
 10
96.102539047
 20
155.3557753246
 10
96.1214549336
 20
155.3602918626
 10
96.139472189
 20
155.3659010958
 10
96.156402082
 20
155.3725442653
 10
96.1720672745
 20
155.3801517821
  0
LINE
  5
332
100
AcDbEntity
  8
ASSI
100
AcDbLine
 62
7
  6
CONTINUOUS
 10
227.3271271856
 20
97.9924657708
 11
227.3486285375
 21
97.9804708234
  0
LINE
  5
333
100
AcDbEntity
  8
ASSI
100
AcDbLine
 62
7
  6
CONTINUOUS
 10
225.6311921206
 20
98.1280479862
 11
78.0201944788
 21
183.3567880242
  0
LINE
  5
334
100
AcDbEntity
  8
ASSI
100
AcDbLine
 62
7
  6
CONTINUOUS
 10
226.6410912682
 20
99.2059613208
 11
78.4236473928
 21
184.7848558136
  0
LWPOLYLINE
  5
335
100
AcDbEntity
  8
ASSI
100
AcDbPolyline
 62
250
  6
CONTINUOUS
 90
17
 70
0
 10
207.3880312807
 20
91.5602941908
 10
207.4187495506
 20
91.5320214617
 10
207.4486672235
 20
91.5020340213
 10
207.4777446937
 20
91.4703193735
 10
207.5060215669
 20
91.4368900143
 10
207.5331334866
 20
91.4022125389
 10
207.559040179
 20
91.3663106794
 10
207.583781918
 20
91.3291607036
 10
207.6071151686
 20
91.2911580097
 10
207.6289888518
 20
91.2524409011
 10
207.6494540467
 20
91.2128710745
 10
207.6684204551
 20
91.1724290178
 10
207.6859961828
 20
91.1309118219
 10
207.7020731239
 20
91.0885223959
 10
207.7162366624
 20
91.0458499544
 10
207.7284621804
 20
91.0027328185
 10
207.7387742958
 20
90.959332667
  0
LINE
  5
336
100
AcDbEntity
  8
ASSI
100
AcDbLine
 62
7
  6
CONTINUOUS
 10
226.640728838
 20
26.040793235
 11
226.6410912682
 21
26.0401517974
  0
LWPOLYLINE
  5
337
100
AcDbEntity
  8
0
100
AcDbPolyline
 62
250
  6
CONTINUOUS
 90
11
 70
0
 10
206.2839996812
 20
57.6796206374
 10
206.2859684773
 20
57.6750355601
 10
206.2876318343
 20
57.6706842728
 10
206.2889751645
 20
57.6665845137
 10
206.2899775063
 20
57.6627778415
 10
206.2906361347
 20
57.6592540045
 10
206.2909427971
 20
57.6559734257
 10
206.2908621531
 20
57.6529692493
 10
206.2903557729
 20
57.6502909088
 10
206.2893750512
 20
57.6479591925
 10
206.2879243121
 20
57.6460852162
  0
LINE
  5
338
100
AcDbEntity
  8
0
100
AcDbLine
 62
250
  6
CONTINUOUS
 10
192.2550783939
 20
68.529534434
 11
192.2550783939
 21
68.10051174
  0
LINE
  5
339
100
AcDbEntity
  8
0
100
AcDbLine
 62
7
  6
CONTINUOUS
 10
192.3321349463
 20
68.6440391043
 11
192.3321349463
 21
68.2459933196
  0
LWPOLYLINE
  5
33A
100
AcDbEntity
  8
0
100
AcDbPolyline
 62
7
  6
CONTINUOUS
 90
5
 70
0
 10
176.3743159117
 20
77.3108799913
 10
176.3972961168
 20
77.3404764733
 10
176.4132543696
 20
77.3748399265
 10
176.4212726201
 20
77.4129825462
 10
176.4221543861
 20
77.4320917704
  0
LINE
  5
33B
100
AcDbEntity
  8
0
100
AcDbLine
 62
7
  6
CONTINUOUS
 10
175.1553258924
 20
76.5873742476
 11
174.8125452224
 21
76.253971976
  0
LINE
  5
33C
100
AcDbEntity
  8
0
100
AcDbLine
 62
7
  6
CONTINUOUS
 10
176.3451758172
 20
77.2866900898
 11
176.3743159117
 21
77.3108799913
  0
LINE
  5
33D
100
AcDbEntity
  8
0
100
AcDbLine
 62
7
  6
CONTINUOUS
 10
176.3451758172
 20
77.7157127839
 11
173.5393296899
 21
75.9462902102
  0
LWPOLYLINE
  5
33E
100
AcDbEntity
  8
0
100
AcDbPolyline
 62
7
  6
CONTINUOUS
 90
9
 70
0
 10
174.5794447622
 20
76.0725280938
 10
174.6054666054
 20
76.088291045
 10
174.6349665618
 20
76.1075605333
 10
174.6645161271
 20
76.1283010672
 10
174.6941337683
 20
76.1505771003
 10
174.7237522245
 20
76.1742918828
 10
174.7533490755
 20
76.1994131646
 10
174.7829467414
 20
76.2259731957
 10
174.8125452224
 20
76.253971976
  0
LINE
  5
33F
100
AcDbEntity
  8
0
100
AcDbLine
 62
7
  6
CONTINUOUS
 10
173.8039085301
 20
75.7935257038
 11
176.3358249718
 21
77.2808221056
  0
LINE
  5
340
100
AcDbEntity
  8
0
100
AcDbLine
 62
7
  6
CONTINUOUS
 10
174.5794212687
 20
76.0725705165
 11
173.9515721145
 21
75.7082666008
  0
LINE
  5
341
100
AcDbEntity
  8
0
100
AcDbLine
 62
250
  6
CONTINUOUS
 10
174.8125452224
 20
76.253971976
 11
173.9114238344
 21
75.7314477146
  0
LINE
  5
342
100
AcDbEntity
  8
0
100
AcDbLine
 62
7
  6
CONTINUOUS
 10
169.1134856833
 20
78.5017170707
 11
172.2296956532
 21
80.0919394515
  0
LINE
  5
343
100
AcDbEntity
  8
ASSI
100
AcDbLine
 62
7
  6
CONTINUOUS
 10
230.7030242529
 20
101.551255223
 11
82.21146118
 21
187.2884227049
  0
LINE
  5
344
100
AcDbEntity
  8
ASSI
100
AcDbLine
 62
7
  6
CONTINUOUS
 10
226.6410912682
 20
99.2059613208
 11
230.7030242529
 21
101.551255223
  0
LINE
  5
345
100
AcDbEntity
  8
ASSI
100
AcDbLine
 62
7
  6
CONTINUOUS
 10
227.3486285375
 20
97.9804708234
 11
231.4105615222
 21
100.3257647256
  0
LWPOLYLINE
  5
346
100
AcDbEntity
  8
ASSI
100
AcDbPolyline
 62
250
  6
CONTINUOUS
 90
9
 70
0
 10
207.2624671315
 20
91.6515178217
 10
207.2632078453
 20
91.6352544498
 10
207.2654222235
 20
91.6200168194
 10
207.2690870637
 20
91.6059645437
 10
207.2741639698
 20
91.5932448188
 10
207.2805997545
 20
91.5819908795
 10
207.2883269978
 20
91.572320605
 10
207.2972647508
 20
91.5643352868
 10
207.3038836557
 20
91.5599704495
  0
LINE
  5
347
100
AcDbEntity
  8
0
100
AcDbLine
 62
7
  6
CONTINUOUS
 10
192.2550783939
 20
68.529534434
 11
189.4492322666
 21
66.7601118603
  0
LWPOLYLINE
  5
348
100
AcDbEntity
  8
0
100
AcDbPolyline
 62
7
  6
CONTINUOUS
 90
9
 70
0
 10
190.4893473389
 20
66.8863497439
 10
190.5153691821
 20
66.9021126951
 10
190.5448691385
 20
66.9213821834
 10
190.5744187038
 20
66.9421227173
 10
190.604036345
 20
66.9643987505
 10
190.6336548012
 20
66.9881135329
 10
190.6632516522
 20
67.0132348147
 10
190.6928493181
 20
67.0397948458
 10
190.7224477991
 20
67.0677936262
  0
LINE
  5
349
100
AcDbEntity
  8
0
100
AcDbLine
 62
7
  6
CONTINUOUS
 10
189.7138111068
 20
66.6073473539
 11
192.2457275485
 21
68.0946437557
  0
LINE
  5
34A
100
AcDbEntity
  8
0
100
AcDbLine
 62
7
  6
CONTINUOUS
 10
190.4893238454
 20
66.8863921667
 11
189.8614746912
 21
66.5220882509
  0
LINE
  5
34B
100
AcDbEntity
  8
0
100
AcDbLine
 62
250
  6
CONTINUOUS
 10
190.7224477991
 20
67.0677936262
 11
189.821326411
 21
66.5452693647
  0
LINE
  5
34C
100
AcDbEntity
  8
0
100
AcDbLine
 62
7
  6
CONTINUOUS
 10
185.02338826
 20
69.3155387208
 11
188.1395982299
 21
70.9057611017
  0
LWPOLYLINE
  5
34D
100
AcDbEntity
  8
ASSI
100
AcDbPolyline
 62
250
  6
CONTINUOUS
 90
5
 70
0
 10
207.7387742958
 20
90.959332667
 10
207.7468322469
 20
90.9167237513
 10
207.7525224466
 20
90.875264155
 10
207.755958482
 20
90.8345957945
 10
207.7571403531
 20
90.7947186697
  0
LINE
  5
34E
100
AcDbEntity
  8
ASSI
100
AcDbLine
 62
7
  6
CONTINUOUS
 10
207.6985617094
 20
90.8763735884
 11
207.6985617094
 21
54.707659007
  0
LINE
  5
34F
100
AcDbEntity
  8
ASSI
100
AcDbLine
 62
250
  6
CONTINUOUS
 10
207.7571403531
 20
90.7947186697
 11
207.7571403531
 21
54.6260040883
  0
LWPOLYLINE
  5
350
100
AcDbEntity
  8
ASSI
100
AcDbPolyline
 62
7
  6
CONTINUOUS
 90
13
 70
0
 10
207.6985617423
 20
54.7075927381
 10
207.6982818222
 20
54.6918681224
 10
207.6969064454
 20
54.6701029928
 10
207.6944364594
 20
54.6498105698
 10
207.6909388042
 20
54.6311210001
 10
207.6865483899
 20
54.6143402263
 10
207.6815496332
 20
54.5999374884
 10
207.6762634799
 20
54.5880938493
 10
207.6709445072
 20
54.5786693244
 10
207.6658580838
 20
54.5715074225
 10
207.6612220073
 20
54.5663584605
 10
207.6571988783
 20
54.5628811665
 10
207.6551878241
 20
54.5614730711
  0
LWPOLYLINE
  5
351
100
AcDbEntity
  8
ASSI
100
AcDbPolyline
 62
250
  6
CONTINUOUS
 90
4
 70
0
 10
207.7571403531
 20
54.6260040883
 10
207.7561201739
 20
54.5898437617
 10
207.7530846067
 20
54.555213613
 10
207.7480336515
 20
54.5221136422
  0
LWPOLYLINE
  5
352
100
AcDbEntity
  8
ASSI
100
AcDbPolyline
 62
250
  6
CONTINUOUS
 90
16
 70
0
 10
207.2624671315
 20
54.3404411731
 10
207.2632078328
 20
54.3575597547
 10
207.2654221777
 20
54.3753543608
 10
207.2690869708
 20
54.393638591
 10
207.2741638229
 20
54.4122209164
 10
207.2805995536
 20
54.4309066852
 10
207.288326748
 20
54.4495001621
 10
207.2972644629
 20
54.4678065788
 10
207.3073190749
 20
54.4856341736
 10
207.318385261
 20
54.5027962008
 10
207.3303471017
 20
54.5191128864
 10
207.3430792956
 20
54.5344133116
 10
207.3564484718
 20
54.548537203
 10
207.3703145868
 20
54.5613366113
 10
207.3845323917
 20
54.5726774616
 10
207.3989529536
 20
54.5824409573
  0
LWPOLYLINE
  5
353
100
AcDbEntity
  8
0
100
AcDbPolyline
 62
7
  6
CONTINUOUS
 90
5
 70
0
 10
192.2842184884
 20
68.1247016414
 10
192.3071986935
 20
68.1542981234
 10
192.3231569463
 20
68.1886615766
 10
192.3311751968
 20
68.2268041964
 10
192.3320569628
 20
68.2459134205
  0
LINE
  5
354
100
AcDbEntity
  8
ASSI
100
AcDbLine
 62
7
  6
CONTINUOUS
 10
225.6311921206
 20
98.1280479862
 11
226.640728838
 21
99.1813425819
  0
LINE
  5
355
100
AcDbEntity
  8
0
100
AcDbLine
 62
7
  6
CONTINUOUS
 10
191.0652284691
 20
67.4011958977
 11
190.7224477991
 21
67.0677936262
  0
LINE
  5
356
100
AcDbEntity
  8
0
100
AcDbLine
 62
7
  6
CONTINUOUS
 10
192.2550783939
 20
68.10051174
 11
192.2842184884
 21
68.1247016414
  0
LINE
  5
357
100
AcDbEntity
  8
0
100
AcDbLine
 62
7
  6
CONTINUOUS
 10
202.8096683616
 20
61.1933368809
 11
204.1200226173
 21
61.7307992075
  0
LINE
  5
358
100
AcDbEntity
  8
ASSI
100
AcDbLine
 62
7
  6
CONTINUOUS
 10
225.9101680547
 20
97.6448474947
 11
225.6311921206
 21
98.1280479862
  0
LINE
  5
359
100
AcDbEntity
  8
ASSI
100
AcDbLine
 62
7
  6
CONTINUOUS
 10
227.3271271856
 20
97.9924657708
 11
226.640728838
 21
99.1813425819
  0
LWPOLYLINE
  5
35A
100
AcDbEntity
  8
ASSI
100
AcDbPolyline
 62
250
  6
CONTINUOUS
 90
22
 70
0
 10
207.7480336515
 20
54.5221136422
 10
207.7409239684
 20
54.4903829059
 10
207.7317988974
 20
54.4601823475
 10
207.7207884577
 20
54.4319947973
 10
207.7078620224
 20
54.4058836702
 10
207.6930502185
 20
54.3817855513
 10
207.6765749463
 20
54.3599930273
 10
207.6584366203
 20
54.3405523614
 10
207.6386348261
 20
54.3234172903
 10
207.6173902203
 20
54.3087416104
 10
207.5947970392
 20
54.2965298899
 10
207.5707610465
 20
54.2867775605
 10
207.5452201903
 20
54.2796247145
 10
207.5180527988
 20
54.2750167774
 10
207.4893805438
 20
54.2730083236
 10
207.4595063886
 20
54.2739031677
 10
207.4282780003
 20
54.2778176903
 10
207.3958477117
 20
54.2846355109
 10
207.3629754844
 20
54.2943113022
 10
207.3299146388
 20
54.3068299552
 10
207.2964118545
 20
54.3222065788
 10
207.2624671315
 20
54.3404411731
  0
LINE
  5
35B
100
AcDbEntity
  8
0
100
AcDbLine
 62
250
  6
CONTINUOUS
 10
206.2784522066
 20
57.6624574331
 11
206.2839996812
 21
57.6796206374
  0
LINE
  5
35C
100
AcDbEntity
  8
0
100
AcDbLine
 62
7
  6
CONTINUOUS
 10
201.0809330774
 20
60.0441135916
 11
201.1463912874
 21
60.157490537
  0
LINE
  5
35D
100
AcDbEntity
  8
0
100
AcDbLine
 62
7
  6
CONTINUOUS
 10
201.3938786609
 20
60.1779161032
 11
201.499944678
 21
60.3616278337
  0
LINE
  5
35E
100
AcDbEntity
  8
0
100
AcDbLine
 62
7
  6
CONTINUOUS
 10
201.7474320514
 20
60.3820533998
 11
201.8534980686
 21
60.5657651303
  0
LINE
  5
35F
100
AcDbEntity
  8
0
100
AcDbLine
 62
7
  6
CONTINUOUS
 10
202.100985442
 20
60.5861906965
 11
202.2070514592
 21
60.769902427
  0
LINE
  5
360
100
AcDbEntity
  8
0
100
AcDbLine
 62
7
  6
CONTINUOUS
 10
202.4545388326
 20
60.7903279931
 11
202.5606048498
 21
60.9740397237
  0
LINE
  5
361
100
AcDbEntity
  8
0
100
AcDbLine
 62
7
  6
CONTINUOUS
 10
201.1463912874
 20
60.157490537
 11
201.2878126437
 21
60.2391454557
  0
LINE
  5
362
100
AcDbEntity
  8
0
100
AcDbLine
 62
7
  6
CONTINUOUS
 10
201.499944678
 20
60.3616278337
 11
201.6413660343
 21
60.4432827523
  0
LINE
  5
363
100
AcDbEntity
  8
0
100
AcDbLine
 62
7
  6
CONTINUOUS
 10
201.8534980686
 20
60.5657651303
 11
201.9949194249
 21
60.647420049
  0
LINE
  5
364
100
AcDbEntity
  8
0
100
AcDbLine
 62
7
  6
CONTINUOUS
 10
202.2070514592
 20
60.769902427
 11
202.3484728155
 21
60.8515573457
  0
LINE
  5
365
100
AcDbEntity
  8
0
100
AcDbLine
 62
7
  6
CONTINUOUS
 10
202.5606048498
 20
60.9740397237
 11
202.702026206
 21
61.0556946423
  0
LINE
  5
366
100
AcDbEntity
  8
0
100
AcDbLine
 62
7
  6
CONTINUOUS
 10
205.035478584
 20
57.9119802737
 11
205.1768999402
 21
57.9936351924
  0
LINE
  5
367
100
AcDbEntity
  8
0
100
AcDbLine
 62
7
  6
CONTINUOUS
 10
205.3890319746
 20
58.1161175704
 11
205.5304533308
 21
58.197772489
  0
LINE
  5
368
100
AcDbEntity
  8
0
100
AcDbLine
 62
7
  6
CONTINUOUS
 10
205.7425853651
 20
58.320254867
 11
205.8840067214
 21
58.4019097857
  0
LINE
  5
369
100
AcDbEntity
  8
0
100
AcDbLine
 62
7
  6
CONTINUOUS
 10
206.0961387557
 20
58.5243921637
 11
206.237560112
 21
58.6060470824
  0
LINE
  5
36A
100
AcDbEntity
  8
0
100
AcDbLine
 62
7
  6
CONTINUOUS
 10
206.4496921463
 20
58.7285294604
 11
206.5911135026
 21
58.810184379
  0
LINE
  5
36B
100
AcDbEntity
  8
0
100
AcDbLine
 62
7
  6
CONTINUOUS
 10
206.6971795198
 20
58.7489550265
 11
205.0106242568
 21
57.7751591552
  0
LINE
  5
36C
100
AcDbEntity
  8
0
100
AcDbLine
 62
7
  6
CONTINUOUS
 10
200.8489600698
 20
60.1780518989
 11
202.7356212087
 21
61.1588930848
  0
LINE
  5
36D
100
AcDbEntity
  8
0
100
AcDbLine
 62
7
  6
CONTINUOUS
 10
207.6985617094
 20
59.0833880961
 11
207.048630823
 21
58.7458130824
  0
LINE
  5
36E
100
AcDbEntity
  8
ASSI
100
AcDbLine
 62
7
  6
CONTINUOUS
 10
230.7030242529
 20
101.551255223
 11
231.4105615222
 21
100.3257647256
  0
LINE
  5
36F
100
AcDbEntity
  8
ASSI
100
AcDbLine
 62
7
  6
CONTINUOUS
 10
225.9101680547
 20
26.8132138953
 11
225.9101680547
 21
97.6448474947
  0
LINE
  5
370
100
AcDbEntity
  8
ASSI
100
AcDbLine
 62
7
  6
CONTINUOUS
 10
227.3486285375
 20
26.4485959912
 11
227.3486285375
 21
97.9804708234
  0
LINE
  5
371
100
AcDbEntity
  8
ASSI
100
AcDbLine
 62
7
  6
CONTINUOUS
 10
226.6410912682
 20
99.2059613208
 11
226.640728838
 21
99.1813425819
  0
LINE
  5
372
100
AcDbEntity
  8
0
100
AcDbLine
 62
7
  6
CONTINUOUS
 10
204.9700203739
 20
57.7986033283
 11
205.035478584
 21
57.9119802737
  0
LINE
  5
373
100
AcDbEntity
  8
0
100
AcDbLine
 62
7
  6
CONTINUOUS
 10
205.2829659574
 20
57.9324058398
 11
205.3890319746
 21
58.1161175704
  0
LINE
  5
374
100
AcDbEntity
  8
0
100
AcDbLine
 62
7
  6
CONTINUOUS
 10
205.636519348
 20
58.1365431365
 11
205.7425853651
 21
58.320254867
  0
LINE
  5
375
100
AcDbEntity
  8
0
100
AcDbLine
 62
7
  6
CONTINUOUS
 10
205.9900727386
 20
58.3406804332
 11
206.0961387557
 21
58.5243921637
  0
LINE
  5
376
100
AcDbEntity
  8
0
100
AcDbLine
 62
7
  6
CONTINUOUS
 10
206.3436261292
 20
58.5448177298
 11
206.4496921463
 21
58.7285294604
  0
LINE
  5
377
100
AcDbEntity
  8
0
100
AcDbLine
 62
250
  6
CONTINUOUS
 10
206.2839996812
 20
57.6796206374
 11
206.6199446462
 21
58.0063742272
  0
LINE
  5
378
100
AcDbEntity
  8
0
100
AcDbLine
 62
7
  6
CONTINUOUS
 10
206.2879245388
 20
57.6460854367
 11
206.7169089195
 21
58.0633329057
  0
LWPOLYLINE
  5
379
100
AcDbEntity
  8
0
100
AcDbPolyline
 62
250
  6
CONTINUOUS
 90
6
 70
0
 10
206.2293102512
 20
57.6016214623
 10
206.2416219642
 20
57.6100459107
 10
206.252896118
 20
57.6204996779
 10
206.2628418153
 20
57.6327844562
 10
206.2713816146
 20
57.6468056284
 10
206.2784522066
 20
57.6624574331
  0
LINE
  5
37A
100
AcDbEntity
  8
ASSI
100
AcDbLine
 62
250
  6
CONTINUOUS
 10
207.3989529536
 20
54.5824409573
 11
207.6985617094
 21
54.7804682636
  0
LINE
  5
37B
100
AcDbEntity
  8
ASSI
100
AcDbLine
 62
7
  6
CONTINUOUS
 10
207.6554353578
 20
54.5616360854
 11
207.6551982444
 21
54.5614796535
  0
LINE
  5
37C
100
AcDbEntity
  8
0
100
AcDbLine
 62
7
  6
CONTINUOUS
 10
206.981958467
 20
58.707111171
 11
205.2832011473
 21
57.6177766748
  0
LWPOLYLINE
  5
37D
100
AcDbEntity
  8
ASSI
100
AcDbPolyline
 62
250
  6
CONTINUOUS
 90
14
 70
0
 10
207.6551982444
 20
54.5614796535
 10
207.6505012949
 20
54.5584975573
 10
207.6343357073
 20
54.5497957469
 10
207.6172390771
 20
54.5428937447
 10
207.5990556265
 20
54.5377687439
 10
207.5797391844
 20
54.5344974895
 10
207.5594219728
 20
54.5331899139
 10
207.5381955491
 20
54.5339225624
 10
207.5160629696
 20
54.5367716099
 10
207.4931744712
 20
54.5417872411
 10
207.469878095
 20
54.5489183125
 10
207.446374261
 20
54.5580905088
 10
207.4226941726
 20
54.5692826111
 10
207.3989529536
 20
54.5824409573
  0
LINE
  5
37E
100
AcDbEntity
  8
0
100
AcDbLine
 62
7
  6
CONTINUOUS
 10
205.6237136835
 20
57.421169004
 11
207.6985617094
 21
58.6399746298
  0
LINE
  5
37F
100
AcDbEntity
  8
0
100
AcDbLine
 62
7
  6
CONTINUOUS
 10
206.2293101931
 20
57.6016214285
 11
205.7713772679
 21
57.3359099011
  0
LINE
  5
380
100
AcDbEntity
  8
0
100
AcDbLine
 62
250
  6
CONTINUOUS
 10
206.2839996812
 20
57.6796206374
 11
205.7312289877
 21
57.3590910148
  0
LINE
  5
381
100
AcDbEntity
  8
ASSI
100
AcDbLine
 62
7
  6
CONTINUOUS
 10
231.4105615222
 20
28.4773745055
 11
231.4105615222
 21
100.3257647256
  0
LINE
  5
382
100
AcDbEntity
  8
ASSI
100
AcDbLine
 62
7
  6
CONTINUOUS
 10
225.6311921206
 20
26.6521678198
 11
225.9101680547
 21
26.8132138953
  0
LINE
  5
383
100
AcDbEntity
  8
ASSI
100
AcDbLine
 62
7
  6
CONTINUOUS
 10
226.640728838
 20
26.040793235
 11
227.3271271856
 21
26.4370344395
  0
LINE
  5
384
100
AcDbEntity
  8
ASSI
100
AcDbLine
 62
7
  6
CONTINUOUS
 10
231.4105615222
 20
28.4773745055
 11
230.7030242529
 21
28.0689303116
  0
LINE
  5
385
100
AcDbEntity
  8
ASSI
100
AcDbLine
 62
7
  6
CONTINUOUS
 10
227.3486285375
 20
26.4485959912
 11
227.3271271856
 21
26.4370344395
  0
LINE
  5
386
100
AcDbEntity
  8
ASSI
100
AcDbLine
 62
7
  6
CONTINUOUS
 10
227.3486285375
 20
26.4485959912
 11
231.4105615222
 21
28.4773745055
  0
LINE
  5
387
100
AcDbEntity
  8
ASSI
100
AcDbLine
 62
7
  6
CONTINUOUS
 10
226.6410912682
 20
26.0401517974
 11
230.7030242529
 21
28.0689303116
  0
ARC
  5
388
100
AcDbEntity
  8
0
100
AcDbCircle
 62
7
  6
CONTINUOUS
 10
110.6191753305
 20
112.9783394535
 40
0.3
100
AcDbArc
 50
300.1089965527
 51
314.200140507
  0
ARC
  5
389
100
AcDbEntity
  8
0
100
AcDbCircle
 62
7
  6
CONTINUOUS
 10
206.0785907907
 20
57.8612693542
 40
0.3
100
AcDbArc
 50
300.1089965527
 51
314.200140507
  0
ELLIPSE
  5
38A
100
AcDbEntity
  8
0
100
AcDbEllipse
 62
7
  6
CONTINUOUS
 10
112.620434669
 20
113.9824573341
 30
0.0
 11
0.1999995634
 21
0.1164181051
 31
0.0
 40
0.0035896273
 41
-0.7351277754
 42
-0.6748017824
  0
ELLIPSE
  5
38B
100
AcDbEntity
  8
0
100
AcDbEllipse
 62
7
  6
CONTINUOUS
 10
204.2538487386
 20
61.6458373209
 30
0.0
 11
0.1998333781
 21
-0.0157785196
 31
0.0
 40
0.5172961965
 41
0.8262203412
 42
2.3446567905
  0
ELLIPSE
  5
38C
100
AcDbEntity
  8
0
100
AcDbEllipse
 62
7
  6
CONTINUOUS
 10
108.7944332784
 20
116.7629074202
 30
0.0
 11
0.1998333781
 21
-0.0157785196
 31
0.0
 40
0.5172961965
 41
0.8262203412
 42
2.3446567905
  0
ELLIPSE
  5
38D
100
AcDbEntity
  8
0
100
AcDbEllipse
 62
7
  6
CONTINUOUS
 10
124.700727105
 20
107.5218616203
 30
0.0
 11
0.2999972416
 21
-0.0022477848
 31
0.0
 40
0.5723275643
 41
0.7896864073
 42
2.3081228565
  0
ELLIPSE
  5
38E
100
AcDbEntity
  8
0
100
AcDbEllipse
 62
7
  6
CONTINUOUS
 10
140.6106296817
 20
98.3356832704
 30
0.0
 11
0.2999972416
 21
-0.0022477848
 31
0.0
 40
0.5723275643
 41
0.7896864073
 42
2.3081228565
  0
ELLIPSE
  5
38F
100
AcDbEntity
  8
0
100
AcDbEllipse
 62
7
  6
CONTINUOUS
 10
192.2445580992
 20
68.4403616625
 30
0.0
 11
0.0858610644
 21
0.3627848639
 31
0.0
 40
0.5009985936
 41
-2.6944494219
 42
-2.6479073085
  0
ELLIPSE
  5
390
100
AcDbEntity
  8
0
100
AcDbEllipse
 62
7
  6
CONTINUOUS
 10
176.3346555225
 20
77.6265400124
 30
0.0
 11
0.0858610644
 21
0.3627848639
 31
0.0
 40
0.5009985936
 41
-2.6944494219
 42
-2.6479073085
  0
ELLIPSE
  5
391
100
AcDbEntity
  8
0
100
AcDbEllipse
 62
7
  6
CONTINUOUS
 10
160.4247529458
 20
86.8127183623
 30
0.0
 11
0.0858610644
 21
0.3627848639
 31
0.0
 40
0.5009985936
 41
-2.6944494219
 42
-2.6479073085
  0
ELLIPSE
  5
392
100
AcDbEntity
  8
0
100
AcDbEllipse
 62
7
  6
CONTINUOUS
 10
144.5148503691
 20
95.9988967122
 30
0.0
 11
0.0858610644
 21
0.3627848639
 31
0.0
 40
0.5009985936
 41
-2.6944494219
 42
-2.6479073085
  0
ELLIPSE
  5
393
100
AcDbEntity
  8
0
100
AcDbEllipse
 62
7
  6
CONTINUOUS
 10
128.6049477924
 20
105.185075062
 30
0.0
 11
0.0858610644
 21
0.3627848639
 31
0.0
 40
0.5009985936
 41
-2.6944494219
 42
-2.6479073085
  0
ELLIPSE
  5
394
100
AcDbEntity
  8
0
100
AcDbEllipse
 62
7
  6
CONTINUOUS
 10
156.5205322584
 20
89.1495049206
 30
0.0
 11
0.2999972416
 21
-0.0022477848
 31
0.0
 40
0.5723275643
 41
0.7896864073
 42
2.3081228565
  0
ELLIPSE
  5
395
100
AcDbEntity
  8
0
100
AcDbEllipse
 62
7
  6
CONTINUOUS
 10
107.2762057485
 20
115.4594929073
 30
0.0
 11
0.5413005334
 21
0.8416911418
 31
0.0
 40
0.6067084637
 41
0.7148472392
 42
0.8145158917
  0
ELLIPSE
  5
396
100
AcDbEntity
  8
0
100
AcDbEllipse
 62
7
  6
CONTINUOUS
 10
202.7356212087
 20
60.342422808
 30
0.0
 11
0.5413005334
 21
0.8416911418
 31
0.0
 40
0.6067084637
 41
0.7148472392
 42
0.8145158917
  0
ELLIPSE
  5
397
100
AcDbEntity
  8
0
100
AcDbEllipse
 62
7
  6
CONTINUOUS
 10
188.3403374118
 20
70.7771482208
 30
0.0
 11
0.2999972416
 21
-0.0022477848
 31
0.0
 40
0.5723275643
 41
0.7896864073
 42
2.3081228565
  0
ELLIPSE
  5
398
100
AcDbEntity
  8
0
100
AcDbEllipse
 62
7
  6
CONTINUOUS
 10
172.4304348351
 20
79.9633265707
 30
0.0
 11
0.2999972416
 21
-0.0022477848
 31
0.0
 40
0.5723275643
 41
0.7896864073
 42
2.3081228565
  0
ELLIPSE
  5
399
100
AcDbEntity
  8
0
100
AcDbEllipse
 62
7
  6
CONTINUOUS
 10
112.620434669
 20
114.5538221683
 30
0.0
 11
0.1998333781
 21
-0.0157785196
 31
0.0
 40
0.5172961965
 41
-0.692216108
 42
0.8262203412
  0
ELLIPSE
  5
39A
100
AcDbEntity
  8
0
100
AcDbEllipse
 62
7
  6
CONTINUOUS
 10
128.3925246395
 20
105.390263993
 30
0.0
 11
0.2999972416
 21
-0.0022477848
 31
0.0
 40
0.5723275643
 41
-0.728750042
 42
0.7896864073
  0
ELLIPSE
  5
39B
100
AcDbEntity
  8
0
100
AcDbEllipse
 62
7
  6
CONTINUOUS
 10
144.3024272162
 20
96.2040856431
 30
0.0
 11
0.2999972416
 21
-0.0022477848
 31
0.0
 40
0.5723275643
 41
-0.728750042
 42
0.7896864073
  0
ELLIPSE
  5
39C
100
AcDbEntity
  8
0
100
AcDbEllipse
 62
7
  6
CONTINUOUS
 10
160.2123297929
 20
87.0179072932
 30
0.0
 11
0.2999972416
 21
-0.0022477848
 31
0.0
 40
0.5723275643
 41
-0.728750042
 42
0.7896864073
  0
ELLIPSE
  5
39D
100
AcDbEntity
  8
0
100
AcDbEllipse
 62
7
  6
CONTINUOUS
 10
111.5225430068
 20
113.0077109934
 30
0.0
 11
0.4625183445
 21
0.8873459255
 31
0.0
 40
0.5463614449
 41
0.662201126
 42
0.7618697785
  0
ELLIPSE
  5
39E
100
AcDbEntity
  8
0
100
AcDbEllipse
 62
7
  6
CONTINUOUS
 10
206.981958467
 20
57.8906408942
 30
0.0
 11
0.4625183445
 21
0.8873459255
 31
0.0
 40
0.5463614449
 41
0.662201126
 42
0.7618697785
  0
ELLIPSE
  5
39F
100
AcDbEntity
  8
0
100
AcDbEllipse
 62
7
  6
CONTINUOUS
 10
192.0321349463
 20
68.6455505935
 30
0.0
 11
0.2999972416
 21
-0.0022477848
 31
0.0
 40
0.5723275643
 41
-0.728750042
 42
0.7896864073
  0
ELLIPSE
  5
3A0
100
AcDbEntity
  8
0
100
AcDbEllipse
 62
7
  6
CONTINUOUS
 10
176.1222323696
 20
77.8317289434
 30
0.0
 11
0.2999972416
 21
-0.0022477848
 31
0.0
 40
0.5723275643
 41
-0.728750042
 42
0.7896864073
  0
ELLIPSE
  5
3A1
100
AcDbEntity
  8
ASSI
100
AcDbEllipse
 62
7
  6
CONTINUOUS
 10
97.5554633501
 20
119.6021629481
 30
0.0
 11
-0.2500121243
 21
0.4330057017
 31
0.0
 40
0.5780352736
 41
0.7859587116
 42
2.3555370632
  0
ELLIPSE
  5
3A2
100
AcDbEntity
  8
ASSI
100
AcDbEllipse
 62
7
  6
CONTINUOUS
 10
98.0964560621
 20
119.9145438974
 30
0.0
 11
-0.2500121243
 21
0.4330057017
 31
0.0
 40
0.5780352736
 41
0.7859587116
 42
2.3555370632
  0
ENDSEC
  0
SECTION
  2
OBJECTS
  0
DICTIONARY
  5
C
100
AcDbDictionary
280
0
281
1
  3
ACAD_GROUP
350
D
  3
ACAD_MLINESTYLE
350
17
  3
ACAD_LAYOUT
350
1A
  3
ACAD_PLOTSETTINGS
350
19
  3
ACAD_PLOTSTYLENAME
350
E
  0
DICTIONARY
  5
D
102
{ACAD_REACTORS
330
C
102
}
100
AcDbDictionary
280
0
281
1
  0
ACDBDICTIONARYWDFLT
  5
E
102
{ACAD_REACTORS
330
C
102
}
100
AcDbDictionary
281
1
  3
Normal
350
F
100
AcDbDictionaryWithDefault
340
F
  0
DICTIONARY
  5
17
102
{ACAD_REACTORS
330
C
102
}
100
AcDbDictionary
280
0
281
1
  3
Standard
350
18
  0
DICTIONARY
  5
19
102
{ACAD_REACTORS
330
C
102
}
100
AcDbDictionary
281
1
  0
DICTIONARY
  5
1A
102
{ACAD_REACTORS
330
C
102
}
100
AcDbDictionary
281
1
  3
Model
350
3A3
  3
Layout1
350
3A4
  0
ACDBPLACEHOLDER
  5
F
102
{ACAD_REACTORS
330
E
102
}
  0
MLINESTYLE
  5
18
102
{ACAD_REACTORS
330
17
102
}
100
AcDbMlineStyle
  2
STANDARD
 70
0
  3

 62
256
 51
90.0
 52
90.0
 71
2
 49
0.5
 62
256
  6
BYLAYER
 49
-0.5
 62
256
  6
BYLAYER
  0
LAYOUT
  5
3A3
102
{ACAD_REACTORS
330
1A
102
}
100
AcDbPlotSettings
  1

  2
none_device
  4
ISO_A4_(297.00_x_210.00_MM)
  6

 40
0.0
 41
0.0
 42
0.0
 43
0.0
 44
297.0
 45
210.0
 46
0.0
 47
0.0
 48
0.0
 49
0.0
140
0.0
141
0.0
142
1.0
143
1.0
 70
1024
 72
1
 73
0
 74
0
  7

 75
0
147
1.0
148
0.0
149
0.0
100
AcDbLayout
  1
Model
 70
0
 71
0
 10
0.0
 20
0.0
 11
297.0
 21
210.0
 12
0.0
 22
0.0
 32
0.0
 14
0.0
 24
0.0
 34
0.0
 15
0.0
 25
0.0
 35
0.0
146
0.0
 13
0.0
 23
0.0
 33
0.0
 16
1.0
 26
0.0
 36
0.0
 17
0.0
 27
1.0
 37
0.0
 76
0
330
21B
345
0
346
0
  0
LAYOUT
  5
3A4
102
{ACAD_REACTORS
330
1A
102
}
100
AcDbPlotSettings
  1

  2
none_device
  4
ISO_A4_(297.00_x_210.00_MM)
  6

 40
0.0
 41
0.0
 42
0.0
 43
0.0
 44
297.0
 45
210.0
 46
0.0
 47
0.0
 48
0.0
 49
0.0
140
0.0
141
0.0
142
1.0
143
1.0
 70
0
 72
1
 73
0
 74
0
  7

 75
0
147
1.0
148
0.0
149
0.0
100
AcDbLayout
  1
Layout1
 70
0
 71
1
 10
0.0
 20
0.0
 11
297.0
 21
210.0
 12
0.0
 22
0.0
 32
0.0
 14
0.0
 24
0.0
 34
0.0
 15
0.0
 25
0.0
 35
0.0
146
0.0
 13
0.0
 23
0.0
 33
0.0
 16
1.0
 26
0.0
 36
0.0
 17
0.0
 27
1.0
 37
0.0
 76
0
330
21C
345
0
346
0
  0
ENDSEC
  0
EOF
