  0
SECTION
  2
HEADER
  9
$ACADVER
  1
AC1021
  9
$DWGCODEPAGE
  3
ANSI_1252
  9
$EXTMAX
 10
297.0
 20
210.0
 30
0.0
  9
$EXTMIN
 10
0.0
 20
0.0
 30
0.0
  9
$LIMMIN
 10
0.0
 20
0.0
  9
$LIMMAX
 10
297.0
 20
210.0
  9
$VIEWCTR
 10
148.5
 20
105.0
  9
$VIEWSIZE
 40
210.0
  9
$CLAYER
  8
0
  9
$LTSCALE
 40
16.335
  9
$CELTYPE
  6
BYLAYER
  9
$DIMSCALE
 40
1.0
  9
$DIMASZ
 40
3.0
  9
$DIMEXO
 40
0.5
  9
$DIMDLI
 40
11.286
  9
$DIMEXE
 40
1.5
  9
$DIMCEN
 40
2.673
  9
$DIMLFAC
 40
1.0
  9
$DIMBLK
  1
_FILLED
  9
$DIMALT
 70
0
  9
$DIMALTF
 40
25.4
  9
$DIMTXT
 40
3.0
  9
$DIMTOL
 70
1
  9
$DIMLIM
 70
0
  9
$DIMTFAC
 40
1.0
  9
$DIMTP
 40
0.01
  9
$DIMTM
 40
0.01
  9
$DIMGAP
 40
0.625
  9
$DIMDSEP
 70
44
  9
$AUNITS
 70
0
  9
$PDMODE
 70
3
  9
$PDSIZE
 40
3.0
  9
$HANDSEED
  5
383
  9
$TILEMODE
 70
1
  9
$MEASUREMENT
 70
1
  9
$INSUNITS
 70
4
  0
ENDSEC
  0
SECTION
  2
CLASSES
  0
CLASS
  1
ACDBDICTIONARYWDFLT
  2
AcDbDictionaryWithDefault
  3
AutoCAD 2000
 90
0
 91
1
280
0
281
0
  0
CLASS
  1
ACDBPLACEHOLDER
  2
AcDbPlaceHolder
  3
AutoCAD 2000
 90
0
 91
1
280
0
281
0
  0
CLASS
  1
LAYOUT
  2
AcDbLayout
  3
AutoCAD 2000
 90
0
 91
0
280
0
281
0
  0
ENDSEC
  0
SECTION
  2
TABLES
  0
TABLE
  2
VPORT
  5
8
100
AcDbSymbolTable
 70
2
  0
VPORT
  5
1F4
100
AcDbSymbolTableRecord
100
AcDbViewportTableRecord
  2
*ACTIVE
 70
0
 10
0.0
 20
0.0
 11
1.0
 21
1.0
 12
148.5
 22
105.0
 13
0.0
 23
0.0
 14
1.0
 24
1.0
 15
0.0
 25
0.0
 16
0.0
 26
0.0
 36
1.0
 17
0.0
 27
0.0
 37
0.0
 40
210.0
 41
1.4142857143
 42
50.0
 43
0.0
 44
0.0
 50
0.0
 51
0.0
 71
0
 72
100
 73
1
 74
1
 75
0
 76
0
 77
0
 78
0
  0
ENDTAB
  0
TABLE
  2
LTYPE
  5
5
100
AcDbSymbolTable
 70
6
  0
LTYPE
  5
14
100
AcDbSymbolTableRecord
100
AcDbLinetypeTableRecord
  2
BYBLOCK
 70
0
  3

 72
65
 73
0
 40
0.0
  0
LTYPE
  5
15
100
AcDbSymbolTableRecord
100
AcDbLinetypeTableRecord
  2
BYLAYER
 70
0
  3

 72
65
 73
0
 40
0.0
  0
LTYPE
  5
16
100
AcDbSymbolTableRecord
100
AcDbLinetypeTableRecord
  2
CONTINUOUS
 70
64
  3
Solid line
 72
65
 73
0
 40
0.0
  0
LTYPE
  5
1F5
100
AcDbSymbolTableRecord
100
AcDbLinetypeTableRecord
  2
CENTER
 70
64
  3
____ _ ____ _ ____ _ ____ _ ____ _ ____ _ ____
 72
65
 73
4
 40
0.6
 49
0.375
 74
0
 49
-0.075
 74
0
 49
0.075
 74
0
 49
-0.075
 74
0
  0
LTYPE
  5
1F6
100
AcDbSymbolTableRecord
100
AcDbLinetypeTableRecord
  2
HIDDEN
 70
64
  3
- - - - - - - - - - - - - - - - - - - -
 72
65
 73
2
 40
0.2
 49
0.1
 74
0
 49
-0.1
 74
0
  0
LTYPE
  5
1F7
100
AcDbSymbolTableRecord
100
AcDbLinetypeTableRecord
  2
PHANTOM
 70
64
  3
_____ _ _ _____ _ _ _____ _ _ _____
 72
65
 73
6
 40
0.8
 49
0.45
 74
0
 49
-0.05
 74
0
 49
0.1
 74
0
 49
-0.05
 74
0
 49
0.1
 74
0
 49
-0.05
 74
0
  0
LTYPE
  5
1F8
100
AcDbSymbolTableRecord
100
AcDbLinetypeTableRecord
  2
DOT
 70
64
  3
. . . . . . . . . . . . . . . . . . . .
 72
65
 73
2
 40
0.2
 49
0.1
 74
0
 49
-0.1
 74
0
  0
LTYPE
  5
1F9
100
AcDbSymbolTableRecord
100
AcDbLinetypeTableRecord
  2
DASHED
 70
64
  3
- - - - - - - - - - - - - - - - - - - -
 72
65
 73
2
 40
0.2
 49
0.1
 74
0
 49
-0.1
 74
0
  0
ENDTAB
  0
TABLE
  2
LAYER
  5
2
100
AcDbSymbolTable
 70
36
  0
LAYER
  5
10
100
AcDbSymbolTableRecord
100
AcDbLayerTableRecord
  2
0
 70
0
 62
7
  6
CONTINUOUS
370
-3
390
F
  0
LAYER
  5
1FA
100
AcDbSymbolTableRecord
100
AcDbLayerTableRecord
  2
DEFAULT_1
 70
0
 62
7
  6
CENTER
370
-3
390
F
  0
LAYER
  5
1FB
100
AcDbSymbolTableRecord
100
AcDbLayerTableRecord
  2
DEFAULT_2
 70
0
 62
7
  6
HIDDEN
370
-3
390
F
  0
LAYER
  5
1FC
100
AcDbSymbolTableRecord
100
AcDbLayerTableRecord
  2
DEFAULT_3
 70
0
 62
7
  6
PHANTOM
370
-3
390
F
  0
LAYER
  5
1FD
100
AcDbSymbolTableRecord
100
AcDbLayerTableRecord
  2
ASSI
 70
0
 62
7
  6
CONTINUOUS
370
-3
390
F
  0
LAYER
  5
1FE
100
AcDbSymbolTableRecord
100
AcDbLayerTableRecord
  2
COORDINATE
 70
0
 62
7
  6
CONTINUOUS
370
-3
390
F
  0
LAYER
  5
1FF
100
AcDbSymbolTableRecord
100
AcDbLayerTableRecord
  2
COORD_ORIGINE
 70
0
 62
7
  6
CONTINUOUS
370
-3
390
F
  0
LAYER
  5
200
100
AcDbSymbolTableRecord
100
AcDbLayerTableRecord
  2
COPY_PUBLISH
 70
0
 62
7
  6
CONTINUOUS
370
-3
390
F
  0
LAYER
  5
201
100
AcDbSymbolTableRecord
100
AcDbLayerTableRecord
  2
COSMETIC
 70
0
 62
7
  6
CONTINUOUS
370
-3
390
F
  0
LAYER
  5
202
100
AcDbSymbolTableRecord
100
AcDbLayerTableRecord
  2
COSMETICI
 70
0
 62
7
  6
CONTINUOUS
370
-3
390
F
  0
LAYER
  5
203
100
AcDbSymbolTableRecord
100
AcDbLayerTableRecord
  2
CURVE
 70
0
 62
7
  6
CONTINUOUS
370
-3
390
F
  0
LAYER
  5
204
100
AcDbSymbolTableRecord
100
AcDbLayerTableRecord
  2
CURVE_TASSELLI
 70
0
 62
7
  6
CONTINUOUS
370
-3
390
F
  0
LAYER
  5
205
100
AcDbSymbolTableRecord
100
AcDbLayerTableRecord
  2
DRAFT
 70
0
 62
7
  6
CONTINUOUS
370
-3
390
F
  0
LAYER
  5
206
100
AcDbSymbolTableRecord
100
AcDbLayerTableRecord
  2
IMPORT_IGES
 70
0
 62
7
  6
CONTINUOUS
370
-3
390
F
  0
LAYER
  5
207
100
AcDbSymbolTableRecord
100
AcDbLayerTableRecord
  2
INTFCLR_2
 70
0
 62
7
  6
CONTINUOUS
370
-3
390
F
  0
LAYER
  5
208
100
AcDbSymbolTableRecord
100
AcDbLayerTableRecord
  2
INTF_1
 70
0
 62
7
  6
CONTINUOUS
370
-3
390
F
  0
LAYER
  5
209
100
AcDbSymbolTableRecord
100
AcDbLayerTableRecord
  2
INTF_21
 70
0
 62
7
  6
CONTINUOUS
370
-3
390
F
  0
LAYER
  5
20A
100
AcDbSymbolTableRecord
100
AcDbLayerTableRecord
  2
INTF_7
 70
0
 62
7
  6
CONTINUOUS
370
-3
390
F
  0
LAYER
  5
20B
100
AcDbSymbolTableRecord
100
AcDbLayerTableRecord
  2
NOTE
 70
0
 62
7
  6
CONTINUOUS
370
-3
390
F
  0
LAYER
  5
20C
100
AcDbSymbolTableRecord
100
AcDbLayerTableRecord
  2
PIANI
 70
0
 62
7
  6
CONTINUOUS
370
-3
390
F
  0
LAYER
  5
20D
100
AcDbSymbolTableRecord
100
AcDbLayerTableRecord
  2
PIANI_ORIGINE
 70
0
 62
7
  6
CONTINUOUS
370
-3
390
F
  0
LAYER
  5
20E
100
AcDbSymbolTableRecord
100
AcDbLayerTableRecord
  2
PIANI_RIFERIMENTO
 70
0
 62
7
  6
CONTINUOUS
370
-3
390
F
  0
LAYER
  5
20F
100
AcDbSymbolTableRecord
100
AcDbLayerTableRecord
  2
PUNTI
 70
0
 62
7
  6
CONTINUOUS
370
-3
390
F
  0
LAYER
  5
210
100
AcDbSymbolTableRecord
100
AcDbLayerTableRecord
  2
RACCORDO
 70
0
 62
7
  6
CONTINUOUS
370
-3
390
F
  0
LAYER
  5
211
100
AcDbSymbolTableRecord
100
AcDbLayerTableRecord
  2
RGB__255__255__255__
 70
0
 62
7
  6
CONTINUOUS
370
-3
390
F
  0
LAYER
  5
212
100
AcDbSymbolTableRecord
100
AcDbLayerTableRecord
  2
RGB____0____0____0__
 70
0
 62
7
  6
CONTINUOUS
370
-3
390
F
  0
LAYER
  5
213
100
AcDbSymbolTableRecord
100
AcDbLayerTableRecord
  2
SIMBOLI
 70
0
 62
7
  6
CONTINUOUS
370
-3
390
F
  0
LAYER
  5
214
100
AcDbSymbolTableRecord
100
AcDbLayerTableRecord
  2
SMUSSO
 70
0
 62
7
  6
CONTINUOUS
370
-3
390
F
  0
LAYER
  5
215
100
AcDbSymbolTableRecord
100
AcDbLayerTableRecord
  2
SNAPLINE
 70
0
 62
7
  6
CONTINUOUS
370
-3
390
F
  0
LAYER
  5
216
100
AcDbSymbolTableRecord
100
AcDbLayerTableRecord
  2
SUPERFICI
 70
0
 62
7
  6
CONTINUOUS
370
-3
390
F
  0
LAYER
  5
217
100
AcDbSymbolTableRecord
100
AcDbLayerTableRecord
  2
TRASH
 70
0
 62
7
  6
CONTINUOUS
370
-3
390
F
  0
LAYER
  5
218
100
AcDbSymbolTableRecord
100
AcDbLayerTableRecord
  2
XSEC_DATUMS
 70
0
 62
7
  6
CONTINUOUS
370
-3
390
F
  0
ENDTAB
  0
TABLE
  2
STYLE
  5
3
100
AcDbSymbolTable
 70
1
  0
STYLE
  5
11
100
AcDbSymbolTableRecord
100
AcDbTextStyleTableRecord
  2
STANDARD
 70
0
 40
0.0
 41
0.8
 50
0.0
 71
0
 42
0.2
  3
txt
  4

  0
STYLE
  5
219
100
AcDbSymbolTableRecord
100
AcDbTextStyleTableRecord
  2
TEXTSTYLE_1
 70
0
 40
0.0
 41
0.8
 50
0.0
 71
0
 42
0.2
  3
gdt
  4

  0
ENDTAB
  0
TABLE
  2
VIEW
  5
6
100
AcDbSymbolTable
 70
0
  0
ENDTAB
  0
TABLE
  2
UCS
  5
7
100
AcDbSymbolTable
 70
0
  0
ENDTAB
  0
TABLE
  2
APPID
  5
9
100
AcDbSymbolTable
 70
1
  0
APPID
  5
21A
100
AcDbSymbolTableRecord
100
AcDbRegAppTableRecord
  2
ACAD
 70
0
  0
ENDTAB
  0
TABLE
  2
BLOCK_RECORD
  5
1
100
AcDbSymbolTable
 70
0
  0
BLOCK_RECORD
  5
21B
100
AcDbSymbolTableRecord
100
AcDbBlockTableRecord
  2
*Model_Space
  0
BLOCK_RECORD
  5
21C
100
AcDbSymbolTableRecord
100
AcDbBlockTableRecord
  2
*Paper_Space
  0
BLOCK_RECORD
  5
21D
100
AcDbSymbolTableRecord
100
AcDbBlockTableRecord
  2
_FILLED
  0
ENDTAB
  0
TABLE
  2
DIMSTYLE
  5
A
100
AcDbSymbolTable
 70
1
100
AcDbDimStyleTable
 71
0
  0
DIMSTYLE
105
21E
100
AcDbSymbolTableRecord
100
AcDbDimStyleTableRecord
  2
STANDARD
 70
0
  3

  4

 40
1.0
 41
3.0
 42
0.5
 43
0.38
 44
1.5
 45
0.0
 46
0.0
 47
0.01
 48
0.01
140
3.0
141
0.09
142
0.0
143
25.4
144
1.0
145
0.0
146
1.0
147
0.625
 71
1.0
 72
0.0
 73
0
 74
0
 75
0
 76
0
 77
1
 78
8
 79
2
170
0
171
1
172
0
173
0
174
0
175
0
176
0
177
0
178
0
270
2
179
2
271
2
272
2
273
2
274
2
275
0
280
0
281
0
282
0
283
1
284
8
285
0
286
0
287
3
288
0
340
11
278
44
341
21D
342
21D
343
21D
344
21D
  0
ENDTAB
  0
ENDSEC
  0
SECTION
  2
BLOCKS
  0
BLOCK
  5
20
100
AcDbEntity
  8
0
100
AcDbBlockBegin
  2
*Model_Space
 70
0
 10
0.0
 20
0.0
 30
0.0
  3
*Model_Space
  1

  0
ENDBLK
  5
21
100
AcDbEntity
  8
0
100
AcDbBlockEnd
  0
BLOCK
  5
1C
100
AcDbEntity
  8
0
100
AcDbBlockBegin
  2
*Paper_Space
 70
0
 10
0.0
 20
0.0
 30
0.0
  3
*Paper_Space
  1

  0
ENDBLK
  5
1D
100
AcDbEntity
  8
0
100
AcDbBlockEnd
  0
BLOCK
  5
21F
100
AcDbEntity
  8
0
100
AcDbBlockBegin
  2
_FILLED
 70
64
 10
0.0
 20
0.0
  3
_FILLED
  1

  0
SOLID
  5
220
100
AcDbEntity
  8
0
  6
BYBLOCK
 62
0
100
AcDbTrace
 10
0.0
 20
0.0
 11
-1.0
 21
0.3166666667
 12
-1.0
 22
-0.3166666667
 13
-1.0
 23
-0.3166666667
  0
ENDBLK
  5
221
100
AcDbEntity
  8
0
  6
BYBLOCK
 62
0
100
AcDbBlockEnd
  0
ENDSEC
  0
SECTION
  2
ENTITIES
  0
LINE
  5
222
100
AcDbEntity
  8
SMUSSO
100
AcDbLine
 62
7
  6
CONTINUOUS
 10
74.3548063655
 20
185.7046972287
 11
76.1225733184
 21
186.725344257
  0
LINE
  5
223
100
AcDbEntity
  8
0
100
AcDbLine
 62
7
  6
CONTINUOUS
 10
78.65043062
 20
187.3794081869
 11
76.7551089841
 21
186.3601655462
  0
LINE
  5
224
100
AcDbEntity
  8
0
100
AcDbLine
 62
250
  6
CONTINUOUS
 10
79.1276694427
 20
187.3174598365
 11
77.0412662524
 21
186.1954597194
  0
LINE
  5
225
100
AcDbEntity
  8
SMUSSO
100
AcDbLine
 62
7
  6
CONTINUOUS
 10
74.3548063655
 20
185.7046972287
 11
74.3548063655
 21
113.0388031392
  0
LINE
  5
226
100
AcDbEntity
  8
RACCORDO
100
AcDbLine
 62
250
  6
CONTINUOUS
 10
92.8456486935
 20
155.7595786259
 11
93.6941358268
 21
156.2494844626
  0
LWPOLYLINE
  5
227
100
AcDbEntity
  8
RACCORDO
100
AcDbPolyline
 62
7
  6
CONTINUOUS
 90
15
 70
0
 10
93.0941608551
 20
156.3088403157
 10
93.1119320843
 20
156.3185167132
 10
93.1487534577
 20
156.335112756
 10
93.1874348601
 20
156.3480753035
 10
93.2279576418
 20
156.3574407873
 10
93.2699127622
 20
156.3631146713
 10
93.3133147284
 20
156.3650595664
 10
93.3581490333
 20
156.3633128618
 10
93.4039631157
 20
156.3578921888
 10
93.4507668989
 20
156.348760337
 10
93.4985504595
 20
156.3359545168
 10
93.5468314662
 20
156.3196039913
 10
93.5954491417
 20
156.2997518482
 10
93.6445642633
 20
156.2763549998
 10
93.6941768309
 20
156.2494134461
  0
LWPOLYLINE
  5
228
100
AcDbEntity
  8
RACCORDO
100
AcDbPolyline
 62
7
  6
CONTINUOUS
 90
15
 70
0
 10
92.8456486935
 20
155.7595786259
 10
92.8471245532
 20
155.816012296
 10
92.8514215695
 20
155.8702426829
 10
92.8585397425
 20
155.9222697866
 10
92.8685221523
 20
155.9722543766
 10
92.8813257188
 20
156.0200356834
 10
92.8968212017
 20
156.0651313983
 10
92.915035865
 20
156.1075143213
 10
92.9359424448
 20
156.1472116524
 10
92.9593299081
 20
156.1838226834
 10
92.9852233817
 20
156.2173161557
 10
93.0135977389
 20
156.2477233278
 10
93.0441665664
 20
156.2747372672
 10
93.0769520902
 20
156.2983236066
 10
93.0941608551
 20
156.3088403157
  0
LWPOLYLINE
  5
229
100
AcDbEntity
  8
RACCORDO
100
AcDbPolyline
 62
7
  6
CONTINUOUS
 90
28
 70
0
 10
94.9669690371
 20
122.0394745591
 10
94.9684448967
 20
121.9813366033
 10
94.9727419131
 20
121.9221441296
 10
94.9798600861
 20
121.8618971382
 10
94.9898424959
 20
121.8003851115
 10
95.0026460624
 20
121.7378185671
 10
95.0181415452
 20
121.674829057
 10
95.0363562086
 20
121.6114122973
 10
95.0572627883
 20
121.5475725719
 10
95.0806502516
 20
121.4839542845
 10
95.1065437253
 20
121.4205596779
 10
95.1349180825
 20
121.3573865094
 10
95.16548691
 20
121.2950724542
 10
95.1982724338
 20
121.2336262138
 10
95.2332524279
 20
121.1730390867
 10
95.2700738013
 20
121.1139226449
 10
95.3087552037
 20
121.0562917835
 10
95.3492779853
 20
121.0001316072
 10
95.3912331058
 20
120.9460090018
 10
95.4346350719
 20
120.893944604
 10
95.4794693769
 20
120.8439177771
 10
95.5252834593
 20
120.796433496
 10
95.5720872425
 20
120.7515175123
 10
95.6198708031
 20
120.7091440744
 10
95.6681518097
 20
120.6697409037
 10
95.7167694853
 20
120.6334505737
 10
95.7658846069
 20
120.6001305108
 10
95.8154971745
 20
120.569780715
  0
LINE
  5
22A
100
AcDbEntity
  8
RACCORDO
100
AcDbLine
 62
7
  6
CONTINUOUS
 10
92.8456486935
 20
155.7595786259
 11
92.8456486935
 21
120.8146507792
  0
LINE
  5
22B
100
AcDbEntity
  8
RACCORDO
100
AcDbLine
 62
7
  6
CONTINUOUS
 10
94.9669690371
 20
155.5145191781
 11
94.9669690371
 21
122.0394745591
  0
LINE
  5
22C
100
AcDbEntity
  8
0
100
AcDbLine
 62
250
  6
CONTINUOUS
 10
95.5593047984
 20
155.1725119332
 11
95.5593047984
 21
120.763784385
  0
LINE
  5
22D
100
AcDbEntity
  8
0
100
AcDbLine
 62
7
  6
CONTINUOUS
 10
95.6435028583
 20
155.1238970287
 11
95.6435028583
 21
120.6898574445
  0
LINE
  5
22E
100
AcDbEntity
  8
0
100
AcDbLine
 62
7
  6
CONTINUOUS
 10
102.7980920719
 20
116.5381179337
 11
102.8158543082
 21
116.5688830296
  0
LINE
  5
22F
100
AcDbEntity
  8
0
100
AcDbLine
 62
7
  6
CONTINUOUS
 10
103.0633416816
 20
116.5893085957
 11
103.1694076988
 21
116.7730203262
  0
LINE
  5
230
100
AcDbEntity
  8
0
100
AcDbLine
 62
7
  6
CONTINUOUS
 10
103.4168950722
 20
116.7934458924
 11
103.5229610894
 21
116.9771576229
  0
LINE
  5
231
100
AcDbEntity
  8
0
100
AcDbLine
 62
7
  6
CONTINUOUS
 10
103.7704484628
 20
116.997583189
 11
103.87651448
 21
117.1812949195
  0
LINE
  5
232
100
AcDbEntity
  8
0
100
AcDbLine
 62
7
  6
CONTINUOUS
 10
104.1240018534
 20
117.2017204857
 11
104.2300678706
 21
117.3854322162
  0
LINE
  5
233
100
AcDbEntity
  8
0
100
AcDbLine
 62
7
  6
CONTINUOUS
 10
104.477555244
 20
117.4058577824
 11
104.5836212612
 21
117.5895695129
  0
LINE
  5
234
100
AcDbEntity
  8
0
100
AcDbLine
 62
250
  6
CONTINUOUS
 10
110.2514955056
 20
115.974157718
 11
110.2514955056
 21
115.5667880802
  0
LINE
  5
235
100
AcDbEntity
  8
0
100
AcDbLine
 62
7
  6
CONTINUOUS
 10
110.3028665405
 20
116.0407352249
 11
110.3028665405
 21
115.5973333749
  0
LINE
  5
236
100
AcDbEntity
  8
0
100
AcDbLine
 62
250
  6
CONTINUOUS
 10
108.302038257
 20
114.2794879263
 11
108.3070160926
 21
114.2951504266
  0
LINE
  5
237
100
AcDbEntity
  8
0
100
AcDbLine
 62
7
  6
CONTINUOUS
 10
106.6871793684
 20
114.2926076704
 11
106.7049416048
 21
114.3233727663
  0
LINE
  5
238
100
AcDbEntity
  8
0
100
AcDbLine
 62
7
  6
CONTINUOUS
 10
106.9524289782
 20
114.3437983324
 11
107.0584949953
 21
114.5275100629
  0
LINE
  5
239
100
AcDbEntity
  8
0
100
AcDbLine
 62
7
  6
CONTINUOUS
 10
107.3059823688
 20
114.5479356291
 11
107.4120483859
 21
114.7316473596
  0
LINE
  5
23A
100
AcDbEntity
  8
0
100
AcDbLine
 62
7
  6
CONTINUOUS
 10
107.6595357594
 20
114.7520729257
 11
107.7656017765
 21
114.9357846562
  0
LINE
  5
23B
100
AcDbEntity
  8
0
100
AcDbLine
 62
7
  6
CONTINUOUS
 10
108.0130891499
 20
114.9562102224
 11
108.1191551671
 21
115.1399219529
  0
LINE
  5
23C
100
AcDbEntity
  8
0
100
AcDbLine
 62
7
  6
CONTINUOUS
 10
108.3666425405
 20
115.1603475191
 11
108.4727085577
 21
115.3440592496
  0
LINE
  5
23D
100
AcDbEntity
  8
RACCORDO
100
AcDbLine
 62
250
  6
CONTINUOUS
 10
92.8456486935
 20
120.8146507792
 11
94.9669690371
 21
122.0394745591
  0
LINE
  5
23E
100
AcDbEntity
  8
RACCORDO
100
AcDbLine
 62
250
  6
CONTINUOUS
 10
93.6941768309
 20
119.344956935
 11
95.8154971745
 21
120.569780715
  0
LWPOLYLINE
  5
23F
100
AcDbEntity
  8
0
100
AcDbPolyline
 62
250
  6
CONTINUOUS
 90
11
 70
0
 10
108.3070160926
 20
114.2951504266
 10
108.3089829351
 20
114.2905702522
 10
108.3106450613
 20
114.2862231807
 10
108.3119878955
 20
114.2821269245
 10
108.3129904581
 20
114.2783230977
 10
108.3136500678
 20
114.2748013389
 10
108.3139585326
 20
114.2715218372
 10
108.3138804798
 20
114.2685177662
 10
108.3133774248
 20
114.2658385779
 10
108.3124006638
 20
114.2635049302
 10
108.3109407616
 20
114.2616150426
  0
LINE
  5
240
100
AcDbEntity
  8
0
100
AcDbLine
 62
250
  6
CONTINUOUS
 10
108.3070160926
 20
114.2951504266
 11
108.6429610576
 21
114.6219040164
  0
LINE
  5
241
100
AcDbEntity
  8
0
100
AcDbLine
 62
7
  6
CONTINUOUS
 10
108.3109409873
 20
114.2616152621
 11
108.7399253309
 21
114.6788626949
  0
LWPOLYLINE
  5
242
100
AcDbEntity
  8
0
100
AcDbPolyline
 62
250
  6
CONTINUOUS
 90
6
 70
0
 10
108.2590983616
 20
114.2214518861
 10
108.2699210738
 20
114.2300942334
 10
108.2796877537
 20
114.2402898452
 10
108.2883317767
 20
114.2519715175
 10
108.2957970385
 20
114.2650646829
 10
108.302038257
 20
114.2794879263
  0
LINE
  5
243
100
AcDbEntity
  8
0
100
AcDbLine
 62
7
  6
CONTINUOUS
 10
109.0049748783
 20
115.3226409602
 11
107.0615814156
 21
114.0764326207
  0
LINE
  5
244
100
AcDbEntity
  8
0
100
AcDbLine
 62
250
  6
CONTINUOUS
 10
108.2523266937
 20
114.2171512696
 11
108.2590983616
 21
114.2214518861
  0
LINE
  5
245
100
AcDbEntity
  8
0
100
AcDbLine
 62
7
  6
CONTINUOUS
 10
102.8158543082
 20
116.5688830296
 11
102.9572756645
 21
116.6505379482
  0
LINE
  5
246
100
AcDbEntity
  8
0
100
AcDbLine
 62
7
  6
CONTINUOUS
 10
103.1694076988
 20
116.7730203262
 11
103.3108290551
 21
116.8546752449
  0
LINE
  5
247
100
AcDbEntity
  8
0
100
AcDbLine
 62
7
  6
CONTINUOUS
 10
103.5229610894
 20
116.9771576229
 11
103.6643824456
 21
117.0588125415
  0
LINE
  5
248
100
AcDbEntity
  8
0
100
AcDbLine
 62
7
  6
CONTINUOUS
 10
103.87651448
 20
117.1812949195
 11
104.0179358362
 21
117.2629498382
  0
LINE
  5
249
100
AcDbEntity
  8
0
100
AcDbLine
 62
7
  6
CONTINUOUS
 10
104.2300678706
 20
117.3854322162
 11
104.3714892268
 21
117.4670871349
  0
LINE
  5
24A
100
AcDbEntity
  8
0
100
AcDbLine
 62
7
  6
CONTINUOUS
 10
104.5836212612
 20
117.5895695129
 11
104.7250426174
 21
117.6712244315
  0
LINE
  5
24B
100
AcDbEntity
  8
0
100
AcDbLine
 62
7
  6
CONTINUOUS
 10
102.6002805191
 20
116.6523318451
 11
104.7586376201
 21
117.774422874
  0
LINE
  5
24C
100
AcDbEntity
  8
SMUSSO
100
AcDbLine
 62
7
  6
CONTINUOUS
 10
74.3548063655
 20
113.0388031392
 11
223.5543371958
 21
26.8929034019
  0
LINE
  5
24D
100
AcDbEntity
  8
0
100
AcDbLine
 62
250
  6
CONTINUOUS
 10
126.0978999587
 20
106.7727075235
 11
126.0978999587
 21
106.3433097115
  0
LINE
  5
24E
100
AcDbEntity
  8
0
100
AcDbLine
 62
7
  6
CONTINUOUS
 10
126.1749565111
 20
106.8872121938
 11
126.1749565111
 21
106.3891276537
  0
LINE
  5
24F
100
AcDbEntity
  8
0
100
AcDbLine
 62
250
  6
CONTINUOUS
 10
124.2042795217
 20
105.0761372236
 11
124.2169186693
 21
105.1089720767
  0
LINE
  5
250
100
AcDbEntity
  8
0
100
AcDbLine
 62
7
  6
CONTINUOUS
 10
107.3907874672
 20
113.8863531725
 11
110.2514955056
 21
115.5667880802
  0
LINE
  5
251
100
AcDbEntity
  8
0
100
AcDbLine
 62
7
  6
CONTINUOUS
 10
108.2523266375
 20
114.2171512369
 11
107.5368640349
 21
113.802010393
  0
LINE
  5
252
100
AcDbEntity
  8
0
100
AcDbLine
 62
250
  6
CONTINUOUS
 10
108.3070160926
 20
114.2951504266
 11
107.4966309381
 21
113.8252404789
  0
LINE
  5
253
100
AcDbEntity
  8
0
100
AcDbLine
 62
7
  6
CONTINUOUS
 10
106.7049416048
 20
114.3233727663
 11
106.846362961
 21
114.4050276849
  0
LINE
  5
254
100
AcDbEntity
  8
0
100
AcDbLine
 62
7
  6
CONTINUOUS
 10
107.0584949953
 20
114.5275100629
 11
107.1999163516
 21
114.6091649816
  0
LINE
  5
255
100
AcDbEntity
  8
0
100
AcDbLine
 62
7
  6
CONTINUOUS
 10
107.4120483859
 20
114.7316473596
 11
107.5534697422
 21
114.8133022782
  0
LINE
  5
256
100
AcDbEntity
  8
0
100
AcDbLine
 62
7
  6
CONTINUOUS
 10
107.7656017765
 20
114.9357846562
 11
107.9070231328
 21
115.0174395749
  0
LINE
  5
257
100
AcDbEntity
  8
0
100
AcDbLine
 62
7
  6
CONTINUOUS
 10
108.1191551671
 20
115.1399219529
 11
108.2605765234
 21
115.2215768716
  0
LINE
  5
258
100
AcDbEntity
  8
0
100
AcDbLine
 62
7
  6
CONTINUOUS
 10
108.4727085577
 20
115.3440592496
 11
108.614129914
 21
115.4257141682
  0
LINE
  5
259
100
AcDbEntity
  8
0
100
AcDbLine
 62
7
  6
CONTINUOUS
 10
108.7201959311
 20
115.3644848157
 11
106.7754746157
 21
114.2416271012
  0
LINE
  5
25A
100
AcDbEntity
  8
0
100
AcDbLine
 62
7
  6
CONTINUOUS
 10
110.2514955056
 20
115.974157718
 11
109.0716472343
 21
115.3613428716
  0
LINE
  5
25B
100
AcDbEntity
  8
0
100
AcDbLine
 62
7
  6
CONTINUOUS
 10
104.832684773
 20
117.8088666701
 11
106.1430390287
 21
118.3463289968
  0
LWPOLYLINE
  5
25C
100
AcDbEntity
  8
0
100
AcDbPolyline
 62
7
  6
CONTINUOUS
 90
17
 70
0
 10
151.3165903703
 20
83.2922673295
 10
151.3203921365
 20
83.2927262131
 10
151.3242722976
 20
83.2932808383
 10
151.3282317583
 20
83.2939200645
 10
151.3322696139
 20
83.2946550323
 10
151.3363857017
 20
83.2955279452
 10
151.3405837637
 20
83.2965445109
 10
151.344860058
 20
83.2976990216
 10
151.349203196
 20
83.2990165569
 10
151.3536100087
 20
83.3005004023
 10
151.3580836652
 20
83.3021472722
 10
151.3626222845
 20
83.3039723902
 10
151.3672281835
 20
83.3059766171
 10
151.3718990454
 20
83.3081590921
 10
151.3766260386
 20
83.3105324558
 10
151.3814105965
 20
83.3130906558
 10
151.3848908571
 20
83.3150488996
  0
LWPOLYLINE
  5
25D
100
AcDbEntity
  8
0
100
AcDbPolyline
 62
7
  6
CONTINUOUS
 90
7
 70
0
 10
151.2918108094
 20
83.2934859555
 10
151.295209511
 20
83.2924441579
 10
151.2986523079
 20
83.2917130427
 10
151.3021392001
 20
83.2912926099
 10
151.3056596046
 20
83.2912574336
 10
151.3092241043
 20
83.2915329398
 10
151.3165903703
 20
83.2922673295
  0
LWPOLYLINE
  5
25E
100
AcDbEntity
  8
0
100
AcDbPolyline
 62
7
  6
CONTINUOUS
 90
10
 70
0
 10
150.7696584657
 20
84.2360639355
 10
150.7994928874
 20
84.2244779616
 10
150.8287222888
 20
84.2121309389
 10
150.85734667
 20
84.1990228674
 10
150.8850833594
 20
84.1853248401
 10
150.9122150285
 20
84.1708657639
 10
150.9395896919
 20
84.1551323601
 10
150.9674900209
 20
84.1379535356
 10
150.9956333441
 20
84.1195003834
 10
151.0240196615
 20
84.0997729034
  0
LINE
  5
25F
100
AcDbEntity
  8
0
100
AcDbLine
 62
7
  6
CONTINUOUS
 10
146.0477571365
 20
85.4723280175
 11
146.3338946842
 21
85.3071157837
  0
LINE
  5
260
100
AcDbEntity
  8
0
100
AcDbLine
 62
7
  6
CONTINUOUS
 10
146.954390756
 20
84.9488491284
 11
147.2790858246
 21
84.7613742652
  0
LINE
  5
261
100
AcDbEntity
  8
0
100
AcDbLine
 62
7
  6
CONTINUOUS
 10
147.4538791784
 20
84.6604507734
 11
147.7645061225
 21
84.481098669
  0
LINE
  5
262
100
AcDbEntity
  8
0
100
AcDbLine
 62
7
  6
CONTINUOUS
 10
148.2154817018
 20
84.2207110215
 11
148.2610195785
 21
84.1944180223
  0
LINE
  5
263
100
AcDbEntity
  8
0
100
AcDbLine
 62
7
  6
CONTINUOUS
 10
148.7137915456
 20
83.932993163
 11
149.0314292174
 21
83.7495931522
  0
LINE
  5
264
100
AcDbEntity
  8
0
100
AcDbLine
 62
7
  6
CONTINUOUS
 10
149.0824147792
 20
83.7201547279
 11
149.4035867052
 21
83.534714083
  0
LINE
  5
265
100
AcDbEntity
  8
0
100
AcDbLine
 62
7
  6
CONTINUOUS
 10
150.0194758755
 20
83.179107395
 11
150.3616903556
 21
82.9815170431
  0
LINE
  5
266
100
AcDbEntity
  8
0
100
AcDbLine
 62
7
  6
CONTINUOUS
 10
150.4570366051
 20
82.9264649734
 11
150.7804248541
 21
82.7397446515
  0
LINE
  5
267
100
AcDbEntity
  8
0
100
AcDbLine
 62
7
  6
CONTINUOUS
 10
151.2776500341
 20
82.4526530642
 11
151.5899686161
 21
82.2723242293
  0
LWPOLYLINE
  5
268
100
AcDbEntity
  8
0
100
AcDbPolyline
 62
250
  6
CONTINUOUS
 90
6
 70
0
 10
124.2169186693
 20
105.1089720767
 10
124.2209897336
 20
105.0987236695
 10
124.2233559558
 20
105.0897864352
 10
124.2237895981
 20
105.0824336613
 10
124.2220729519
 20
105.0769476061
 10
124.2208428823
 20
105.0754362491
  0
LINE
  5
269
100
AcDbEntity
  8
0
100
AcDbLine
 62
250
  6
CONTINUOUS
 10
124.2169186693
 20
105.1089720767
 11
124.5528636343
 21
105.4357256665
  0
LINE
  5
26A
100
AcDbEntity
  8
0
100
AcDbLine
 62
7
  6
CONTINUOUS
 10
124.2208434156
 20
105.0754367679
 11
124.6498279076
 21
105.4926843451
  0
LWPOLYLINE
  5
26B
100
AcDbEntity
  8
0
100
AcDbPolyline
 62
250
  6
CONTINUOUS
 90
3
 70
0
 10
124.1622290493
 20
105.0309727914
 10
124.1857864662
 20
105.0498271416
 10
124.2042795217
 20
105.0761372236
  0
LINE
  5
26C
100
AcDbEntity
  8
0
100
AcDbLine
 62
7
  6
CONTINUOUS
 10
118.5921240383
 20
107.418841822
 11
121.9824197947
 21
109.1489341911
  0
LINE
  5
26D
100
AcDbEntity
  8
0
100
AcDbLine
 62
7
  6
CONTINUOUS
 10
149.4931823831
 20
83.8415444318
 11
149.9353626993
 21
83.586235059
  0
LINE
  5
26E
100
AcDbEntity
  8
0
100
AcDbLine
 62
7
  6
CONTINUOUS
 10
149.8704727251
 20
83.9011558001
 11
149.5596005833
 21
84.0806494786
  0
LINE
  5
26F
100
AcDbEntity
  8
0
100
AcDbLine
 62
7
  6
CONTINUOUS
 10
150.7804248541
 20
83.4426325294
 11
150.9545184054
 21
83.3421130948
  0
LINE
  5
270
100
AcDbEntity
  8
0
100
AcDbLine
 62
7
  6
CONTINUOUS
 10
150.955218279
 20
83.6358640783
 11
150.7696584657
 21
83.7430039889
  0
LINE
  5
271
100
AcDbEntity
  8
0
100
AcDbLine
 62
7
  6
CONTINUOUS
 10
149.8844230658
 20
85.0531683251
 11
149.570320389
 21
85.234527274
  0
LINE
  5
272
100
AcDbEntity
  8
0
100
AcDbLine
 62
7
  6
CONTINUOUS
 10
148.8859721737
 20
85.6296613567
 11
148.564718762
 21
85.8151490503
  0
LINE
  5
273
100
AcDbEntity
  8
0
100
AcDbLine
 62
7
  6
CONTINUOUS
 10
147.9187584294
 20
86.1881184506
 11
147.5943322634
 21
86.3754380528
  0
LINE
  5
274
100
AcDbEntity
  8
0
100
AcDbLine
 62
7
  6
CONTINUOUS
 10
146.8338964661
 20
86.8145041517
 11
146.5094228903
 21
87.0018511277
  0
LINE
  5
275
100
AcDbEntity
  8
0
100
AcDbLine
 62
7
  6
CONTINUOUS
 10
145.9073507206
 20
87.3494800528
 11
145.5546320014
 21
87.5531354206
  0
LINE
  5
276
100
AcDbEntity
  8
0
100
AcDbLine
 62
7
  6
CONTINUOUS
 10
147.2790858246
 20
86.5575651697
 11
146.954390756
 21
86.7450400329
  0
LINE
  5
277
100
AcDbEntity
  8
RACCORDO
100
AcDbLine
 62
7
  6
CONTINUOUS
 10
93.6941768309
 20
119.344956935
 11
203.5078599492
 21
55.9399125912
  0
LINE
  5
278
100
AcDbEntity
  8
RACCORDO
100
AcDbLine
 62
7
  6
CONTINUOUS
 10
95.8154971745
 20
120.569780715
 11
204.3563880866
 21
57.8996306392
  0
LINE
  5
279
100
AcDbEntity
  8
0
100
AcDbLine
 62
7
  6
CONTINUOUS
 10
202.1643570649
 20
59.206302667
 11
198.2752697684
 21
61.4518129303
  0
LINE
  5
27A
100
AcDbEntity
  8
0
100
AcDbLine
 62
7
  6
CONTINUOUS
 10
106.7049416048
 20
114.3233727663
 11
102.8158543082
 21
116.5688830296
  0
LINE
  5
27B
100
AcDbEntity
  8
0
100
AcDbLine
 62
7
  6
CONTINUOUS
 10
202.3057784212
 20
59.2879575857
 11
202.4118444384
 21
59.2267282332
  0
LINE
  5
27C
100
AcDbEntity
  8
0
100
AcDbLine
 62
7
  6
CONTINUOUS
 10
202.3057784212
 20
59.2879575857
 11
198.4166911246
 21
61.533467849
  0
LINE
  5
27D
100
AcDbEntity
  8
0
100
AcDbLine
 62
7
  6
CONTINUOUS
 10
102.9572756645
 20
116.6505379482
 11
106.9524289782
 21
114.3437983324
  0
LINE
  5
27E
100
AcDbEntity
  8
0
100
AcDbLine
 62
7
  6
CONTINUOUS
 10
202.5179104555
 20
59.4104399637
 11
198.628823159
 21
61.655950227
  0
LINE
  5
27F
100
AcDbEntity
  8
0
100
AcDbLine
 62
7
  6
CONTINUOUS
 10
107.0584949953
 20
114.5275100629
 11
103.1694076988
 21
116.7730203262
  0
LINE
  5
280
100
AcDbEntity
  8
0
100
AcDbLine
 62
7
  6
CONTINUOUS
 10
202.6593318118
 20
59.4920948823
 11
202.7653978289
 21
59.4308655298
  0
LINE
  5
281
100
AcDbEntity
  8
0
100
AcDbLine
 62
7
  6
CONTINUOUS
 10
202.6593318118
 20
59.4920948823
 11
198.7702445152
 21
61.7376051456
  0
LINE
  5
282
100
AcDbEntity
  8
0
100
AcDbLine
 62
7
  6
CONTINUOUS
 10
103.3108290551
 20
116.8546752449
 11
107.3059823688
 21
114.5479356291
  0
LINE
  5
283
100
AcDbEntity
  8
0
100
AcDbLine
 62
7
  6
CONTINUOUS
 10
202.8714638461
 20
59.6145772603
 11
198.9823765496
 21
61.8600875236
  0
LINE
  5
284
100
AcDbEntity
  8
0
100
AcDbLine
 62
7
  6
CONTINUOUS
 10
107.4120483859
 20
114.7316473596
 11
103.5229610894
 21
116.9771576229
  0
LINE
  5
285
100
AcDbEntity
  8
0
100
AcDbLine
 62
7
  6
CONTINUOUS
 10
203.0128852024
 20
59.696232179
 11
203.1189512195
 21
59.6350028265
  0
LINE
  5
286
100
AcDbEntity
  8
0
100
AcDbLine
 62
7
  6
CONTINUOUS
 10
203.0128852024
 20
59.696232179
 11
199.1237979058
 21
61.9417424423
  0
LINE
  5
287
100
AcDbEntity
  8
0
100
AcDbLine
 62
7
  6
CONTINUOUS
 10
103.6643824456
 20
117.0588125415
 11
107.6595357594
 21
114.7520729257
  0
LINE
  5
288
100
AcDbEntity
  8
0
100
AcDbLine
 62
7
  6
CONTINUOUS
 10
203.2250172367
 20
59.818714557
 11
199.3359299402
 21
62.0642248203
  0
LINE
  5
289
100
AcDbEntity
  8
0
100
AcDbLine
 62
7
  6
CONTINUOUS
 10
107.7656017765
 20
114.9357846562
 11
103.87651448
 21
117.1812949195
  0
LINE
  5
28A
100
AcDbEntity
  8
0
100
AcDbLine
 62
7
  6
CONTINUOUS
 10
203.366438593
 20
59.9003694757
 11
203.4725046101
 21
59.8391401231
  0
LINE
  5
28B
100
AcDbEntity
  8
0
100
AcDbLine
 62
7
  6
CONTINUOUS
 10
203.366438593
 20
59.9003694757
 11
199.4773512964
 21
62.145879739
  0
LINE
  5
28C
100
AcDbEntity
  8
0
100
AcDbLine
 62
7
  6
CONTINUOUS
 10
104.0179358362
 20
117.2629498382
 11
108.0130891499
 21
114.9562102224
  0
LINE
  5
28D
100
AcDbEntity
  8
0
100
AcDbLine
 62
7
  6
CONTINUOUS
 10
203.5785706273
 20
60.0228518537
 11
199.6894833308
 21
62.268362117
  0
LINE
  5
28E
100
AcDbEntity
  8
0
100
AcDbLine
 62
7
  6
CONTINUOUS
 10
108.1191551671
 20
115.1399219529
 11
104.2300678706
 21
117.3854322162
  0
LINE
  5
28F
100
AcDbEntity
  8
0
100
AcDbLine
 62
7
  6
CONTINUOUS
 10
203.7199919835
 20
60.1045067723
 11
203.8260580007
 21
60.0432774198
  0
LINE
  5
290
100
AcDbEntity
  8
0
100
AcDbLine
 62
7
  6
CONTINUOUS
 10
203.7199919835
 20
60.1045067723
 11
199.830904687
 21
62.3500170356
  0
LINE
  5
291
100
AcDbEntity
  8
0
100
AcDbLine
 62
7
  6
CONTINUOUS
 10
104.3714892268
 20
117.4670871349
 11
108.3666425405
 21
115.1603475191
  0
LINE
  5
292
100
AcDbEntity
  8
0
100
AcDbLine
 62
7
  6
CONTINUOUS
 10
203.9321240179
 20
60.2269891503
 11
200.0430367214
 21
62.4724994136
  0
LINE
  5
293
100
AcDbEntity
  8
0
100
AcDbLine
 62
7
  6
CONTINUOUS
 10
108.4727085577
 20
115.3440592496
 11
104.5836212612
 21
117.5895695129
  0
LINE
  5
294
100
AcDbEntity
  8
0
100
AcDbLine
 62
7
  6
CONTINUOUS
 10
204.0735453741
 20
60.308644069
 11
204.1796113913
 21
60.2474147165
  0
LINE
  5
295
100
AcDbEntity
  8
0
100
AcDbLine
 62
7
  6
CONTINUOUS
 10
204.0735453741
 20
60.308644069
 11
200.1844580776
 21
62.5541543323
  0
LINE
  5
296
100
AcDbEntity
  8
0
100
AcDbLine
 62
7
  6
CONTINUOUS
 10
104.7250426174
 20
117.6712244315
 11
108.7201959311
 21
115.3644848157
  0
LINE
  5
297
100
AcDbEntity
  8
0
100
AcDbLine
 62
250
  6
CONTINUOUS
 10
204.3563880866
 20
60.2679300076
 11
200.2180530802
 21
62.6573527748
  0
LINE
  5
298
100
AcDbEntity
  8
0
100
AcDbLine
 62
250
  6
CONTINUOUS
 10
109.0049748783
 20
115.3226409602
 11
104.7586376201
 21
117.774422874
  0
LINE
  5
299
100
AcDbEntity
  8
0
100
AcDbLine
 62
250
  6
CONTINUOUS
 10
204.3563880866
 20
60.3451277018
 11
200.2921002332
 21
62.6917965708
  0
LINE
  5
29A
100
AcDbEntity
  8
0
100
AcDbLine
 62
250
  6
CONTINUOUS
 10
109.0716472343
 20
115.3613428716
 11
104.832684773
 21
117.8088666701
  0
LWPOLYLINE
  5
29B
100
AcDbEntity
  8
RACCORDO
100
AcDbPolyline
 62
7
  6
CONTINUOUS
 90
28
 70
0
 10
93.6941768309
 20
119.344956935
 10
93.6445642633
 20
119.3753067308
 10
93.5954491417
 20
119.4086267937
 10
93.5468314662
 20
119.4449171237
 10
93.4985504595
 20
119.4843202944
 10
93.4507668989
 20
119.5266937323
 10
93.4039631157
 20
119.5716097161
 10
93.3581490333
 20
119.6190939971
 10
93.3133147284
 20
119.669120824
 10
93.2699127622
 20
119.7211852218
 10
93.2279576418
 20
119.7753078272
 10
93.1874348601
 20
119.8314680035
 10
93.1487534577
 20
119.8890988649
 10
93.1119320843
 20
119.9482153068
 10
93.0769520902
 20
120.0088024338
 10
93.0441665664
 20
120.0702486742
 10
93.0135977389
 20
120.1325627294
 10
92.9852233817
 20
120.195735898
 10
92.9593299081
 20
120.2591305045
 10
92.9359424448
 20
120.3227487919
 10
92.915035865
 20
120.3865885173
 10
92.8968212017
 20
120.450005277
 10
92.8813257188
 20
120.5129947871
 10
92.8685221523
 20
120.5755613316
 10
92.8585397425
 20
120.6370733582
 10
92.8514215695
 20
120.6973203497
 10
92.8471245532
 20
120.7565128233
 10
92.8456486935
 20
120.8146507792
  0
LWPOLYLINE
  5
29C
100
AcDbEntity
  8
0
100
AcDbPolyline
 62
7
  6
CONTINUOUS
 90
16
 70
0
 10
150.9545184054
 20
83.3421130948
 10
150.9704924251
 20
83.332049747
 10
150.9859935324
 20
83.3208767757
 10
151.0010217273
 20
83.308594181
 10
151.0156311122
 20
83.2951470838
 10
151.0297675847
 20
83.2805903631
 10
151.0432688377
 20
83.265088656
 10
151.0560684687
 20
83.2487441313
 10
151.0682328801
 20
83.2314546202
 10
151.0797989719
 20
83.2130782531
 10
151.0908197408
 20
83.1935758537
 10
151.1012421902
 20
83.1729865982
 10
151.1109442292
 20
83.1512861458
 10
151.1198851612
 20
83.1284663828
 10
151.1281056829
 20
83.1045354229
 10
151.1356057944
 20
83.0794932659
  0
LWPOLYLINE
  5
29D
100
AcDbEntity
  8
0
100
AcDbPolyline
 62
7
  6
CONTINUOUS
 90
19
 70
0
 10
151.0240196615
 20
84.0997729034
 10
151.0418652118
 20
84.0861202405
 10
151.0589900254
 20
84.0715793187
 10
151.0753941022
 20
84.0561501381
 10
151.0911667301
 20
84.0396947998
 10
151.1062186212
 20
84.0223512027
 10
151.1202819124
 20
84.0045330436
 10
151.1332687566
 20
83.9863684125
 10
151.1452670008
 20
83.9677292194
 10
151.1562723221
 20
83.9486448912
 10
151.166302474
 20
83.9290468227
 10
151.175339703
 20
83.909003619
 10
151.1833264263
 20
83.8887505235
 10
151.1903037785
 20
83.8681448044
 10
151.196230625
 20
83.8473291933
 10
151.2009259783
 20
83.8269671288
 10
151.2043295095
 20
83.8072797567
 10
151.2065015475
 20
83.7880459311
 10
151.2074420923
 20
83.7692656519
  0
LWPOLYLINE
  5
29E
100
AcDbEntity
  8
0
100
AcDbPolyline
 62
7
  6
CONTINUOUS
 90
16
 70
0
 10
151.2583335235
 20
84.2199955192
 10
151.2192457618
 20
84.2572328945
 10
151.1779798652
 20
84.2936486247
 10
151.1345358336
 20
84.32924271
 10
151.0888276562
 20
84.3639905054
 10
151.0409413439
 20
84.3979166558
 10
150.9911349296
 20
84.4310950957
 10
150.9394926265
 20
84.4634941051
 10
150.8859302213
 20
84.495145404
 10
150.8304531067
 20
84.5262180865
 10
150.7730762542
 20
84.5567417449
 10
150.7137846923
 20
84.5866867869
 10
150.6525388986
 20
84.6161335303
 10
150.5893256992
 20
84.6451087477
 10
150.524158268
 20
84.6735856666
 10
150.4570366051
 20
84.7015642868
  0
LWPOLYLINE
  5
29F
100
AcDbEntity
  8
0
100
AcDbPolyline
 62
250
  6
CONTINUOUS
 90
6
 70
0
 10
140.126821246
 20
95.9227937268
 10
140.1308923103
 20
95.9125453196
 10
140.1332585325
 20
95.9036080853
 10
140.1336921748
 20
95.8962553114
 10
140.1319755286
 20
95.8907692562
 10
140.130745459
 20
95.8892578992
  0
LINE
  5
2A0
100
AcDbEntity
  8
0
100
AcDbLine
 62
250
  6
CONTINUOUS
 10
142.0078025354
 20
97.5865291736
 11
142.0078025354
 21
97.1571313617
  0
LINE
  5
2A1
100
AcDbEntity
  8
0
100
AcDbLine
 62
7
  6
CONTINUOUS
 10
142.0848590878
 20
97.7010338439
 11
142.0848590878
 21
97.2029493038
  0
LINE
  5
2A2
100
AcDbEntity
  8
0
100
AcDbLine
 62
7
  6
CONTINUOUS
 10
126.0978999587
 20
106.7727075235
 11
123.0452639483
 21
104.8476546489
  0
LINE
  5
2A3
100
AcDbEntity
  8
0
100
AcDbLine
 62
7
  6
CONTINUOUS
 10
123.3006900439
 20
104.7001748226
 11
126.0978999587
 21
106.3433097115
  0
LINE
  5
2A4
100
AcDbEntity
  8
0
100
AcDbLine
 62
7
  6
CONTINUOUS
 10
124.1622290822
 20
105.0309728105
 11
123.4467666116
 21
104.6158320432
  0
LINE
  5
2A5
100
AcDbEntity
  8
0
100
AcDbLine
 62
250
  6
CONTINUOUS
 10
124.2169186693
 20
105.1089720767
 11
123.4065335148
 21
104.639062129
  0
LINE
  5
2A6
100
AcDbEntity
  8
0
100
AcDbLine
 62
7
  6
CONTINUOUS
 10
106.4182865062
 20
118.3266926233
 11
110.2442878968
 21
116.1176073714
  0
LINE
  5
2A7
100
AcDbEntity
  8
0
100
AcDbLine
 62
7
  6
CONTINUOUS
 10
201.8777019664
 20
63.209622524
 11
204.3563880866
 21
61.7784602234
  0
LINE
  5
2A8
100
AcDbEntity
  8
0
100
AcDbLine
 62
7
  6
CONTINUOUS
 10
122.3952910109
 20
109.1406661198
 11
126.0870885454
 21
107.0090684925
  0
LINE
  5
2A9
100
AcDbEntity
  8
0
100
AcDbLine
 62
7
  6
CONTINUOUS
 10
138.3051935876
 20
99.95448777
 11
141.9969911221
 21
97.8228901426
  0
LINE
  5
2AA
100
AcDbEntity
  8
0
100
AcDbLine
 62
7
  6
CONTINUOUS
 10
154.2150961643
 20
90.7683094201
 11
157.9068936988
 21
88.6367117928
  0
LINE
  5
2AB
100
AcDbEntity
  8
0
100
AcDbLine
 62
7
  6
CONTINUOUS
 10
170.124998741
 20
81.5821310702
 11
173.8167962755
 21
79.4505334429
  0
LINE
  5
2AC
100
AcDbEntity
  8
0
100
AcDbLine
 62
7
  6
CONTINUOUS
 10
186.0349013177
 20
72.3959527203
 11
189.7266988522
 21
70.264355093
  0
LINE
  5
2AD
100
AcDbEntity
  8
0
100
AcDbLine
 62
7
  6
CONTINUOUS
 10
147.83457562
 20
85.6134499864
 11
148.2154817018
 21
84.2207110215
  0
LINE
  5
2AE
100
AcDbEntity
  8
0
100
AcDbLine
 62
7
  6
CONTINUOUS
 10
148.2400236935
 20
85.0054331961
 11
147.9187584294
 21
86.1881184506
  0
LINE
  5
2AF
100
AcDbEntity
  8
0
100
AcDbLine
 62
7
  6
CONTINUOUS
 10
145.5546320014
 20
87.5531354206
 11
146.0477571365
 21
85.4723280175
  0
LINE
  5
2B0
100
AcDbEntity
  8
0
100
AcDbLine
 62
7
  6
CONTINUOUS
 10
146.2038584265
 20
85.9419807493
 11
145.9073507206
 21
87.3494800528
  0
LINE
  5
2B1
100
AcDbEntity
  8
0
100
AcDbLine
 62
7
  6
CONTINUOUS
 10
149.0314292174
 20
83.7495931522
 11
148.8859721737
 21
85.6296613567
  0
LINE
  5
2B2
100
AcDbEntity
  8
0
100
AcDbLine
 62
7
  6
CONTINUOUS
 10
148.6470822195
 20
85.1394296797
 11
148.7137915456
 21
83.932993163
  0
LINE
  5
2B3
100
AcDbEntity
  8
0
100
AcDbLine
 62
7
  6
CONTINUOUS
 10
146.954390756
 20
86.7450400329
 11
146.954390756
 21
84.9488491284
  0
LINE
  5
2B4
100
AcDbEntity
  8
0
100
AcDbLine
 62
7
  6
CONTINUOUS
 10
147.2790858246
 20
84.7613742652
 11
147.2790858246
 21
86.5575651697
  0
LINE
  5
2B5
100
AcDbEntity
  8
0
100
AcDbLine
 62
7
  6
CONTINUOUS
 10
150.4570366051
 20
84.7015642868
 11
150.4570366051
 21
82.9264649734
  0
LINE
  5
2B6
100
AcDbEntity
  8
0
100
AcDbLine
 62
7
  6
CONTINUOUS
 10
150.7696584657
 20
83.7430039889
 11
150.7696584657
 21
84.2360639355
  0
LINE
  5
2B7
100
AcDbEntity
  8
0
100
AcDbLine
 62
7
  6
CONTINUOUS
 10
150.7804248541
 20
82.7397446515
 11
150.7804248541
 21
83.4426325294
  0
LINE
  5
2B8
100
AcDbEntity
  8
0
100
AcDbLine
 62
7
  6
CONTINUOUS
 10
151.2918108094
 20
83.2828726677
 11
151.2918108094
 21
83.2934859555
  0
LWPOLYLINE
  5
2B9
100
AcDbEntity
  8
0
100
AcDbPolyline
 62
7
  6
CONTINUOUS
 90
12
 70
0
 10
151.2074420923
 20
83.7692656519
 10
151.2071954644
 20
83.7438546958
 10
151.2056649786
 20
83.7204160019
 10
151.2028506351
 20
83.69894957
 10
151.1987319266
 20
83.6794620854
 10
151.1933293604
 20
83.6619468629
 10
151.1867044579
 20
83.6463838472
 10
151.1788166439
 20
83.6328047666
 10
151.1697064937
 20
83.6211778929
 10
151.1595572553
 20
83.6113879859
 10
151.1484385599
 20
83.6033925848
 10
151.1465962889
 20
83.6023021604
  0
LINE
  5
2BA
100
AcDbEntity
  8
0
100
AcDbLine
 62
7
  6
CONTINUOUS
 10
147.7645061225
 20
84.481098669
 11
147.83457562
 21
85.6134499864
  0
LINE
  5
2BB
100
AcDbEntity
  8
0
100
AcDbLine
 62
7
  6
CONTINUOUS
 10
147.5943322634
 20
86.3754380528
 11
147.4538791784
 21
84.6604507734
  0
LINE
  5
2BC
100
AcDbEntity
  8
0
100
AcDbLine
 62
250
  6
CONTINUOUS
 10
140.1141820984
 20
95.8899588738
 11
140.126821246
 21
95.9227937268
  0
LINE
  5
2BD
100
AcDbEntity
  8
0
100
AcDbLine
 62
250
  6
CONTINUOUS
 10
140.126821246
 20
95.9227937268
 11
140.462766211
 21
96.2495473166
  0
LINE
  5
2BE
100
AcDbEntity
  8
0
100
AcDbLine
 62
7
  6
CONTINUOUS
 10
140.1307459923
 20
95.889258418
 11
140.5597304843
 21
96.3065059952
  0
LINE
  5
2BF
100
AcDbEntity
  8
0
100
AcDbLine
 62
7
  6
CONTINUOUS
 10
134.502026615
 20
98.2326634721
 11
137.8923223714
 21
99.9627558413
  0
LWPOLYLINE
  5
2C0
100
AcDbEntity
  8
0
100
AcDbPolyline
 62
250
  6
CONTINUOUS
 90
6
 70
0
 10
156.0367238227
 20
86.736615377
 10
156.0407948869
 20
86.7263669698
 10
156.0431611092
 20
86.7174297355
 10
156.0435947515
 20
86.7100769615
 10
156.0418781053
 20
86.7045909063
 10
156.0406480357
 20
86.7030795494
  0
LWPOLYLINE
  5
2C1
100
AcDbEntity
  8
0
100
AcDbPolyline
 62
7
  6
CONTINUOUS
 90
5
 70
0
 10
151.1356057944
 20
83.0794932659
 10
151.1471121305
 20
83.0326552062
 10
151.1585950515
 20
82.9848961705
 10
151.1700545573
 20
82.9362161588
 10
151.1814226539
 20
82.8866566147
  0
LINE
  5
2C2
100
AcDbEntity
  8
0
100
AcDbLine
 62
7
  6
CONTINUOUS
 10
150.3616903556
 20
82.9815170431
 11
149.8844230658
 21
85.0531683251
  0
LINE
  5
2C3
100
AcDbEntity
  8
0
100
AcDbLine
 62
7
  6
CONTINUOUS
 10
151.1814226539
 20
82.8866566147
 11
151.25247258
 21
82.5677854222
  0
LINE
  5
2C4
100
AcDbEntity
  8
0
100
AcDbLine
 62
7
  6
CONTINUOUS
 10
151.25247258
 20
82.5677854222
 11
151.2776500341
 21
82.4526530642
  0
LINE
  5
2C5
100
AcDbEntity
  8
0
100
AcDbLine
 62
7
  6
CONTINUOUS
 10
149.9353626993
 20
83.586235059
 11
150.0194758755
 21
83.179107395
  0
LWPOLYLINE
  5
2C6
100
AcDbEntity
  8
0
100
AcDbPolyline
 62
7
  6
CONTINUOUS
 90
19
 70
0
 10
151.5172452077
 20
82.6347662617
 10
151.4722011644
 20
82.8562196372
 10
151.4651223617
 20
82.8892298924
 10
151.457755333
 20
82.9214574561
 10
151.4501814116
 20
82.952937839
 10
151.4423192643
 20
82.9836355303
 10
151.4339248915
 20
83.0134439986
 10
151.4249433555
 20
83.0423957317
 10
151.415429594
 20
83.0704582418
 10
151.4053044215
 20
83.0974275335
 10
151.3945163909
 20
83.1233022817
 10
151.3831169491
 20
83.1480838115
 10
151.3711812524
 20
83.1715721037
 10
151.3586101016
 20
83.1937771947
 10
151.3455026958
 20
83.214689048
 10
151.3322317883
 20
83.2340775348
 10
151.3189216303
 20
83.2518659456
 10
151.3054479707
 20
83.2681309899
 10
151.2918108094
 20
83.2828726677
  0
LINE
  5
2C7
100
AcDbEntity
  8
0
100
AcDbLine
 62
7
  6
CONTINUOUS
 10
151.5899686161
 20
82.2723242293
 11
151.5172452077
 21
82.6347662617
  0
LINE
  5
2C8
100
AcDbEntity
  8
0
100
AcDbLine
 62
7
  6
CONTINUOUS
 10
149.7212710461
 20
84.6538522541
 11
149.8704727251
 21
83.9011558001
  0
LINE
  5
2C9
100
AcDbEntity
  8
0
100
AcDbLine
 62
250
  6
CONTINUOUS
 10
157.9177051121
 20
88.4003508237
 11
157.9177051121
 21
87.9709530118
  0
LINE
  5
2CA
100
AcDbEntity
  8
0
100
AcDbLine
 62
7
  6
CONTINUOUS
 10
157.9947616645
 20
88.5148554941
 11
157.9947616645
 21
88.016770954
  0
LINE
  5
2CB
100
AcDbEntity
  8
0
100
AcDbLine
 62
7
  6
CONTINUOUS
 10
149.5596005833
 20
84.0806494786
 11
149.7212710461
 21
84.6538522541
  0
LINE
  5
2CC
100
AcDbEntity
  8
0
100
AcDbLine
 62
7
  6
CONTINUOUS
 10
146.5094228903
 20
87.0018511277
 11
146.2038584265
 21
85.9419807493
  0
LINE
  5
2CD
100
AcDbEntity
  8
0
100
AcDbLine
 62
7
  6
CONTINUOUS
 10
149.4035867052
 20
83.534714083
 11
149.4931823831
 21
83.8415444318
  0
LINE
  5
2CE
100
AcDbEntity
  8
0
100
AcDbLine
 62
7
  6
CONTINUOUS
 10
149.570320389
 20
85.234527274
 11
149.0824147792
 21
83.7201547279
  0
LINE
  5
2CF
100
AcDbEntity
  8
0
100
AcDbLine
 62
7
  6
CONTINUOUS
 10
146.3338946842
 20
85.3071157837
 11
146.8338964661
 21
86.8145041517
  0
LINE
  5
2D0
100
AcDbEntity
  8
0
100
AcDbLine
 62
7
  6
CONTINUOUS
 10
148.564718762
 20
85.8151490503
 11
148.2400236935
 21
85.0054331961
  0
LINE
  5
2D1
100
AcDbEntity
  8
0
100
AcDbLine
 62
7
  6
CONTINUOUS
 10
148.2610195785
 20
84.1944180223
 11
148.6470822195
 21
85.1394296797
  0
LWPOLYLINE
  5
2D2
100
AcDbEntity
  8
0
100
AcDbPolyline
 62
250
  6
CONTINUOUS
 90
3
 70
0
 10
140.072131626
 20
95.8447944415
 10
140.0956890429
 20
95.8636487917
 10
140.1141820984
 20
95.8899588738
  0
LINE
  5
2D3
100
AcDbEntity
  8
0
100
AcDbLine
 62
7
  6
CONTINUOUS
 10
142.0078025354
 20
97.5865291736
 11
138.955166525
 21
95.661476299
  0
LINE
  5
2D4
100
AcDbEntity
  8
0
100
AcDbLine
 62
7
  6
CONTINUOUS
 10
139.2105926206
 20
95.5139964727
 11
142.0078025354
 21
97.1571313617
  0
LINE
  5
2D5
100
AcDbEntity
  8
0
100
AcDbLine
 62
7
  6
CONTINUOUS
 10
140.0721316589
 20
95.8447944606
 11
139.3566691883
 21
95.4296536933
  0
LINE
  5
2D6
100
AcDbEntity
  8
0
100
AcDbLine
 62
250
  6
CONTINUOUS
 10
140.126821246
 20
95.9227937268
 11
139.3164360915
 21
95.4528837791
  0
LINE
  5
2D7
100
AcDbEntity
  8
0
100
AcDbLine
 62
250
  6
CONTINUOUS
 10
156.0240846751
 20
86.7037805239
 11
156.0367238227
 21
86.736615377
  0
LINE
  5
2D8
100
AcDbEntity
  8
RACCORDO
100
AcDbLine
 62
7
  6
CONTINUOUS
 10
203.5078599492
 20
92.8443691023
 11
93.6941768309
 21
156.2494134461
  0
LWPOLYLINE
  5
2D9
100
AcDbEntity
  8
RACCORDO
100
AcDbPolyline
 62
7
  6
CONTINUOUS
 90
28
 70
0
 10
203.5078599492
 20
92.8443691023
 10
203.5574725168
 20
92.8140193064
 10
203.6065876384
 20
92.7806992436
 10
203.655205314
 20
92.7444089136
 10
203.7034863206
 20
92.7050057428
 10
203.7512698812
 20
92.662632305
 10
203.7980736644
 20
92.6177163212
 10
203.8438877468
 20
92.5702320402
 10
203.8887220517
 20
92.5202052132
 10
203.9321240179
 20
92.4681408155
 10
203.9740791383
 20
92.41401821
 10
204.01460192
 20
92.3578580338
 10
204.0532833224
 20
92.3002271724
 10
204.0901046958
 20
92.2411107305
 10
204.1250846899
 20
92.1805236035
 10
204.1578702137
 20
92.119077363
 10
204.1884390412
 20
92.0567633079
 10
204.2168133984
 20
91.9935901393
 10
204.242706872
 20
91.9301955327
 10
204.2660943353
 20
91.8665772454
 10
204.2870009151
 20
91.80273752
 10
204.3052155785
 20
91.7393207603
 10
204.3207110613
 20
91.6763312502
 10
204.3335146278
 20
91.6137647057
 10
204.3434970376
 20
91.5522526791
 10
204.3506152106
 20
91.4920056876
 10
204.3549122269
 20
91.432813214
 10
204.3563880866
 20
91.3746752581
  0
LWPOLYLINE
  5
2DA
100
AcDbEntity
  8
0
100
AcDbPolyline
 62
250
  6
CONTINUOUS
 90
6
 70
0
 10
171.9466263994
 20
77.5504370271
 10
171.9506974636
 20
77.5401886199
 10
171.9530636859
 20
77.5312513856
 10
171.9534973282
 20
77.5238986117
 10
171.951780682
 20
77.5184125565
 10
171.9505506124
 20
77.5169011995
  0
LINE
  5
2DB
100
AcDbEntity
  8
0
100
AcDbLine
 62
250
  6
CONTINUOUS
 10
173.8276076888
 20
79.2141724739
 11
173.8276076888
 21
78.7847746619
  0
LINE
  5
2DC
100
AcDbEntity
  8
0
100
AcDbLine
 62
7
  6
CONTINUOUS
 10
173.9046642412
 20
79.3286771442
 11
173.9046642412
 21
78.8305926041
  0
LINE
  5
2DD
100
AcDbEntity
  8
0
100
AcDbLine
 62
250
  6
CONTINUOUS
 10
156.0367238227
 20
86.736615377
 11
156.3726687877
 21
87.0633689668
  0
LINE
  5
2DE
100
AcDbEntity
  8
0
100
AcDbLine
 62
7
  6
CONTINUOUS
 10
156.040648569
 20
86.7030800681
 11
156.469633061
 21
87.1203276453
  0
LWPOLYLINE
  5
2DF
100
AcDbEntity
  8
0
100
AcDbPolyline
 62
250
  6
CONTINUOUS
 90
3
 70
0
 10
155.9820342027
 20
86.6586160916
 10
156.0055916196
 20
86.6774704419
 10
156.0240846751
 20
86.7037805239
  0
LINE
  5
2E0
100
AcDbEntity
  8
0
100
AcDbLine
 62
7
  6
CONTINUOUS
 10
157.9177051121
 20
88.4003508237
 11
154.8650691017
 21
86.4752979492
  0
LINE
  5
2E1
100
AcDbEntity
  8
0
100
AcDbLine
 62
7
  6
CONTINUOUS
 10
155.1204951973
 20
86.3278181228
 11
157.9177051121
 21
87.9709530118
  0
LWPOLYLINE
  5
2E2
100
AcDbEntity
  8
0
100
AcDbPolyline
 62
7
  6
CONTINUOUS
 90
54
 70
0
 10
151.3848908571
 20
83.3150488996
 10
151.3862512858
 20
83.3158397445
 10
151.3911349749
 20
83.3188105201
 10
151.3960607807
 20
83.3219972044
 10
151.4010295863
 20
83.3254055756
 10
151.4060309102
 20
83.3290837654
 10
151.4110660114
 20
83.3330277107
 10
151.4161336308
 20
83.3372414748
 10
151.4212195101
 20
83.3417853794
 10
151.4263262618
 20
83.3466553243
 10
151.4314512733
 20
83.3518554098
 10
151.4365724487
 20
83.3574582589
 10
151.4416954017
 20
83.3634600238
 10
151.4468145187
 20
83.3698645523
 10
151.4518908623
 20
83.3767560109
 10
151.4569304321
 20
83.3841312659
 10
151.4619272287
 20
83.3919934509
 10
151.4668243165
 20
83.4004361339
 10
151.4716285542
 20
83.4094560924
 10
151.4763330832
 20
83.4190565488
 10
151.4808603926
 20
83.4293407378
 10
151.485216219
 20
83.4403077653
 10
151.4893948258
 20
83.4519585255
 10
151.4933014927
 20
83.4643989349
 10
151.4969414943
 20
83.4776342765
 10
151.500309556
 20
83.4916592675
 10
151.5032951332
 20
83.5065639757
 10
151.5059004081
 20
83.5223410976
 10
151.5081231985
 20
83.5389979367
 10
151.5098464135
 20
83.5566464717
 10
151.5110824431
 20
83.5752483109
 10
151.5118188974
 20
83.5948418459
 10
151.5119015157
 20
83.6156542307
 10
151.5113940812
 20
83.6376710577
 10
151.5102328108
 20
83.6609067343
 10
151.508072095
 20
83.6856316367
 10
151.5049453443
 20
83.7119649157
 10
151.5008191482
 20
83.7397874205
 10
151.495247666
 20
83.7690120743
 10
151.4881685324
 20
83.7998058773
 10
151.4796441127
 20
83.8320018294
 10
151.4694156623
 20
83.8650118534
 10
151.4573096488
 20
83.899016388
 10
151.4434996046
 20
83.9338349945
 10
151.4282473832
 20
83.9683382788
 10
151.4113677483
 20
84.0025494891
 10
151.3930459362
 20
84.0364453772
 10
151.3740995089
 20
84.0688268045
 10
151.3544530475
 20
84.0996243505
 10
151.334181971
 20
84.1289074358
 10
151.3143300984
 20
84.155685183
 10
151.2952453694
 20
84.1796272998
 10
151.2765798445
 20
84.2010640785
 10
151.2583335235
 20
84.2199955192
  0
LINE
  5
2E3
100
AcDbEntity
  8
0
100
AcDbLine
 62
7
  6
CONTINUOUS
 10
155.9820342356
 20
86.6586161107
 11
155.266571765
 21
86.2434753434
  0
LINE
  5
2E4
100
AcDbEntity
  8
0
100
AcDbLine
 62
250
  6
CONTINUOUS
 10
156.0367238227
 20
86.736615377
 11
155.2263386682
 21
86.2667054292
  0
LINE
  5
2E5
100
AcDbEntity
  8
0
100
AcDbLine
 62
7
  6
CONTINUOUS
 10
146.6251692088
 20
86.1852403148
 11
146.2038584265
 21
85.9419807493
  0
LINE
  5
2E6
100
AcDbEntity
  8
0
100
AcDbLine
 62
7
  6
CONTINUOUS
 10
146.4694601963
 20
85.7158140791
 11
146.0477571365
 21
85.4723280175
  0
LINE
  5
2E7
100
AcDbEntity
  8
0
100
AcDbLine
 62
7
  6
CONTINUOUS
 10
148.0422842742
 20
85.7333783602
 11
147.83457562
 21
85.6134499864
  0
LINE
  5
2E8
100
AcDbEntity
  8
0
100
AcDbLine
 62
7
  6
CONTINUOUS
 10
147.2790858246
 20
85.1363239917
 11
146.954390756
 21
84.9488491284
  0
LINE
  5
2E9
100
AcDbEntity
  8
0
100
AcDbLine
 62
7
  6
CONTINUOUS
 10
147.7875250438
 20
84.8530937145
 11
147.4538791784
 21
84.6604507734
  0
LINE
  5
2EA
100
AcDbEntity
  8
0
100
AcDbLine
 62
7
  6
CONTINUOUS
 10
148.9045808094
 20
85.389140146
 11
148.2400236935
 21
85.0054331961
  0
LINE
  5
2EB
100
AcDbEntity
  8
0
100
AcDbLine
 62
7
  6
CONTINUOUS
 10
148.9120633498
 20
85.2924264633
 11
148.6470822195
 21
85.1394296797
  0
LINE
  5
2EC
100
AcDbEntity
  8
0
100
AcDbLine
 62
7
  6
CONTINUOUS
 10
148.2891339381
 20
84.2632368997
 11
148.2154817018
 21
84.2207110215
  0
LINE
  5
2ED
100
AcDbEntity
  8
0
100
AcDbLine
 62
7
  6
CONTINUOUS
 10
149.9464628548
 20
84.7838751822
 11
149.7212710461
 21
84.6538522541
  0
LINE
  5
2EE
100
AcDbEntity
  8
0
100
AcDbLine
 62
7
  6
CONTINUOUS
 10
149.0042641464
 20
84.1007084022
 11
148.7137915456
 21
83.932993163
  0
LINE
  5
2EF
100
AcDbEntity
  8
0
100
AcDbLine
 62
7
  6
CONTINUOUS
 10
149.6331851802
 20
84.0381626546
 11
149.0824147792
 21
83.7201547279
  0
LINE
  5
2F0
100
AcDbEntity
  8
0
100
AcDbLine
 62
7
  6
CONTINUOUS
 10
149.7334491875
 20
83.9802714734
 11
149.4931823831
 21
83.8415444318
  0
LINE
  5
2F1
100
AcDbEntity
  8
0
100
AcDbLine
 62
7
  6
CONTINUOUS
 10
150.1170274905
 20
84.0435134316
 11
149.8704727251
 21
83.9011558001
  0
LINE
  5
2F2
100
AcDbEntity
  8
0
100
AcDbLine
 62
7
  6
CONTINUOUS
 10
151.0449988503
 20
84.3950420228
 11
150.7696584657
 21
84.2360639355
  0
LINE
  5
2F3
100
AcDbEntity
  8
0
100
AcDbLine
 62
7
  6
CONTINUOUS
 10
150.1886794956
 20
83.7324970024
 11
149.9353626993
 21
83.586235059
  0
LINE
  5
2F4
100
AcDbEntity
  8
0
100
AcDbLine
 62
250
  6
CONTINUOUS
 10
151.2518095042
 20
84.2312948176
 11
151.0240196609
 21
84.099772904
  0
LINE
  5
2F5
100
AcDbEntity
  8
0
100
AcDbLine
 62
7
  6
CONTINUOUS
 10
150.2813370572
 20
83.3303027594
 11
150.0194758755
 21
83.179107395
  0
LINE
  5
2F6
100
AcDbEntity
  8
0
100
AcDbLine
 62
250
  6
CONTINUOUS
 10
151.4526208814
 20
83.9108379538
 11
151.2074420899
 21
83.7692656145
  0
LINE
  5
2F7
100
AcDbEntity
  8
0
100
AcDbLine
 62
7
  6
CONTINUOUS
 10
151.0478202395
 20
83.5970232736
 11
150.7804248541
 21
83.4426325294
  0
LINE
  5
2F8
100
AcDbEntity
  8
0
100
AcDbLine
 62
7
  6
CONTINUOUS
 10
151.1465957681
 20
83.6023030634
 11
151.4882259633
 21
83.7995560565
  0
LINE
  5
2F9
100
AcDbEntity
  8
0
100
AcDbLine
 62
250
  6
CONTINUOUS
 10
151.5100606943
 20
83.6628762498
 11
150.9545184054
 21
83.3421130948
  0
LINE
  5
2FA
100
AcDbEntity
  8
0
100
AcDbLine
 62
7
  6
CONTINUOUS
 10
150.7804248541
 20
83.1131852954
 11
150.4570366051
 21
82.9264649734
  0
LINE
  5
2FB
100
AcDbEntity
  8
0
100
AcDbLine
 62
7
  6
CONTINUOUS
 10
151.4616416959
 20
83.3915441809
 11
151.2918108094
 21
83.2934859555
  0
LINE
  5
2FC
100
AcDbEntity
  8
0
100
AcDbLine
 62
7
  6
CONTINUOUS
 10
151.5251100566
 20
82.5955333798
 11
151.2776500341
 21
82.4526530642
  0
LINE
  5
2FD
100
AcDbEntity
  8
0
100
AcDbLine
 62
250
  6
CONTINUOUS
 10
151.3519604514
 20
83.2043861978
 11
151.1356058594
 21
83.0794929954
  0
LINE
  5
2FE
100
AcDbEntity
  8
0
100
AcDbLine
 62
7
  6
CONTINUOUS
 10
150.4119291917
 20
89.0464851223
 11
153.8022249481
 21
90.7765774914
  0
LWPOLYLINE
  5
2FF
100
AcDbEntity
  8
0
100
AcDbPolyline
 62
7
  6
CONTINUOUS
 90
12
 70
0
 10
151.1465962889
 20
83.6023021604
 10
151.1362807764
 20
83.5972341505
 10
151.1230582595
 20
83.5929248248
 10
151.1087875824
 20
83.5904853835
 10
151.093452172
 20
83.5898950509
 10
151.0769766638
 20
83.5911036426
 10
151.0592919568
 20
83.5941006581
 10
151.0404671521
 20
83.5988965979
 10
151.0206341881
 20
83.6054727782
 10
150.9998370444
 20
83.6138229711
 10
150.9780317413
 20
83.6239534044
 10
150.955218279
 20
83.6358640783
  0
LINE
  5
300
100
AcDbEntity
  8
0
100
AcDbLine
 62
250
  6
CONTINUOUS
 10
226.655893881
 20
102.1366423083
 11
227.505935014
 21
101.8907683598
  0
LWPOLYLINE
  5
301
100
AcDbEntity
  8
0
100
AcDbPolyline
 62
250
  6
CONTINUOUS
 90
6
 70
0
 10
187.8565289761
 20
68.3642586772
 10
187.8606000403
 20
68.35401027
 10
187.8629662626
 20
68.3450730357
 10
187.8633999049
 20
68.3377202618
 10
187.8616832587
 20
68.3322342066
 10
187.8604531891
 20
68.3307228496
  0
LINE
  5
302
100
AcDbEntity
  8
0
100
AcDbLine
 62
250
  6
CONTINUOUS
 10
171.9339872518
 20
77.517602174
 11
171.9466263994
 21
77.5504370271
  0
LINE
  5
303
100
AcDbEntity
  8
SMUSSO
100
AcDbLine
 62
7
  6
CONTINUOUS
 10
222.8472304146
 20
99.1505228981
 11
74.3548063655
 21
184.8881874969
  0
LINE
  5
304
100
AcDbEntity
  8
SMUSSO
100
AcDbLine
 62
7
  6
CONTINUOUS
 10
223.5543371958
 20
99.5587580365
 11
224.261443977
 21
99.1505228981
  0
LINE
  5
305
100
AcDbEntity
  8
SMUSSO
100
AcDbLine
 62
7
  6
CONTINUOUS
 10
223.5543371958
 20
100.3752677682
 11
75.0619131467
 21
186.1129323671
  0
LWPOLYLINE
  5
306
100
AcDbEntity
  8
0
100
AcDbPolyline
 62
250
  6
CONTINUOUS
 90
11
 70
0
 10
203.7664315528
 20
59.1780803273
 10
203.7683983953
 20
59.173500153
 10
203.7700605215
 20
59.1691530815
 10
203.7714033557
 20
59.1650568252
 10
203.7724059183
 20
59.1612529985
 10
203.773065528
 20
59.1577312396
 10
203.7733739928
 20
59.1544517379
 10
203.77329594
 20
59.151447667
 10
203.772792885
 20
59.1487684787
 10
203.771816124
 20
59.146434831
 10
203.7703562218
 20
59.1445449433
  0
LINE
  5
307
100
AcDbEntity
  8
0
100
AcDbLine
 62
250
  6
CONTINUOUS
 10
171.9466263994
 20
77.5504370271
 11
172.2825713644
 21
77.8771906169
  0
LINE
  5
308
100
AcDbEntity
  8
0
100
AcDbLine
 62
7
  6
CONTINUOUS
 10
171.9505511457
 20
77.5169017182
 11
172.3795356377
 21
77.9341492954
  0
LWPOLYLINE
  5
309
100
AcDbEntity
  8
0
100
AcDbPolyline
 62
250
  6
CONTINUOUS
 90
3
 70
0
 10
171.8919367794
 20
77.4724377417
 10
171.9154941963
 20
77.491292092
 10
171.9339872518
 20
77.517602174
  0
LINE
  5
30A
100
AcDbEntity
  8
0
100
AcDbLine
 62
7
  6
CONTINUOUS
 10
173.8276076888
 20
79.2141724739
 11
170.7749716784
 21
77.2891195993
  0
LINE
  5
30B
100
AcDbEntity
  8
0
100
AcDbLine
 62
7
  6
CONTINUOUS
 10
171.030397774
 20
77.141639773
 11
173.8276076888
 21
78.7847746619
  0
LINE
  5
30C
100
AcDbEntity
  8
0
100
AcDbLine
 62
7
  6
CONTINUOUS
 10
171.8919368123
 20
77.4724377609
 11
171.1764743417
 21
77.0572969935
  0
LINE
  5
30D
100
AcDbEntity
  8
0
100
AcDbLine
 62
250
  6
CONTINUOUS
 10
171.9466263994
 20
77.5504370271
 11
171.1362412449
 21
77.0805270794
  0
LINE
  5
30E
100
AcDbEntity
  8
0
100
AcDbLine
 62
7
  6
CONTINUOUS
 10
166.3218317684
 20
79.8603067724
 11
169.7121275248
 21
81.5903991415
  0
LWPOLYLINE
  5
30F
100
AcDbEntity
  8
0
100
AcDbPolyline
 62
7
  6
CONTINUOUS
 90
4
 70
0
 10
79.10326287
 20
187.3316821852
 10
79.0611456348
 20
187.3548253968
 10
79.0191623911
 20
187.3745593856
 10
78.9992704008
 20
187.3827348108
  0
LINE
  5
310
100
AcDbEntity
  8
SMUSSO
100
AcDbLine
 62
7
  6
CONTINUOUS
 10
76.1225733184
 20
186.725344257
 11
225.3221041488
 21
100.5794445198
  0
LINE
  5
311
100
AcDbEntity
  8
0
100
AcDbLine
 62
7
  6
CONTINUOUS
 10
79.1276694427
 20
187.3174598365
 11
226.6303593898
 21
102.1512553039
  0
LINE
  5
312
100
AcDbEntity
  8
0
100
AcDbLine
 62
7
  6
CONTINUOUS
 10
80.373414162
 20
186.8432418962
 11
227.505935014
 21
101.8907683598
  0
LINE
  5
313
100
AcDbEntity
  8
0
100
AcDbLine
 62
250
  6
CONTINUOUS
 10
189.7375102655
 20
70.027994124
 11
189.7375102655
 21
69.598596312
  0
LINE
  5
314
100
AcDbEntity
  8
0
100
AcDbLine
 62
7
  6
CONTINUOUS
 10
189.8145668179
 20
70.1424987943
 11
189.8145668179
 21
69.6444142542
  0
LINE
  5
315
100
AcDbEntity
  8
SMUSSO
100
AcDbLine
 62
7
  6
CONTINUOUS
 10
223.5543371958
 20
100.3752677682
 11
224.6149973676
 21
100.9876796582
  0
LINE
  5
316
100
AcDbEntity
  8
0
100
AcDbLine
 62
250
  6
CONTINUOUS
 10
224.6155432492
 20
100.9879217215
 11
226.6303593898
 21
102.1512553039
  0
LINE
  5
317
100
AcDbEntity
  8
SMUSSO
100
AcDbLine
 62
7
  6
CONTINUOUS
 10
223.5543371958
 20
99.5587580365
 11
222.8472304146
 21
99.1505228981
  0
LINE
  5
318
100
AcDbEntity
  8
0
100
AcDbLine
 62
250
  6
CONTINUOUS
 10
225.3225423346
 20
99.763363386
 11
227.3373584752
 21
100.9266969684
  0
LINE
  5
319
100
AcDbEntity
  8
SMUSSO
100
AcDbLine
 62
7
  6
CONTINUOUS
 10
224.261443977
 20
99.1505228981
 11
225.3221041488
 21
99.7629347881
  0
LINE
  5
31A
100
AcDbEntity
  8
0
100
AcDbLine
 62
250
  6
CONTINUOUS
 10
187.8438898285
 20
68.3314238241
 11
187.8565289761
 21
68.3642586772
  0
LINE
  5
31B
100
AcDbEntity
  8
0
100
AcDbLine
 62
7
  6
CONTINUOUS
 10
189.7375102655
 20
70.027994124
 11
186.6848742551
 21
68.1029412494
  0
LINE
  5
31C
100
AcDbEntity
  8
0
100
AcDbLine
 62
7
  6
CONTINUOUS
 10
186.9403003506
 20
67.9554614231
 11
189.7375102655
 21
69.598596312
  0
LINE
  5
31D
100
AcDbEntity
  8
0
100
AcDbLine
 62
7
  6
CONTINUOUS
 10
187.801839389
 20
68.286259411
 11
187.0863769184
 21
67.8711186437
  0
LINE
  5
31E
100
AcDbEntity
  8
0
100
AcDbLine
 62
250
  6
CONTINUOUS
 10
187.8565289761
 20
68.3642586772
 11
187.0461438216
 21
67.8943487295
  0
LINE
  5
31F
100
AcDbEntity
  8
0
100
AcDbLine
 62
7
  6
CONTINUOUS
 10
182.2317343451
 20
70.6741284225
 11
185.6220301014
 21
72.4042207916
  0
LWPOLYLINE
  5
320
100
AcDbEntity
  8
0
100
AcDbPolyline
 62
7
  6
CONTINUOUS
 90
11
 70
0
 10
78.9992704008
 20
187.3827348108
 10
78.9774816728
 20
187.3908104279
 10
78.9362787369
 20
187.4035226478
 10
78.8957099496
 20
187.4126450796
 10
78.8559121643
 20
187.4181317543
 10
78.8170409054
 20
187.4199621357
 10
78.7792531063
 20
187.4181331858
 10
78.7426817141
 20
187.4126457137
 10
78.7074677276
 20
187.4035207906
 10
78.6737529236
 20
187.3907969894
 10
78.6504304721
 20
187.3794081074
  0
LINE
  5
321
100
AcDbEntity
  8
0
100
AcDbLine
 62
250
  6
CONTINUOUS
 10
79.10326287
 20
187.3316821852
 11
80.373414162
 21
186.8432418962
  0
LINE
  5
322
100
AcDbEntity
  8
0
100
AcDbLine
 62
7
  6
CONTINUOUS
 10
80.3663883887
 20
186.8466530171
 11
78.9992627447
 21
187.3827308499
  0
LINE
  5
323
100
AcDbEntity
  8
RACCORDO
100
AcDbLine
 62
7
  6
CONTINUOUS
 10
204.3563880866
 20
56.4297474114
 11
204.3563880866
 21
91.3746752581
  0
LWPOLYLINE
  5
324
100
AcDbEntity
  8
RACCORDO
100
AcDbPolyline
 62
7
  6
CONTINUOUS
 90
15
 70
0
 10
204.3563880866
 20
56.4297474114
 10
204.3549122269
 20
56.3733137413
 10
204.3506152106
 20
56.3190833544
 10
204.3434970376
 20
56.2670562507
 10
204.3335146278
 20
56.2170716607
 10
204.3207110613
 20
56.1692903539
 10
204.3052155785
 20
56.1241946389
 10
204.2870009151
 20
56.081811716
 10
204.2660943353
 20
56.0421143848
 10
204.242706872
 20
56.0055033539
 10
204.2168133984
 20
55.9720098816
 10
204.1884390412
 20
55.9416027094
 10
204.1578702137
 20
55.9145887701
 10
204.1250846899
 20
55.8910024307
 10
204.107875925
 20
55.8804857216
  0
LINE
  5
325
100
AcDbEntity
  8
0
100
AcDbLine
 62
250
  6
CONTINUOUS
 10
187.8565289761
 20
68.3642586772
 11
188.1924739411
 21
68.691012267
  0
LINE
  5
326
100
AcDbEntity
  8
0
100
AcDbLine
 62
7
  6
CONTINUOUS
 10
187.8604537224
 20
68.3307233684
 11
188.2894382144
 21
68.7479709456
  0
LWPOLYLINE
  5
327
100
AcDbEntity
  8
0
100
AcDbPolyline
 62
250
  6
CONTINUOUS
 90
3
 70
0
 10
187.8018393561
 20
68.2862593919
 10
187.825396773
 20
68.3051137421
 10
187.8438898285
 20
68.3314238241
  0
LINE
  5
328
100
AcDbEntity
  8
0
100
AcDbLine
 62
7
  6
CONTINUOUS
 10
200.2921002332
 20
62.6917965708
 11
201.6024544889
 21
63.2292588975
  0
LINE
  5
329
100
AcDbEntity
  8
0
100
AcDbLine
 62
250
  6
CONTINUOUS
 10
203.7614537172
 20
59.1624178271
 11
203.7664315528
 21
59.1780803273
  0
LINE
  5
32A
100
AcDbEntity
  8
0
100
AcDbLine
 62
7
  6
CONTINUOUS
 10
198.257507532
 20
61.4210478345
 11
198.2752697684
 21
61.4518129303
  0
LINE
  5
32B
100
AcDbEntity
  8
0
100
AcDbLine
 62
7
  6
CONTINUOUS
 10
198.5227571418
 20
61.4722384965
 11
198.628823159
 21
61.655950227
  0
LINE
  5
32C
100
AcDbEntity
  8
0
100
AcDbLine
 62
7
  6
CONTINUOUS
 10
198.8763105324
 20
61.6763757931
 11
198.9823765496
 21
61.8600875236
  0
LINE
  5
32D
100
AcDbEntity
  8
0
100
AcDbLine
 62
7
  6
CONTINUOUS
 10
199.229863923
 20
61.8805130898
 11
199.3359299402
 21
62.0642248203
  0
LINE
  5
32E
100
AcDbEntity
  8
0
100
AcDbLine
 62
7
  6
CONTINUOUS
 10
199.5834173136
 20
62.0846503864
 11
199.6894833308
 21
62.268362117
  0
LINE
  5
32F
100
AcDbEntity
  8
0
100
AcDbLine
 62
7
  6
CONTINUOUS
 10
199.9369707042
 20
62.2887876831
 11
200.0430367214
 21
62.4724994136
  0
LINE
  5
330
100
AcDbEntity
  8
0
100
AcDbLine
 62
7
  6
CONTINUOUS
 10
198.2752697684
 20
61.4518129303
 11
198.4166911246
 21
61.533467849
  0
LINE
  5
331
100
AcDbEntity
  8
0
100
AcDbLine
 62
7
  6
CONTINUOUS
 10
198.628823159
 20
61.655950227
 11
198.7702445152
 21
61.7376051456
  0
LINE
  5
332
100
AcDbEntity
  8
0
100
AcDbLine
 62
7
  6
CONTINUOUS
 10
198.9823765496
 20
61.8600875236
 11
199.1237979058
 21
61.9417424423
  0
LINE
  5
333
100
AcDbEntity
  8
0
100
AcDbLine
 62
7
  6
CONTINUOUS
 10
199.3359299402
 20
62.0642248203
 11
199.4773512964
 21
62.145879739
  0
LINE
  5
334
100
AcDbEntity
  8
0
100
AcDbLine
 62
7
  6
CONTINUOUS
 10
199.6894833308
 20
62.268362117
 11
199.830904687
 21
62.3500170356
  0
LINE
  5
335
100
AcDbEntity
  8
0
100
AcDbLine
 62
7
  6
CONTINUOUS
 10
200.0430367214
 20
62.4724994136
 11
200.1844580776
 21
62.5541543323
  0
LINE
  5
336
100
AcDbEntity
  8
0
100
AcDbLine
 62
7
  6
CONTINUOUS
 10
202.1643570649
 20
59.206302667
 11
202.3057784212
 21
59.2879575857
  0
LINE
  5
337
100
AcDbEntity
  8
0
100
AcDbLine
 62
7
  6
CONTINUOUS
 10
202.5179104555
 20
59.4104399637
 11
202.6593318118
 21
59.4920948823
  0
LINE
  5
338
100
AcDbEntity
  8
0
100
AcDbLine
 62
7
  6
CONTINUOUS
 10
202.8714638461
 20
59.6145772603
 11
203.0128852024
 21
59.696232179
  0
LINE
  5
339
100
AcDbEntity
  8
0
100
AcDbLine
 62
7
  6
CONTINUOUS
 10
203.2250172367
 20
59.818714557
 11
203.366438593
 21
59.9003694757
  0
LINE
  5
33A
100
AcDbEntity
  8
0
100
AcDbLine
 62
7
  6
CONTINUOUS
 10
203.5785706273
 20
60.0228518537
 11
203.7199919835
 21
60.1045067723
  0
LINE
  5
33B
100
AcDbEntity
  8
0
100
AcDbLine
 62
7
  6
CONTINUOUS
 10
203.9321240179
 20
60.2269891503
 11
204.0735453741
 21
60.308644069
  0
LINE
  5
33C
100
AcDbEntity
  8
0
100
AcDbLine
 62
7
  6
CONTINUOUS
 10
204.1796113913
 20
60.2474147165
 11
202.2348900758
 21
59.124557002
  0
LINE
  5
33D
100
AcDbEntity
  8
0
100
AcDbLine
 62
7
  6
CONTINUOUS
 10
198.0596959793
 20
61.5352617459
 11
200.2180530802
 21
62.6573527748
  0
LINE
  5
33E
100
AcDbEntity
  8
SMUSSO
100
AcDbLine
 62
7
  6
CONTINUOUS
 10
222.8472304146
 20
27.3011385403
 11
222.8472304146
 21
99.1505228981
  0
LINE
  5
33F
100
AcDbEntity
  8
SMUSSO
100
AcDbLine
 62
7
  6
CONTINUOUS
 10
223.5543371958
 20
100.3752677682
 11
223.5543371958
 21
99.5587580365
  0
LINE
  5
340
100
AcDbEntity
  8
SMUSSO
100
AcDbLine
 62
7
  6
CONTINUOUS
 10
224.261443977
 20
27.3011385403
 11
224.261443977
 21
99.1505228981
  0
LINE
  5
341
100
AcDbEntity
  8
SMUSSO
100
AcDbLine
 62
7
  6
CONTINUOUS
 10
225.3221041488
 20
27.9135504303
 11
225.3221041488
 21
100.5794445198
  0
LINE
  5
342
100
AcDbEntity
  8
0
100
AcDbLine
 62
7
  6
CONTINUOUS
 10
202.1465948286
 20
59.1755375712
 11
202.1643570649
 21
59.206302667
  0
LINE
  5
343
100
AcDbEntity
  8
0
100
AcDbLine
 62
7
  6
CONTINUOUS
 10
202.4118444384
 20
59.2267282332
 11
202.5179104555
 21
59.4104399637
  0
LINE
  5
344
100
AcDbEntity
  8
0
100
AcDbLine
 62
7
  6
CONTINUOUS
 10
202.7653978289
 20
59.4308655298
 11
202.8714638461
 21
59.6145772603
  0
LINE
  5
345
100
AcDbEntity
  8
0
100
AcDbLine
 62
7
  6
CONTINUOUS
 10
203.1189512195
 20
59.6350028265
 11
203.2250172367
 21
59.818714557
  0
LINE
  5
346
100
AcDbEntity
  8
0
100
AcDbLine
 62
7
  6
CONTINUOUS
 10
203.4725046101
 20
59.8391401231
 11
203.5785706273
 21
60.0228518537
  0
LINE
  5
347
100
AcDbEntity
  8
0
100
AcDbLine
 62
7
  6
CONTINUOUS
 10
203.8260580007
 20
60.0432774198
 11
203.9321240179
 21
60.2269891503
  0
LINE
  5
348
100
AcDbEntity
  8
0
100
AcDbLine
 62
250
  6
CONTINUOUS
 10
203.7664315528
 20
59.1780803273
 11
204.1023765178
 21
59.5048339171
  0
LINE
  5
349
100
AcDbEntity
  8
0
100
AcDbLine
 62
7
  6
CONTINUOUS
 10
203.7703564475
 20
59.1445451628
 11
204.1993407911
 21
59.5617925957
  0
LWPOLYLINE
  5
34A
100
AcDbEntity
  8
0
100
AcDbPolyline
 62
250
  6
CONTINUOUS
 90
6
 70
0
 10
203.7185138218
 20
59.1043817868
 10
203.729336534
 20
59.1130241341
 10
203.7391032139
 20
59.1232197459
 10
203.7477472369
 20
59.1349014183
 10
203.7552124987
 20
59.1479945836
 10
203.7614537172
 20
59.1624178271
  0
LINE
  5
34B
100
AcDbEntity
  8
0
100
AcDbLine
 62
7
  6
CONTINUOUS
 10
204.3563880866
 20
60.1363140122
 11
202.5209968758
 21
58.9593625214
  0
LINE
  5
34C
100
AcDbEntity
  8
0
100
AcDbLine
 62
250
  6
CONTINUOUS
 10
203.7117421539
 20
59.1000811703
 11
203.7185138218
 21
59.1043817868
  0
LINE
  5
34D
100
AcDbEntity
  8
0
100
AcDbLine
 62
7
  6
CONTINUOUS
 10
202.8502029273
 20
58.7692830732
 11
204.3563880866
 21
59.6540451968
  0
LINE
  5
34E
100
AcDbEntity
  8
0
100
AcDbLine
 62
7
  6
CONTINUOUS
 10
203.7117420977
 20
59.1000811377
 11
202.9962794951
 21
58.6849402938
  0
LINE
  5
34F
100
AcDbEntity
  8
0
100
AcDbLine
 62
250
  6
CONTINUOUS
 10
203.7664315528
 20
59.1780803273
 11
202.9560463983
 21
58.7081703796
  0
LINE
  5
350
100
AcDbEntity
  8
RACCORDO
100
AcDbLine
 62
250
  6
CONTINUOUS
 10
203.5078599492
 20
55.9399125912
 11
204.3563470825
 21
56.429818428
  0
LWPOLYLINE
  5
351
100
AcDbEntity
  8
RACCORDO
100
AcDbPolyline
 62
7
  6
CONTINUOUS
 90
15
 70
0
 10
204.107875925
 20
55.8804857216
 10
204.0901046958
 20
55.8708093241
 10
204.0532833224
 20
55.8542132812
 10
204.01460192
 20
55.8412507338
 10
203.9740791383
 20
55.83188525
 10
203.9321240179
 20
55.826211366
 10
203.8887220517
 20
55.8242664709
 10
203.8438877468
 20
55.8260131755
 10
203.7980736644
 20
55.8314338484
 10
203.7512698812
 20
55.8405657003
 10
203.7034863206
 20
55.8533715205
 10
203.655205314
 20
55.869722046
 10
203.6065876384
 20
55.8895741891
 10
203.5574725168
 20
55.9129710375
 10
203.5078599492
 20
55.9399125912
  0
LWPOLYLINE
  5
352
100
AcDbEntity
  8
0
100
AcDbPolyline
 62
7
  6
CONTINUOUS
 90
25
 70
0
 10
227.337471267
 20
100.9561156476
 10
227.3364536797
 20
101.0098569457
 10
227.3325505391
 20
101.064790215
 10
227.3257822721
 20
101.120703091
 10
227.3161881237
 20
101.1773837325
 10
227.3038021465
 20
101.2346083329
 10
227.2886529648
 20
101.2921419907
 10
227.2708005457
 20
101.3497595185
 10
227.2503207453
 20
101.4072397743
 10
227.227280812
 20
101.4643531865
 10
227.2017696159
 20
101.5208757885
 10
227.1738913945
 20
101.5765899695
 10
227.1437495412
 20
101.6312786543
 10
227.111458618
 20
101.6847267104
 10
227.0771476542
 20
101.7367273577
 10
227.0409529464
 20
101.7870825166
 10
227.0030108334
 20
101.8355931068
 10
226.9634708427
 20
101.8820701788
 10
226.9224981664
 20
101.9263407051
 10
226.8802463939
 20
101.9682284169
 10
226.8368805623
 20
102.0075687822
 10
226.7925897926
 20
102.0442195568
 10
226.747550884
 20
102.0780393407
 10
226.7019276787
 20
102.1088882181
 10
226.655893881
 20
102.1366423083
  0
LINE
  5
353
100
AcDbEntity
  8
0
100
AcDbLine
 62
7
  6
CONTINUOUS
 10
227.3373584752
 20
100.9266969684
 11
227.3373584752
 21
30.2201222934
  0
LINE
  5
354
100
AcDbEntity
  8
0
100
AcDbLine
 62
7
  6
CONTINUOUS
 10
227.5494905095
 20
101.8153280288
 11
227.5494905095
 21
31.5361740369
  0
LINE
  5
355
100
AcDbEntity
  8
0
100
AcDbLine
 62
250
  6
CONTINUOUS
 10
227.337471267
 20
100.9561156476
 11
227.5494905095
 21
101.8153280288
  0
LWPOLYLINE
  5
356
100
AcDbEntity
  8
0
100
AcDbPolyline
 62
7
  6
CONTINUOUS
 90
4
 70
0
 10
227.3296926048
 20
30.076354238
 10
227.3325505391
 20
30.0976097031
 10
227.3364536797
 20
30.1438323889
 10
227.337471267
 20
30.191875857
  0
LINE
  5
357
100
AcDbEntity
  8
0
100
AcDbLine
 62
7
  6
CONTINUOUS
 10
227.5489320855
 20
31.5283883054
 11
227.3296853296
 21
30.0763495765
  0
LINE
  5
358
100
AcDbEntity
  8
0
100
AcDbLine
 62
250
  6
CONTINUOUS
 10
227.337471267
 20
30.191875857
 11
227.5494905095
 21
31.5361740369
  0
LWPOLYLINE
  5
359
100
AcDbEntity
  8
0
100
AcDbPolyline
 62
7
  6
CONTINUOUS
 90
11
 70
0
 10
227.1524124671
 20
29.7759156086
 10
227.1738913944
 20
29.7903876022
 10
227.2017696159
 20
29.8132198895
 10
227.2272808121
 20
29.8391499677
 10
227.2503207454
 20
29.8680744905
 10
227.2708005458
 20
29.899881836
 10
227.288652965
 20
29.934457213
 10
227.3038021467
 20
29.9716631717
 10
227.3161881238
 20
30.0113547988
 10
227.3257822722
 20
30.0533906051
 10
227.3296926048
 20
30.076354238
  0
LINE
  5
35A
100
AcDbEntity
  8
0
100
AcDbLine
 62
250
  6
CONTINUOUS
 10
225.3225423346
 20
28.9741297691
 11
227.3373584752
 21
30.2201222934
  0
LINE
  5
35B
100
AcDbEntity
  8
0
100
AcDbLine
 62
7
  6
CONTINUOUS
 10
225.3221041488
 20
28.6440254894
 11
227.1524126106
 21
29.7759156974
  0
LINE
  5
35C
100
AcDbEntity
  8
SMUSSO
100
AcDbLine
 62
7
  6
CONTINUOUS
 10
223.5543371958
 20
26.8929034019
 11
225.3221041488
 21
27.9135504303
  0
ARC
  5
35D
100
AcDbEntity
  8
0
100
AcDbCircle
 62
7
  6
CONTINUOUS
 10
108.1016072353
 20
114.4767991828
 40
0.3
100
AcDbArc
 50
300.1089993398
 51
314.2001403814
  0
ARC
  5
35E
100
AcDbEntity
  8
0
100
AcDbCircle
 62
7
  6
CONTINUOUS
 10
203.5610226955
 20
59.3597290835
 40
0.3
100
AcDbArc
 50
300.1089993398
 51
314.2001403814
  0
ARC
  5
35F
100
AcDbEntity
  8
0
100
AcDbCircle
 62
7
  6
CONTINUOUS
 10
187.6511199862
 20
68.5459072765
 40
0.3
100
AcDbArc
 50
300.1089848867
 51
314.2001408883
  0
ARC
  5
360
100
AcDbEntity
  8
0
100
AcDbCircle
 62
7
  6
CONTINUOUS
 10
171.7412174095
 20
77.7320856264
 40
0.3
100
AcDbArc
 50
300.1089848867
 51
314.2001408883
  0
ARC
  5
361
100
AcDbEntity
  8
0
100
AcDbCircle
 62
7
  6
CONTINUOUS
 10
155.8313148328
 20
86.9182639762
 40
0.3
100
AcDbArc
 50
300.1089848867
 51
314.2001408883
  0
ARC
  5
362
100
AcDbEntity
  8
0
100
AcDbCircle
 62
7
  6
CONTINUOUS
 10
139.9214122561
 20
96.1044423261
 40
0.3
100
AcDbArc
 50
300.1089848867
 51
314.2001408883
  0
ARC
  5
363
100
AcDbEntity
  8
0
100
AcDbCircle
 62
7
  6
CONTINUOUS
 10
124.0115096794
 20
105.290620676
 40
0.3
100
AcDbArc
 50
300.1089848867
 51
314.2001408883
  0
ELLIPSE
  5
364
100
AcDbEntity
  8
0
100
AcDbEllipse
 62
7
  6
CONTINUOUS
 10
227.5048667008
 20
31.5631728069
 30
0.0
 11
-0.0319307066
 21
0.0553022874
 31
0.0
 40
0.5636716562
 41
-2.5265807376
 42
-2.3682119497
  0
ELLIPSE
  5
365
100
AcDbEntity
  8
0
100
AcDbEllipse
 62
7
  6
CONTINUOUS
 10
227.5048667008
 20
101.8398597145
 30
0.0
 11
-0.0311754239
 21
0.0539936769
 31
0.0
 40
0.5913227191
 41
-2.3442738678
 42
-0.7974202594
  0
ELLIPSE
  5
366
100
AcDbEntity
  8
0
100
AcDbEllipse
 62
7
  6
CONTINUOUS
 10
80.3744824752
 20
186.7910995896
 30
0.0
 11
-0.0319307066
 21
0.0553022874
 31
0.0
 40
0.5636716562
 41
-0.7734729046
 42
-0.6150203534
  0
ELLIPSE
  5
367
100
AcDbEntity
  8
0
100
AcDbEllipse
 62
7
  6
CONTINUOUS
 10
189.5145668179
 20
69.4697897279
 30
0.0
 11
0.2999993451
 21
0.1746271577
 31
0.0
 40
0.0035896273
 41
-0.7351277754
 42
-0.0020894543
  0
ELLIPSE
  5
368
100
AcDbEntity
  8
0
100
AcDbEllipse
 62
7
  6
CONTINUOUS
 10
173.6046642412
 20
78.6559680778
 30
0.0
 11
0.2999993451
 21
0.1746271577
 31
0.0
 40
0.0035896273
 41
-0.7351277754
 42
-0.0020894543
  0
ELLIPSE
  5
369
100
AcDbEntity
  8
0
100
AcDbEllipse
 62
7
  6
CONTINUOUS
 10
157.6947616645
 20
87.8421464276
 30
0.0
 11
0.2999993451
 21
0.1746271577
 31
0.0
 40
0.0035896273
 41
-0.7351277754
 42
-0.0020894543
  0
ELLIPSE
  5
36A
100
AcDbEntity
  8
0
100
AcDbEllipse
 62
7
  6
CONTINUOUS
 10
141.7848590878
 20
97.0283247775
 30
0.0
 11
0.2999993451
 21
0.1746271577
 31
0.0
 40
0.0035896273
 41
-0.7351277754
 42
-0.0020894543
  0
ELLIPSE
  5
36B
100
AcDbEntity
  8
0
100
AcDbEllipse
 62
7
  6
CONTINUOUS
 10
125.8749565111
 20
106.2145031274
 30
0.0
 11
0.2999993451
 21
0.1746271577
 31
0.0
 40
0.0035896273
 41
-0.7351277754
 42
-0.0020894543
  0
ELLIPSE
  5
36C
100
AcDbEntity
  8
0
100
AcDbEllipse
 62
7
  6
CONTINUOUS
 10
110.1028665405
 20
115.480917024
 30
0.0
 11
0.1999995634
 21
0.1164181051
 31
0.0
 40
0.0035896273
 41
-0.7351277754
 42
-0.6748017824
  0
ELLIPSE
  5
36D
100
AcDbEntity
  8
0
100
AcDbEllipse
 62
7
  6
CONTINUOUS
 10
154.00296413
 20
90.6479646105
 30
0.0
 11
0.2999972416
 21
-0.0022477848
 31
0.0
 40
0.5723275643
 41
0.7896864073
 42
2.3081228565
  0
ELLIPSE
  5
36E
100
AcDbEntity
  8
0
100
AcDbEllipse
 62
7
  6
CONTINUOUS
 10
201.7362806101
 20
63.1442970109
 30
0.0
 11
0.1998333781
 21
-0.0157785196
 31
0.0
 40
0.5172961965
 41
0.8262203412
 42
2.3446567905
  0
ELLIPSE
  5
36F
100
AcDbEntity
  8
0
100
AcDbEllipse
 62
7
  6
CONTINUOUS
 10
106.27686515
 20
118.2613671101
 30
0.0
 11
0.1998333781
 21
-0.0157785196
 31
0.0
 40
0.5172961965
 41
0.8262203412
 42
2.3446567905
  0
ELLIPSE
  5
370
100
AcDbEntity
  8
0
100
AcDbEllipse
 62
7
  6
CONTINUOUS
 10
185.8227692834
 20
72.2756079108
 30
0.0
 11
0.2999972416
 21
-0.0022477848
 31
0.0
 40
0.5723275643
 41
0.7896864073
 42
2.3081228565
  0
ELLIPSE
  5
371
100
AcDbEntity
  8
0
100
AcDbEllipse
 62
7
  6
CONTINUOUS
 10
169.9128667067
 20
81.4617862607
 30
0.0
 11
0.2999972416
 21
-0.0022477848
 31
0.0
 40
0.5723275643
 41
0.7896864073
 42
2.3081228565
  0
ELLIPSE
  5
372
100
AcDbEntity
  8
0
100
AcDbEllipse
 62
7
  6
CONTINUOUS
 10
138.0930615533
 20
99.8341429604
 30
0.0
 11
0.2999972416
 21
-0.0022477848
 31
0.0
 40
0.5723275643
 41
0.7896864073
 42
2.3081228565
  0
ELLIPSE
  5
373
100
AcDbEntity
  8
0
100
AcDbEllipse
 62
7
  6
CONTINUOUS
 10
122.1831589766
 20
109.0203213103
 30
0.0
 11
0.2999972416
 21
-0.0022477848
 31
0.0
 40
0.5723275643
 41
0.7896864073
 42
2.3081228565
  0
ELLIPSE
  5
374
100
AcDbEntity
  8
0
100
AcDbEllipse
 62
7
  6
CONTINUOUS
 10
200.2180530802
 20
61.840882498
 30
0.0
 11
0.5413005334
 21
0.8416911418
 31
0.0
 40
0.6067084637
 41
0.7148472392
 42
0.8145158917
  0
ELLIPSE
  5
375
100
AcDbEntity
  8
0
100
AcDbEllipse
 62
7
  6
CONTINUOUS
 10
104.7586376201
 20
116.9579525972
 30
0.0
 11
0.5413005334
 21
0.8416911418
 31
0.0
 40
0.6067084637
 41
0.7148472392
 42
0.8145158917
  0
ELLIPSE
  5
376
100
AcDbEntity
  8
0
100
AcDbEllipse
 62
7
  6
CONTINUOUS
 10
110.1028665405
 20
116.0522818583
 30
0.0
 11
0.1998333781
 21
-0.0157785196
 31
0.0
 40
0.5172961965
 41
-0.692216108
 42
0.8262203412
  0
ELLIPSE
  5
377
100
AcDbEntity
  8
0
100
AcDbEllipse
 62
7
  6
CONTINUOUS
 10
189.5145668179
 20
70.1440102835
 30
0.0
 11
0.2999972416
 21
-0.0022477848
 31
0.0
 40
0.5723275643
 41
-0.728750042
 42
0.7896864073
  0
ELLIPSE
  5
378
100
AcDbEntity
  8
0
100
AcDbEllipse
 62
7
  6
CONTINUOUS
 10
173.6046642412
 20
79.3301886333
 30
0.0
 11
0.2999972416
 21
-0.0022477848
 31
0.0
 40
0.5723275643
 41
-0.728750042
 42
0.7896864073
  0
ELLIPSE
  5
379
100
AcDbEntity
  8
0
100
AcDbEllipse
 62
7
  6
CONTINUOUS
 10
141.7848590878
 20
97.7025453331
 30
0.0
 11
0.2999972416
 21
-0.0022477848
 31
0.0
 40
0.5723275643
 41
-0.728750042
 42
0.7896864073
  0
ELLIPSE
  5
37A
100
AcDbEntity
  8
0
100
AcDbEllipse
 62
7
  6
CONTINUOUS
 10
125.8749565111
 20
106.888723683
 30
0.0
 11
0.2999972416
 21
-0.0022477848
 31
0.0
 40
0.5723275643
 41
-0.728750042
 42
0.7896864073
  0
ELLIPSE
  5
37B
100
AcDbEntity
  8
0
100
AcDbEllipse
 62
7
  6
CONTINUOUS
 10
157.6947616645
 20
88.5163669832
 30
0.0
 11
0.2999972416
 21
-0.0022477848
 31
0.0
 40
0.5723275643
 41
-0.728750042
 42
0.7896864073
  0
ELLIPSE
  5
37C
100
AcDbEntity
  8
0
100
AcDbEllipse
 62
7
  6
CONTINUOUS
 10
109.0049748783
 20
114.5061706834
 30
0.0
 11
0.4625183445
 21
0.8873459255
 31
0.0
 40
0.5463614449
 41
0.662201126
 42
0.7618697785
  0
ELLIPSE
  5
37D
100
AcDbEntity
  8
0
100
AcDbEllipse
 62
7
  6
CONTINUOUS
 10
227.5181057937
 20
101.8474848115
 30
0.0
 11
0.1365023326
 21
1.2306519884
 31
0.0
 40
0.0962714138
 41
-3.8917430252
 42
-3.8564132784
  0
ELLIPSE
  5
37E
100
AcDbEntity
  8
0
100
AcDbEllipse
 62
7
  6
CONTINUOUS
 10
227.5181057937
 20
31.1778367063
 30
0.0
 11
0.1387214801
 21
1.2585231556
 31
0.0
 40
0.0920685296
 41
-3.8374748546
 42
-3.8021451078
  0
ELLIPSE
  5
37F
100
AcDbEntity
  8
0
100
AcDbEllipse
 62
7
  6
CONTINUOUS
 10
80.0473962244
 20
186.9952242748
 30
0.0
 11
1.1592455945
 21
-0.5090882972
 31
0.0
 40
0.0921189357
 41
-2.4809772198
 42
-2.4456474731
  0
ELLIPSE
  5
380
100
AcDbEntity
  8
0
100
AcDbEllipse
 62
7
  6
CONTINUOUS
 10
227.5181057937
 20
101.8474848115
 30
0.0
 11
1.1339988709
 21
-0.4970753424
 31
0.0
 40
0.0963242103
 41
-2.4267061945
 42
-2.3913764477
  0
ENDSEC
  0
SECTION
  2
OBJECTS
  0
DICTIONARY
  5
C
100
AcDbDictionary
280
0
281
1
  3
ACAD_GROUP
350
D
  3
ACAD_MLINESTYLE
350
17
  3
ACAD_LAYOUT
350
1A
  3
ACAD_PLOTSETTINGS
350
19
  3
ACAD_PLOTSTYLENAME
350
E
  0
DICTIONARY
  5
D
102
{ACAD_REACTORS
330
C
102
}
100
AcDbDictionary
280
0
281
1
  0
ACDBDICTIONARYWDFLT
  5
E
102
{ACAD_REACTORS
330
C
102
}
100
AcDbDictionary
281
1
  3
Normal
350
F
100
AcDbDictionaryWithDefault
340
F
  0
DICTIONARY
  5
17
102
{ACAD_REACTORS
330
C
102
}
100
AcDbDictionary
280
0
281
1
  3
Standard
350
18
  0
DICTIONARY
  5
19
102
{ACAD_REACTORS
330
C
102
}
100
AcDbDictionary
281
1
  0
DICTIONARY
  5
1A
102
{ACAD_REACTORS
330
C
102
}
100
AcDbDictionary
281
1
  3
Model
350
381
  3
Layout1
350
382
  0
ACDBPLACEHOLDER
  5
F
102
{ACAD_REACTORS
330
E
102
}
  0
MLINESTYLE
  5
18
102
{ACAD_REACTORS
330
17
102
}
100
AcDbMlineStyle
  2
STANDARD
 70
0
  3

 62
256
 51
90.0
 52
90.0
 71
2
 49
0.5
 62
256
  6
BYLAYER
 49
-0.5
 62
256
  6
BYLAYER
  0
LAYOUT
  5
381
102
{ACAD_REACTORS
330
1A
102
}
100
AcDbPlotSettings
  1

  2
none_device
  4
ISO_A4_(297.00_x_210.00_MM)
  6

 40
0.0
 41
0.0
 42
0.0
 43
0.0
 44
297.0
 45
210.0
 46
0.0
 47
0.0
 48
0.0
 49
0.0
140
0.0
141
0.0
142
1.0
143
1.0
 70
1024
 72
1
 73
0
 74
0
  7

 75
0
147
1.0
148
0.0
149
0.0
100
AcDbLayout
  1
Model
 70
0
 71
0
 10
0.0
 20
0.0
 11
297.0
 21
210.0
 12
0.0
 22
0.0
 32
0.0
 14
0.0
 24
0.0
 34
0.0
 15
0.0
 25
0.0
 35
0.0
146
0.0
 13
0.0
 23
0.0
 33
0.0
 16
1.0
 26
0.0
 36
0.0
 17
0.0
 27
1.0
 37
0.0
 76
0
330
21B
345
0
346
0
  0
LAYOUT
  5
382
102
{ACAD_REACTORS
330
1A
102
}
100
AcDbPlotSettings
  1

  2
none_device
  4
ISO_A4_(297.00_x_210.00_MM)
  6

 40
0.0
 41
0.0
 42
0.0
 43
0.0
 44
297.0
 45
210.0
 46
0.0
 47
0.0
 48
0.0
 49
0.0
140
0.0
141
0.0
142
1.0
143
1.0
 70
0
 72
1
 73
0
 74
0
  7

 75
0
147
1.0
148
0.0
149
0.0
100
AcDbLayout
  1
Layout1
 70
0
 71
1
 10
0.0
 20
0.0
 11
297.0
 21
210.0
 12
0.0
 22
0.0
 32
0.0
 14
0.0
 24
0.0
 34
0.0
 15
0.0
 25
0.0
 35
0.0
146
0.0
 13
0.0
 23
0.0
 33
0.0
 16
1.0
 26
0.0
 36
0.0
 17
0.0
 27
1.0
 37
0.0
 76
0
330
21C
345
0
346
0
  0
ENDSEC
  0
EOF
