  0
SECTION
  2
HEADER
  9
$ACADVER
  1
AC1024
  9
$DWGCODEPAGE
  3
ANSI_1252
  9
$EXTMAX
 10
297.0
 20
210.0
 30
0.0
  9
$EXTMIN
 10
0.0
 20
0.0
 30
0.0
  9
$LIMMIN
 10
0.0
 20
0.0
  9
$LIMMAX
 10
297.0
 20
210.0
  9
$VIEWCTR
 10
148.5
 20
105.0
  9
$VIEWSIZE
 40
210.0
  9
$CLAYER
  8
0
  9
$LTSCALE
 40
16.335
  9
$CELTYPE
  6
BYLAYER
  9
$DIMSCALE
 40
1.0
  9
$DIMASZ
 40
3.0
  9
$DIMEXO
 40
0.5
  9
$DIMDLI
 40
11.286
  9
$DIMEXE
 40
1.5
  9
$DIMCEN
 40
2.673
  9
$DIMLFAC
 40
1.0
  9
$DIMBLK
  1
_FILLED
  9
$DIMALT
 70
0
  9
$DIMALTF
 40
0.0393700787
  9
$DIMTXT
 40
3.0
  9
$DIMTOL
 70
1
  9
$DIMLIM
 70
0
  9
$DIMTFAC
 40
1.0
  9
$DIMTP
 40
0.01
  9
$DIMTM
 40
0.01
  9
$DIMGAP
 40
0.625
  9
$DIMDSEP
 70
44
  9
$AUNITS
 70
0
  9
$PDMODE
 70
3
  9
$PDSIZE
 40
3.0
  9
$HANDSEED
  5
339
  9
$TILEMODE
 70
1
  9
$MEASUREMENT
 70
1
  9
$INSUNITS
 70
4
  0
ENDSEC
  0
SECTION
  2
CLASSES
  0
CLASS
  1
ACDBDICTIONARYWDFLT
  2
AcDbDictionaryWithDefault
  3
AutoCAD 2000
 90
0
 91
1
280
0
281
0
  0
CLASS
  1
ACDBPLACEHOLDER
  2
AcDbPlaceHolder
  3
AutoCAD 2000
 90
0
 91
1
280
0
281
0
  0
CLASS
  1
LAYOUT
  2
AcDbLayout
  3
AutoCAD 2000
 90
0
 91
0
280
0
281
0
  0
ENDSEC
  0
SECTION
  2
TABLES
  0
TABLE
  2
VPORT
  5
8
100
AcDbSymbolTable
 70
2
  0
VPORT
  5
1F4
100
AcDbSymbolTableRecord
100
AcDbViewportTableRecord
  2
*ACTIVE
 70
0
 10
0.0
 20
0.0
 11
1.0
 21
1.0
 12
148.5
 22
105.0
 13
0.0
 23
0.0
 14
1.0
 24
1.0
 15
0.0
 25
0.0
 16
0.0
 26
0.0
 36
1.0
 17
0.0
 27
0.0
 37
0.0
 40
210.0
 41
1.4142857143
 42
50.0
 43
0.0
 44
0.0
 50
0.0
 51
0.0
 71
0
 72
100
 73
1
 74
1
 75
0
 76
0
 77
0
 78
0
  0
ENDTAB
  0
TABLE
  2
LTYPE
  5
5
100
AcDbSymbolTable
 70
6
  0
LTYPE
  5
14
100
AcDbSymbolTableRecord
100
AcDbLinetypeTableRecord
  2
BYBLOCK
 70
0
  3

 72
65
 73
0
 40
0.0
  0
LTYPE
  5
15
100
AcDbSymbolTableRecord
100
AcDbLinetypeTableRecord
  2
BYLAYER
 70
0
  3

 72
65
 73
0
 40
0.0
  0
LTYPE
  5
16
100
AcDbSymbolTableRecord
100
AcDbLinetypeTableRecord
  2
CONTINUOUS
 70
64
  3
Solid line
 72
65
 73
0
 40
0.0
  0
LTYPE
  5
1F5
100
AcDbSymbolTableRecord
100
AcDbLinetypeTableRecord
  2
CENTER
 70
64
  3
____ _ ____ _ ____ _ ____ _ ____ _ ____ _ ____
 72
65
 73
4
 40
0.6
 49
0.375
 74
0
 49
-0.075
 74
0
 49
0.075
 74
0
 49
-0.075
 74
0
  0
LTYPE
  5
1F6
100
AcDbSymbolTableRecord
100
AcDbLinetypeTableRecord
  2
HIDDEN
 70
64
  3
- - - - - - - - - - - - - - - - - - - -
 72
65
 73
2
 40
0.2
 49
0.1
 74
0
 49
-0.1
 74
0
  0
LTYPE
  5
1F7
100
AcDbSymbolTableRecord
100
AcDbLinetypeTableRecord
  2
PHANTOM
 70
64
  3
_____ _ _ _____ _ _ _____ _ _ _____
 72
65
 73
6
 40
0.8
 49
0.45
 74
0
 49
-0.05
 74
0
 49
0.1
 74
0
 49
-0.05
 74
0
 49
0.1
 74
0
 49
-0.05
 74
0
  0
LTYPE
  5
1F8
100
AcDbSymbolTableRecord
100
AcDbLinetypeTableRecord
  2
DOT
 70
64
  3
. . . . . . . . . . . . . . . . . . . .
 72
65
 73
2
 40
0.2
 49
0.1
 74
0
 49
-0.1
 74
0
  0
LTYPE
  5
1F9
100
AcDbSymbolTableRecord
100
AcDbLinetypeTableRecord
  2
DASHED
 70
64
  3
- - - - - - - - - - - - - - - - - - - -
 72
65
 73
2
 40
0.2
 49
0.1
 74
0
 49
-0.1
 74
0
  0
ENDTAB
  0
TABLE
  2
LAYER
  5
2
100
AcDbSymbolTable
 70
36
  0
LAYER
  5
10
100
AcDbSymbolTableRecord
100
AcDbLayerTableRecord
  2
0
 70
0
 62
7
  6
CONTINUOUS
370
-3
390
F
  0
LAYER
  5
1FA
100
AcDbSymbolTableRecord
100
AcDbLayerTableRecord
  2
DEFAULT_1
 70
0
 62
7
  6
CENTER
370
-3
390
F
  0
LAYER
  5
1FB
100
AcDbSymbolTableRecord
100
AcDbLayerTableRecord
  2
DEFAULT_2
 70
0
 62
7
  6
HIDDEN
370
-3
390
F
  0
LAYER
  5
1FC
100
AcDbSymbolTableRecord
100
AcDbLayerTableRecord
  2
DEFAULT_3
 70
0
 62
7
  6
PHANTOM
370
-3
390
F
  0
LAYER
  5
1FD
100
AcDbSymbolTableRecord
100
AcDbLayerTableRecord
  2
ASSI
 70
0
 62
7
  6
CONTINUOUS
370
-3
390
F
  0
LAYER
  5
1FE
100
AcDbSymbolTableRecord
100
AcDbLayerTableRecord
  2
COORDINATE
 70
0
 62
7
  6
CONTINUOUS
370
-3
390
F
  0
LAYER
  5
1FF
100
AcDbSymbolTableRecord
100
AcDbLayerTableRecord
  2
COORD_ORIGINE
 70
0
 62
7
  6
CONTINUOUS
370
-3
390
F
  0
LAYER
  5
200
100
AcDbSymbolTableRecord
100
AcDbLayerTableRecord
  2
COPY_PUBLISH
 70
0
 62
7
  6
CONTINUOUS
370
-3
390
F
  0
LAYER
  5
201
100
AcDbSymbolTableRecord
100
AcDbLayerTableRecord
  2
COSMETIC
 70
0
 62
7
  6
CONTINUOUS
370
-3
390
F
  0
LAYER
  5
202
100
AcDbSymbolTableRecord
100
AcDbLayerTableRecord
  2
COSMETICI
 70
0
 62
7
  6
CONTINUOUS
370
-3
390
F
  0
LAYER
  5
203
100
AcDbSymbolTableRecord
100
AcDbLayerTableRecord
  2
CURVE
 70
0
 62
7
  6
CONTINUOUS
370
-3
390
F
  0
LAYER
  5
204
100
AcDbSymbolTableRecord
100
AcDbLayerTableRecord
  2
CURVE_TASSELLI
 70
0
 62
7
  6
CONTINUOUS
370
-3
390
F
  0
LAYER
  5
205
100
AcDbSymbolTableRecord
100
AcDbLayerTableRecord
  2
DRAFT
 70
0
 62
7
  6
CONTINUOUS
370
-3
390
F
  0
LAYER
  5
206
100
AcDbSymbolTableRecord
100
AcDbLayerTableRecord
  2
IMPORT_IGES
 70
0
 62
7
  6
CONTINUOUS
370
-3
390
F
  0
LAYER
  5
207
100
AcDbSymbolTableRecord
100
AcDbLayerTableRecord
  2
INTFCLR_2
 70
0
 62
7
  6
CONTINUOUS
370
-3
390
F
  0
LAYER
  5
208
100
AcDbSymbolTableRecord
100
AcDbLayerTableRecord
  2
INTF_1
 70
0
 62
7
  6
CONTINUOUS
370
-3
390
F
  0
LAYER
  5
209
100
AcDbSymbolTableRecord
100
AcDbLayerTableRecord
  2
INTF_21
 70
0
 62
7
  6
CONTINUOUS
370
-3
390
F
  0
LAYER
  5
20A
100
AcDbSymbolTableRecord
100
AcDbLayerTableRecord
  2
INTF_7
 70
0
 62
7
  6
CONTINUOUS
370
-3
390
F
  0
LAYER
  5
20B
100
AcDbSymbolTableRecord
100
AcDbLayerTableRecord
  2
NOTE
 70
0
 62
7
  6
CONTINUOUS
370
-3
390
F
  0
LAYER
  5
20C
100
AcDbSymbolTableRecord
100
AcDbLayerTableRecord
  2
PIANI
 70
0
 62
7
  6
CONTINUOUS
370
-3
390
F
  0
LAYER
  5
20D
100
AcDbSymbolTableRecord
100
AcDbLayerTableRecord
  2
PIANI_ORIGINE
 70
0
 62
7
  6
CONTINUOUS
370
-3
390
F
  0
LAYER
  5
20E
100
AcDbSymbolTableRecord
100
AcDbLayerTableRecord
  2
PIANI_RIFERIMENTO
 70
0
 62
7
  6
CONTINUOUS
370
-3
390
F
  0
LAYER
  5
20F
100
AcDbSymbolTableRecord
100
AcDbLayerTableRecord
  2
PUNTI
 70
0
 62
7
  6
CONTINUOUS
370
-3
390
F
  0
LAYER
  5
210
100
AcDbSymbolTableRecord
100
AcDbLayerTableRecord
  2
RACCORDO
 70
0
 62
7
  6
CONTINUOUS
370
-3
390
F
  0
LAYER
  5
211
100
AcDbSymbolTableRecord
100
AcDbLayerTableRecord
  2
RGB__255__255__255__
 70
0
 62
7
  6
CONTINUOUS
370
-3
390
F
  0
LAYER
  5
212
100
AcDbSymbolTableRecord
100
AcDbLayerTableRecord
  2
RGB____0____0____0__
 70
0
 62
7
  6
CONTINUOUS
370
-3
390
F
  0
LAYER
  5
213
100
AcDbSymbolTableRecord
100
AcDbLayerTableRecord
  2
SIMBOLI
 70
0
 62
7
  6
CONTINUOUS
370
-3
390
F
  0
LAYER
  5
214
100
AcDbSymbolTableRecord
100
AcDbLayerTableRecord
  2
SMUSSO
 70
0
 62
7
  6
CONTINUOUS
370
-3
390
F
  0
LAYER
  5
215
100
AcDbSymbolTableRecord
100
AcDbLayerTableRecord
  2
SNAPLINE
 70
0
 62
7
  6
CONTINUOUS
370
-3
390
F
  0
LAYER
  5
216
100
AcDbSymbolTableRecord
100
AcDbLayerTableRecord
  2
SUPERFICI
 70
0
 62
7
  6
CONTINUOUS
370
-3
390
F
  0
LAYER
  5
217
100
AcDbSymbolTableRecord
100
AcDbLayerTableRecord
  2
TRASH
 70
0
 62
7
  6
CONTINUOUS
370
-3
390
F
  0
LAYER
  5
218
100
AcDbSymbolTableRecord
100
AcDbLayerTableRecord
  2
XSEC_DATUMS
 70
0
 62
7
  6
CONTINUOUS
370
-3
390
F
  0
ENDTAB
  0
TABLE
  2
STYLE
  5
3
100
AcDbSymbolTable
 70
1
  0
STYLE
  5
11
100
AcDbSymbolTableRecord
100
AcDbTextStyleTableRecord
  2
STANDARD
 70
0
 40
0.0
 41
0.8
 50
0.0
 71
0
 42
0.2
  3
txt
  4

  0
STYLE
  5
219
100
AcDbSymbolTableRecord
100
AcDbTextStyleTableRecord
  2
TEXTSTYLE_1
 70
0
 40
0.0
 41
0.8
 50
0.0
 71
0
 42
0.2
  3
gdt
  4

  0
ENDTAB
  0
TABLE
  2
VIEW
  5
6
100
AcDbSymbolTable
 70
0
  0
ENDTAB
  0
TABLE
  2
UCS
  5
7
100
AcDbSymbolTable
 70
0
  0
ENDTAB
  0
TABLE
  2
APPID
  5
9
100
AcDbSymbolTable
 70
1
  0
APPID
  5
21A
100
AcDbSymbolTableRecord
100
AcDbRegAppTableRecord
  2
ACAD
 70
0
  0
ENDTAB
  0
TABLE
  2
BLOCK_RECORD
  5
1
100
AcDbSymbolTable
 70
0
  0
BLOCK_RECORD
  5
21B
100
AcDbSymbolTableRecord
100
AcDbBlockTableRecord
  2
*Model_Space
  0
BLOCK_RECORD
  5
21C
100
AcDbSymbolTableRecord
100
AcDbBlockTableRecord
  2
*Paper_Space
  0
BLOCK_RECORD
  5
21D
100
AcDbSymbolTableRecord
100
AcDbBlockTableRecord
  2
_FILLED
  0
ENDTAB
  0
TABLE
  2
DIMSTYLE
  5
A
100
AcDbSymbolTable
 70
1
100
AcDbDimStyleTable
 71
0
  0
DIMSTYLE
105
21E
100
AcDbSymbolTableRecord
100
AcDbDimStyleTableRecord
  2
STANDARD
 70
0
  3

  4

 40
1.0
 41
3.0
 42
0.5
 43
0.38
 44
1.5
 45
0.0
 46
0.0
 47
0.01
 48
0.01
140
3.0
141
0.09
142
0.0
143
25.4
144
1.0
145
0.0
146
1.0
147
0.625
 71
1.0
 72
0.0
 73
0
 74
0
 75
0
 76
0
 77
1
 78
8
 79
2
170
0
171
1
172
0
173
0
174
0
175
0
176
0
177
0
178
0
270
2
179
2
271
2
272
2
273
2
274
2
275
0
280
0
281
0
282
0
283
1
284
8
285
0
286
0
287
3
288
0
340
11
278
44
341
21D
342
21D
343
21D
344
21D
  0
ENDTAB
  0
ENDSEC
  0
SECTION
  2
BLOCKS
  0
BLOCK
  5
20
100
AcDbEntity
  8
0
100
AcDbBlockBegin
  2
*Model_Space
 70
0
 10
0.0
 20
0.0
 30
0.0
  3
*Model_Space
  1

  0
ENDBLK
  5
21
100
AcDbEntity
  8
0
100
AcDbBlockEnd
  0
BLOCK
  5
1C
100
AcDbEntity
  8
0
100
AcDbBlockBegin
  2
*Paper_Space
 70
0
 10
0.0
 20
0.0
 30
0.0
  3
*Paper_Space
  1

  0
ENDBLK
  5
1D
100
AcDbEntity
  8
0
100
AcDbBlockEnd
  0
BLOCK
  5
21F
100
AcDbEntity
  8
0
100
AcDbBlockBegin
  2
_FILLED
 70
64
 10
0.0
 20
0.0
  3
_FILLED
  1

  0
SOLID
  5
220
100
AcDbEntity
  8
0
  6
BYBLOCK
 62
0
100
AcDbTrace
 10
0.0
 20
0.0
 11
-1.0
 21
0.3166666667
 12
-1.0
 22
-0.3166666667
 13
-1.0
 23
-0.3166666667
  0
ENDBLK
  5
221
100
AcDbEntity
  8
0
  6
BYBLOCK
 62
0
100
AcDbBlockEnd
  0
ENDSEC
  0
SECTION
  2
ENTITIES
  0
LINE
  5
222
100
AcDbEntity
  8
SMUSSO
100
AcDbLine
 62
7
  6
CONTINUOUS
 10
74.0012529749
 20
185.500559932
 11
76.476126709
 21
186.9294815537
  0
LINE
  5
223
100
AcDbEntity
  8
0
100
AcDbLine
 62
7
  6
CONTINUOUS
 10
79.0039840106
 20
187.5835454836
 11
77.1086623747
 21
186.5643028428
  0
LINE
  5
224
100
AcDbEntity
  8
0
100
AcDbLine
 62
250
  6
CONTINUOUS
 10
79.4812228333
 20
187.5215971331
 11
77.394819643
 21
186.3995970161
  0
LINE
  5
225
100
AcDbEntity
  8
SMUSSO
100
AcDbLine
 62
7
  6
CONTINUOUS
 10
74.0012529749
 20
185.500559932
 11
74.0012529749
 21
112.8346658425
  0
LINE
  5
226
100
AcDbEntity
  8
0
100
AcDbLine
 62
250
  6
CONTINUOUS
 10
92.8456486935
 20
155.7595786259
 11
93.6940606639
 21
156.2494410645
  0
LWPOLYLINE
  5
227
100
AcDbEntity
  8
0
100
AcDbPolyline
 62
7
  6
CONTINUOUS
 90
15
 70
0
 10
93.0941478388
 20
156.3088628593
 10
93.1118823071
 20
156.3185143121
 10
93.1487561988
 20
156.3351138292
 10
93.1874758397
 20
156.3481078018
 10
93.2279101604
 20
156.3574522402
 10
93.2699222082
 20
156.3631155143
 10
93.3133699552
 20
156.3650784939
 10
93.3581062167
 20
156.3633345437
 10
93.4039789755
 20
156.3578896967
 10
93.4508329881
 20
156.3487625506
 10
93.4985096321
 20
156.3359841727
 10
93.5468467888
 20
156.3195982637
 10
93.5956806009
 20
156.2996607214
 10
93.6448460647
 20
156.2762392604
 10
93.6941768309
 20
156.2494134461
  0
LINE
  5
228
100
AcDbEntity
  8
0
100
AcDbLine
 62
7
  6
CONTINUOUS
 10
92.1385419123
 20
120.8146507792
 11
92.1385419123
 21
155.7595786259
  0
LWPOLYLINE
  5
229
100
AcDbEntity
  8
0
100
AcDbPolyline
 62
7
  6
CONTINUOUS
 90
31
 70
0
 10
92.1385419123
 20
155.7595786259
 10
92.1402262175
 20
155.831571674
 10
92.1451588767
 20
155.9010966162
 10
92.15333989
 20
155.9681534523
 10
92.164809337
 20
156.0329125036
 10
92.179527138
 20
156.0952034489
 10
92.1973730543
 20
156.1545153247
 10
92.2183728937
 20
156.2108235299
 10
92.2425008483
 20
156.2641526656
 10
92.2695592547
 20
156.3140655717
 10
92.2995722309
 20
156.3605340358
 10
92.3325156589
 20
156.4035862703
 10
92.3681195221
 20
156.4428697518
 10
92.4064054643
 20
156.4783533678
 10
92.4473518416
 20
156.5100682308
 10
92.4906237058
 20
156.5377551554
 10
92.5362400588
 20
156.5613812077
 10
92.5841818986
 20
156.5809793217
 10
92.6340572706
 20
156.5963891131
 10
92.6858822192
 20
156.6075763052
 10
92.7396407
 20
156.6145751749
 10
92.7948926261
 20
156.6173281688
 10
92.8516505493
 20
156.6158002873
 10
92.9099019178
 20
156.6100265301
 10
92.9691689888
 20
156.6000543432
 10
93.0294600053
 20
156.5858490904
 10
93.0907667245
 20
156.567445408
 10
93.1525866747
 20
156.544994651
 10
93.2147523655
 20
156.5185472711
 10
93.2774312873
 20
156.4880528167
 10
93.3406234403
 20
156.4535112878
  0
LWPOLYLINE
  5
22A
100
AcDbEntity
  8
0
100
AcDbPolyline
 62
7
  6
CONTINUOUS
 90
15
 70
0
 10
92.8456486935
 20
155.7595786259
 10
92.8470838527
 20
155.8157099626
 10
92.8513846724
 20
155.8699959684
 10
92.8585368975
 20
155.9222527977
 10
92.8685166935
 20
155.9723037405
 10
92.8812905485
 20
156.0199788871
 10
92.8968152125
 20
156.0651158557
 10
92.915038238
 20
156.1075616948
 10
92.9358981196
 20
156.1471727481
 10
92.9593241036
 20
156.1838144261
 10
92.9852368868
 20
156.2173626229
 10
93.0135488603
 20
156.2477038574
 10
93.044164089
 20
156.2747352885
 10
93.0769789039
 20
156.2983654087
 10
93.0941478388
 20
156.3088628593
  0
LWPOLYLINE
  5
22B
100
AcDbEntity
  8
RACCORDO
100
AcDbPolyline
 62
7
  6
CONTINUOUS
 90
28
 70
0
 10
95.3205224276
 20
122.2436118558
 10
95.3219982873
 20
122.1854739
 10
95.3262953037
 20
122.1262814263
 10
95.3334134767
 20
122.0660344348
 10
95.3433958865
 20
122.0045224082
 10
95.356199453
 20
121.9419558638
 10
95.3716949358
 20
121.8789663536
 10
95.3899095992
 20
121.8155495939
 10
95.4108161789
 20
121.7517098686
 10
95.4342036422
 20
121.6880915812
 10
95.4600971159
 20
121.6246969746
 10
95.4884714731
 20
121.561523806
 10
95.5190403006
 20
121.4992097509
 10
95.5518258244
 20
121.4377635104
 10
95.5868058185
 20
121.3771763834
 10
95.6236271919
 20
121.3180599415
 10
95.6623085943
 20
121.2604290801
 10
95.7028313759
 20
121.2042689039
 10
95.7447864964
 20
121.1501462985
 10
95.7881884625
 20
121.0980819007
 10
95.8330227675
 20
121.0480550737
 10
95.8788368499
 20
121.0005707927
 10
95.9256406331
 20
120.9556548089
 10
95.9734241937
 20
120.9132813711
 10
96.0217052003
 20
120.8738782003
 10
96.0703228759
 20
120.8375878704
 10
96.1194379974
 20
120.8042678075
 10
96.1690505651
 20
120.7739180117
  0
LINE
  5
22C
100
AcDbEntity
  8
0
100
AcDbLine
 62
7
  6
CONTINUOUS
 10
92.8456486935
 20
120.8146507792
 11
92.8456486935
 21
155.7595786259
  0
LINE
  5
22D
100
AcDbEntity
  8
RACCORDO
100
AcDbLine
 62
7
  6
CONTINUOUS
 10
95.3205224276
 20
155.3103424265
 11
95.3205224276
 21
122.2436118558
  0
LINE
  5
22E
100
AcDbEntity
  8
0
100
AcDbLine
 62
250
  6
CONTINUOUS
 10
95.912858189
 20
154.9683351816
 11
95.912858189
 21
120.9679216817
  0
LINE
  5
22F
100
AcDbEntity
  8
0
100
AcDbLine
 62
7
  6
CONTINUOUS
 10
95.9970562489
 20
154.9197202771
 11
95.9970562489
 21
120.8939947412
  0
LINE
  5
230
100
AcDbEntity
  8
0
100
AcDbLine
 62
250
  6
CONTINUOUS
 10
93.3406234403
 20
118.7325845
 11
93.6941768309
 21
119.344956935
  0
LINE
  5
231
100
AcDbEntity
  8
0
100
AcDbLine
 62
7
  6
CONTINUOUS
 10
103.1516454624
 20
116.7422552304
 11
103.1694076988
 21
116.7730203262
  0
LINE
  5
232
100
AcDbEntity
  8
0
100
AcDbLine
 62
7
  6
CONTINUOUS
 10
103.4168950722
 20
116.7934458924
 11
103.5229610894
 21
116.9771576229
  0
LINE
  5
233
100
AcDbEntity
  8
0
100
AcDbLine
 62
7
  6
CONTINUOUS
 10
103.7704484628
 20
116.997583189
 11
103.87651448
 21
117.1812949195
  0
LINE
  5
234
100
AcDbEntity
  8
0
100
AcDbLine
 62
7
  6
CONTINUOUS
 10
104.1240018534
 20
117.2017204857
 11
104.2300678706
 21
117.3854322162
  0
LINE
  5
235
100
AcDbEntity
  8
0
100
AcDbLine
 62
7
  6
CONTINUOUS
 10
104.477555244
 20
117.4058577824
 11
104.5836212612
 21
117.5895695129
  0
LINE
  5
236
100
AcDbEntity
  8
0
100
AcDbLine
 62
7
  6
CONTINUOUS
 10
104.8311086346
 20
117.609995079
 11
104.9371746518
 21
117.7937068095
  0
LINE
  5
237
100
AcDbEntity
  8
0
100
AcDbLine
 62
250
  6
CONTINUOUS
 10
110.6050488962
 20
116.1782950147
 11
110.6050488962
 21
115.7709253768
  0
LINE
  5
238
100
AcDbEntity
  8
0
100
AcDbLine
 62
7
  6
CONTINUOUS
 10
110.6564199311
 20
116.2448725216
 11
110.6564199311
 21
115.8014706716
  0
LINE
  5
239
100
AcDbEntity
  8
0
100
AcDbLine
 62
250
  6
CONTINUOUS
 10
108.6555916476
 20
114.483625223
 11
108.6605694832
 21
114.4992877233
  0
LINE
  5
23A
100
AcDbEntity
  8
0
100
AcDbLine
 62
7
  6
CONTINUOUS
 10
107.040732759
 20
114.4967449671
 11
107.0584949953
 21
114.5275100629
  0
LINE
  5
23B
100
AcDbEntity
  8
0
100
AcDbLine
 62
7
  6
CONTINUOUS
 10
107.3059823688
 20
114.5479356291
 11
107.4120483859
 21
114.7316473596
  0
LINE
  5
23C
100
AcDbEntity
  8
0
100
AcDbLine
 62
7
  6
CONTINUOUS
 10
107.6595357594
 20
114.7520729257
 11
107.7656017765
 21
114.9357846562
  0
LINE
  5
23D
100
AcDbEntity
  8
0
100
AcDbLine
 62
7
  6
CONTINUOUS
 10
108.0130891499
 20
114.9562102224
 11
108.1191551671
 21
115.1399219529
  0
LINE
  5
23E
100
AcDbEntity
  8
0
100
AcDbLine
 62
7
  6
CONTINUOUS
 10
108.3666425405
 20
115.1603475191
 11
108.4727085577
 21
115.3440592496
  0
LINE
  5
23F
100
AcDbEntity
  8
0
100
AcDbLine
 62
7
  6
CONTINUOUS
 10
108.7201959311
 20
115.3644848157
 11
108.8262619483
 21
115.5481965462
  0
LINE
  5
240
100
AcDbEntity
  8
0
100
AcDbLine
 62
250
  6
CONTINUOUS
 10
92.8456486935
 20
120.8146507792
 11
95.3205224276
 21
122.2436118558
  0
LINE
  5
241
100
AcDbEntity
  8
0
100
AcDbLine
 62
250
  6
CONTINUOUS
 10
93.6941768309
 20
119.344956935
 11
96.1690505651
 21
120.7739180117
  0
LINE
  5
242
100
AcDbEntity
  8
0
100
AcDbLine
 62
250
  6
CONTINUOUS
 10
108.6605694832
 20
114.4992877233
 11
108.9965144482
 21
114.826041313
  0
LINE
  5
243
100
AcDbEntity
  8
0
100
AcDbLine
 62
7
  6
CONTINUOUS
 10
108.6644943779
 20
114.4657525587
 11
109.0934787215
 21
114.8829999916
  0
LWPOLYLINE
  5
244
100
AcDbEntity
  8
0
100
AcDbPolyline
 62
250
  6
CONTINUOUS
 90
6
 70
0
 10
108.6126517522
 20
114.4255891827
 10
108.6234744644
 20
114.43423153
 10
108.6332411443
 20
114.4444271419
 10
108.6418851673
 20
114.4561088142
 10
108.6493504291
 20
114.4692019795
 10
108.6555916476
 20
114.483625223
  0
LINE
  5
245
100
AcDbEntity
  8
0
100
AcDbLine
 62
7
  6
CONTINUOUS
 10
109.3585282689
 20
115.5267782569
 11
107.4151348062
 21
114.2805699174
  0
LINE
  5
246
100
AcDbEntity
  8
0
100
AcDbLine
 62
250
  6
CONTINUOUS
 10
108.6058800843
 20
114.4212885662
 11
108.6126517522
 21
114.4255891827
  0
LINE
  5
247
100
AcDbEntity
  8
0
100
AcDbLine
 62
7
  6
CONTINUOUS
 10
103.1694076988
 20
116.7730203262
 11
103.3108290551
 21
116.8546752449
  0
LINE
  5
248
100
AcDbEntity
  8
0
100
AcDbLine
 62
7
  6
CONTINUOUS
 10
103.5229610894
 20
116.9771576229
 11
103.6643824456
 21
117.0588125415
  0
LINE
  5
249
100
AcDbEntity
  8
0
100
AcDbLine
 62
7
  6
CONTINUOUS
 10
103.87651448
 20
117.1812949195
 11
104.0179358362
 21
117.2629498382
  0
LINE
  5
24A
100
AcDbEntity
  8
0
100
AcDbLine
 62
7
  6
CONTINUOUS
 10
104.2300678706
 20
117.3854322162
 11
104.3714892268
 21
117.4670871349
  0
LINE
  5
24B
100
AcDbEntity
  8
0
100
AcDbLine
 62
7
  6
CONTINUOUS
 10
104.5836212612
 20
117.5895695129
 11
104.7250426174
 21
117.6712244315
  0
LINE
  5
24C
100
AcDbEntity
  8
0
100
AcDbLine
 62
7
  6
CONTINUOUS
 10
104.9371746518
 20
117.7937068095
 11
105.078596008
 21
117.8753617282
  0
LINE
  5
24D
100
AcDbEntity
  8
0
100
AcDbLine
 62
7
  6
CONTINUOUS
 10
102.9538339097
 20
116.8564691418
 11
105.1121910106
 21
117.9785601707
  0
LINE
  5
24E
100
AcDbEntity
  8
SMUSSO
100
AcDbLine
 62
7
  6
CONTINUOUS
 10
74.0012529749
 20
112.8346658425
 11
223.2007838052
 21
26.6887661053
  0
LWPOLYLINE
  5
24F
100
AcDbEntity
  8
0
100
AcDbPolyline
 62
250
  6
CONTINUOUS
 90
11
 70
0
 10
108.6605694832
 20
114.4992877233
 10
108.6625363257
 20
114.4947075489
 10
108.6641984519
 20
114.4903604774
 10
108.6655412861
 20
114.4862642212
 10
108.6665438487
 20
114.4824603944
 10
108.6672034584
 20
114.4789386356
 10
108.6675119232
 20
114.4756591338
 10
108.6674338704
 20
114.4726550629
 10
108.6669308154
 20
114.4699758746
 10
108.6659540544
 20
114.4676422269
 10
108.6644941522
 20
114.4657523392
  0
LINE
  5
250
100
AcDbEntity
  8
0
100
AcDbLine
 62
250
  6
CONTINUOUS
 10
126.4514533493
 20
106.9768448202
 11
126.4514533493
 21
106.5474470082
  0
LINE
  5
251
100
AcDbEntity
  8
0
100
AcDbLine
 62
7
  6
CONTINUOUS
 10
126.5285099017
 20
107.0913494905
 11
126.5285099017
 21
106.5932649504
  0
LINE
  5
252
100
AcDbEntity
  8
0
100
AcDbLine
 62
250
  6
CONTINUOUS
 10
124.5578329123
 20
105.2802745203
 11
124.5704720599
 21
105.3131093734
  0
LINE
  5
253
100
AcDbEntity
  8
0
100
AcDbLine
 62
7
  6
CONTINUOUS
 10
107.7443408578
 20
114.0904904691
 11
110.6050488962
 21
115.7709253768
  0
LINE
  5
254
100
AcDbEntity
  8
0
100
AcDbLine
 62
7
  6
CONTINUOUS
 10
108.6058800281
 20
114.4212885336
 11
107.8904174255
 21
114.0061476897
  0
LINE
  5
255
100
AcDbEntity
  8
0
100
AcDbLine
 62
250
  6
CONTINUOUS
 10
108.6605694832
 20
114.4992877233
 11
107.8501843287
 21
114.0293777755
  0
LINE
  5
256
100
AcDbEntity
  8
0
100
AcDbLine
 62
7
  6
CONTINUOUS
 10
107.0584949953
 20
114.5275100629
 11
107.1999163516
 21
114.6091649816
  0
LINE
  5
257
100
AcDbEntity
  8
0
100
AcDbLine
 62
7
  6
CONTINUOUS
 10
107.4120483859
 20
114.7316473596
 11
107.5534697422
 21
114.8133022782
  0
LINE
  5
258
100
AcDbEntity
  8
0
100
AcDbLine
 62
7
  6
CONTINUOUS
 10
107.7656017765
 20
114.9357846562
 11
107.9070231328
 21
115.0174395749
  0
LINE
  5
259
100
AcDbEntity
  8
0
100
AcDbLine
 62
7
  6
CONTINUOUS
 10
108.1191551671
 20
115.1399219529
 11
108.2605765234
 21
115.2215768716
  0
LINE
  5
25A
100
AcDbEntity
  8
0
100
AcDbLine
 62
7
  6
CONTINUOUS
 10
108.4727085577
 20
115.3440592496
 11
108.614129914
 21
115.4257141682
  0
LINE
  5
25B
100
AcDbEntity
  8
0
100
AcDbLine
 62
7
  6
CONTINUOUS
 10
108.8262619483
 20
115.5481965462
 11
108.9676833045
 21
115.6298514649
  0
LINE
  5
25C
100
AcDbEntity
  8
0
100
AcDbLine
 62
7
  6
CONTINUOUS
 10
109.0737493217
 20
115.5686221124
 11
107.1290280063
 21
114.4457643979
  0
LINE
  5
25D
100
AcDbEntity
  8
0
100
AcDbLine
 62
7
  6
CONTINUOUS
 10
110.6050488962
 20
116.1782950147
 11
109.4252006249
 21
115.5654801683
  0
LINE
  5
25E
100
AcDbEntity
  8
0
100
AcDbLine
 62
7
  6
CONTINUOUS
 10
105.1862381636
 20
118.0130039668
 11
106.4965924193
 21
118.5504662934
  0
LWPOLYLINE
  5
25F
100
AcDbEntity
  8
0
100
AcDbPolyline
 62
250
  6
CONTINUOUS
 90
6
 70
0
 10
124.5704720599
 20
105.3131093734
 10
124.5745431241
 20
105.3028609662
 10
124.5769093464
 20
105.2939237319
 10
124.5773429887
 20
105.286570958
 10
124.5756263425
 20
105.2810849027
 10
124.5743962729
 20
105.2795735458
  0
LINE
  5
260
100
AcDbEntity
  8
0
100
AcDbLine
 62
250
  6
CONTINUOUS
 10
124.5704720599
 20
105.3131093734
 11
124.9064170249
 21
105.6398629632
  0
LINE
  5
261
100
AcDbEntity
  8
0
100
AcDbLine
 62
7
  6
CONTINUOUS
 10
124.5743968062
 20
105.2795740645
 11
125.0033812982
 21
105.6968216417
  0
LWPOLYLINE
  5
262
100
AcDbEntity
  8
0
100
AcDbPolyline
 62
250
  6
CONTINUOUS
 90
3
 70
0
 10
124.5157824399
 20
105.235110088
 10
124.5393398568
 20
105.2539644383
 10
124.5578329123
 20
105.2802745203
  0
LINE
  5
263
100
AcDbEntity
  8
0
100
AcDbLine
 62
7
  6
CONTINUOUS
 10
118.9456774289
 20
107.6229791187
 11
122.3359731853
 21
109.3530714878
  0
LINE
  5
264
100
AcDbEntity
  8
0
100
AcDbLine
 62
7
  6
CONTINUOUS
 10
203.1543065586
 20
55.3275401562
 11
93.3406234403
 21
118.7325845
  0
LINE
  5
265
100
AcDbEntity
  8
0
100
AcDbLine
 62
7
  6
CONTINUOUS
 10
203.5078599492
 20
55.9399125912
 11
93.6941768309
 21
119.344956935
  0
LINE
  5
266
100
AcDbEntity
  8
RACCORDO
100
AcDbLine
 62
7
  6
CONTINUOUS
 10
96.1690505651
 20
120.7739180117
 11
204.3563880866
 21
58.3079052325
  0
LINE
  5
267
100
AcDbEntity
  8
0
100
AcDbLine
 62
7
  6
CONTINUOUS
 10
202.5179104555
 20
59.4104399637
 11
198.628823159
 21
61.655950227
  0
LINE
  5
268
100
AcDbEntity
  8
0
100
AcDbLine
 62
7
  6
CONTINUOUS
 10
107.0584949953
 20
114.5275100629
 11
103.1694076988
 21
116.7730203262
  0
LINE
  5
269
100
AcDbEntity
  8
0
100
AcDbLine
 62
7
  6
CONTINUOUS
 10
202.6593318118
 20
59.4920948823
 11
202.7653978289
 21
59.4308655298
  0
LINE
  5
26A
100
AcDbEntity
  8
0
100
AcDbLine
 62
7
  6
CONTINUOUS
 10
202.6593318118
 20
59.4920948823
 11
198.7702445152
 21
61.7376051456
  0
LINE
  5
26B
100
AcDbEntity
  8
0
100
AcDbLine
 62
7
  6
CONTINUOUS
 10
103.3108290551
 20
116.8546752449
 11
107.3059823688
 21
114.5479356291
  0
LINE
  5
26C
100
AcDbEntity
  8
0
100
AcDbLine
 62
7
  6
CONTINUOUS
 10
202.8714638461
 20
59.6145772603
 11
198.9823765496
 21
61.8600875236
  0
LINE
  5
26D
100
AcDbEntity
  8
0
100
AcDbLine
 62
7
  6
CONTINUOUS
 10
107.4120483859
 20
114.7316473596
 11
103.5229610894
 21
116.9771576229
  0
LINE
  5
26E
100
AcDbEntity
  8
0
100
AcDbLine
 62
7
  6
CONTINUOUS
 10
203.0128852024
 20
59.696232179
 11
203.1189512195
 21
59.6350028265
  0
LINE
  5
26F
100
AcDbEntity
  8
0
100
AcDbLine
 62
7
  6
CONTINUOUS
 10
203.0128852024
 20
59.696232179
 11
199.1237979058
 21
61.9417424423
  0
LINE
  5
270
100
AcDbEntity
  8
0
100
AcDbLine
 62
7
  6
CONTINUOUS
 10
103.6643824456
 20
117.0588125415
 11
107.6595357594
 21
114.7520729257
  0
LINE
  5
271
100
AcDbEntity
  8
0
100
AcDbLine
 62
7
  6
CONTINUOUS
 10
203.2250172367
 20
59.818714557
 11
199.3359299402
 21
62.0642248203
  0
LINE
  5
272
100
AcDbEntity
  8
0
100
AcDbLine
 62
7
  6
CONTINUOUS
 10
107.7656017765
 20
114.9357846562
 11
103.87651448
 21
117.1812949195
  0
LINE
  5
273
100
AcDbEntity
  8
0
100
AcDbLine
 62
7
  6
CONTINUOUS
 10
203.366438593
 20
59.9003694757
 11
203.4725046101
 21
59.8391401231
  0
LINE
  5
274
100
AcDbEntity
  8
0
100
AcDbLine
 62
7
  6
CONTINUOUS
 10
203.366438593
 20
59.9003694757
 11
199.4773512964
 21
62.145879739
  0
LINE
  5
275
100
AcDbEntity
  8
0
100
AcDbLine
 62
7
  6
CONTINUOUS
 10
104.0179358362
 20
117.2629498382
 11
108.0130891499
 21
114.9562102224
  0
LINE
  5
276
100
AcDbEntity
  8
0
100
AcDbLine
 62
7
  6
CONTINUOUS
 10
203.5785706273
 20
60.0228518537
 11
199.6894833308
 21
62.268362117
  0
LINE
  5
277
100
AcDbEntity
  8
0
100
AcDbLine
 62
7
  6
CONTINUOUS
 10
108.1191551671
 20
115.1399219529
 11
104.2300678706
 21
117.3854322162
  0
LINE
  5
278
100
AcDbEntity
  8
0
100
AcDbLine
 62
7
  6
CONTINUOUS
 10
203.7199919835
 20
60.1045067723
 11
203.8260580007
 21
60.0432774198
  0
LINE
  5
279
100
AcDbEntity
  8
0
100
AcDbLine
 62
7
  6
CONTINUOUS
 10
203.7199919835
 20
60.1045067723
 11
199.830904687
 21
62.3500170356
  0
LINE
  5
27A
100
AcDbEntity
  8
0
100
AcDbLine
 62
7
  6
CONTINUOUS
 10
104.3714892268
 20
117.4670871349
 11
108.3666425405
 21
115.1603475191
  0
LINE
  5
27B
100
AcDbEntity
  8
0
100
AcDbLine
 62
7
  6
CONTINUOUS
 10
203.9321240179
 20
60.2269891503
 11
200.0430367214
 21
62.4724994136
  0
LINE
  5
27C
100
AcDbEntity
  8
0
100
AcDbLine
 62
7
  6
CONTINUOUS
 10
108.4727085577
 20
115.3440592496
 11
104.5836212612
 21
117.5895695129
  0
LINE
  5
27D
100
AcDbEntity
  8
0
100
AcDbLine
 62
7
  6
CONTINUOUS
 10
204.0735453741
 20
60.308644069
 11
204.1796113913
 21
60.2474147165
  0
LINE
  5
27E
100
AcDbEntity
  8
0
100
AcDbLine
 62
7
  6
CONTINUOUS
 10
204.0735453741
 20
60.308644069
 11
200.1844580776
 21
62.5541543323
  0
LINE
  5
27F
100
AcDbEntity
  8
0
100
AcDbLine
 62
7
  6
CONTINUOUS
 10
104.7250426174
 20
117.6712244315
 11
108.7201959311
 21
115.3644848157
  0
LWPOLYLINE
  5
280
100
AcDbEntity
  8
0
100
AcDbPolyline
 62
7
  6
CONTINUOUS
 90
31
 70
0
 10
93.3406234403
 20
118.7325845
 10
93.2774313891
 20
118.7710156038
 10
93.2147525153
 20
118.8129011607
 10
93.1525868188
 20
118.8582411709
 10
93.0907667506
 20
118.9071786534
 10
93.0294598599
 20
118.9595705891
 10
92.9691687934
 20
119.0149879205
 10
92.9099019517
 20
119.0734555968
 10
92.8516509342
 20
119.1349486688
 10
92.7948931862
 20
119.1989632311
 10
92.7396410809
 20
119.2655199875
 10
92.685882245
 20
119.3345982342
 10
92.6340570039
 20
119.4056319545
 10
92.5841814798
 20
119.4786368308
 10
92.5362395505
 20
119.5535971807
 10
92.4906231749
 20
119.6298999394
 10
92.4473513733
 20
119.7075560657
 10
92.4064051254
 20
119.7865546009
 10
92.3681193283
 20
119.8662496039
 10
92.332515645
 20
119.9466470926
 10
92.2995724126
 20
120.027741049
 10
92.2695595401
 20
120.1088674789
 10
92.2425010626
 20
120.1900269978
 10
92.2183729449
 20
120.2712189902
 10
92.1973729908
 20
120.3517776146
 10
92.1795270751
 20
120.4316974491
 10
92.164809323
 20
120.5109839157
 10
92.1533399128
 20
120.5889874395
 10
92.145158904
 20
120.6654914955
 10
92.1402262372
 20
120.7407126087
 10
92.1385419123
 20
120.8146507792
  0
LWPOLYLINE
  5
281
100
AcDbEntity
  8
0
100
AcDbPolyline
 62
7
  6
CONTINUOUS
 90
28
 70
0
 10
93.6941768309
 20
119.344956935
 10
93.6448464523
 20
119.3750968031
 10
93.5956812599
 20
119.4084501678
 10
93.546847602
 20
119.444904522
 10
93.4985104374
 20
119.4843370997
 10
93.4508336744
 20
119.526614567
 10
93.4039795714
 20
119.5715932993
 10
93.3581068188
 20
119.6191211112
 10
93.3133705863
 20
119.6690373916
 10
93.2699228161
 20
119.7211727146
 10
93.2279106455
 20
119.7753505561
 10
93.1874761642
 20
119.8313877167
 10
93.1487564102
 20
119.8890942996
 10
93.1118824733
 20
119.9482749123
 10
93.0769790608
 20
120.0087293853
 10
93.0441642664
 20
120.0702531673
 10
93.0135491019
 20
120.1326381294
 10
92.9852372059
 20
120.195673091
 10
92.9593244545
 20
120.2591445604
 10
92.9358984365
 20
120.3228379702
 10
92.9150384977
 20
120.3865375584
 10
92.8968154293
 20
120.4500269226
 10
92.8812907539
 20
120.5130912862
 10
92.8685168844
 20
120.5755172313
 10
92.8585370409
 20
120.6370926106
 10
92.8513847494
 20
120.6976088665
 10
92.8470838753
 20
120.756861696
 10
92.8456486935
 20
120.8146507792
  0
LINE
  5
282
100
AcDbEntity
  8
0
100
AcDbLine
 62
250
  6
CONTINUOUS
 10
142.361355926
 20
97.7906664703
 11
142.361355926
 21
97.3612686583
  0
LINE
  5
283
100
AcDbEntity
  8
0
100
AcDbLine
 62
7
  6
CONTINUOUS
 10
142.4384124784
 20
97.9051711406
 11
142.4384124784
 21
97.4070866005
  0
LINE
  5
284
100
AcDbEntity
  8
0
100
AcDbLine
 62
7
  6
CONTINUOUS
 10
126.4514533493
 20
106.9768448202
 11
123.3988173389
 21
105.0517919456
  0
LINE
  5
285
100
AcDbEntity
  8
0
100
AcDbLine
 62
7
  6
CONTINUOUS
 10
123.6542434345
 20
104.9043121193
 11
126.4514533493
 21
106.5474470082
  0
LINE
  5
286
100
AcDbEntity
  8
0
100
AcDbLine
 62
7
  6
CONTINUOUS
 10
124.5157824728
 20
105.2351101071
 11
123.8003200022
 21
104.8199693398
  0
LINE
  5
287
100
AcDbEntity
  8
0
100
AcDbLine
 62
250
  6
CONTINUOUS
 10
124.5704720599
 20
105.3131093734
 11
123.7600869054
 21
104.8431994257
  0
LINE
  5
288
100
AcDbEntity
  8
0
100
AcDbLine
 62
7
  6
CONTINUOUS
 10
204.2856774085
 20
60.431126447
 11
200.396590112
 21
62.6766367103
  0
LINE
  5
289
100
AcDbEntity
  8
0
100
AcDbLine
 62
7
  6
CONTINUOUS
 10
108.8262619483
 20
115.5481965462
 11
104.9371746518
 21
117.7937068095
  0
LINE
  5
28A
100
AcDbEntity
  8
0
100
AcDbLine
 62
7
  6
CONTINUOUS
 10
204.3563880866
 20
60.553608825
 11
200.5380114682
 21
62.758291629
  0
LINE
  5
28B
100
AcDbEntity
  8
0
100
AcDbLine
 62
7
  6
CONTINUOUS
 10
105.078596008
 20
117.8753617282
 11
109.0737493217
 21
115.5686221124
  0
LINE
  5
28C
100
AcDbEntity
  8
0
100
AcDbLine
 62
250
  6
CONTINUOUS
 10
204.3563880866
 20
60.6762046009
 11
200.5716064708
 21
62.8614900714
  0
LINE
  5
28D
100
AcDbEntity
  8
0
100
AcDbLine
 62
250
  6
CONTINUOUS
 10
109.3585282689
 20
115.5267782569
 11
105.1121910106
 21
117.9785601707
  0
LINE
  5
28E
100
AcDbEntity
  8
0
100
AcDbLine
 62
250
  6
CONTINUOUS
 10
204.3563880866
 20
60.7534022951
 11
200.6456536238
 21
62.8959338675
  0
LINE
  5
28F
100
AcDbEntity
  8
0
100
AcDbLine
 62
250
  6
CONTINUOUS
 10
109.4252006249
 20
115.5654801683
 11
105.1862381636
 21
118.0130039668
  0
LINE
  5
290
100
AcDbEntity
  8
0
100
AcDbLine
 62
7
  6
CONTINUOUS
 10
106.7718398968
 20
118.5308299199
 11
110.5978412874
 21
116.3217446681
  0
LINE
  5
291
100
AcDbEntity
  8
0
100
AcDbLine
 62
7
  6
CONTINUOUS
 10
202.231255357
 20
63.4137598207
 11
204.3563880866
 21
62.1867348168
  0
LINE
  5
292
100
AcDbEntity
  8
0
100
AcDbLine
 62
7
  6
CONTINUOUS
 10
122.7488444015
 20
109.3448034165
 11
126.440641936
 21
107.2132057892
  0
LINE
  5
293
100
AcDbEntity
  8
0
100
AcDbLine
 62
7
  6
CONTINUOUS
 10
138.6587469782
 20
100.1586250666
 11
142.3505445127
 21
98.0270274393
  0
LINE
  5
294
100
AcDbEntity
  8
0
100
AcDbLine
 62
7
  6
CONTINUOUS
 10
154.5686495549
 20
90.9724467168
 11
158.2604470894
 21
88.8408490894
  0
LINE
  5
295
100
AcDbEntity
  8
0
100
AcDbLine
 62
7
  6
CONTINUOUS
 10
170.4785521316
 20
81.7862683669
 11
174.1703496661
 21
79.6546707395
  0
LINE
  5
296
100
AcDbEntity
  8
0
100
AcDbLine
 62
7
  6
CONTINUOUS
 10
186.3884547083
 20
72.600090017
 11
190.0802522428
 21
70.4684923897
  0
LWPOLYLINE
  5
297
100
AcDbEntity
  8
0
100
AcDbPolyline
 62
250
  6
CONTINUOUS
 90
6
 70
0
 10
140.4803746366
 20
96.1269310235
 10
140.4844457008
 20
96.1166826163
 10
140.4868119231
 20
96.107745382
 10
140.4872455654
 20
96.1003926081
 10
140.4855289192
 20
96.0949065529
 10
140.4842988496
 20
96.0933951959
  0
LINE
  5
298
100
AcDbEntity
  8
0
100
AcDbLine
 62
250
  6
CONTINUOUS
 10
140.467735489
 20
96.0940961704
 11
140.4803746366
 21
96.1269310235
  0
LINE
  5
299
100
AcDbEntity
  8
0
100
AcDbLine
 62
250
  6
CONTINUOUS
 10
140.4803746366
 20
96.1269310235
 11
140.8163196016
 21
96.4536846133
  0
LINE
  5
29A
100
AcDbEntity
  8
0
100
AcDbLine
 62
7
  6
CONTINUOUS
 10
140.4842993829
 20
96.0933957147
 11
140.9132838749
 21
96.5106432919
  0
LINE
  5
29B
100
AcDbEntity
  8
0
100
AcDbLine
 62
7
  6
CONTINUOUS
 10
134.8555800056
 20
98.4368007688
 11
138.245875762
 21
100.1668931379
  0
LWPOLYLINE
  5
29C
100
AcDbEntity
  8
0
100
AcDbPolyline
 62
250
  6
CONTINUOUS
 90
6
 70
0
 10
156.3902772133
 20
86.9407526736
 10
156.3943482775
 20
86.9305042664
 10
156.3967144998
 20
86.9215670321
 10
156.3971481421
 20
86.9142142582
 10
156.3954314959
 20
86.908728203
 10
156.3942014263
 20
86.907216846
  0
LINE
  5
29D
100
AcDbEntity
  8
0
100
AcDbLine
 62
250
  6
CONTINUOUS
 10
158.2712585027
 20
88.6044881204
 11
158.2712585027
 21
88.1750903085
  0
LINE
  5
29E
100
AcDbEntity
  8
0
100
AcDbLine
 62
7
  6
CONTINUOUS
 10
158.3483150551
 20
88.7189927907
 11
158.3483150551
 21
88.2209082506
  0
LWPOLYLINE
  5
29F
100
AcDbEntity
  8
0
100
AcDbPolyline
 62
250
  6
CONTINUOUS
 90
3
 70
0
 10
140.4256850166
 20
96.0489317382
 10
140.4492424335
 20
96.0677860884
 10
140.467735489
 20
96.0940961704
  0
LINE
  5
2A0
100
AcDbEntity
  8
0
100
AcDbLine
 62
7
  6
CONTINUOUS
 10
142.361355926
 20
97.7906664703
 11
139.3087199156
 21
95.8656135957
  0
LINE
  5
2A1
100
AcDbEntity
  8
0
100
AcDbLine
 62
7
  6
CONTINUOUS
 10
139.5641460111
 20
95.7181337694
 11
142.361355926
 21
97.3612686583
  0
LINE
  5
2A2
100
AcDbEntity
  8
0
100
AcDbLine
 62
7
  6
CONTINUOUS
 10
140.4256850495
 20
96.0489317573
 11
139.7102225789
 21
95.63379099
  0
LINE
  5
2A3
100
AcDbEntity
  8
0
100
AcDbLine
 62
250
  6
CONTINUOUS
 10
140.4803746366
 20
96.1269310235
 11
139.6699894821
 21
95.6570210758
  0
LINE
  5
2A4
100
AcDbEntity
  8
0
100
AcDbLine
 62
250
  6
CONTINUOUS
 10
156.3776380657
 20
86.9079178206
 11
156.3902772133
 21
86.9407526736
  0
LINE
  5
2A5
100
AcDbEntity
  8
0
100
AcDbLine
 62
250
  6
CONTINUOUS
 10
92.1385419123
 20
120.8146507792
 11
92.8456486935
 21
120.8146507792
  0
LINE
  5
2A6
100
AcDbEntity
  8
0
100
AcDbLine
 62
7
  6
CONTINUOUS
 10
93.3406234403
 20
156.4535112878
 11
203.1543065586
 21
93.048466944
  0
LWPOLYLINE
  5
2A7
100
AcDbEntity
  8
0
100
AcDbPolyline
 62
7
  6
CONTINUOUS
 90
31
 70
0
 10
203.1543065586
 20
93.048466944
 10
203.2174986098
 20
93.0100358402
 10
203.2801774837
 20
92.9681502832
 10
203.3423431802
 20
92.9228102731
 10
203.4041632483
 20
92.8738727905
 10
203.465470139
 20
92.8214808548
 10
203.5257612056
 20
92.7660635235
 10
203.5850280473
 20
92.7075958472
 10
203.6432790647
 20
92.6461027752
 10
203.7000368127
 20
92.5820882129
 10
203.7552889181
 20
92.5155314564
 10
203.809047754
 20
92.4464532097
 10
203.860872995
 20
92.3754194895
 10
203.9107485191
 20
92.3024146131
 10
203.9586904484
 20
92.2274542633
 10
204.004306824
 20
92.1511515046
 10
204.0475786256
 20
92.0734953783
 10
204.0885248736
 20
91.9944968431
 10
204.1268106706
 20
91.91480184
 10
204.1624143539
 20
91.8344043514
 10
204.1953575863
 20
91.7533103949
 10
204.2253704588
 20
91.672183965
 10
204.2524289364
 20
91.5910244461
 10
204.276557054
 20
91.5098324538
 10
204.2975570082
 20
91.4292738293
 10
204.3154029238
 20
91.3493539949
 10
204.3301206759
 20
91.2700675283
 10
204.3415900861
 20
91.1920640045
 10
204.3497710949
 20
91.1155599484
 10
204.3547037617
 20
91.0403388352
 10
204.3563880866
 20
90.9664006648
  0
LWPOLYLINE
  5
2A8
100
AcDbEntity
  8
0
100
AcDbPolyline
 62
250
  6
CONTINUOUS
 90
6
 70
0
 10
172.30017979
 20
77.7545743238
 10
172.3042508542
 20
77.7443259166
 10
172.3066170765
 20
77.7353886823
 10
172.3070507188
 20
77.7280359083
 10
172.3053340726
 20
77.7225498531
 10
172.304104003
 20
77.7210384962
  0
LINE
  5
2A9
100
AcDbEntity
  8
0
100
AcDbLine
 62
250
  6
CONTINUOUS
 10
174.1811610794
 20
79.4183097705
 11
174.1811610794
 21
78.9889119586
  0
LINE
  5
2AA
100
AcDbEntity
  8
0
100
AcDbLine
 62
250
  6
CONTINUOUS
 10
156.3902772133
 20
86.9407526736
 11
156.7262221783
 21
87.2675062634
  0
LINE
  5
2AB
100
AcDbEntity
  8
0
100
AcDbLine
 62
7
  6
CONTINUOUS
 10
156.3942019596
 20
86.9072173648
 11
156.8231864516
 21
87.324464942
  0
LWPOLYLINE
  5
2AC
100
AcDbEntity
  8
0
100
AcDbPolyline
 62
250
  6
CONTINUOUS
 90
3
 70
0
 10
156.3355875933
 20
86.8627533883
 10
156.3591450102
 20
86.8816077385
 10
156.3776380657
 20
86.9079178206
  0
LINE
  5
2AD
100
AcDbEntity
  8
0
100
AcDbLine
 62
7
  6
CONTINUOUS
 10
158.2712585027
 20
88.6044881204
 11
155.2186224923
 21
86.6794352458
  0
LINE
  5
2AE
100
AcDbEntity
  8
0
100
AcDbLine
 62
7
  6
CONTINUOUS
 10
155.4740485878
 20
86.5319554195
 11
158.2712585027
 21
88.1750903085
  0
LINE
  5
2AF
100
AcDbEntity
  8
0
100
AcDbLine
 62
7
  6
CONTINUOUS
 10
156.3355876262
 20
86.8627534074
 11
155.6201251556
 21
86.4476126401
  0
LINE
  5
2B0
100
AcDbEntity
  8
0
100
AcDbLine
 62
250
  6
CONTINUOUS
 10
156.3902772133
 20
86.9407526736
 11
155.5798920588
 21
86.4708427259
  0
LINE
  5
2B1
100
AcDbEntity
  8
0
100
AcDbLine
 62
7
  6
CONTINUOUS
 10
150.7654825823
 20
89.2506224189
 11
154.1557783386
 21
90.9807147881
  0
LINE
  5
2B2
100
AcDbEntity
  8
0
100
AcDbLine
 62
250
  6
CONTINUOUS
 10
227.0094472716
 20
102.3407796049
 11
227.8594884046
 21
102.0949056565
  0
LWPOLYLINE
  5
2B3
100
AcDbEntity
  8
0
100
AcDbPolyline
 62
250
  6
CONTINUOUS
 90
6
 70
0
 10
188.2100823667
 20
68.5683959739
 10
188.2141534309
 20
68.5581475667
 10
188.2165196532
 20
68.5492103324
 10
188.2169532955
 20
68.5418575585
 10
188.2152366493
 20
68.5363715032
 10
188.2140065797
 20
68.5348601463
  0
LINE
  5
2B4
100
AcDbEntity
  8
0
100
AcDbLine
 62
7
  6
CONTINUOUS
 10
174.2582176318
 20
79.5328144409
 11
174.2582176318
 21
79.0347299008
  0
LINE
  5
2B5
100
AcDbEntity
  8
0
100
AcDbLine
 62
250
  6
CONTINUOUS
 10
172.2875406424
 20
77.7217394707
 11
172.30017979
 21
77.7545743238
  0
LINE
  5
2B6
100
AcDbEntity
  8
SMUSSO
100
AcDbLine
 62
7
  6
CONTINUOUS
 10
222.493677024
 20
98.9463856014
 11
74.0012529749
 21
184.6840502003
  0
LINE
  5
2B7
100
AcDbEntity
  8
SMUSSO
100
AcDbLine
 62
7
  6
CONTINUOUS
 10
223.2007838052
 20
99.3546207398
 11
223.9078905864
 21
98.9463856014
  0
LINE
  5
2B8
100
AcDbEntity
  8
SMUSSO
100
AcDbLine
 62
7
  6
CONTINUOUS
 10
223.2007838052
 20
100.1711304716
 11
74.7083597561
 21
185.9087950704
  0
LWPOLYLINE
  5
2B9
100
AcDbEntity
  8
0
100
AcDbPolyline
 62
250
  6
CONTINUOUS
 90
11
 70
0
 10
204.1199849434
 20
59.382217624
 10
204.1219517859
 20
59.3776374496
 10
204.123613912
 20
59.3732903781
 10
204.1249567463
 20
59.3691941219
 10
204.1259593089
 20
59.3653902952
 10
204.1266189186
 20
59.3618685363
 10
204.1269273834
 20
59.3585890346
 10
204.1268493306
 20
59.3555849636
 10
204.1263462756
 20
59.3529057753
 10
204.1253695146
 20
59.3505721276
 10
204.1239096124
 20
59.34868224
  0
LINE
  5
2BA
100
AcDbEntity
  8
0
100
AcDbLine
 62
250
  6
CONTINUOUS
 10
172.30017979
 20
77.7545743238
 11
172.636124755
 21
78.0813279135
  0
LINE
  5
2BB
100
AcDbEntity
  8
0
100
AcDbLine
 62
7
  6
CONTINUOUS
 10
172.3041045363
 20
77.7210390149
 11
172.7330890283
 21
78.1382865921
  0
LWPOLYLINE
  5
2BC
100
AcDbEntity
  8
0
100
AcDbPolyline
 62
250
  6
CONTINUOUS
 90
3
 70
0
 10
172.24549017
 20
77.6765750384
 10
172.2690475869
 20
77.6954293887
 10
172.2875406424
 20
77.7217394707
  0
LINE
  5
2BD
100
AcDbEntity
  8
0
100
AcDbLine
 62
7
  6
CONTINUOUS
 10
174.1811610794
 20
79.4183097705
 11
171.128525069
 21
77.493256896
  0
LINE
  5
2BE
100
AcDbEntity
  8
0
100
AcDbLine
 62
7
  6
CONTINUOUS
 10
171.3839511645
 20
77.3457770696
 11
174.1811610794
 21
78.9889119586
  0
LINE
  5
2BF
100
AcDbEntity
  8
0
100
AcDbLine
 62
7
  6
CONTINUOUS
 10
172.2454902029
 20
77.6765750575
 11
171.5300277323
 21
77.2614342902
  0
LINE
  5
2C0
100
AcDbEntity
  8
0
100
AcDbLine
 62
250
  6
CONTINUOUS
 10
172.30017979
 20
77.7545743238
 11
171.4897946355
 21
77.284664376
  0
LINE
  5
2C1
100
AcDbEntity
  8
0
100
AcDbLine
 62
7
  6
CONTINUOUS
 10
166.675385159
 20
80.0644440691
 11
170.0656809153
 21
81.7945364382
  0
LWPOLYLINE
  5
2C2
100
AcDbEntity
  8
0
100
AcDbPolyline
 62
7
  6
CONTINUOUS
 90
4
 70
0
 10
79.4568162606
 20
187.5358194819
 10
79.4146990254
 20
187.5589626935
 10
79.3727157817
 20
187.5786966822
 10
79.3528237914
 20
187.5868721075
  0
LINE
  5
2C3
100
AcDbEntity
  8
SMUSSO
100
AcDbLine
 62
7
  6
CONTINUOUS
 10
76.476126709
 20
186.9294815537
 11
225.6756575394
 21
100.7835818165
  0
LINE
  5
2C4
100
AcDbEntity
  8
0
100
AcDbLine
 62
7
  6
CONTINUOUS
 10
79.4812228333
 20
187.5215971331
 11
226.9839127804
 21
102.3553926006
  0
LINE
  5
2C5
100
AcDbEntity
  8
0
100
AcDbLine
 62
7
  6
CONTINUOUS
 10
80.7269675526
 20
187.0473791929
 11
227.8594884046
 21
102.0949056565
  0
LINE
  5
2C6
100
AcDbEntity
  8
0
100
AcDbLine
 62
250
  6
CONTINUOUS
 10
190.0910636561
 20
70.2321314207
 11
190.0910636561
 21
69.8027336087
  0
LINE
  5
2C7
100
AcDbEntity
  8
0
100
AcDbLine
 62
7
  6
CONTINUOUS
 10
190.1681202085
 20
70.346636091
 11
190.1681202085
 21
69.8485515509
  0
LINE
  5
2C8
100
AcDbEntity
  8
SMUSSO
100
AcDbLine
 62
7
  6
CONTINUOUS
 10
223.2007838052
 20
100.1711304716
 11
224.9685507582
 21
101.1918169549
  0
LINE
  5
2C9
100
AcDbEntity
  8
0
100
AcDbLine
 62
250
  6
CONTINUOUS
 10
224.9690966398
 20
101.1920590182
 11
226.9839127804
 21
102.3553926006
  0
LINE
  5
2CA
100
AcDbEntity
  8
SMUSSO
100
AcDbLine
 62
7
  6
CONTINUOUS
 10
223.2007838052
 20
99.3546207398
 11
222.493677024
 21
98.9463856014
  0
LINE
  5
2CB
100
AcDbEntity
  8
0
100
AcDbLine
 62
250
  6
CONTINUOUS
 10
225.6760957252
 20
99.9675006826
 11
227.6909118658
 21
101.130834265
  0
LINE
  5
2CC
100
AcDbEntity
  8
SMUSSO
100
AcDbLine
 62
7
  6
CONTINUOUS
 10
223.9078905864
 20
98.9463856014
 11
225.6756575394
 21
99.9670720848
  0
LINE
  5
2CD
100
AcDbEntity
  8
0
100
AcDbLine
 62
250
  6
CONTINUOUS
 10
188.1974432191
 20
68.5355611208
 11
188.2100823667
 21
68.5683959739
  0
LINE
  5
2CE
100
AcDbEntity
  8
0
100
AcDbLine
 62
7
  6
CONTINUOUS
 10
190.0910636561
 20
70.2321314207
 11
187.0384276457
 21
68.3070785461
  0
LINE
  5
2CF
100
AcDbEntity
  8
0
100
AcDbLine
 62
7
  6
CONTINUOUS
 10
187.2938537412
 20
68.1595987198
 11
190.0910636561
 21
69.8027336087
  0
LINE
  5
2D0
100
AcDbEntity
  8
0
100
AcDbLine
 62
7
  6
CONTINUOUS
 10
188.1553927796
 20
68.4903967076
 11
187.439930309
 21
68.0752559403
  0
LINE
  5
2D1
100
AcDbEntity
  8
0
100
AcDbLine
 62
250
  6
CONTINUOUS
 10
188.2100823667
 20
68.5683959739
 11
187.3996972122
 21
68.0984860262
  0
LINE
  5
2D2
100
AcDbEntity
  8
0
100
AcDbLine
 62
7
  6
CONTINUOUS
 10
182.5852877357
 20
70.8782657192
 11
185.975583492
 21
72.6083580883
  0
LINE
  5
2D3
100
AcDbEntity
  8
0
100
AcDbLine
 62
250
  6
CONTINUOUS
 10
92.1385419123
 20
155.7595786259
 11
92.8456486935
 21
155.7595786259
  0
LWPOLYLINE
  5
2D4
100
AcDbEntity
  8
0
100
AcDbPolyline
 62
7
  6
CONTINUOUS
 90
11
 70
0
 10
79.3528237914
 20
187.5868721075
 10
79.3310350634
 20
187.5949477245
 10
79.2898321275
 20
187.6076599445
 10
79.2492633402
 20
187.6167823762
 10
79.2094655549
 20
187.622269051
 10
79.170594296
 20
187.6240994324
 10
79.1328064969
 20
187.6222704825
 10
79.0962351047
 20
187.6167830103
 10
79.0610211182
 20
187.6076580873
 10
79.0273063142
 20
187.594934286
 10
79.0039838627
 20
187.583545404
  0
LINE
  5
2D5
100
AcDbEntity
  8
0
100
AcDbLine
 62
250
  6
CONTINUOUS
 10
79.4568162606
 20
187.5358194819
 11
80.7269675526
 21
187.0473791929
  0
LINE
  5
2D6
100
AcDbEntity
  8
0
100
AcDbLine
 62
7
  6
CONTINUOUS
 10
80.7199417793
 20
187.0507903138
 11
79.3528161352
 21
187.5868681466
  0
LINE
  5
2D7
100
AcDbEntity
  8
0
100
AcDbLine
 62
7
  6
CONTINUOUS
 10
204.3563880866
 20
90.9664006648
 11
204.3563880866
 21
56.0214728181
  0
LWPOLYLINE
  5
2D8
100
AcDbEntity
  8
0
100
AcDbPolyline
 62
7
  6
CONTINUOUS
 90
31
 70
0
 10
204.3563880866
 20
56.0214728181
 10
204.3547037815
 20
55.9494797699
 10
204.3497711222
 20
55.8799548278
 10
204.341590109
 20
55.8128979916
 10
204.3301206619
 20
55.7481389403
 10
204.3154028609
 20
55.6858479951
 10
204.2975569447
 20
55.6265361192
 10
204.2765571052
 20
55.570227914
 10
204.2524291507
 20
55.5168987783
 10
204.2253707442
 20
55.4669858722
 10
204.195357768
 20
55.4205174081
 10
204.16241434
 20
55.3774651737
 10
204.1268104768
 20
55.3381816922
 10
204.0885245346
 20
55.3026980762
 10
204.0475781573
 20
55.2709832132
 10
204.0043062932
 20
55.2432962886
 10
203.9586899402
 20
55.2196702362
 10
203.9107481004
 20
55.2000721223
 10
203.8608727283
 20
55.1846623308
 10
203.8090477797
 20
55.1734751387
 10
203.7552892989
 20
55.1664762691
 10
203.7000373728
 20
55.1637232752
 10
203.6432794496
 20
55.1652511567
 10
203.5850280812
 20
55.1710249139
 10
203.5257610101
 20
55.1809971007
 10
203.4654699936
 20
55.1952023535
 10
203.4041632745
 20
55.213606036
 10
203.3423433243
 20
55.236056793
 10
203.2801776335
 20
55.2625041728
 10
203.2174987116
 20
55.2929986272
 10
203.1543065586
 20
55.3275401562
  0
LWPOLYLINE
  5
2D9
100
AcDbEntity
  8
0
100
AcDbPolyline
 62
7
  6
CONTINUOUS
 90
15
 70
0
 10
204.3563880866
 20
56.4297474114
 10
204.3549529274
 20
56.3736160747
 10
204.3506521077
 20
56.3193300688
 10
204.3434998826
 20
56.2670732395
 10
204.3335200866
 20
56.2170222968
 10
204.3207462316
 20
56.1693471502
 10
204.3052215676
 20
56.1242101816
 10
204.2869985421
 20
56.0817643425
 10
204.2661386605
 20
56.0421532891
 10
204.2427126765
 20
56.0055116112
 10
204.2167998933
 20
55.9719634144
 10
204.1884879198
 20
55.9416221799
 10
204.1578726911
 20
55.9145907488
 10
204.1250578762
 20
55.8909606286
 10
204.1078889414
 20
55.880463178
  0
LINE
  5
2DA
100
AcDbEntity
  8
0
100
AcDbLine
 62
250
  6
CONTINUOUS
 10
188.2100823667
 20
68.5683959739
 11
188.5460273317
 21
68.8951495637
  0
LINE
  5
2DB
100
AcDbEntity
  8
0
100
AcDbLine
 62
7
  6
CONTINUOUS
 10
188.214007113
 20
68.534860665
 11
188.642991605
 21
68.9521082422
  0
LWPOLYLINE
  5
2DC
100
AcDbEntity
  8
0
100
AcDbPolyline
 62
250
  6
CONTINUOUS
 90
3
 70
0
 10
188.1553927467
 20
68.4903966885
 10
188.1789501636
 20
68.5092510388
 10
188.1974432191
 20
68.5355611208
  0
LINE
  5
2DD
100
AcDbEntity
  8
0
100
AcDbLine
 62
7
  6
CONTINUOUS
 10
200.6456536238
 20
62.8959338675
 11
201.9560078795
 21
63.4333961942
  0
LINE
  5
2DE
100
AcDbEntity
  8
0
100
AcDbLine
 62
250
  6
CONTINUOUS
 10
204.1150071078
 20
59.3665551237
 11
204.1199849434
 21
59.382217624
  0
LINE
  5
2DF
100
AcDbEntity
  8
0
100
AcDbLine
 62
7
  6
CONTINUOUS
 10
198.6110609226
 20
61.6251851312
 11
198.628823159
 21
61.655950227
  0
LINE
  5
2E0
100
AcDbEntity
  8
0
100
AcDbLine
 62
7
  6
CONTINUOUS
 10
198.8763105324
 20
61.6763757931
 11
198.9823765496
 21
61.8600875236
  0
LINE
  5
2E1
100
AcDbEntity
  8
0
100
AcDbLine
 62
7
  6
CONTINUOUS
 10
199.229863923
 20
61.8805130898
 11
199.3359299402
 21
62.0642248203
  0
LINE
  5
2E2
100
AcDbEntity
  8
0
100
AcDbLine
 62
7
  6
CONTINUOUS
 10
199.5834173136
 20
62.0846503864
 11
199.6894833308
 21
62.268362117
  0
LINE
  5
2E3
100
AcDbEntity
  8
0
100
AcDbLine
 62
7
  6
CONTINUOUS
 10
199.9369707042
 20
62.2887876831
 11
200.0430367214
 21
62.4724994136
  0
LINE
  5
2E4
100
AcDbEntity
  8
0
100
AcDbLine
 62
7
  6
CONTINUOUS
 10
200.2905240948
 20
62.4929249798
 11
200.396590112
 21
62.6766367103
  0
LINE
  5
2E5
100
AcDbEntity
  8
0
100
AcDbLine
 62
7
  6
CONTINUOUS
 10
198.628823159
 20
61.655950227
 11
198.7702445152
 21
61.7376051456
  0
LINE
  5
2E6
100
AcDbEntity
  8
0
100
AcDbLine
 62
7
  6
CONTINUOUS
 10
198.9823765496
 20
61.8600875236
 11
199.1237979058
 21
61.9417424423
  0
LINE
  5
2E7
100
AcDbEntity
  8
0
100
AcDbLine
 62
7
  6
CONTINUOUS
 10
199.3359299402
 20
62.0642248203
 11
199.4773512964
 21
62.145879739
  0
LINE
  5
2E8
100
AcDbEntity
  8
0
100
AcDbLine
 62
7
  6
CONTINUOUS
 10
199.6894833308
 20
62.268362117
 11
199.830904687
 21
62.3500170356
  0
LINE
  5
2E9
100
AcDbEntity
  8
0
100
AcDbLine
 62
7
  6
CONTINUOUS
 10
200.0430367214
 20
62.4724994136
 11
200.1844580776
 21
62.5541543323
  0
LINE
  5
2EA
100
AcDbEntity
  8
0
100
AcDbLine
 62
7
  6
CONTINUOUS
 10
200.396590112
 20
62.6766367103
 11
200.5380114682
 21
62.758291629
  0
LINE
  5
2EB
100
AcDbEntity
  8
0
100
AcDbLine
 62
7
  6
CONTINUOUS
 10
202.5179104555
 20
59.4104399637
 11
202.6593318118
 21
59.4920948823
  0
LINE
  5
2EC
100
AcDbEntity
  8
0
100
AcDbLine
 62
7
  6
CONTINUOUS
 10
202.8714638461
 20
59.6145772603
 11
203.0128852024
 21
59.696232179
  0
LINE
  5
2ED
100
AcDbEntity
  8
0
100
AcDbLine
 62
7
  6
CONTINUOUS
 10
203.2250172367
 20
59.818714557
 11
203.366438593
 21
59.9003694757
  0
LINE
  5
2EE
100
AcDbEntity
  8
0
100
AcDbLine
 62
7
  6
CONTINUOUS
 10
203.5785706273
 20
60.0228518537
 11
203.7199919835
 21
60.1045067723
  0
LINE
  5
2EF
100
AcDbEntity
  8
0
100
AcDbLine
 62
7
  6
CONTINUOUS
 10
203.9321240179
 20
60.2269891503
 11
204.0735453741
 21
60.308644069
  0
LINE
  5
2F0
100
AcDbEntity
  8
0
100
AcDbLine
 62
7
  6
CONTINUOUS
 10
204.2856774085
 20
60.431126447
 11
204.3563880866
 21
60.4719539063
  0
LINE
  5
2F1
100
AcDbEntity
  8
0
100
AcDbLine
 62
7
  6
CONTINUOUS
 10
204.3563880866
 20
60.3494833648
 11
202.5884434664
 21
59.3286942987
  0
LINE
  5
2F2
100
AcDbEntity
  8
0
100
AcDbLine
 62
7
  6
CONTINUOUS
 10
198.4132493699
 20
61.7393990425
 11
200.5716064708
 21
62.8614900714
  0
LINE
  5
2F3
100
AcDbEntity
  8
SMUSSO
100
AcDbLine
 62
7
  6
CONTINUOUS
 10
222.493677024
 20
27.0970012437
 11
222.493677024
 21
98.9463856014
  0
LINE
  5
2F4
100
AcDbEntity
  8
SMUSSO
100
AcDbLine
 62
7
  6
CONTINUOUS
 10
223.2007838052
 20
100.1711304716
 11
223.2007838052
 21
99.3546207398
  0
LINE
  5
2F5
100
AcDbEntity
  8
SMUSSO
100
AcDbLine
 62
7
  6
CONTINUOUS
 10
223.9078905864
 20
27.0970012437
 11
223.9078905864
 21
98.9463856014
  0
LINE
  5
2F6
100
AcDbEntity
  8
SMUSSO
100
AcDbLine
 62
7
  6
CONTINUOUS
 10
225.6756575394
 20
28.117687727
 11
225.6756575394
 21
100.7835818165
  0
LINE
  5
2F7
100
AcDbEntity
  8
0
100
AcDbLine
 62
7
  6
CONTINUOUS
 10
202.5001482192
 20
59.3796748678
 11
202.5179104555
 21
59.4104399637
  0
LINE
  5
2F8
100
AcDbEntity
  8
0
100
AcDbLine
 62
7
  6
CONTINUOUS
 10
202.7653978289
 20
59.4308655298
 11
202.8714638461
 21
59.6145772603
  0
LINE
  5
2F9
100
AcDbEntity
  8
0
100
AcDbLine
 62
7
  6
CONTINUOUS
 10
203.1189512195
 20
59.6350028265
 11
203.2250172367
 21
59.818714557
  0
LINE
  5
2FA
100
AcDbEntity
  8
0
100
AcDbLine
 62
7
  6
CONTINUOUS
 10
203.4725046101
 20
59.8391401231
 11
203.5785706273
 21
60.0228518537
  0
LINE
  5
2FB
100
AcDbEntity
  8
0
100
AcDbLine
 62
7
  6
CONTINUOUS
 10
203.8260580007
 20
60.0432774198
 11
203.9321240179
 21
60.2269891503
  0
LINE
  5
2FC
100
AcDbEntity
  8
0
100
AcDbLine
 62
7
  6
CONTINUOUS
 10
204.1796113913
 20
60.2474147165
 11
204.2856774085
 21
60.431126447
  0
LINE
  5
2FD
100
AcDbEntity
  8
0
100
AcDbLine
 62
250
  6
CONTINUOUS
 10
203.1543065586
 20
55.3275401562
 11
203.5078599492
 21
55.9399125912
  0
LINE
  5
2FE
100
AcDbEntity
  8
0
100
AcDbLine
 62
250
  6
CONTINUOUS
 10
204.1199849434
 20
59.382217624
 11
204.3563880866
 21
59.6121528329
  0
LINE
  5
2FF
100
AcDbEntity
  8
0
100
AcDbLine
 62
7
  6
CONTINUOUS
 10
204.1239098381
 20
59.3486824595
 11
204.3563880866
 21
59.5748001578
  0
LWPOLYLINE
  5
300
100
AcDbEntity
  8
0
100
AcDbPolyline
 62
250
  6
CONTINUOUS
 90
6
 70
0
 10
204.0720672124
 20
59.3085190835
 10
204.0828899246
 20
59.3171614308
 10
204.0926566045
 20
59.3273570426
 10
204.1013006275
 20
59.3390387149
 10
204.1087658893
 20
59.3521318803
 10
204.1150071078
 20
59.3665551237
  0
LINE
  5
301
100
AcDbEntity
  8
0
100
AcDbLine
 62
7
  6
CONTINUOUS
 10
204.3563880866
 20
60.1137338725
 11
202.8745502664
 21
59.1634998181
  0
LINE
  5
302
100
AcDbEntity
  8
0
100
AcDbLine
 62
250
  6
CONTINUOUS
 10
204.0652955445
 20
59.304218467
 11
204.0720672124
 21
59.3085190835
  0
LINE
  5
303
100
AcDbEntity
  8
0
100
AcDbLine
 62
7
  6
CONTINUOUS
 10
203.2037563179
 20
58.9734203699
 11
204.3563880866
 21
59.6504984337
  0
LINE
  5
304
100
AcDbEntity
  8
0
100
AcDbLine
 62
7
  6
CONTINUOUS
 10
204.0652954883
 20
59.3042184344
 11
203.3498328857
 21
58.8890775905
  0
LINE
  5
305
100
AcDbEntity
  8
0
100
AcDbLine
 62
250
  6
CONTINUOUS
 10
204.1199849434
 20
59.382217624
 11
203.3095997889
 21
58.9123076763
  0
LINE
  5
306
100
AcDbEntity
  8
0
100
AcDbLine
 62
250
  6
CONTINUOUS
 10
203.5078599492
 20
55.9399125912
 11
204.3563880866
 21
56.4298421032
  0
LWPOLYLINE
  5
307
100
AcDbEntity
  8
0
100
AcDbPolyline
 62
7
  6
CONTINUOUS
 90
15
 70
0
 10
204.1078889414
 20
55.880463178
 10
204.090154473
 20
55.8708117252
 10
204.0532805813
 20
55.8542122081
 10
204.0145609404
 20
55.8412182355
 10
203.9741266197
 20
55.8318737971
 10
203.9321145719
 20
55.826210523
 10
203.8886668249
 20
55.8242475434
 10
203.8439305634
 20
55.8259914936
 10
203.7980578046
 20
55.8314363406
 10
203.751203792
 20
55.8405634867
 10
203.703527148
 20
55.8533418646
 10
203.6551899913
 20
55.8697277736
 10
203.6063561792
 20
55.8896653159
 10
203.5571907154
 20
55.9130867769
 10
203.5078599492
 20
55.9399125912
  0
LWPOLYLINE
  5
308
100
AcDbEntity
  8
0
100
AcDbPolyline
 62
7
  6
CONTINUOUS
 90
25
 70
0
 10
227.6910246576
 20
101.1602529442
 10
227.6900070703
 20
101.2139942423
 10
227.6861039297
 20
101.2689275117
 10
227.6793356627
 20
101.3248403877
 10
227.6697415143
 20
101.3815210292
 10
227.6573555371
 20
101.4387456296
 10
227.6422063554
 20
101.4962792874
 10
227.6243539363
 20
101.5538968151
 10
227.6038741359
 20
101.6113770709
 10
227.5808342026
 20
101.6684904831
 10
227.5553230065
 20
101.7250130851
 10
227.5274447851
 20
101.7807272661
 10
227.4973029318
 20
101.8354159509
 10
227.4650120086
 20
101.888864007
 10
227.4307010448
 20
101.9408646544
 10
227.394506337
 20
101.9912198132
 10
227.356564224
 20
102.0397304034
 10
227.3170242332
 20
102.0862074754
 10
227.276051557
 20
102.1304780018
 10
227.2337997845
 20
102.1723657135
 10
227.1904339529
 20
102.2117060789
 10
227.1461431832
 20
102.2483568535
 10
227.1011042746
 20
102.2821766374
 10
227.0554810693
 20
102.3130255147
 10
227.0094472716
 20
102.3407796049
  0
LINE
  5
309
100
AcDbEntity
  8
0
100
AcDbLine
 62
7
  6
CONTINUOUS
 10
227.6909118658
 20
101.130834265
 11
227.6909118658
 21
30.42425959
  0
LINE
  5
30A
100
AcDbEntity
  8
0
100
AcDbLine
 62
7
  6
CONTINUOUS
 10
227.9030439001
 20
102.0194653254
 11
227.9030439001
 21
31.7403113336
  0
LINE
  5
30B
100
AcDbEntity
  8
0
100
AcDbLine
 62
250
  6
CONTINUOUS
 10
227.6910246576
 20
101.1602529442
 11
227.9030439001
 21
102.0194653254
  0
LWPOLYLINE
  5
30C
100
AcDbEntity
  8
0
100
AcDbPolyline
 62
7
  6
CONTINUOUS
 90
4
 70
0
 10
227.6832459954
 20
30.2804915346
 10
227.6861039297
 20
30.3017469998
 10
227.6900070703
 20
30.3479696855
 10
227.6910246576
 20
30.3960131537
  0
LINE
  5
30D
100
AcDbEntity
  8
0
100
AcDbLine
 62
7
  6
CONTINUOUS
 10
227.9024854761
 20
31.7325256021
 11
227.6832387201
 21
30.2804868732
  0
LINE
  5
30E
100
AcDbEntity
  8
0
100
AcDbLine
 62
250
  6
CONTINUOUS
 10
227.6910246576
 20
30.3960131537
 11
227.9030439001
 21
31.7403113336
  0
LWPOLYLINE
  5
30F
100
AcDbEntity
  8
0
100
AcDbPolyline
 62
7
  6
CONTINUOUS
 90
11
 70
0
 10
227.5059658576
 20
29.9800529053
 10
227.5274447849
 20
29.9945248988
 10
227.5553230064
 20
30.0173571862
 10
227.5808342027
 20
30.0432872644
 10
227.603874136
 20
30.0722117872
 10
227.6243539364
 20
30.1040191327
 10
227.6422063556
 20
30.1385945097
 10
227.6573555373
 20
30.1758004684
 10
227.6697415144
 20
30.2154920954
 10
227.6793356628
 20
30.2575279017
 10
227.6832459954
 20
30.2804915346
  0
LINE
  5
310
100
AcDbEntity
  8
0
100
AcDbLine
 62
250
  6
CONTINUOUS
 10
225.6760957252
 20
29.1782670658
 11
227.6909118658
 21
30.42425959
  0
LINE
  5
311
100
AcDbEntity
  8
0
100
AcDbLine
 62
7
  6
CONTINUOUS
 10
225.6756575394
 20
28.8481627861
 11
227.5059660011
 21
29.980052994
  0
LINE
  5
312
100
AcDbEntity
  8
SMUSSO
100
AcDbLine
 62
7
  6
CONTINUOUS
 10
223.2007838052
 20
26.6887661053
 11
225.6756575394
 21
28.117687727
  0
ARC
  5
313
100
AcDbEntity
  8
0
100
AcDbCircle
 62
7
  6
CONTINUOUS
 10
108.4551606259
 20
114.6809364794
 40
0.3
100
AcDbArc
 50
300.1089993398
 51
314.2001403814
  0
ARC
  5
314
100
AcDbEntity
  8
0
100
AcDbCircle
 62
7
  6
CONTINUOUS
 10
203.9145760861
 20
59.5638663802
 40
0.3
100
AcDbArc
 50
300.1089993398
 51
314.2001403814
  0
ARC
  5
315
100
AcDbEntity
  8
0
100
AcDbCircle
 62
7
  6
CONTINUOUS
 10
188.0046733768
 20
68.7500445732
 40
0.3
100
AcDbArc
 50
300.1089848867
 51
314.2001408883
  0
ARC
  5
316
100
AcDbEntity
  8
0
100
AcDbCircle
 62
7
  6
CONTINUOUS
 10
172.0947708001
 20
77.936222923
 40
0.3
100
AcDbArc
 50
300.1089848867
 51
314.2001408883
  0
ARC
  5
317
100
AcDbEntity
  8
0
100
AcDbCircle
 62
7
  6
CONTINUOUS
 10
156.1848682234
 20
87.1224012729
 40
0.3
100
AcDbArc
 50
300.1089848867
 51
314.2001408883
  0
ARC
  5
318
100
AcDbEntity
  8
0
100
AcDbCircle
 62
7
  6
CONTINUOUS
 10
140.2749656467
 20
96.3085796228
 40
0.3
100
AcDbArc
 50
300.1089848867
 51
314.2001408883
  0
ARC
  5
319
100
AcDbEntity
  8
0
100
AcDbCircle
 62
7
  6
CONTINUOUS
 10
124.36506307
 20
105.4947579726
 40
0.3
100
AcDbArc
 50
300.1089848867
 51
314.2001408883
  0
ELLIPSE
  5
31A
100
AcDbEntity
  8
0
100
AcDbEllipse
 62
7
  6
CONTINUOUS
 10
227.8584200914
 20
31.7673101036
 30
0.0
 11
-0.0319307066
 21
0.0553022874
 31
0.0
 40
0.5636716562
 41
-2.5265807376
 42
-2.3682119497
  0
ELLIPSE
  5
31B
100
AcDbEntity
  8
0
100
AcDbEllipse
 62
7
  6
CONTINUOUS
 10
227.8584200914
 20
102.0439970112
 30
0.0
 11
-0.0311754239
 21
0.0539936769
 31
0.0
 40
0.5913227191
 41
-2.3442738678
 42
-0.7974202594
  0
ELLIPSE
  5
31C
100
AcDbEntity
  8
0
100
AcDbEllipse
 62
7
  6
CONTINUOUS
 10
80.7280358658
 20
186.9952368863
 30
0.0
 11
-0.0319307066
 21
0.0553022874
 31
0.0
 40
0.5636716562
 41
-0.7734729046
 42
-0.6150203534
  0
ELLIPSE
  5
31D
100
AcDbEntity
  8
0
100
AcDbEllipse
 62
7
  6
CONTINUOUS
 10
189.8681202085
 20
69.6739270245
 30
0.0
 11
0.2999993451
 21
0.1746271577
 31
0.0
 40
0.0035896273
 41
-0.7351277754
 42
-0.0020894543
  0
ELLIPSE
  5
31E
100
AcDbEntity
  8
0
100
AcDbEllipse
 62
7
  6
CONTINUOUS
 10
173.9582176318
 20
78.8601053744
 30
0.0
 11
0.2999993451
 21
0.1746271577
 31
0.0
 40
0.0035896273
 41
-0.7351277754
 42
-0.0020894543
  0
ELLIPSE
  5
31F
100
AcDbEntity
  8
0
100
AcDbEllipse
 62
7
  6
CONTINUOUS
 10
158.0483150551
 20
88.0462837243
 30
0.0
 11
0.2999993451
 21
0.1746271577
 31
0.0
 40
0.0035896273
 41
-0.7351277754
 42
-0.0020894543
  0
ELLIPSE
  5
320
100
AcDbEntity
  8
0
100
AcDbEllipse
 62
7
  6
CONTINUOUS
 10
142.1384124784
 20
97.2324620742
 30
0.0
 11
0.2999993451
 21
0.1746271577
 31
0.0
 40
0.0035896273
 41
-0.7351277754
 42
-0.0020894543
  0
ELLIPSE
  5
321
100
AcDbEntity
  8
0
100
AcDbEllipse
 62
7
  6
CONTINUOUS
 10
126.2285099017
 20
106.418640424
 30
0.0
 11
0.2999993451
 21
0.1746271577
 31
0.0
 40
0.0035896273
 41
-0.7351277754
 42
-0.0020894543
  0
ELLIPSE
  5
322
100
AcDbEntity
  8
0
100
AcDbEllipse
 62
7
  6
CONTINUOUS
 10
110.4564199311
 20
115.6850543207
 30
0.0
 11
0.1999995634
 21
0.1164181051
 31
0.0
 40
0.0035896273
 41
-0.7351277754
 42
-0.6748017824
  0
ELLIPSE
  5
323
100
AcDbEntity
  8
0
100
AcDbEllipse
 62
7
  6
CONTINUOUS
 10
154.3565175206
 20
90.8521019072
 30
0.0
 11
0.2999972416
 21
-0.0022477848
 31
0.0
 40
0.5723275643
 41
0.7896864073
 42
2.3081228565
  0
ELLIPSE
  5
324
100
AcDbEntity
  8
0
100
AcDbEllipse
 62
7
  6
CONTINUOUS
 10
202.0898340007
 20
63.3484343075
 30
0.0
 11
0.1998333781
 21
-0.0157785196
 31
0.0
 40
0.5172961965
 41
0.8262203412
 42
2.3446567905
  0
ELLIPSE
  5
325
100
AcDbEntity
  8
0
100
AcDbEllipse
 62
7
  6
CONTINUOUS
 10
106.6304185406
 20
118.4655044068
 30
0.0
 11
0.1998333781
 21
-0.0157785196
 31
0.0
 40
0.5172961965
 41
0.8262203412
 42
2.3446567905
  0
ELLIPSE
  5
326
100
AcDbEntity
  8
0
100
AcDbEllipse
 62
7
  6
CONTINUOUS
 10
186.176322674
 20
72.4797452075
 30
0.0
 11
0.2999972416
 21
-0.0022477848
 31
0.0
 40
0.5723275643
 41
0.7896864073
 42
2.3081228565
  0
ELLIPSE
  5
327
100
AcDbEntity
  8
0
100
AcDbEllipse
 62
7
  6
CONTINUOUS
 10
170.2664200973
 20
81.6659235573
 30
0.0
 11
0.2999972416
 21
-0.0022477848
 31
0.0
 40
0.5723275643
 41
0.7896864073
 42
2.3081228565
  0
ELLIPSE
  5
328
100
AcDbEntity
  8
0
100
AcDbEllipse
 62
7
  6
CONTINUOUS
 10
138.4466149439
 20
100.0382802571
 30
0.0
 11
0.2999972416
 21
-0.0022477848
 31
0.0
 40
0.5723275643
 41
0.7896864073
 42
2.3081228565
  0
ELLIPSE
  5
329
100
AcDbEntity
  8
0
100
AcDbEllipse
 62
7
  6
CONTINUOUS
 10
122.5367123672
 20
109.224458607
 30
0.0
 11
0.2999972416
 21
-0.0022477848
 31
0.0
 40
0.5723275643
 41
0.7896864073
 42
2.3081228565
  0
ELLIPSE
  5
32A
100
AcDbEntity
  8
0
100
AcDbEllipse
 62
7
  6
CONTINUOUS
 10
200.5716064708
 20
62.0450197946
 30
0.0
 11
0.5413005334
 21
0.8416911418
 31
0.0
 40
0.6067084637
 41
0.7148472392
 42
0.8145158917
  0
ELLIPSE
  5
32B
100
AcDbEntity
  8
0
100
AcDbEllipse
 62
7
  6
CONTINUOUS
 10
105.1121910106
 20
117.1620898939
 30
0.0
 11
0.5413005334
 21
0.8416911418
 31
0.0
 40
0.6067084637
 41
0.7148472392
 42
0.8145158917
  0
ELLIPSE
  5
32C
100
AcDbEntity
  8
0
100
AcDbEllipse
 62
7
  6
CONTINUOUS
 10
110.4564199311
 20
116.2564191549
 30
0.0
 11
0.1998333781
 21
-0.0157785196
 31
0.0
 40
0.5172961965
 41
-0.692216108
 42
0.8262203412
  0
ELLIPSE
  5
32D
100
AcDbEntity
  8
0
100
AcDbEllipse
 62
7
  6
CONTINUOUS
 10
189.8681202085
 20
70.3481475801
 30
0.0
 11
0.2999972416
 21
-0.0022477848
 31
0.0
 40
0.5723275643
 41
-0.728750042
 42
0.7896864073
  0
ELLIPSE
  5
32E
100
AcDbEntity
  8
0
100
AcDbEllipse
 62
7
  6
CONTINUOUS
 10
173.9582176318
 20
79.53432593
 30
0.0
 11
0.2999972416
 21
-0.0022477848
 31
0.0
 40
0.5723275643
 41
-0.728750042
 42
0.7896864073
  0
ELLIPSE
  5
32F
100
AcDbEntity
  8
0
100
AcDbEllipse
 62
7
  6
CONTINUOUS
 10
142.1384124784
 20
97.9066826297
 30
0.0
 11
0.2999972416
 21
-0.0022477848
 31
0.0
 40
0.5723275643
 41
-0.728750042
 42
0.7896864073
  0
ELLIPSE
  5
330
100
AcDbEntity
  8
0
100
AcDbEllipse
 62
7
  6
CONTINUOUS
 10
126.2285099017
 20
107.0928609796
 30
0.0
 11
0.2999972416
 21
-0.0022477848
 31
0.0
 40
0.5723275643
 41
-0.728750042
 42
0.7896864073
  0
ELLIPSE
  5
331
100
AcDbEntity
  8
0
100
AcDbEllipse
 62
7
  6
CONTINUOUS
 10
158.0483150551
 20
88.7205042799
 30
0.0
 11
0.2999972416
 21
-0.0022477848
 31
0.0
 40
0.5723275643
 41
-0.728750042
 42
0.7896864073
  0
ELLIPSE
  5
332
100
AcDbEntity
  8
0
100
AcDbEllipse
 62
7
  6
CONTINUOUS
 10
109.3585282689
 20
114.7103079801
 30
0.0
 11
0.4625183445
 21
0.8873459255
 31
0.0
 40
0.5463614449
 41
0.662201126
 42
0.7618697785
  0
ELLIPSE
  5
333
100
AcDbEntity
  8
0
100
AcDbEllipse
 62
7
  6
CONTINUOUS
 10
227.8716591843
 20
102.0516221082
 30
0.0
 11
0.1365023326
 21
1.2306519884
 31
0.0
 40
0.0962714138
 41
-3.8917430252
 42
-3.8564132784
  0
ELLIPSE
  5
334
100
AcDbEntity
  8
0
100
AcDbEllipse
 62
7
  6
CONTINUOUS
 10
227.8716591843
 20
31.3819740029
 30
0.0
 11
0.1387214801
 21
1.2585231556
 31
0.0
 40
0.0920685296
 41
-3.8374748546
 42
-3.8021451078
  0
ELLIPSE
  5
335
100
AcDbEntity
  8
0
100
AcDbEllipse
 62
7
  6
CONTINUOUS
 10
80.400949615
 20
187.1993615714
 30
0.0
 11
1.1592455945
 21
-0.5090882972
 31
0.0
 40
0.0921189357
 41
-2.4809772198
 42
-2.4456474731
  0
ELLIPSE
  5
336
100
AcDbEntity
  8
0
100
AcDbEllipse
 62
7
  6
CONTINUOUS
 10
227.8716591843
 20
102.0516221082
 30
0.0
 11
1.1339988709
 21
-0.4970753424
 31
0.0
 40
0.0963242103
 41
-2.4267061945
 42
-2.3913764477
  0
ENDSEC
  0
SECTION
  2
OBJECTS
  0
DICTIONARY
  5
C
100
AcDbDictionary
280
0
281
1
  3
ACAD_GROUP
350
D
  3
ACAD_MLINESTYLE
350
17
  3
ACAD_LAYOUT
350
1A
  3
ACAD_PLOTSETTINGS
350
19
  3
ACAD_PLOTSTYLENAME
350
E
  0
DICTIONARY
  5
D
102
{ACAD_REACTORS
330
C
102
}
100
AcDbDictionary
280
0
281
1
  0
ACDBDICTIONARYWDFLT
  5
E
102
{ACAD_REACTORS
330
C
102
}
100
AcDbDictionary
281
1
  3
Normal
350
F
100
AcDbDictionaryWithDefault
340
F
  0
DICTIONARY
  5
17
102
{ACAD_REACTORS
330
C
102
}
100
AcDbDictionary
280
0
281
1
  3
Standard
350
18
  0
DICTIONARY
  5
19
102
{ACAD_REACTORS
330
C
102
}
100
AcDbDictionary
281
1
  0
DICTIONARY
  5
1A
102
{ACAD_REACTORS
330
C
102
}
100
AcDbDictionary
281
1
  3
Model
350
337
  3
Layout1
350
338
  0
ACDBPLACEHOLDER
  5
F
102
{ACAD_REACTORS
330
E
102
}
  0
MLINESTYLE
  5
18
102
{ACAD_REACTORS
330
17
102
}
100
AcDbMlineStyle
  2
STANDARD
 70
0
  3

 62
256
 51
90.0
 52
90.0
 71
2
 49
0.5
 62
256
  6
BYLAYER
 49
-0.5
 62
256
  6
BYLAYER
  0
LAYOUT
  5
337
102
{ACAD_REACTORS
330
1A
102
}
100
AcDbPlotSettings
  1

  2
none_device
  4
ISO_A4_(297.00_x_210.00_MM)
  6

 40
0.0
 41
0.0
 42
0.0
 43
0.0
 44
297.0
 45
210.0
 46
0.0
 47
0.0
 48
0.0
 49
0.0
140
0.0
141
0.0
142
1.0
143
1.0
 70
1024
 72
1
 73
0
 74
0
  7

 75
0
147
1.0
148
0.0
149
0.0
100
AcDbLayout
  1
Model
 70
0
 71
0
 10
0.0
 20
0.0
 11
297.0
 21
210.0
 12
0.0
 22
0.0
 32
0.0
 14
0.0
 24
0.0
 34
0.0
 15
0.0
 25
0.0
 35
0.0
146
0.0
 13
0.0
 23
0.0
 33
0.0
 16
1.0
 26
0.0
 36
0.0
 17
0.0
 27
1.0
 37
0.0
 76
0
330
21B
345
0
346
0
  0
LAYOUT
  5
338
102
{ACAD_REACTORS
330
1A
102
}
100
AcDbPlotSettings
  1

  2
none_device
  4
ISO_A4_(297.00_x_210.00_MM)
  6

 40
0.0
 41
0.0
 42
0.0
 43
0.0
 44
297.0
 45
210.0
 46
0.0
 47
0.0
 48
0.0
 49
0.0
140
0.0
141
0.0
142
1.0
143
1.0
 70
0
 72
1
 73
0
 74
0
  7

 75
0
147
1.0
148
0.0
149
0.0
100
AcDbLayout
  1
Layout1
 70
0
 71
1
 10
0.0
 20
0.0
 11
297.0
 21
210.0
 12
0.0
 22
0.0
 32
0.0
 14
0.0
 24
0.0
 34
0.0
 15
0.0
 25
0.0
 35
0.0
146
0.0
 13
0.0
 23
0.0
 33
0.0
 16
1.0
 26
0.0
 36
0.0
 17
0.0
 27
1.0
 37
0.0
 76
0
330
21C
345
0
346
0
  0
ENDSEC
  0
EOF
