  0
SECTION
  2
HEADER
  9
$ACADVER
  1
AC1024
  9
$DWGCODEPAGE
  3
ANSI_1252
  9
$EXTMAX
 10
297.0
 20
210.0
 30
0.0
  9
$EXTMIN
 10
0.0
 20
0.0
 30
0.0
  9
$LIMMIN
 10
0.0
 20
0.0
  9
$LIMMAX
 10
297.0
 20
210.0
  9
$VIEWCTR
 10
148.5
 20
105.0
  9
$VIEWSIZE
 40
210.0
  9
$CLAYER
  8
0
  9
$LTSCALE
 40
16.335
  9
$CELTYPE
  6
BYLAYER
  9
$DIMSCALE
 40
1.0
  9
$DIMASZ
 40
3.0
  9
$DIMEXO
 40
0.5
  9
$DIMDLI
 40
11.286
  9
$DIMEXE
 40
1.5
  9
$DIMCEN
 40
2.673
  9
$DIMLFAC
 40
1.0
  9
$DIMBLK
  1
_FILLED
  9
$DIMALT
 70
0
  9
$DIMALTF
 40
0.0393700787
  9
$DIMTXT
 40
3.0
  9
$DIMTOL
 70
1
  9
$DIMLIM
 70
0
  9
$DIMTFAC
 40
1.0
  9
$DIMTP
 40
0.01
  9
$DIMTM
 40
0.01
  9
$DIMGAP
 40
0.625
  9
$DIMDSEP
 70
44
  9
$AUNITS
 70
0
  9
$PDMODE
 70
3
  9
$PDSIZE
 40
3.0
  9
$HANDSEED
  5
28A
  9
$TILEMODE
 70
1
  9
$MEASUREMENT
 70
1
  9
$INSUNITS
 70
4
  0
ENDSEC
  0
SECTION
  2
CLASSES
  0
CLASS
  1
ACDBDICTIONARYWDFLT
  2
AcDbDictionaryWithDefault
  3
AutoCAD 2000
 90
0
 91
1
280
0
281
0
  0
CLASS
  1
ACDBPLACEHOLDER
  2
AcDbPlaceHolder
  3
AutoCAD 2000
 90
0
 91
1
280
0
281
0
  0
CLASS
  1
LAYOUT
  2
AcDbLayout
  3
AutoCAD 2000
 90
0
 91
0
280
0
281
0
  0
ENDSEC
  0
SECTION
  2
TABLES
  0
TABLE
  2
VPORT
  5
8
100
AcDbSymbolTable
 70
2
  0
VPORT
  5
1F4
100
AcDbSymbolTableRecord
100
AcDbViewportTableRecord
  2
*ACTIVE
 70
0
 10
0.0
 20
0.0
 11
1.0
 21
1.0
 12
148.5
 22
105.0
 13
0.0
 23
0.0
 14
1.0
 24
1.0
 15
0.0
 25
0.0
 16
0.0
 26
0.0
 36
1.0
 17
0.0
 27
0.0
 37
0.0
 40
210.0
 41
1.4142857143
 42
50.0
 43
0.0
 44
0.0
 50
0.0
 51
0.0
 71
0
 72
100
 73
1
 74
1
 75
0
 76
0
 77
0
 78
0
  0
ENDTAB
  0
TABLE
  2
LTYPE
  5
5
100
AcDbSymbolTable
 70
6
  0
LTYPE
  5
14
100
AcDbSymbolTableRecord
100
AcDbLinetypeTableRecord
  2
BYBLOCK
 70
0
  3

 72
65
 73
0
 40
0.0
  0
LTYPE
  5
15
100
AcDbSymbolTableRecord
100
AcDbLinetypeTableRecord
  2
BYLAYER
 70
0
  3

 72
65
 73
0
 40
0.0
  0
LTYPE
  5
16
100
AcDbSymbolTableRecord
100
AcDbLinetypeTableRecord
  2
CONTINUOUS
 70
64
  3
Solid line
 72
65
 73
0
 40
0.0
  0
LTYPE
  5
1F5
100
AcDbSymbolTableRecord
100
AcDbLinetypeTableRecord
  2
CENTER
 70
64
  3
____ _ ____ _ ____ _ ____ _ ____ _ ____ _ ____
 72
65
 73
4
 40
0.6
 49
0.375
 74
0
 49
-0.075
 74
0
 49
0.075
 74
0
 49
-0.075
 74
0
  0
LTYPE
  5
1F6
100
AcDbSymbolTableRecord
100
AcDbLinetypeTableRecord
  2
HIDDEN
 70
64
  3
- - - - - - - - - - - - - - - - - - - -
 72
65
 73
2
 40
0.2
 49
0.1
 74
0
 49
-0.1
 74
0
  0
LTYPE
  5
1F7
100
AcDbSymbolTableRecord
100
AcDbLinetypeTableRecord
  2
PHANTOM
 70
64
  3
_____ _ _ _____ _ _ _____ _ _ _____
 72
65
 73
6
 40
0.8
 49
0.45
 74
0
 49
-0.05
 74
0
 49
0.1
 74
0
 49
-0.05
 74
0
 49
0.1
 74
0
 49
-0.05
 74
0
  0
LTYPE
  5
1F8
100
AcDbSymbolTableRecord
100
AcDbLinetypeTableRecord
  2
DOT
 70
64
  3
. . . . . . . . . . . . . . . . . . . .
 72
65
 73
2
 40
0.2
 49
0.1
 74
0
 49
-0.1
 74
0
  0
LTYPE
  5
1F9
100
AcDbSymbolTableRecord
100
AcDbLinetypeTableRecord
  2
DASHED
 70
64
  3
- - - - - - - - - - - - - - - - - - - -
 72
65
 73
2
 40
0.2
 49
0.1
 74
0
 49
-0.1
 74
0
  0
ENDTAB
  0
TABLE
  2
LAYER
  5
2
100
AcDbSymbolTable
 70
36
  0
LAYER
  5
10
100
AcDbSymbolTableRecord
100
AcDbLayerTableRecord
  2
0
 70
0
 62
7
  6
CONTINUOUS
370
-3
390
F
  0
LAYER
  5
1FA
100
AcDbSymbolTableRecord
100
AcDbLayerTableRecord
  2
DEFAULT_1
 70
0
 62
7
  6
CENTER
370
-3
390
F
  0
LAYER
  5
1FB
100
AcDbSymbolTableRecord
100
AcDbLayerTableRecord
  2
DEFAULT_2
 70
0
 62
7
  6
HIDDEN
370
-3
390
F
  0
LAYER
  5
1FC
100
AcDbSymbolTableRecord
100
AcDbLayerTableRecord
  2
DEFAULT_3
 70
0
 62
7
  6
PHANTOM
370
-3
390
F
  0
LAYER
  5
1FD
100
AcDbSymbolTableRecord
100
AcDbLayerTableRecord
  2
ASSI
 70
0
 62
7
  6
CONTINUOUS
370
-3
390
F
  0
LAYER
  5
1FE
100
AcDbSymbolTableRecord
100
AcDbLayerTableRecord
  2
COORDINATE
 70
0
 62
7
  6
CONTINUOUS
370
-3
390
F
  0
LAYER
  5
1FF
100
AcDbSymbolTableRecord
100
AcDbLayerTableRecord
  2
COORD_ORIGINE
 70
0
 62
7
  6
CONTINUOUS
370
-3
390
F
  0
LAYER
  5
200
100
AcDbSymbolTableRecord
100
AcDbLayerTableRecord
  2
COPY_PUBLISH
 70
0
 62
7
  6
CONTINUOUS
370
-3
390
F
  0
LAYER
  5
201
100
AcDbSymbolTableRecord
100
AcDbLayerTableRecord
  2
COSMETIC
 70
0
 62
7
  6
CONTINUOUS
370
-3
390
F
  0
LAYER
  5
202
100
AcDbSymbolTableRecord
100
AcDbLayerTableRecord
  2
COSMETICI
 70
0
 62
7
  6
CONTINUOUS
370
-3
390
F
  0
LAYER
  5
203
100
AcDbSymbolTableRecord
100
AcDbLayerTableRecord
  2
CURVE
 70
0
 62
7
  6
CONTINUOUS
370
-3
390
F
  0
LAYER
  5
204
100
AcDbSymbolTableRecord
100
AcDbLayerTableRecord
  2
CURVE_TASSELLI
 70
0
 62
7
  6
CONTINUOUS
370
-3
390
F
  0
LAYER
  5
205
100
AcDbSymbolTableRecord
100
AcDbLayerTableRecord
  2
DRAFT
 70
0
 62
7
  6
CONTINUOUS
370
-3
390
F
  0
LAYER
  5
206
100
AcDbSymbolTableRecord
100
AcDbLayerTableRecord
  2
IGES
 70
0
 62
7
  6
CONTINUOUS
370
-3
390
F
  0
LAYER
  5
207
100
AcDbSymbolTableRecord
100
AcDbLayerTableRecord
  2
IMPORT_IGES
 70
0
 62
7
  6
CONTINUOUS
370
-3
390
F
  0
LAYER
  5
208
100
AcDbSymbolTableRecord
100
AcDbLayerTableRecord
  2
INTFCLR_2
 70
0
 62
7
  6
CONTINUOUS
370
-3
390
F
  0
LAYER
  5
209
100
AcDbSymbolTableRecord
100
AcDbLayerTableRecord
  2
INTF_1
 70
0
 62
7
  6
CONTINUOUS
370
-3
390
F
  0
LAYER
  5
20A
100
AcDbSymbolTableRecord
100
AcDbLayerTableRecord
  2
INTF_11
 70
0
 62
7
  6
CONTINUOUS
370
-3
390
F
  0
LAYER
  5
20B
100
AcDbSymbolTableRecord
100
AcDbLayerTableRecord
  2
INTF_21
 70
0
 62
7
  6
CONTINUOUS
370
-3
390
F
  0
LAYER
  5
20C
100
AcDbSymbolTableRecord
100
AcDbLayerTableRecord
  2
INTF_7
 70
0
 62
7
  6
CONTINUOUS
370
-3
390
F
  0
LAYER
  5
20D
100
AcDbSymbolTableRecord
100
AcDbLayerTableRecord
  2
NOTE
 70
0
 62
7
  6
CONTINUOUS
370
-3
390
F
  0
LAYER
  5
20E
100
AcDbSymbolTableRecord
100
AcDbLayerTableRecord
  2
PIANI
 70
0
 62
7
  6
CONTINUOUS
370
-3
390
F
  0
LAYER
  5
20F
100
AcDbSymbolTableRecord
100
AcDbLayerTableRecord
  2
PIANI_ORIGINE
 70
0
 62
7
  6
CONTINUOUS
370
-3
390
F
  0
LAYER
  5
210
100
AcDbSymbolTableRecord
100
AcDbLayerTableRecord
  2
PUNTI
 70
0
 62
7
  6
CONTINUOUS
370
-3
390
F
  0
LAYER
  5
211
100
AcDbSymbolTableRecord
100
AcDbLayerTableRecord
  2
RACCORDO
 70
0
 62
7
  6
CONTINUOUS
370
-3
390
F
  0
LAYER
  5
212
100
AcDbSymbolTableRecord
100
AcDbLayerTableRecord
  2
RGB__255__255__255__
 70
0
 62
7
  6
CONTINUOUS
370
-3
390
F
  0
LAYER
  5
213
100
AcDbSymbolTableRecord
100
AcDbLayerTableRecord
  2
RGB____0____0____0__
 70
0
 62
7
  6
CONTINUOUS
370
-3
390
F
  0
LAYER
  5
214
100
AcDbSymbolTableRecord
100
AcDbLayerTableRecord
  2
SIMBOLI
 70
0
 62
7
  6
CONTINUOUS
370
-3
390
F
  0
LAYER
  5
215
100
AcDbSymbolTableRecord
100
AcDbLayerTableRecord
  2
SMUSSO
 70
0
 62
7
  6
CONTINUOUS
370
-3
390
F
  0
LAYER
  5
216
100
AcDbSymbolTableRecord
100
AcDbLayerTableRecord
  2
SNAPLINE
 70
0
 62
7
  6
CONTINUOUS
370
-3
390
F
  0
LAYER
  5
217
100
AcDbSymbolTableRecord
100
AcDbLayerTableRecord
  2
SUPERFICI
 70
0
 62
7
  6
CONTINUOUS
370
-3
390
F
  0
LAYER
  5
218
100
AcDbSymbolTableRecord
100
AcDbLayerTableRecord
  2
TRASH
 70
0
 62
7
  6
CONTINUOUS
370
-3
390
F
  0
LAYER
  5
219
100
AcDbSymbolTableRecord
100
AcDbLayerTableRecord
  2
XSEC_DATUMS
 70
0
 62
7
  6
CONTINUOUS
370
-3
390
F
  0
ENDTAB
  0
TABLE
  2
STYLE
  5
3
100
AcDbSymbolTable
 70
1
  0
STYLE
  5
11
100
AcDbSymbolTableRecord
100
AcDbTextStyleTableRecord
  2
STANDARD
 70
0
 40
0.0
 41
0.8
 50
0.0
 71
0
 42
0.2
  3
txt
  4

  0
STYLE
  5
21A
100
AcDbSymbolTableRecord
100
AcDbTextStyleTableRecord
  2
TEXTSTYLE_1
 70
0
 40
0.0
 41
0.8
 50
0.0
 71
0
 42
0.2
  3
gdt
  4

  0
ENDTAB
  0
TABLE
  2
VIEW
  5
6
100
AcDbSymbolTable
 70
0
  0
ENDTAB
  0
TABLE
  2
UCS
  5
7
100
AcDbSymbolTable
 70
0
  0
ENDTAB
  0
TABLE
  2
APPID
  5
9
100
AcDbSymbolTable
 70
1
  0
APPID
  5
21B
100
AcDbSymbolTableRecord
100
AcDbRegAppTableRecord
  2
ACAD
 70
0
  0
ENDTAB
  0
TABLE
  2
BLOCK_RECORD
  5
1
100
AcDbSymbolTable
 70
0
  0
BLOCK_RECORD
  5
21C
100
AcDbSymbolTableRecord
100
AcDbBlockTableRecord
  2
*Model_Space
  0
BLOCK_RECORD
  5
21D
100
AcDbSymbolTableRecord
100
AcDbBlockTableRecord
  2
*Paper_Space
  0
BLOCK_RECORD
  5
21E
100
AcDbSymbolTableRecord
100
AcDbBlockTableRecord
  2
_FILLED
  0
ENDTAB
  0
TABLE
  2
DIMSTYLE
  5
A
100
AcDbSymbolTable
 70
1
100
AcDbDimStyleTable
 71
0
  0
DIMSTYLE
105
21F
100
AcDbSymbolTableRecord
100
AcDbDimStyleTableRecord
  2
STANDARD
 70
0
  3

  4

 40
1.0
 41
3.0
 42
0.5
 43
0.38
 44
1.5
 45
0.0
 46
0.0
 47
0.01
 48
0.01
140
3.0
141
0.09
142
0.0
143
25.4
144
1.0
145
0.0
146
1.0
147
0.625
 71
1
 72
0
 73
0
 74
0
 75
0
 76
0
 77
1
 78
8
 79
2
170
0
171
1
172
0
173
0
174
0
175
0
176
0
177
0
178
0
270
2
179
2
271
2
272
2
273
2
274
2
275
0
280
0
281
0
282
0
283
1
284
8
285
0
286
0
287
3
288
0
340
11
278
44
341
21E
342
21E
343
21E
344
21E
  0
ENDTAB
  0
ENDSEC
  0
SECTION
  2
BLOCKS
  0
BLOCK
  5
20
100
AcDbEntity
  8
0
100
AcDbBlockBegin
  2
*Model_Space
 70
0
 10
0.0
 20
0.0
 30
0.0
  3
*Model_Space
  1

  0
ENDBLK
  5
21
100
AcDbEntity
  8
0
100
AcDbBlockEnd
  0
BLOCK
  5
1C
100
AcDbEntity
  8
0
100
AcDbBlockBegin
  2
*Paper_Space
 70
0
 10
0.0
 20
0.0
 30
0.0
  3
*Paper_Space
  1

  0
ENDBLK
  5
1D
100
AcDbEntity
  8
0
100
AcDbBlockEnd
  0
BLOCK
  5
220
100
AcDbEntity
  8
0
100
AcDbBlockBegin
  2
_FILLED
 70
64
 10
0.0
 20
0.0
  3
_FILLED
  1

  0
SOLID
  5
221
100
AcDbEntity
  8
0
  6
BYBLOCK
 62
0
100
AcDbTrace
 10
0.0
 20
0.0
 11
-1.0
 21
0.3166666667
 12
-1.0
 22
-0.3166666667
 13
-1.0
 23
-0.3166666667
  0
ENDBLK
  5
222
100
AcDbEntity
  8
0
  6
BYBLOCK
 62
0
100
AcDbBlockEnd
  0
ENDSEC
  0
SECTION
  2
ENTITIES
  0
LINE
  5
223
100
AcDbEntity
  8
SMUSSO
100
AcDbLine
 62
7
  6
CONTINUOUS
 10
-57.3333232626
 20
93.0640916456
 11
-53.0382443735
 21
95.9029369286
  0
LINE
  5
224
100
AcDbEntity
  8
SMUSSO
100
AcDbLine
 62
7
  6
CONTINUOUS
 10
-56.6257859933
 20
93.4725358395
 11
-52.3307071042
 21
96.3113811225
  0
LINE
  5
225
100
AcDbEntity
  8
SMUSSO
100
AcDbLine
 62
7
  6
CONTINUOUS
 10
-56.6465496074
 20
93.4596964885
 11
-56.6257859933
 21
93.4725358395
  0
LINE
  5
226
100
AcDbEntity
  8
SMUSSO
100
AcDbLine
 62
7
  6
CONTINUOUS
 10
-53.0382443735
 20
95.9029369286
 11
-52.3307071042
 21
96.3113811225
  0
LINE
  5
227
100
AcDbEntity
  8
SMUSSO
100
AcDbLine
 62
7
  6
CONTINUOUS
 10
-56.6465496074
 20
93.4596964885
 11
-57.3329479551
 21
93.0634552841
  0
LINE
  5
228
100
AcDbEntity
  8
SMUSSO
100
AcDbLine
 62
7
  6
CONTINUOUS
 10
-57.0292389073
 20
92.0444680501
 11
-57.3082148414
 21
91.8834219746
  0
LINE
  5
229
100
AcDbEntity
  8
SMUSSO
100
AcDbLine
 62
7
  6
CONTINUOUS
 10
-57.0292389073
 20
92.0444680501
 11
-56.6465496074
 21
93.4596964885
  0
LINE
  5
22A
100
AcDbEntity
  8
SMUSSO
100
AcDbLine
 62
7
  6
CONTINUOUS
 10
51.271733818
 20
-95.5383190245
 11
52.6886929489
 21
-95.9144984804
  0
LWPOLYLINE
  5
22B
100
AcDbEntity
  8
0
100
AcDbPolyline
 62
7
  6
CONTINUOUS
 90
13
 70
0
 10
-34.7307060024
 20
64.0479098715
 10
-34.7300549059
 20
64.048190329
 10
-34.7249531813
 20
64.0499270152
 10
-34.7179893513
 20
64.0513416386
 10
-34.708945367
 20
64.0521019701
 10
-34.6977237214
 20
64.0518662967
 10
-34.6843491847
 20
64.0503085503
 10
-34.6688520053
 20
64.0471350772
 10
-34.6515686163
 20
64.0421575355
 10
-34.6330765122
 20
64.0353775092
 10
-34.6137327455
 20
64.0268507607
 10
-34.5936937637
 20
64.0165941671
 10
-34.5846545636
 20
64.0115157518
  0
LINE
  5
22C
100
AcDbEntity
  8
0
100
AcDbLine
 62
250
  6
CONTINUOUS
 10
-34.847113886
 20
63.8124713068
 11
-34.4978691594
 21
63.9614068469
  0
LINE
  5
22D
100
AcDbEntity
  8
SMUSSO
100
AcDbLine
 62
7
  6
CONTINUOUS
 10
-57.3082148414
 20
-32.8456174949
 11
-57.3329479551
 21
-32.3893819174
  0
LINE
  5
22E
100
AcDbEntity
  8
SMUSSO
100
AcDbLine
 62
7
  6
CONTINUOUS
 10
-57.0292389073
 20
-33.3288179864
 11
-56.6465496074
 21
-33.5782587285
  0
LINE
  5
22F
100
AcDbEntity
  8
SMUSSO
100
AcDbLine
 62
7
  6
CONTINUOUS
 10
-57.3082148414
 20
-32.8456174949
 11
-57.0292389073
 21
-33.3288179864
  0
LINE
  5
230
100
AcDbEntity
  8
SMUSSO
100
AcDbLine
 62
7
  6
CONTINUOUS
 10
-57.3082148414
 20
91.8834219746
 11
-57.3329479551
 21
93.0634552841
  0
LINE
  5
231
100
AcDbEntity
  8
SMUSSO
100
AcDbLine
 62
7
  6
CONTINUOUS
 10
-57.3329479551
 20
-32.3893819174
 11
-57.3333232626
 21
-32.3651890567
  0
LINE
  5
232
100
AcDbEntity
  8
SMUSSO
100
AcDbLine
 62
7
  6
CONTINUOUS
 10
-57.3333232626
 20
93.0640916456
 11
-57.3333232626
 21
-32.3651890567
  0
LINE
  5
233
100
AcDbEntity
  8
SMUSSO
100
AcDbLine
 62
7
  6
CONTINUOUS
 10
-57.3082148414
 20
91.8834219746
 11
-57.3082148414
 21
-32.8456174949
  0
LINE
  5
234
100
AcDbEntity
  8
SMUSSO
100
AcDbLine
 62
7
  6
CONTINUOUS
 10
-56.6257859933
 20
-33.5906795541
 11
52.0026570315
 21
-96.3113811225
  0
LINE
  5
235
100
AcDbEntity
  8
SMUSSO
100
AcDbLine
 62
7
  6
CONTINUOUS
 10
-57.0292389073
 20
-33.3288179864
 11
50.9927578839
 21
-95.6993651001
  0
LINE
  5
236
100
AcDbEntity
  8
SMUSSO
100
AcDbLine
 62
7
  6
CONTINUOUS
 10
-56.6257859933
 20
-33.5906795541
 11
-56.6465496074
 21
-33.5782587285
  0
LINE
  5
237
100
AcDbEntity
  8
SMUSSO
100
AcDbLine
 62
7
  6
CONTINUOUS
 10
50.9927578839
 20
-95.6993651001
 11
52.0022946013
 21
-96.3107396848
  0
LINE
  5
238
100
AcDbEntity
  8
0
100
AcDbLine
 62
250
  6
CONTINUOUS
 10
28.5894970114
 20
-67.7579063462
 11
-34.6259780349
 21
-31.2580833305
  0
LINE
  5
239
100
AcDbEntity
  8
0
100
AcDbLine
 62
250
  6
CONTINUOUS
 10
28.7210533125
 20
-67.5190511075
 11
-34.4944217337
 21
-31.0192280917
  0
LINE
  5
23A
100
AcDbEntity
  8
RACCORDO
100
AcDbLine
 62
7
  6
CONTINUOUS
 10
-33.424693341
 20
-30.4015881267
 11
29.0246873809
 21
-66.459077881
  0
LINE
  5
23B
100
AcDbEntity
  8
0
100
AcDbLine
 62
250
  6
CONTINUOUS
 10
-33.21434611
 20
-30.2801175384
 11
29.0246873809
 21
-66.2161554377
  0
LINE
  5
23C
100
AcDbEntity
  8
0
100
AcDbLine
 62
7
  6
CONTINUOUS
 10
-32.9889966677
 20
-30.2685924072
 11
29.0246873809
 21
-66.0745163629
  0
LWPOLYLINE
  5
23D
100
AcDbEntity
  8
0
100
AcDbPolyline
 62
7
  6
CONTINUOUS
 90
30
 70
0
 10
-32.9890088053
 20
-30.2685853998
 10
-33.0020362923
 20
-30.260774992
 10
-33.0209747424
 20
-30.2484364166
 10
-33.0414596729
 20
-30.2338408096
 10
-33.0631356477
 20
-30.2170332439
 10
-33.0858114137
 20
-30.1979783119
 10
-33.1093081057
 20
-30.1766466962
 10
-33.1332877965
 20
-30.1531855449
 10
-33.1575535271
 20
-30.1276511292
 10
-33.1819143202
 20
-30.1001120915
 10
-33.2060681727
 20
-30.0707979606
 10
-33.2298306051
 20
-30.0398457067
 10
-33.2530259897
 20
-30.0074029299
 10
-33.2754040979
 20
-29.9737602067
 10
-33.2968110303
 20
-29.9391178092
 10
-33.317113283
 20
-29.9036690197
 10
-33.3361340544
 20
-29.8677245537
 10
-33.353776762
 20
-29.8315001298
 10
-33.3699505853
 20
-29.7952294773
 10
-33.3845356219
 20
-29.7592712027
 10
-33.397497282
 20
-29.7238511093
 10
-33.4088146985
 20
-29.6891962704
 10
-33.4184468082
 20
-29.655677464
 10
-33.4264345555
 20
-29.6234921675
 10
-33.4328327272
 20
-29.5928375029
 10
-33.4376894129
 20
-29.5640740237
 10
-33.4411240972
 20
-29.5373355545
 10
-33.4432675047
 20
-29.5127660971
 10
-33.4442642045
 20
-29.4906921097
 10
-33.4443930527
 20
-29.4798468722
  0
LINE
  5
23E
100
AcDbEntity
  8
0
100
AcDbLine
 62
250
  6
CONTINUOUS
 10
-35.1197470481
 20
-30.4028503132
 11
-35.1197470481
 21
63.8179683588
  0
LINE
  5
23F
100
AcDbEntity
  8
0
100
AcDbLine
 62
250
  6
CONTINUOUS
 10
-34.847113886
 20
-30.4083473652
 11
-34.847113886
 21
63.8124713068
  0
LINE
  5
240
100
AcDbEntity
  8
RACCORDO
100
AcDbLine
 62
7
  6
CONTINUOUS
 10
-33.7773854933
 20
63.5454086079
 11
-33.7773854933
 21
-29.7907074001
  0
LINE
  5
241
100
AcDbEntity
  8
0
100
AcDbLine
 62
250
  6
CONTINUOUS
 10
-33.5670382623
 20
63.423956753
 11
-33.5670382623
 21
-29.6692368118
  0
LINE
  5
242
100
AcDbEntity
  8
0
100
AcDbLine
 62
7
  6
CONTINUOUS
 10
-33.4443930524
 20
63.3531429459
 11
-33.4443930524
 21
-29.4798366813
  0
LINE
  5
243
100
AcDbEntity
  8
0
100
AcDbLine
 62
7
  6
CONTINUOUS
 10
-33.3531214246
 20
-29.832845684
 11
-33.3531214246
 21
63.3004438519
  0
LINE
  5
244
100
AcDbEntity
  8
0
100
AcDbLine
 62
250
  6
CONTINUOUS
 10
-32.6547196461
 20
-30.46159977
 11
-32.6547196461
 21
62.8971954181
  0
LINE
  5
245
100
AcDbEntity
  8
0
100
AcDbLine
 62
7
  6
CONTINUOUS
 10
-32.5705215862
 20
-30.5102146745
 11
-32.5705215862
 21
62.8485805135
  0
LINE
  5
246
100
AcDbEntity
  8
SMUSSO
100
AcDbLine
 62
7
  6
CONTINUOUS
 10
52.0026570315
 20
30.7518342711
 11
56.6085652393
 21
33.4112106011
  0
LINE
  5
247
100
AcDbEntity
  8
SMUSSO
100
AcDbLine
 62
7
  6
CONTINUOUS
 10
52.7101943008
 20
29.5263437738
 11
57.3161025085
 21
32.1857201038
  0
LINE
  5
248
100
AcDbEntity
  8
SMUSSO
100
AcDbLine
 62
7
  6
CONTINUOUS
 10
-57.3333232626
 20
93.0640916456
 11
-57.3329479551
 21
93.0634552841
  0
LINE
  5
249
100
AcDbEntity
  8
SMUSSO
100
AcDbLine
 62
7
  6
CONTINUOUS
 10
52.0022946013
 20
-96.3107396848
 11
52.0026570315
 21
-96.3113811225
  0
LINE
  5
24A
100
AcDbEntity
  8
0
100
AcDbLine
 62
250
  6
CONTINUOUS
 10
-34.847113886
 20
-30.4083473652
 11
-33.5670382623
 21
-29.6692368118
  0
LINE
  5
24B
100
AcDbEntity
  8
0
100
AcDbLine
 62
250
  6
CONTINUOUS
 10
-34.4944217337
 20
-31.0192280917
 11
-33.21434611
 21
-30.2801175384
  0
LINE
  5
24C
100
AcDbEntity
  8
SMUSSO
100
AcDbLine
 62
7
  6
CONTINUOUS
 10
50.9927578839
 20
29.6739209365
 11
52.0022946013
 21
30.7272155323
  0
LINE
  5
24D
100
AcDbEntity
  8
SMUSSO
100
AcDbLine
 62
7
  6
CONTINUOUS
 10
51.271733818
 20
29.190720445
 11
52.6886929489
 21
29.5383387212
  0
LINE
  5
24E
100
AcDbEntity
  8
0
100
AcDbLine
 62
7
  6
CONTINUOUS
 10
29.0246873809
 20
26.829608182
 11
29.0246873809
 21
-67.39121049
  0
LINE
  5
24F
100
AcDbEntity
  8
0
100
AcDbLine
 62
250
  6
CONTINUOUS
 10
29.0832660246
 20
26.7479532633
 11
29.0832660246
 21
-67.4728654087
  0
LWPOLYLINE
  5
250
100
AcDbEntity
  8
0
100
AcDbPolyline
 62
7
  6
CONTINUOUS
 90
12
 70
0
 10
29.0246874791
 20
-67.3913249081
 10
29.0245892748
 20
-67.4006270089
 10
29.0234989184
 20
-67.423261847
 10
29.0212454536
 20
-67.4444258847
 10
29.0178915175
 20
-67.4639736141
 10
29.0135678031
 20
-67.4815672858
 10
29.0085627048
 20
-67.496697401
 10
29.0032085733
 20
-67.5091611231
 10
28.9977798878
 20
-67.5190809837
 10
28.9925763284
 20
-67.5265932902
 10
28.9878476557
 20
-67.5319517941
 10
28.983778673
 20
-67.5355225836
  0
LINE
  5
251
100
AcDbEntity
  8
0
100
AcDbLine
 62
7
  6
CONTINUOUS
 10
-34.5845615107
 20
64.011461924
 11
28.6309135356
 21
27.5116389083
  0
LINE
  5
252
100
AcDbEntity
  8
0
100
AcDbLine
 62
250
  6
CONTINUOUS
 10
-34.6259780349
 20
64.1030092963
 11
28.5894970114
 21
27.6031862805
  0
LWPOLYLINE
  5
253
100
AcDbEntity
  8
0
100
AcDbPolyline
 62
7
  6
CONTINUOUS
 90
27
 70
0
 10
28.6309376499
 20
27.5116249917
 10
28.6423494718
 20
27.5048183715
 10
28.6636769711
 20
27.4909579532
 10
28.6857964657
 20
27.4750392847
 10
28.7084144755
 20
27.4571398305
 10
28.7313622247
 20
27.4372806828
 10
28.7544857592
 20
27.4154905781
 10
28.7775373675
 20
27.3919102592
 10
28.8003577552
 20
27.366625159
 10
28.8227924813
 20
27.3397352902
 10
28.8446262958
 20
27.3114391053
 10
28.8657163216
 20
27.2818767856
 10
28.8859288385
 20
27.2511991388
 10
28.90509074
 20
27.2196456003
 10
28.9230918344
 20
27.187390368
 10
28.9398325182
 20
27.1546155662
 10
28.9551866818
 20
27.1215908395
 10
28.9690876021
 20
27.0885060758
 10
28.9814814942
 20
27.0555557727
 10
28.9922976906
 20
27.0230292937
 10
29.0015229486
 20
26.9911114318
 10
29.0091596427
 20
26.9599835273
 10
29.0152039166
 20
26.9299350069
 10
29.019703576
 20
26.9011185214
 10
29.02272155
 20
26.8736923074
 10
29.0243327729
 20
26.8479488207
 10
29.0246873908
 20
26.8296445952
  0
LINE
  5
254
100
AcDbEntity
  8
SMUSSO
100
AcDbLine
 62
7
  6
CONTINUOUS
 10
51.271733818
 20
-95.5383190245
 11
51.271733818
 21
29.190720445
  0
LINE
  5
255
100
AcDbEntity
  8
SMUSSO
100
AcDbLine
 62
7
  6
CONTINUOUS
 10
52.7101943008
 20
-95.9029369286
 11
52.7101943008
 21
29.5263437738
  0
LINE
  5
256
100
AcDbEntity
  8
SMUSSO
100
AcDbLine
 62
7
  6
CONTINUOUS
 10
52.0026570315
 20
30.7518342711
 11
52.0022946013
 21
30.7272155323
  0
LINE
  5
257
100
AcDbEntity
  8
SMUSSO
100
AcDbLine
 62
7
  6
CONTINUOUS
 10
52.6886929489
 20
29.5383387212
 11
52.7101943008
 21
29.5263437738
  0
LINE
  5
258
100
AcDbEntity
  8
SMUSSO
100
AcDbLine
 62
7
  6
CONTINUOUS
 10
50.9927578839
 20
29.6739209365
 11
-57.0292389073
 21
92.0444680501
  0
LINE
  5
259
100
AcDbEntity
  8
SMUSSO
100
AcDbLine
 62
7
  6
CONTINUOUS
 10
52.0026570315
 20
30.7518342711
 11
-56.6257859933
 21
93.4725358395
  0
LINE
  5
25A
100
AcDbEntity
  8
SMUSSO
100
AcDbLine
 62
7
  6
CONTINUOUS
 10
57.3211998023
 20
32.1806106765
 11
57.3211998023
 21
-93.5918653947
  0
LINE
  5
25B
100
AcDbEntity
  8
SMUSSO
100
AcDbLine
 62
7
  6
CONTINUOUS
 10
57.3333232626
 20
32.4264358152
 11
57.3333232626
 21
-93.0356386343
  0
LINE
  5
25C
100
AcDbEntity
  8
SMUSSO
100
AcDbLine
 62
7
  6
CONTINUOUS
 10
57.3211998023
 20
-93.5918653947
 11
57.3333232626
 21
-93.0356386343
  0
LINE
  5
25D
100
AcDbEntity
  8
SMUSSO
100
AcDbLine
 62
7
  6
CONTINUOUS
 10
57.3211998023
 20
32.1806106765
 11
57.3333232626
 21
32.4264358152
  0
LINE
  5
25E
100
AcDbEntity
  8
SMUSSO
100
AcDbLine
 62
7
  6
CONTINUOUS
 10
56.6066886201
 20
33.4181803454
 11
56.8256144605
 21
33.3058132549
  0
LINE
  5
25F
100
AcDbEntity
  8
SMUSSO
100
AcDbLine
 62
7
  6
CONTINUOUS
 10
-52.3189798879
 20
96.3104961827
 11
-51.8312296974
 21
96.0429132816
  0
LINE
  5
260
100
AcDbEntity
  8
SMUSSO
100
AcDbLine
 62
7
  6
CONTINUOUS
 10
-52.3189798879
 20
96.3104961827
 11
56.6066886201
 21
33.4181803454
  0
LINE
  5
261
100
AcDbEntity
  8
SMUSSO
100
AcDbLine
 62
7
  6
CONTINUOUS
 10
-51.8312296974
 20
96.0429132816
 11
56.8256144605
 21
33.3058132549
  0
LINE
  5
262
100
AcDbEntity
  8
SMUSSO
100
AcDbLine
 62
7
  6
CONTINUOUS
 10
51.271733818
 20
29.190720445
 11
50.9927578839
 21
29.6739209365
  0
LINE
  5
263
100
AcDbEntity
  8
SMUSSO
100
AcDbLine
 62
7
  6
CONTINUOUS
 10
52.6886929489
 20
29.5383387212
 11
52.0022946013
 21
30.7272155323
  0
LINE
  5
264
100
AcDbEntity
  8
SMUSSO
100
AcDbLine
 62
7
  6
CONTINUOUS
 10
57.3211998023
 20
32.1806106765
 11
57.3161025085
 21
32.1857201038
  0
LINE
  5
265
100
AcDbEntity
  8
SMUSSO
100
AcDbLine
 62
7
  6
CONTINUOUS
 10
56.6085652393
 20
33.4112106011
 11
57.3161025085
 21
32.1857201038
  0
LINE
  5
266
100
AcDbEntity
  8
SMUSSO
100
AcDbLine
 62
7
  6
CONTINUOUS
 10
56.8256144605
 20
33.3058132549
 11
57.3333232626
 21
32.4264358152
  0
LINE
  5
267
100
AcDbEntity
  8
SMUSSO
100
AcDbLine
 62
7
  6
CONTINUOUS
 10
56.6085652393
 20
33.4112106011
 11
56.6066886201
 21
33.4181803454
  0
LINE
  5
268
100
AcDbEntity
  8
0
100
AcDbLine
 62
250
  6
CONTINUOUS
 10
28.7210533125
 20
-67.5190511075
 11
29.0246873809
 21
-67.2910156235
  0
LINE
  5
269
100
AcDbEntity
  8
0
100
AcDbLine
 62
7
  6
CONTINUOUS
 10
28.983569791
 20
-67.5356791903
 11
28.9832126439
 21
-67.5359466809
  0
LINE
  5
26A
100
AcDbEntity
  8
SMUSSO
100
AcDbLine
 62
7
  6
CONTINUOUS
 10
57.3161025085
 20
-93.6024638175
 11
57.3211998023
 21
-93.5918653947
  0
LINE
  5
26B
100
AcDbEntity
  8
SMUSSO
100
AcDbLine
 62
7
  6
CONTINUOUS
 10
-52.3189798879
 20
96.3104961827
 11
-52.3307071042
 21
96.3113811225
  0
LINE
  5
26C
100
AcDbEntity
  8
SMUSSO
100
AcDbLine
 62
7
  6
CONTINUOUS
 10
50.9927578839
 20
-95.6993651001
 11
51.271733818
 21
-95.5383190245
  0
LINE
  5
26D
100
AcDbEntity
  8
SMUSSO
100
AcDbLine
 62
7
  6
CONTINUOUS
 10
52.0022946013
 20
-96.3107396848
 11
52.6886929489
 21
-95.9144984804
  0
LINE
  5
26E
100
AcDbEntity
  8
SMUSSO
100
AcDbLine
 62
7
  6
CONTINUOUS
 10
57.3161025085
 20
-93.6024638175
 11
56.6085652393
 21
-94.0109080113
  0
LINE
  5
26F
100
AcDbEntity
  8
SMUSSO
100
AcDbLine
 62
7
  6
CONTINUOUS
 10
52.7101943008
 20
-95.9029369286
 11
52.6886929489
 21
-95.9144984804
  0
LINE
  5
270
100
AcDbEntity
  8
SMUSSO
100
AcDbLine
 62
7
  6
CONTINUOUS
 10
52.7101943008
 20
-95.9029369286
 11
57.3161025085
 21
-93.6024638175
  0
LINE
  5
271
100
AcDbEntity
  8
SMUSSO
100
AcDbLine
 62
7
  6
CONTINUOUS
 10
52.0026570315
 20
-96.3113811225
 11
56.6085652393
 21
-94.0109080113
  0
SPLINE
  5
272
100
AcDbEntity
  8
0
100
AcDbSpline
 62
250
  6
CONTINUOUS
 70
0
 71
3
 72
11
 73
7
 74
0
 42
0.0000001
 43
0.0000001
 44
0.0000000001
 40
0.0
 40
0.0
 40
0.0
 40
0.0
 40
0.2203805444
 40
0.4516153966
 40
0.7090935733
 40
1.0
 40
1.0
 40
1.0
 40
1.0
 10
28.98321184
 20
-67.5359458562
 30
0.0
 10
28.9668309869
 20
-67.5481832635
 30
0.0
 10
28.9281332344
 20
-67.5671188947
 30
0.0
 10
28.8613012371
 20
-67.5724752059
 30
0.0
 10
28.7899761209
 20
-67.5560457164
 30
0.0
 10
28.7440706985
 20
-67.533147008
 30
0.0
 10
28.7210533125
 20
-67.5190511075
 30
0.0
  0
SPLINE
  5
273
100
AcDbEntity
  8
0
100
AcDbSpline
 62
250
  6
CONTINUOUS
 70
0
 71
3
 72
9
 73
5
 74
0
 42
0.0000001
 43
0.0000001
 44
0.0000000001
 40
0.0
 40
0.0
 40
0.0
 40
0.0
 40
0.2394982134
 40
1.0
 40
1.0
 40
1.0
 40
1.0
 10
28.5894970114
 20
27.6031862805
 30
0.0
 10
28.6001926657
 20
27.5970102526
 30
0.0
 10
28.6441225609
 20
27.5699677597
 30
0.0
 10
28.6851435005
 20
27.5383084846
 30
0.0
 10
28.7146020017
 20
27.5124186651
 30
0.0
  0
SPLINE
  5
274
100
AcDbEntity
  8
0
100
AcDbSpline
 62
250
  6
CONTINUOUS
 70
0
 71
3
 72
10
 73
6
 74
0
 42
0.0000001
 43
0.0000001
 44
0.0000000001
 40
0.0
 40
0.0
 40
0.0
 40
0.0
 40
0.2441086105
 40
0.4999171708
 40
1.0
 40
1.0
 40
1.0
 40
1.0
 10
28.7146020017
 20
27.5124186651
 30
0.0
 10
28.7575480328
 20
27.4746752311
 30
0.0
 10
28.83849594
 20
27.3890811411
 30
0.0
 10
28.9714896554
 20
27.1958402239
 30
0.0
 10
29.0401694187
 20
27.0284139644
 30
0.0
 10
29.0646880282
 20
26.9138807463
 30
0.0
  0
SPLINE
  5
275
100
AcDbEntity
  8
0
100
AcDbSpline
 62
250
  6
CONTINUOUS
 70
0
 71
3
 72
9
 73
5
 74
0
 42
0.0000001
 43
0.0000001
 44
0.0000000001
 40
0.0
 40
0.0
 40
0.0
 40
0.0
 40
0.2608721942
 40
1.0
 40
1.0
 40
1.0
 40
1.0
 10
29.0646880282
 20
26.9138807463
 30
0.0
 10
29.0677303175
 20
26.89966937
 30
0.0
 10
29.0781132271
 20
26.8449378951
 30
0.0
 10
29.0832642089
 20
26.7891305736
 30
0.0
 10
29.0832660246
 20
26.7479532633
 30
0.0
  0
SPLINE
  5
276
100
AcDbEntity
  8
0
100
AcDbSpline
 62
250
  6
CONTINUOUS
 70
0
 71
3
 72
15
 73
11
 74
0
 42
0.0000001
 43
0.0000001
 44
0.0000000001
 40
0.0
 40
0.0
 40
0.0
 40
0.0
 40
0.1448806558
 40
0.2745168781
 40
0.3911042832
 40
0.4999570089
 40
0.6088108689
 40
0.7254088175
 40
0.855083825
 40
1.0
 40
1.0
 40
1.0
 40
1.0
 10
-35.1197470481
 20
63.8179683588
 30
0.0
 10
-35.119745546
 20
63.8533724887
 30
0.0
 10
-35.1144210935
 20
63.9206884221
 30
0.0
 10
-35.0872365431
 20
64.0131798465
 30
0.0
 10
-35.0413892796
 20
64.0883156904
 30
0.0
 10
-34.977668952
 20
64.1419716502
 30
0.0
 10
-34.899341335
 20
64.1703335059
 30
0.0
 10
-34.8113354544
 20
64.1724798318
 30
0.0
 10
-34.7176228327
 20
64.1497693156
 30
0.0
 10
-34.6566467144
 20
64.1207152044
 30
0.0
 10
-34.6259780349
 20
64.1030092963
 30
0.0
  0
SPLINE
  5
277
100
AcDbEntity
  8
0
100
AcDbSpline
 62
250
  6
CONTINUOUS
 70
0
 71
3
 72
11
 73
7
 74
0
 42
0.0000001
 43
0.0000001
 44
0.0000000001
 40
0.0
 40
0.0
 40
0.0
 40
0.0
 40
0.2216878644
 40
0.4565276386
 40
0.7144738344
 40
1.0
 40
1.0
 40
1.0
 40
1.0
 10
-33.444394449
 20
-29.4798468721
 30
0.0
 10
-33.4443995783
 20
-29.4971755562
 30
0.0
 10
-33.4501474857
 20
-29.5330693729
 30
0.0
 10
-33.4750441472
 20
-29.5838079334
 30
0.0
 10
-33.5147965486
 20
-29.6305224507
 30
0.0
 10
-33.5484468839
 20
-29.6568882639
 30
0.0
 10
-33.5670382623
 20
-29.6692368118
 30
0.0
  0
SPLINE
  5
278
100
AcDbEntity
  8
0
100
AcDbSpline
 62
250
  6
CONTINUOUS
 70
0
 71
3
 72
11
 73
7
 74
0
 42
0.0000001
 43
0.0000001
 44
0.0000000001
 40
0.0
 40
0.0
 40
0.0
 40
0.0
 40
0.2216785503
 40
0.4565141616
 40
0.7144634385
 40
1.0
 40
1.0
 40
1.0
 40
1.0
 10
-32.9890095022
 20
-30.2685866071
 30
0.0
 10
-33.0040184681
 20
-30.2599269985
 30
0.0
 10
-33.0379767987
 20
-30.2469589372
 30
0.0
 10
-33.0943654897
 20
-30.243153951
 30
0.0
 10
-33.154697623
 20
-30.2542274768
 30
0.0
 10
-33.1943561555
 20
-30.2701896166
 30
0.0
 10
-33.21434611
 20
-30.2801175384
 30
0.0
  0
SPLINE
  5
279
100
AcDbEntity
  8
0
100
AcDbSpline
 62
250
  6
CONTINUOUS
 70
0
 71
3
 72
11
 73
7
 74
0
 42
0.0000001
 43
0.0000001
 44
0.0000000001
 40
0.0
 40
0.0
 40
0.0
 40
0.0
 40
0.2371905188
 40
0.4999661538
 40
0.7627571003
 40
1.0
 40
1.0
 40
1.0
 40
1.0
 10
-34.6259780349
 20
-31.2580833305
 30
0.0
 10
-34.6960676826
 20
-31.2176104817
 30
0.0
 10
-34.8287998061
 20
-31.1060641053
 30
0.0
 10
-34.98371858
 20
-30.8945039039
 30
0.0
 10
-35.0894989592
 20
-30.6545504888
 30
0.0
 10
-35.1197426191
 20
-30.483804027
 30
0.0
 10
-35.1197470481
 20
-30.4028503132
 30
0.0
  0
SPLINE
  5
27A
100
AcDbEntity
  8
0
100
AcDbSpline
 62
250
  6
CONTINUOUS
 70
0
 71
3
 72
9
 73
5
 74
0
 42
0.0000001
 43
0.0000001
 44
0.0000000001
 40
0.0
 40
0.0
 40
0.0
 40
0.0
 40
0.2595579425
 40
1.0
 40
1.0
 40
1.0
 40
1.0
 10
29.0832660246
 20
-67.4728654087
 30
0.0
 10
29.0832657147
 20
-67.4818644763
 30
0.0
 10
29.082552777
 20
-67.5165269887
 30
0.0
 10
29.0789197899
 20
-67.5511645189
 30
0.0
 10
29.0742359644
 20
-67.5764052969
 30
0.0
  0
SPLINE
  5
27B
100
AcDbEntity
  8
0
100
AcDbSpline
 62
250
  6
CONTINUOUS
 70
0
 71
3
 72
15
 73
11
 74
0
 42
0.0000001
 43
0.0000001
 44
0.0000000001
 40
0.0
 40
0.0
 40
0.0
 40
0.0
 40
0.1338183712
 40
0.2554340476
 40
0.368544014
 40
0.4787939037
 40
0.592620625
 40
0.7154859748
 40
0.8508769492
 40
1.0
 40
1.0
 40
1.0
 40
1.0
 10
29.0742359644
 20
-67.5764052969
 30
0.0
 10
29.0691118344
 20
-67.6040188426
 30
0.0
 10
29.054721644
 20
-67.6560937263
 30
0.0
 10
29.0177961069
 20
-67.7249181767
 30
0.0
 10
28.9671304879
 20
-67.7780496937
 30
0.0
 10
28.9042661625
 20
-67.8128964058
 30
0.0
 10
28.8320164402
 20
-67.8279497063
 30
0.0
 10
28.7533074428
 20
-67.823324107
 30
0.0
 10
28.6705458934
 20
-67.7998448538
 30
0.0
 10
28.6166014305
 20
-67.773554121
 30
0.0
 10
28.5894970114
 20
-67.7579063462
 30
0.0
  0
SPLINE
  5
27C
100
AcDbEntity
  8
0
100
AcDbSpline
 62
250
  6
CONTINUOUS
 70
0
 71
3
 72
10
 73
6
 74
0
 42
0.0000001
 43
0.0000001
 44
0.0000000001
 40
0.0
 40
0.0
 40
0.0
 40
0.0
 40
0.547715187
 40
0.7815783197
 40
1.0
 40
1.0
 40
1.0
 40
1.0
 10
-34.6259780349
 20
64.1030092963
 30
0.0
 10
-34.6259780349
 20
64.0839299801
 30
0.0
 10
-34.6219218982
 20
64.0558351679
 30
0.0
 10
-34.6035618255
 20
64.025710912
 30
0.0
 10
-34.5912327666
 20
64.0153390967
 30
0.0
 10
-34.5846509854
 20
64.0115219398
 30
0.0
  0
SPLINE
  5
27D
100
AcDbEntity
  8
0
100
AcDbSpline
 62
250
  6
CONTINUOUS
 70
0
 71
3
 72
11
 73
7
 74
0
 42
0.0000001
 43
0.0000001
 44
0.0000000001
 40
0.0
 40
0.0
 40
0.0
 40
0.0
 40
0.2352688842
 40
0.4957698503
 40
0.7585534276
 40
1.0
 40
1.0
 40
1.0
 40
1.0
 10
-35.1197470481
 20
63.8179683588
 30
0.0
 10
-35.1006158987
 20
63.8069222729
 30
0.0
 10
-35.0563119548
 20
63.7904801759
 30
0.0
 10
-34.9851405668
 20
63.7816561659
 30
0.0
 10
-34.9130981434
 20
63.7877261612
 30
0.0
 10
-34.8673760523
 20
63.8023014163
 30
0.0
 10
-34.847113886
 20
63.8124713068
 30
0.0
  0
SPLINE
  5
27E
100
AcDbEntity
  8
0
100
AcDbSpline
 62
250
  6
CONTINUOUS
 70
0
 71
3
 72
11
 73
7
 74
0
 42
0.0000001
 43
0.0000001
 44
0.0000000001
 40
0.0
 40
0.0
 40
0.0
 40
0.0
 40
0.2352688722
 40
0.4957698352
 40
0.7585534177
 40
1.0
 40
1.0
 40
1.0
 40
1.0
 10
-35.1197470481
 20
-30.4028503132
 30
0.0
 10
-35.1006158996
 20
-30.4138963986
 30
0.0
 10
-35.0563119573
 20
-30.4303384953
 30
0.0
 10
-34.9851405703
 20
-30.439162506
 30
0.0
 10
-34.9130981457
 20
-30.4330925115
 30
0.0
 10
-34.8673760532
 20
-30.4185172562
 30
0.0
 10
-34.847113886
 20
-30.4083473652
 30
0.0
  0
SPLINE
  5
27F
100
AcDbEntity
  8
0
100
AcDbSpline
 62
250
  6
CONTINUOUS
 70
0
 71
3
 72
11
 73
7
 74
0
 42
0.0000001
 43
0.0000001
 44
0.0000000001
 40
0.0
 40
0.0
 40
0.0
 40
0.0
 40
0.2352630202
 40
0.4957635245
 40
0.7585500368
 40
1.0
 40
1.0
 40
1.0
 40
1.0
 10
-34.6259780349
 20
-31.2580833305
 30
0.0
 10
-34.6259780349
 20
-31.2359929316
 30
0.0
 10
-34.6180641643
 20
-31.1894047307
 30
0.0
 10
-34.5901198109
 20
-31.1233577033
 30
0.0
 10
-34.5488423015
 20
-31.0640018717
 30
0.0
 10
-34.513359711
 20
-31.0316917311
 30
0.0
 10
-34.4944217337
 20
-31.0192280917
 30
0.0
  0
SPLINE
  5
280
100
AcDbEntity
  8
0
100
AcDbSpline
 62
250
  6
CONTINUOUS
 70
0
 71
3
 72
11
 73
7
 74
0
 42
0.0000001
 43
0.0000001
 44
0.0000000001
 40
0.0
 40
0.0
 40
0.0
 40
0.0
 40
0.2352630083
 40
0.4957635095
 40
0.7585500269
 40
1.0
 40
1.0
 40
1.0
 40
1.0
 10
28.5894970114
 20
-67.7579063462
 30
0.0
 10
28.5894970114
 20
-67.7358159484
 30
0.0
 10
28.5974108815
 20
-67.689227749
 30
0.0
 10
28.6253552337
 20
-67.6231807221
 30
0.0
 10
28.6666327431
 20
-67.5638248892
 30
0.0
 10
28.7021153346
 20
-67.5315147474
 30
0.0
 10
28.7210533125
 20
-67.5190511075
 30
0.0
  0
SPLINE
  5
281
100
AcDbEntity
  8
0
100
AcDbSpline
 62
250
  6
CONTINUOUS
 70
0
 71
3
 72
10
 73
6
 74
0
 42
0.0000001
 43
0.0000001
 44
0.0000000001
 40
0.0
 40
0.0
 40
0.0
 40
0.0
 40
0.5477070535
 40
0.7815740565
 40
1.0
 40
1.0
 40
1.0
 40
1.0
 10
29.0832660246
 20
-67.4728654087
 30
0.0
 10
29.0667421916
 20
-67.4633247546
 30
0.0
 10
29.0444386932
 20
-67.4457628425
 30
0.0
 10
29.0275289158
 20
-67.4147985068
 30
0.0
 10
29.024710067
 20
-67.3989341585
 30
0.0
 10
29.0246946277
 20
-67.3913249032
 30
0.0
  0
SPLINE
  5
282
100
AcDbEntity
  8
0
100
AcDbSpline
 62
250
  6
CONTINUOUS
 70
0
 71
3
 72
10
 73
6
 74
0
 42
0.0000001
 43
0.0000001
 44
0.0000000001
 40
0.0
 40
0.0
 40
0.0
 40
0.0
 40
0.5477265046
 40
0.7815686222
 40
1.0
 40
1.0
 40
1.0
 40
1.0
 10
29.0832660246
 20
26.7479532633
 30
0.0
 10
29.0667239323
 20
26.7575044601
 30
0.0
 10
29.0443962336
 20
26.7750904959
 30
0.0
 10
29.0274949669
 20
26.8061046031
 30
0.0
 10
29.0246969411
 20
26.8219905847
 30
0.0
 10
29.0246944931
 20
26.8296081827
 30
0.0
  0
SPLINE
  5
283
100
AcDbEntity
  8
0
100
AcDbSpline
 62
250
  6
CONTINUOUS
 70
0
 71
3
 72
10
 73
6
 74
0
 42
0.0000001
 43
0.0000001
 44
0.0000000001
 40
0.0
 40
0.0
 40
0.0
 40
0.0
 40
0.5477334832
 40
0.7815732225
 40
1.0
 40
1.0
 40
1.0
 40
1.0
 10
28.5894970114
 20
27.6031862805
 30
0.0
 10
28.5894970114
 20
27.5840871539
 30
0.0
 10
28.5935614065
 20
27.5559613166
 30
0.0
 10
28.6119659771
 20
27.5258206053
 30
0.0
 10
28.6243224212
 20
27.5154555728
 30
0.0
 10
28.6309170935
 20
27.5116450688
 30
0.0
  0
SPLINE
  5
284
100
AcDbEntity
  8
0
100
AcDbSpline
 62
250
  6
CONTINUOUS
 70
0
 71
3
 72
11
 73
7
 74
0
 42
0.0000001
 43
0.0000001
 44
0.0000000001
 40
0.0
 40
0.0
 40
0.0
 40
0.0
 40
0.2349150564
 40
0.4999618415
 40
0.7650234477
 40
1.0
 40
1.0
 40
1.0
 40
1.0
 10
-33.5670382623
 20
-29.6692368118
 30
0.0
 10
-33.5637818946
 20
-29.7259243505
 30
0.0
 10
-33.5370505321
 20
-29.8454133604
 30
0.0
 10
-33.4596887352
 20
-30.0144842194
 30
0.0
 10
-33.3519476463
 20
-30.166032619
 30
0.0
 10
-33.2618235046
 20
-30.2489459778
 30
0.0
 10
-33.21434611
 20
-30.2801175384
 30
0.0
  0
SPLINE
  5
285
100
AcDbEntity
  8
0
100
AcDbSpline
 62
250
  6
CONTINUOUS
 70
0
 71
3
 72
11
 73
7
 74
0
 42
0.0000001
 43
0.0000001
 44
0.0000000001
 40
0.0
 40
0.0
 40
0.0
 40
0.0
 40
0.2379156485
 40
0.499965901
 40
0.7620314424
 40
1.0
 40
1.0
 40
1.0
 40
1.0
 10
-34.4944217337
 20
-31.0192280917
 30
0.0
 10
-34.5455673271
 20
-30.9913928512
 30
0.0
 10
-34.6425344479
 20
-30.9132673239
 30
0.0
 10
-34.7546727653
 20
-30.7622551604
 30
0.0
 10
-34.8294015577
 20
-30.5896275189
 30
0.0
 10
-34.8485818388
 20
-30.4665712924
 30
0.0
 10
-34.847113886
 20
-30.4083473652
 30
0.0
  0
SPLINE
  5
286
100
AcDbEntity
  8
0
100
AcDbSpline
 62
250
  6
CONTINUOUS
 70
0
 71
3
 72
11
 73
7
 74
0
 42
0.0000001
 43
0.0000001
 44
0.0000000001
 40
0.0
 40
0.0
 40
0.0
 40
0.0
 40
0.2908765934
 40
0.5483310332
 40
0.7795862822
 40
1.0
 40
1.0
 40
1.0
 40
1.0
 10
-34.847113886
 20
63.8124713068
 30
0.0
 10
-34.8478119856
 20
63.8394437156
 30
0.0
 10
-34.8446907548
 20
63.8906311515
 30
0.0
 10
-34.8232646123
 20
63.9605953814
 30
0.0
 10
-34.7852260699
 20
64.0157901642
 30
0.0
 10
-34.7494875608
 20
64.0398388653
 30
0.0
 10
-34.7307031866
 20
64.0479110691
 30
0.0
  0
ELLIPSE
  5
287
100
AcDbEntity
  8
RACCORDO
100
AcDbEllipse
 62
7
  6
CONTINUOUS
 10
-33.4229687614
 20
-29.9933518704
 30
0.0
 11
-0.2500122581
 21
0.4330056244
 31
0.0
 40
0.5801478137
 41
0.7877823601
 42
2.353712702
  0
ENDSEC
  0
SECTION
  2
OBJECTS
  0
DICTIONARY
  5
C
100
AcDbDictionary
280
0
281
1
  3
ACAD_GROUP
350
D
  3
ACAD_MLINESTYLE
350
17
  3
ACAD_LAYOUT
350
1A
  3
ACAD_PLOTSETTINGS
350
19
  3
ACAD_PLOTSTYLENAME
350
E
  0
DICTIONARY
  5
D
102
{ACAD_REACTORS
330
C
102
}
100
AcDbDictionary
280
0
281
1
  0
ACDBDICTIONARYWDFLT
  5
E
102
{ACAD_REACTORS
330
C
102
}
100
AcDbDictionary
281
1
  3
Normal
350
F
100
AcDbDictionaryWithDefault
340
F
  0
DICTIONARY
  5
17
102
{ACAD_REACTORS
330
C
102
}
100
AcDbDictionary
280
0
281
1
  3
Standard
350
18
  0
DICTIONARY
  5
19
102
{ACAD_REACTORS
330
C
102
}
100
AcDbDictionary
281
1
  0
DICTIONARY
  5
1A
102
{ACAD_REACTORS
330
C
102
}
100
AcDbDictionary
281
1
  3
Model
350
288
  3
Layout1
350
289
  0
ACDBPLACEHOLDER
  5
F
102
{ACAD_REACTORS
330
E
102
}
  0
MLINESTYLE
  5
18
102
{ACAD_REACTORS
330
17
102
}
100
AcDbMlineStyle
  2
STANDARD
 70
0
  3

 62
256
 51
90.0
 52
90.0
 71
2
 49
0.5
 62
256
  6
BYLAYER
 49
-0.5
 62
256
  6
BYLAYER
  0
LAYOUT
  5
288
102
{ACAD_REACTORS
330
1A
102
}
100
AcDbPlotSettings
  1

  2
none_device
  4
ISO_A4_(297.00_x_210.00_MM)
  6

 40
0.0
 41
0.0
 42
0.0
 43
0.0
 44
297.0
 45
210.0
 46
0.0
 47
0.0
 48
0.0
 49
0.0
140
0.0
141
0.0
142
1.0
143
1.0
 70
1024
 72
1
 73
0
 74
0
  7

 75
0
147
1.0
148
0.0
149
0.0
100
AcDbLayout
  1
Model
 70
0
 71
0
 10
0.0
 20
0.0
 11
297.0
 21
210.0
 12
0.0
 22
0.0
 32
0.0
 14
0.0
 24
0.0
 34
0.0
 15
0.0
 25
0.0
 35
0.0
146
0.0
 13
0.0
 23
0.0
 33
0.0
 16
1.0
 26
0.0
 36
0.0
 17
0.0
 27
1.0
 37
0.0
 76
0
330
21C
345
0
346
0
  0
LAYOUT
  5
289
102
{ACAD_REACTORS
330
1A
102
}
100
AcDbPlotSettings
  1

  2
none_device
  4
ISO_A4_(297.00_x_210.00_MM)
  6

 40
0.0
 41
0.0
 42
0.0
 43
0.0
 44
297.0
 45
210.0
 46
0.0
 47
0.0
 48
0.0
 49
0.0
140
0.0
141
0.0
142
1.0
143
1.0
 70
0
 72
1
 73
0
 74
0
  7

 75
0
147
1.0
148
0.0
149
0.0
100
AcDbLayout
  1
Layout1
 70
0
 71
1
 10
0.0
 20
0.0
 11
297.0
 21
210.0
 12
0.0
 22
0.0
 32
0.0
 14
0.0
 24
0.0
 34
0.0
 15
0.0
 25
0.0
 35
0.0
146
0.0
 13
0.0
 23
0.0
 33
0.0
 16
1.0
 26
0.0
 36
0.0
 17
0.0
 27
1.0
 37
0.0
 76
0
330
21D
345
0
346
0
  0
ENDSEC
  0
EOF
