  0
SECTION
  2
HEADER
  9
$ACADVER
  1
AC1024
  9
$DWGCODEPAGE
  3
ANSI_1252
  9
$EXTMAX
 10
297.0
 20
210.0
 30
0.0
  9
$EXTMIN
 10
0.0
 20
0.0
 30
0.0
  9
$LIMMIN
 10
0.0
 20
0.0
  9
$LIMMAX
 10
297.0
 20
210.0
  9
$VIEWCTR
 10
148.5
 20
105.0
  9
$VIEWSIZE
 40
210.0
  9
$CLAYER
  8
0
  9
$LTSCALE
 40
16.335
  9
$CELTYPE
  6
BYLAYER
  9
$DIMSCALE
 40
1.0
  9
$DIMASZ
 40
3.0
  9
$DIMEXO
 40
0.5
  9
$DIMDLI
 40
11.286
  9
$DIMEXE
 40
1.5
  9
$DIMCEN
 40
2.673
  9
$DIMLFAC
 40
1.0
  9
$DIMBLK
  1
_FILLED
  9
$DIMALT
 70
0
  9
$DIMALTF
 40
0.0393700787
  9
$DIMTXT
 40
3.0
  9
$DIMTOL
 70
1
  9
$DIMLIM
 70
0
  9
$DIMTFAC
 40
1.0
  9
$DIMTP
 40
0.01
  9
$DIMTM
 40
0.01
  9
$DIMGAP
 40
0.625
  9
$DIMDSEP
 70
44
  9
$AUNITS
 70
0
  9
$PDMODE
 70
3
  9
$PDSIZE
 40
3.0
  9
$HANDSEED
  5
271
  9
$TILEMODE
 70
1
  9
$MEASUREMENT
 70
1
  9
$INSUNITS
 70
4
  0
ENDSEC
  0
SECTION
  2
CLASSES
  0
CLASS
  1
ACDBDICTIONARYWDFLT
  2
AcDbDictionaryWithDefault
  3
AutoCAD 2000
 90
0
 91
1
280
0
281
0
  0
CLASS
  1
ACDBPLACEHOLDER
  2
AcDbPlaceHolder
  3
AutoCAD 2000
 90
0
 91
1
280
0
281
0
  0
CLASS
  1
LAYOUT
  2
AcDbLayout
  3
AutoCAD 2000
 90
0
 91
0
280
0
281
0
  0
ENDSEC
  0
SECTION
  2
TABLES
  0
TABLE
  2
VPORT
  5
8
100
AcDbSymbolTable
 70
2
  0
VPORT
  5
1F4
100
AcDbSymbolTableRecord
100
AcDbViewportTableRecord
  2
*ACTIVE
 70
0
 10
0.0
 20
0.0
 11
1.0
 21
1.0
 12
148.5
 22
105.0
 13
0.0
 23
0.0
 14
1.0
 24
1.0
 15
0.0
 25
0.0
 16
0.0
 26
0.0
 36
1.0
 17
0.0
 27
0.0
 37
0.0
 40
210.0
 41
1.4142857143
 42
50.0
 43
0.0
 44
0.0
 50
0.0
 51
0.0
 71
0
 72
100
 73
1
 74
1
 75
0
 76
0
 77
0
 78
0
  0
ENDTAB
  0
TABLE
  2
LTYPE
  5
5
100
AcDbSymbolTable
 70
6
  0
LTYPE
  5
14
100
AcDbSymbolTableRecord
100
AcDbLinetypeTableRecord
  2
BYBLOCK
 70
0
  3

 72
65
 73
0
 40
0.0
  0
LTYPE
  5
15
100
AcDbSymbolTableRecord
100
AcDbLinetypeTableRecord
  2
BYLAYER
 70
0
  3

 72
65
 73
0
 40
0.0
  0
LTYPE
  5
16
100
AcDbSymbolTableRecord
100
AcDbLinetypeTableRecord
  2
CONTINUOUS
 70
64
  3
Solid line
 72
65
 73
0
 40
0.0
  0
LTYPE
  5
1F5
100
AcDbSymbolTableRecord
100
AcDbLinetypeTableRecord
  2
CENTER
 70
64
  3
____ _ ____ _ ____ _ ____ _ ____ _ ____ _ ____
 72
65
 73
4
 40
0.6
 49
0.375
 74
0
 49
-0.075
 74
0
 49
0.075
 74
0
 49
-0.075
 74
0
  0
LTYPE
  5
1F6
100
AcDbSymbolTableRecord
100
AcDbLinetypeTableRecord
  2
HIDDEN
 70
64
  3
- - - - - - - - - - - - - - - - - - - -
 72
65
 73
2
 40
0.2
 49
0.1
 74
0
 49
-0.1
 74
0
  0
LTYPE
  5
1F7
100
AcDbSymbolTableRecord
100
AcDbLinetypeTableRecord
  2
PHANTOM
 70
64
  3
_____ _ _ _____ _ _ _____ _ _ _____
 72
65
 73
6
 40
0.8
 49
0.45
 74
0
 49
-0.05
 74
0
 49
0.1
 74
0
 49
-0.05
 74
0
 49
0.1
 74
0
 49
-0.05
 74
0
  0
LTYPE
  5
1F8
100
AcDbSymbolTableRecord
100
AcDbLinetypeTableRecord
  2
DOT
 70
64
  3
. . . . . . . . . . . . . . . . . . . .
 72
65
 73
2
 40
0.2
 49
0.1
 74
0
 49
-0.1
 74
0
  0
LTYPE
  5
1F9
100
AcDbSymbolTableRecord
100
AcDbLinetypeTableRecord
  2
DASHED
 70
64
  3
- - - - - - - - - - - - - - - - - - - -
 72
65
 73
2
 40
0.2
 49
0.1
 74
0
 49
-0.1
 74
0
  0
ENDTAB
  0
TABLE
  2
LAYER
  5
2
100
AcDbSymbolTable
 70
36
  0
LAYER
  5
10
100
AcDbSymbolTableRecord
100
AcDbLayerTableRecord
  2
0
 70
0
 62
7
  6
CONTINUOUS
370
-3
390
F
  0
LAYER
  5
1FA
100
AcDbSymbolTableRecord
100
AcDbLayerTableRecord
  2
DEFAULT_1
 70
0
 62
7
  6
CENTER
370
-3
390
F
  0
LAYER
  5
1FB
100
AcDbSymbolTableRecord
100
AcDbLayerTableRecord
  2
DEFAULT_2
 70
0
 62
7
  6
HIDDEN
370
-3
390
F
  0
LAYER
  5
1FC
100
AcDbSymbolTableRecord
100
AcDbLayerTableRecord
  2
DEFAULT_3
 70
0
 62
7
  6
PHANTOM
370
-3
390
F
  0
LAYER
  5
1FD
100
AcDbSymbolTableRecord
100
AcDbLayerTableRecord
  2
ASSI
 70
0
 62
7
  6
CONTINUOUS
370
-3
390
F
  0
LAYER
  5
1FE
100
AcDbSymbolTableRecord
100
AcDbLayerTableRecord
  2
COORDINATE
 70
0
 62
7
  6
CONTINUOUS
370
-3
390
F
  0
LAYER
  5
1FF
100
AcDbSymbolTableRecord
100
AcDbLayerTableRecord
  2
COORD_ORIGINE
 70
0
 62
7
  6
CONTINUOUS
370
-3
390
F
  0
LAYER
  5
200
100
AcDbSymbolTableRecord
100
AcDbLayerTableRecord
  2
COPY_PUBLISH
 70
0
 62
7
  6
CONTINUOUS
370
-3
390
F
  0
LAYER
  5
201
100
AcDbSymbolTableRecord
100
AcDbLayerTableRecord
  2
COSMETIC
 70
0
 62
7
  6
CONTINUOUS
370
-3
390
F
  0
LAYER
  5
202
100
AcDbSymbolTableRecord
100
AcDbLayerTableRecord
  2
COSMETICI
 70
0
 62
7
  6
CONTINUOUS
370
-3
390
F
  0
LAYER
  5
203
100
AcDbSymbolTableRecord
100
AcDbLayerTableRecord
  2
CURVE
 70
0
 62
7
  6
CONTINUOUS
370
-3
390
F
  0
LAYER
  5
204
100
AcDbSymbolTableRecord
100
AcDbLayerTableRecord
  2
CURVE_TASSELLI
 70
0
 62
7
  6
CONTINUOUS
370
-3
390
F
  0
LAYER
  5
205
100
AcDbSymbolTableRecord
100
AcDbLayerTableRecord
  2
DRAFT
 70
0
 62
7
  6
CONTINUOUS
370
-3
390
F
  0
LAYER
  5
206
100
AcDbSymbolTableRecord
100
AcDbLayerTableRecord
  2
IGES
 70
0
 62
7
  6
CONTINUOUS
370
-3
390
F
  0
LAYER
  5
207
100
AcDbSymbolTableRecord
100
AcDbLayerTableRecord
  2
IMPORT_IGES
 70
0
 62
7
  6
CONTINUOUS
370
-3
390
F
  0
LAYER
  5
208
100
AcDbSymbolTableRecord
100
AcDbLayerTableRecord
  2
INTFCLR_2
 70
0
 62
7
  6
CONTINUOUS
370
-3
390
F
  0
LAYER
  5
209
100
AcDbSymbolTableRecord
100
AcDbLayerTableRecord
  2
INTF_1
 70
0
 62
7
  6
CONTINUOUS
370
-3
390
F
  0
LAYER
  5
20A
100
AcDbSymbolTableRecord
100
AcDbLayerTableRecord
  2
INTF_11
 70
0
 62
7
  6
CONTINUOUS
370
-3
390
F
  0
LAYER
  5
20B
100
AcDbSymbolTableRecord
100
AcDbLayerTableRecord
  2
INTF_21
 70
0
 62
7
  6
CONTINUOUS
370
-3
390
F
  0
LAYER
  5
20C
100
AcDbSymbolTableRecord
100
AcDbLayerTableRecord
  2
INTF_7
 70
0
 62
7
  6
CONTINUOUS
370
-3
390
F
  0
LAYER
  5
20D
100
AcDbSymbolTableRecord
100
AcDbLayerTableRecord
  2
NOTE
 70
0
 62
7
  6
CONTINUOUS
370
-3
390
F
  0
LAYER
  5
20E
100
AcDbSymbolTableRecord
100
AcDbLayerTableRecord
  2
PIANI
 70
0
 62
7
  6
CONTINUOUS
370
-3
390
F
  0
LAYER
  5
20F
100
AcDbSymbolTableRecord
100
AcDbLayerTableRecord
  2
PIANI_ORIGINE
 70
0
 62
7
  6
CONTINUOUS
370
-3
390
F
  0
LAYER
  5
210
100
AcDbSymbolTableRecord
100
AcDbLayerTableRecord
  2
PIANI_RIFERIMENTO
 70
0
 62
7
  6
CONTINUOUS
370
-3
390
F
  0
LAYER
  5
211
100
AcDbSymbolTableRecord
100
AcDbLayerTableRecord
  2
PUNTI
 70
0
 62
7
  6
CONTINUOUS
370
-3
390
F
  0
LAYER
  5
212
100
AcDbSymbolTableRecord
100
AcDbLayerTableRecord
  2
RACCORDO
 70
0
 62
7
  6
CONTINUOUS
370
-3
390
F
  0
LAYER
  5
213
100
AcDbSymbolTableRecord
100
AcDbLayerTableRecord
  2
RGB__255__255__255__
 70
0
 62
7
  6
CONTINUOUS
370
-3
390
F
  0
LAYER
  5
214
100
AcDbSymbolTableRecord
100
AcDbLayerTableRecord
  2
RGB____0____0____0__
 70
0
 62
7
  6
CONTINUOUS
370
-3
390
F
  0
LAYER
  5
215
100
AcDbSymbolTableRecord
100
AcDbLayerTableRecord
  2
SIMBOLI
 70
0
 62
7
  6
CONTINUOUS
370
-3
390
F
  0
LAYER
  5
216
100
AcDbSymbolTableRecord
100
AcDbLayerTableRecord
  2
SMUSSO
 70
0
 62
7
  6
CONTINUOUS
370
-3
390
F
  0
LAYER
  5
217
100
AcDbSymbolTableRecord
100
AcDbLayerTableRecord
  2
SNAPLINE
 70
0
 62
7
  6
CONTINUOUS
370
-3
390
F
  0
LAYER
  5
218
100
AcDbSymbolTableRecord
100
AcDbLayerTableRecord
  2
SUPERFICI
 70
0
 62
7
  6
CONTINUOUS
370
-3
390
F
  0
LAYER
  5
219
100
AcDbSymbolTableRecord
100
AcDbLayerTableRecord
  2
TRASH
 70
0
 62
7
  6
CONTINUOUS
370
-3
390
F
  0
LAYER
  5
21A
100
AcDbSymbolTableRecord
100
AcDbLayerTableRecord
  2
XSEC_DATUMS
 70
0
 62
7
  6
CONTINUOUS
370
-3
390
F
  0
ENDTAB
  0
TABLE
  2
STYLE
  5
3
100
AcDbSymbolTable
 70
1
  0
STYLE
  5
11
100
AcDbSymbolTableRecord
100
AcDbTextStyleTableRecord
  2
STANDARD
 70
0
 40
0.0
 41
0.8
 50
0.0
 71
0
 42
0.2
  3
txt
  4

  0
STYLE
  5
21B
100
AcDbSymbolTableRecord
100
AcDbTextStyleTableRecord
  2
TEXTSTYLE_1
 70
0
 40
0.0
 41
0.8
 50
0.0
 71
0
 42
0.2
  3
gdt
  4

  0
ENDTAB
  0
TABLE
  2
VIEW
  5
6
100
AcDbSymbolTable
 70
0
  0
ENDTAB
  0
TABLE
  2
UCS
  5
7
100
AcDbSymbolTable
 70
0
  0
ENDTAB
  0
TABLE
  2
APPID
  5
9
100
AcDbSymbolTable
 70
1
  0
APPID
  5
21C
100
AcDbSymbolTableRecord
100
AcDbRegAppTableRecord
  2
ACAD
 70
0
  0
ENDTAB
  0
TABLE
  2
BLOCK_RECORD
  5
1
100
AcDbSymbolTable
 70
0
  0
BLOCK_RECORD
  5
21D
100
AcDbSymbolTableRecord
100
AcDbBlockTableRecord
  2
*Model_Space
  0
BLOCK_RECORD
  5
21E
100
AcDbSymbolTableRecord
100
AcDbBlockTableRecord
  2
*Paper_Space
  0
BLOCK_RECORD
  5
21F
100
AcDbSymbolTableRecord
100
AcDbBlockTableRecord
  2
_FILLED
  0
ENDTAB
  0
TABLE
  2
DIMSTYLE
  5
A
100
AcDbSymbolTable
 70
1
100
AcDbDimStyleTable
 71
0
  0
DIMSTYLE
105
220
100
AcDbSymbolTableRecord
100
AcDbDimStyleTableRecord
  2
STANDARD
 70
0
  3

  4

 40
1.0
 41
3.0
 42
0.5
 43
0.38
 44
1.5
 45
0.0
 46
0.0
 47
0.01
 48
0.01
140
3.0
141
0.09
142
0.0
143
25.4
144
1.0
145
0.0
146
1.0
147
0.625
 71
1
 72
0
 73
0
 74
0
 75
0
 76
0
 77
1
 78
8
 79
2
170
0
171
1
172
0
173
0
174
0
175
0
176
0
177
0
178
0
270
2
179
2
271
2
272
2
273
2
274
2
275
0
280
0
281
0
282
0
283
1
284
8
285
0
286
0
287
3
288
0
340
11
278
44
341
21F
342
21F
343
21F
344
21F
  0
ENDTAB
  0
ENDSEC
  0
SECTION
  2
BLOCKS
  0
BLOCK
  5
20
100
AcDbEntity
  8
0
100
AcDbBlockBegin
  2
*Model_Space
 70
0
 10
0.0
 20
0.0
 30
0.0
  3
*Model_Space
  1

  0
ENDBLK
  5
21
100
AcDbEntity
  8
0
100
AcDbBlockEnd
  0
BLOCK
  5
1C
100
AcDbEntity
  8
0
100
AcDbBlockBegin
  2
*Paper_Space
 70
0
 10
0.0
 20
0.0
 30
0.0
  3
*Paper_Space
  1

  0
ENDBLK
  5
1D
100
AcDbEntity
  8
0
100
AcDbBlockEnd
  0
BLOCK
  5
221
100
AcDbEntity
  8
0
100
AcDbBlockBegin
  2
_FILLED
 70
64
 10
0.0
 20
0.0
  3
_FILLED
  1

  0
SOLID
  5
222
100
AcDbEntity
  8
0
  6
BYBLOCK
 62
0
100
AcDbTrace
 10
0.0
 20
0.0
 11
-1.0
 21
0.3166666667
 12
-1.0
 22
-0.3166666667
 13
-1.0
 23
-0.3166666667
  0
ENDBLK
  5
223
100
AcDbEntity
  8
0
  6
BYBLOCK
 62
0
100
AcDbBlockEnd
  0
ENDSEC
  0
SECTION
  2
ENTITIES
  0
LINE
  5
224
100
AcDbEntity
  8
RACCORDO
100
AcDbLine
 62
7
  6
CONTINUOUS
 10
-56.8917899598
 20
94.6282490699
 11
-55.831129788
 21
95.2406609598
  0
LINE
  5
225
100
AcDbEntity
  8
SMUSSO
100
AcDbLine
 62
250
  6
CONTINUOUS
 10
-56.3917657996
 20
94.5787078922
 11
-55.3311056278
 21
95.1911197822
  0
LINE
  5
226
100
AcDbEntity
  8
0
100
AcDbLine
 62
7
  6
CONTINUOUS
 10
-52.8149450526
 20
95.8402943636
 11
-54.6998260856
 21
94.8266663412
  0
LINE
  5
227
100
AcDbEntity
  8
0
100
AcDbLine
 62
250
  6
CONTINUOUS
 10
-52.2943348412
 20
95.8016697424
 11
-54.4130298236
 21
94.6623041446
  0
LINE
  5
228
100
AcDbEntity
  8
SMUSSO
100
AcDbLine
 62
250
  6
CONTINUOUS
 10
-57.0988725808
 20
93.3539630221
 11
-56.3917657996
 21
94.5787078922
  0
LINE
  5
229
100
AcDbEntity
  8
SMUSSO
100
AcDbLine
 62
250
  6
CONTINUOUS
 10
51.8662824
 20
-95.3792214635
 11
53.2804959624
 21
-95.3792214635
  0
LINE
  5
22A
100
AcDbEntity
  8
RACCORDO
100
AcDbLine
 62
250
  6
CONTINUOUS
 10
-34.5068109219
 20
63.8577136879
 11
-33.6583237886
 21
64.3476195246
  0
LINE
  5
22B
100
AcDbEntity
  8
SMUSSO
100
AcDbLine
 62
7
  6
CONTINUOUS
 10
-57.0988725808
 20
-32.4641066317
 11
-57.0988725808
 21
94.1705122087
  0
LINE
  5
22C
100
AcDbEntity
  8
SMUSSO
100
AcDbLine
 62
7
  6
CONTINUOUS
 10
51.8662824
 20
-95.3792214635
 11
52.5733891812
 21
-95.787417147
  0
LINE
  5
22D
100
AcDbEntity
  8
SMUSSO
100
AcDbLine
 62
7
  6
CONTINUOUS
 10
-57.0988725808
 20
-32.4641066317
 11
51.8662824
 21
-95.3792214635
  0
LINE
  5
22E
100
AcDbEntity
  8
RACCORDO
100
AcDbLine
 62
7
  6
CONTINUOUS
 10
-33.6582827845
 20
-30.5262976553
 11
28.4256926037
 21
-66.3728069495
  0
LINE
  5
22F
100
AcDbEntity
  8
RACCORDO
100
AcDbLine
 62
7
  6
CONTINUOUS
 10
-31.5369624409
 20
-29.3014738753
 11
29.2742207411
 21
-64.4130889015
  0
LINE
  5
230
100
AcDbEntity
  8
RACCORDO
100
AcDbLine
 62
7
  6
CONTINUOUS
 10
-34.5068109219
 20
63.8577136879
 11
-34.5068109219
 21
-29.0566038112
  0
LINE
  5
231
100
AcDbEntity
  8
RACCORDO
100
AcDbLine
 62
7
  6
CONTINUOUS
 10
-32.3854905783
 20
63.61265424
 11
-32.3854905783
 21
-27.8317800312
  0
LINE
  5
232
100
AcDbEntity
  8
0
100
AcDbLine
 62
250
  6
CONTINUOUS
 10
-31.793154817
 20
-29.1074702053
 11
-31.793154817
 21
63.2706469952
  0
LINE
  5
233
100
AcDbEntity
  8
0
100
AcDbLine
 62
7
  6
CONTINUOUS
 10
-31.7089567571
 20
-29.1813971458
 11
-31.7089567571
 21
63.2220320906
  0
LINE
  5
234
100
AcDbEntity
  8
SMUSSO
100
AcDbLine
 62
250
  6
CONTINUOUS
 10
52.5733891812
 20
31.6635930604
 11
53.634049353
 21
32.2760049504
  0
LINE
  5
235
100
AcDbEntity
  8
0
100
AcDbLine
 62
250
  6
CONTINUOUS
 10
53.6352123643
 20
32.2766032678
 11
55.6812123261
 21
33.4579420595
  0
LINE
  5
236
100
AcDbEntity
  8
0
100
AcDbLine
 62
250
  6
CONTINUOUS
 10
54.3422114497
 20
31.0520449322
 11
56.3882114115
 21
32.2333837239
  0
LINE
  5
237
100
AcDbEntity
  8
SMUSSO
100
AcDbLine
 62
250
  6
CONTINUOUS
 10
53.2804959624
 20
30.4388481903
 11
54.3411561342
 21
31.0512600802
  0
LINE
  5
238
100
AcDbEntity
  8
RACCORDO
100
AcDbLine
 62
250
  6
CONTINUOUS
 10
-34.5068109219
 20
-29.0566038112
 11
-32.3854905783
 21
-27.8317800312
  0
LINE
  5
239
100
AcDbEntity
  8
RACCORDO
100
AcDbLine
 62
250
  6
CONTINUOUS
 10
-33.6582827845
 20
-30.5262976553
 11
-31.5369624409
 21
-29.3014738753
  0
LINE
  5
23A
100
AcDbEntity
  8
RACCORDO
100
AcDbLine
 62
7
  6
CONTINUOUS
 10
29.2742207411
 20
-65.8829721293
 11
29.2742207411
 21
27.0313453697
  0
LINE
  5
23B
100
AcDbEntity
  8
SMUSSO
100
AcDbLine
 62
250
  6
CONTINUOUS
 10
51.8662824
 20
30.4388481903
 11
52.5733891812
 21
31.6635930604
  0
LINE
  5
23C
100
AcDbEntity
  8
SMUSSO
100
AcDbLine
 62
250
  6
CONTINUOUS
 10
51.8662824
 20
30.4388481903
 11
53.2804959624
 21
30.4388481903
  0
LINE
  5
23D
100
AcDbEntity
  8
0
100
AcDbLine
 62
250
  6
CONTINUOUS
 10
56.3917657996
 20
32.1678240898
 11
57.0988725808
 21
33.3383902059
  0
LINE
  5
23E
100
AcDbEntity
  8
0
100
AcDbLine
 62
250
  6
CONTINUOUS
 10
55.6262112045
 20
33.4938035432
 11
56.9934005677
 21
33.5210730912
  0
LINE
  5
23F
100
AcDbEntity
  8
RACCORDO
100
AcDbLine
 62
7
  6
CONTINUOUS
 10
28.4256926037
 20
28.5010392138
 11
-33.6582827845
 21
64.347548508
  0
LINE
  5
240
100
AcDbEntity
  8
SMUSSO
100
AcDbLine
 62
7
  6
CONTINUOUS
 10
51.8662824
 20
-95.3792214635
 11
51.8662824
 21
30.4388481903
  0
LINE
  5
241
100
AcDbEntity
  8
SMUSSO
100
AcDbLine
 62
7
  6
CONTINUOUS
 10
51.8662824
 20
30.4388481903
 11
-57.0988725808
 21
93.3539630221
  0
LINE
  5
242
100
AcDbEntity
  8
SMUSSO
100
AcDbLine
 62
7
  6
CONTINUOUS
 10
53.2804959624
 20
-95.3792214635
 11
53.2804959624
 21
30.4388481903
  0
LINE
  5
243
100
AcDbEntity
  8
SMUSSO
100
AcDbLine
 62
7
  6
CONTINUOUS
 10
54.3411561342
 20
31.4595346736
 11
54.3411561342
 21
-94.7668095735
  0
LINE
  5
244
100
AcDbEntity
  8
0
100
AcDbLine
 62
7
  6
CONTINUOUS
 10
56.3917657996
 20
32.1678240898
 11
56.3917657996
 21
-92.3722120804
  0
LINE
  5
245
100
AcDbEntity
  8
0
100
AcDbLine
 62
7
  6
CONTINUOUS
 10
57.0988725808
 20
33.3383902059
 11
57.0988725808
 21
-90.2765814499
  0
LINE
  5
246
100
AcDbEntity
  8
SMUSSO
100
AcDbLine
 62
7
  6
CONTINUOUS
 10
52.5733891812
 20
31.6635930604
 11
-56.3917657996
 21
94.5787078922
  0
LINE
  5
247
100
AcDbEntity
  8
SMUSSO
100
AcDbLine
 62
7
  6
CONTINUOUS
 10
-55.3311056278
 20
95.1911197822
 11
53.9876027436
 21
32.0719071086
  0
LINE
  5
248
100
AcDbEntity
  8
0
100
AcDbLine
 62
7
  6
CONTINUOUS
 10
-52.2320986548
 20
95.7698398738
 11
55.6262112045
 21
33.4938035432
  0
LINE
  5
249
100
AcDbEntity
  8
0
100
AcDbLine
 62
7
  6
CONTINUOUS
 10
-50.063754112
 20
95.334532462
 11
56.9934005677
 21
33.5210730912
  0
LINE
  5
24A
100
AcDbEntity
  8
RACCORDO
100
AcDbLine
 62
250
  6
CONTINUOUS
 10
28.4256926037
 20
-66.3728069495
 11
29.274179737
 21
-65.8829011127
  0
LINE
  5
24B
100
AcDbEntity
  8
0
100
AcDbLine
 62
7
  6
CONTINUOUS
 10
57.0940324155
 20
-90.3107437387
 11
56.3479860791
 21
-92.6472589442
  0
LINE
  5
24C
100
AcDbEntity
  8
0
100
AcDbLine
 62
7
  6
CONTINUOUS
 10
-50.0957695205
 20
95.3474258582
 11
-52.4922641147
 21
95.8694777458
  0
LINE
  5
24D
100
AcDbEntity
  8
0
100
AcDbLine
 62
250
  6
CONTINUOUS
 10
56.3917657996
 20
-92.3722120804
 11
57.0988725808
 21
-90.2765814499
  0
LINE
  5
24E
100
AcDbEntity
  8
0
100
AcDbLine
 62
250
  6
CONTINUOUS
 10
-52.2320986548
 20
95.7698398738
 11
-50.063754112
 21
95.334532462
  0
LINE
  5
24F
100
AcDbEntity
  8
0
100
AcDbLine
 62
250
  6
CONTINUOUS
 10
54.3422114497
 20
-93.7072991348
 11
56.3882114115
 21
-92.4420220678
  0
LINE
  5
250
100
AcDbEntity
  8
0
100
AcDbLine
 62
7
  6
CONTINUOUS
 10
54.3411561342
 20
-94.0377850568
 11
56.1613824973
 21
-92.9121297699
  0
LINE
  5
251
100
AcDbEntity
  8
SMUSSO
100
AcDbLine
 62
250
  6
CONTINUOUS
 10
53.2804959624
 20
-95.3792214635
 11
54.3411561342
 21
-94.7668095735
  0
LINE
  5
252
100
AcDbEntity
  8
RACCORDO
100
AcDbLine
 62
7
  6
CONTINUOUS
 10
53.0734133414
 20
-95.8369583247
 11
54.1340735131
 21
-95.2245464347
  0
ARC
  5
253
100
AcDbEntity
  8
0
100
AcDbCircle
 62
7
  6
CONTINUOUS
 10
55.7905288729
 20
32.1681035336
 40
0.6012369916
100
AcDbArc
 50
359.9733699842
 51
6.2332618266
  0
ARC
  5
254
100
AcDbEntity
  8
0
100
AcDbCircle
 62
7
  6
CONTINUOUS
 10
55.3310010935
 20
32.9809281682
 40
0.5917686709
100
AcDbArc
 50
53.7148497753
 51
60.0753494146
  0
SPLINE
  5
255
100
AcDbEntity
  8
0
100
AcDbSpline
 62
7
  6
CONTINUOUS
 70
0
 71
3
 72
9
 73
5
 74
0
 42
0.0000001
 43
0.0000001
 44
0.0000000001
 40
0.0
 40
0.0
 40
0.0
 40
0.0
 40
0.5344795935
 40
1.0
 40
1.0
 40
1.0
 40
1.0
 10
-52.4922650915
 20
95.8694767706
 30
0.0
 10
-52.5495674023
 20
95.8819588795
 30
0.0
 10
-52.6604475346
 20
95.8935588394
 30
0.0
 10
-52.769958382
 20
95.8644861154
 30
0.0
 10
-52.8149443941
 20
95.8402917003
 30
0.0
  0
SPLINE
  5
256
100
AcDbEntity
  8
0
100
AcDbSpline
 62
7
  6
CONTINUOUS
 70
0
 71
3
 72
9
 73
5
 74
0
 42
0.0000001
 43
0.0000001
 44
0.0000000001
 40
0.0
 40
0.0
 40
0.0
 40
0.0
 40
0.465520979
 40
1.0
 40
1.0
 40
1.0
 40
1.0
 10
56.1613805287
 20
-92.9121278761
 30
0.0
 10
56.2048256484
 20
-92.8852633037
 30
0.0
 10
56.2847554731
 20
-92.8049552846
 30
0.0
 10
56.3301455961
 20
-92.7031270406
 30
0.0
 10
56.3479847625
 20
-92.647259322
 30
0.0
  0
SPLINE
  5
257
100
AcDbEntity
  8
0
100
AcDbSpline
 62
7
  6
CONTINUOUS
 70
0
 71
3
 72
9
 73
5
 74
0
 42
0.0000001
 43
0.0000001
 44
0.0000000001
 40
0.0
 40
0.0
 40
0.0
 40
0.0
 40
0.2445454692
 40
1.0
 40
1.0
 40
1.0
 40
1.0
 10
-52.2320986548
 20
95.7698398738
 30
0.0
 10
-52.2370344754
 20
95.7726897548
 30
0.0
 10
-52.2573766282
 20
95.7840683011
 30
0.0
 10
-52.2783037513
 20
95.7943889947
 30
0.0
 10
-52.2943348412
 20
95.8016697424
 30
0.0
  0
SPLINE
  5
258
100
AcDbEntity
  8
0
100
AcDbSpline
 62
7
  6
CONTINUOUS
 70
0
 71
3
 72
9
 73
5
 74
0
 42
0.0000001
 43
0.0000001
 44
0.0000000001
 40
0.0
 40
0.0
 40
0.0
 40
0.0
 40
0.2364210734
 40
1.0
 40
1.0
 40
1.0
 40
1.0
 10
56.3479847625
 20
-92.647259322
 30
0.0
 10
56.3530037395
 20
-92.6315411663
 30
0.0
 10
56.3720573008
 20
-92.564362506
 30
0.0
 10
56.3830336576
 20
-92.4950607218
 30
0.0
 10
56.3882114115
 20
-92.4420220678
 30
0.0
  0
SPLINE
  5
259
100
AcDbEntity
  8
0
100
AcDbSpline
 62
7
  6
CONTINUOUS
 70
0
 71
3
 72
9
 73
5
 74
0
 42
0.0000001
 43
0.0000001
 44
0.0000000001
 40
0.0
 40
0.0
 40
0.0
 40
0.0
 40
0.25532863
 40
1.0
 40
1.0
 40
1.0
 40
1.0
 10
56.3882114115
 20
-92.4420220678
 30
0.0
 10
56.3887895613
 20
-92.4360997523
 30
0.0
 10
56.3908026348
 20
-92.4128818161
 30
0.0
 10
56.3917657996
 20
-92.3895667487
 30
0.0
 10
56.3917657996
 20
-92.3722120804
 30
0.0
  0
SPLINE
  5
25A
100
AcDbEntity
  8
0
100
AcDbSpline
 62
7
  6
CONTINUOUS
 70
0
 71
3
 72
11
 73
7
 74
0
 42
0.0000001
 43
0.0000001
 44
0.0000000001
 40
0.0
 40
0.0
 40
0.0
 40
0.0
 40
0.2338760393
 40
0.4999928509
 40
0.7661133673
 40
1.0
 40
1.0
 40
1.0
 40
1.0
 10
56.3882114115
 20
32.2333837239
 30
0.0
 10
56.3758161269
 20
32.3455332804
 30
0.0
 10
56.318287816
 20
32.5820770663
 30
0.0
 10
56.1630413527
 20
32.9197436708
 30
0.0
 10
55.9482334445
 20
33.2230283327
 30
0.0
 10
55.7721413831
 20
33.3911271958
 30
0.0
 10
55.6812123261
 20
33.4579420595
 30
0.0
  0
SPLINE
  5
25B
100
AcDbEntity
  8
0
100
AcDbSpline
 62
7
  6
CONTINUOUS
 70
0
 71
3
 72
9
 73
5
 74
0
 42
0.0000001
 43
0.0000001
 44
0.0000000001
 40
0.0
 40
0.0
 40
0.0
 40
0.0
 40
0.2635730359
 40
1.0
 40
1.0
 40
1.0
 40
1.0
 10
-52.2943348412
 20
95.8016697424
 30
0.0
 10
-52.3110879013
 20
95.8092783833
 30
0.0
 10
-52.3752353675
 20
95.8367817526
 30
0.0
 10
-52.4420334126
 20
95.8585348508
 30
0.0
 10
-52.4922650915
 20
95.8694767706
 30
0.0
  0
SPLINE
  5
25C
100
AcDbEntity
  8
SMUSSO
100
AcDbSpline
 62
7
  6
CONTINUOUS
 70
0
 71
3
 72
11
 73
7
 74
0
 42
0.0000001
 43
0.0000001
 44
0.0000000001
 40
0.0
 40
0.0
 40
0.0
 40
0.0
 40
0.2177664653
 40
0.4509472467
 40
0.7101858553
 40
1.0
 40
1.0
 40
1.0
 40
1.0
 10
-55.8311284431
 20
95.2406586305
 30
0.0
 10
-55.7981433492
 20
95.2597038053
 30
0.0
 10
-55.7223468547
 20
95.2872344403
 30
0.0
 10
-55.5964686025
 20
95.2903814013
 30
0.0
 10
-55.4622832329
 20
95.2580230922
 30
0.0
 10
-55.3750037833
 20
95.216466027
 30
0.0
 10
-55.3311056278
 20
95.1911197822
 30
0.0
  0
SPLINE
  5
25D
100
AcDbEntity
  8
SMUSSO
100
AcDbSpline
 62
7
  6
CONTINUOUS
 70
0
 71
3
 72
11
 73
7
 74
0
 42
0.0000001
 43
0.0000001
 44
0.0000000001
 40
0.0
 40
0.0
 40
0.0
 40
0.0
 40
0.2177695416
 40
0.4509576504
 40
0.7101824752
 40
1.0
 40
1.0
 40
1.0
 40
1.0
 10
-56.8917873054
 20
94.6282474966
 30
0.0
 10
-56.9247679324
 20
94.6092049009
 30
0.0
 10
-56.9864971879
 20
94.5573325683
 30
0.0
 10
-57.052157031
 20
94.449911495
 30
0.0
 10
-57.0912093786
 20
94.3175418963
 30
0.0
 10
-57.0988725808
 20
94.2211952596
 30
0.0
 10
-57.0988725808
 20
94.1705122087
 30
0.0
  0
SPLINE
  5
25E
100
AcDbEntity
  8
RACCORDO
100
AcDbSpline
 62
7
  6
CONTINUOUS
 70
0
 71
3
 72
11
 73
7
 74
0
 42
0.0000001
 43
0.0000001
 44
0.0000000001
 40
0.0
 40
0.0
 40
0.0
 40
0.0
 40
0.2177664648
 40
0.4509472453
 40
0.7101858544
 40
1.0
 40
1.0
 40
1.0
 40
1.0
 10
-34.2583101628
 20
64.406995126
 30
0.0
 10
-34.2187280502
 20
64.4298493358
 30
0.0
 10
-34.1277722571
 20
64.4628860976
 30
0.0
 10
-33.9767183547
 20
64.4666624512
 30
0.0
 10
-33.815695911
 20
64.4278324802
 30
0.0
 10
-33.7109605712
 20
64.3779640019
 30
0.0
 10
-33.6582827845
 20
64.347548508
 30
0.0
  0
SPLINE
  5
25F
100
AcDbEntity
  8
SMUSSO
100
AcDbSpline
 62
7
  6
CONTINUOUS
 70
0
 71
3
 72
11
 73
7
 74
0
 42
0.0000001
 43
0.0000001
 44
0.0000000001
 40
0.0
 40
0.0
 40
0.0
 40
0.0
 40
0.2372289801
 40
0.5000061081
 40
0.7627799116
 40
1.0
 40
1.0
 40
1.0
 40
1.0
 10
53.9876027436
 20
32.0719071086
 30
0.0
 10
54.0377940964
 20
32.0429272505
 30
0.0
 10
54.1327823512
 20
31.9629836457
 30
0.0
 10
54.2436450524
 20
31.8114804123
 30
0.0
 10
54.3194187387
 20
31.6397209962
 30
0.0
 10
54.3411561342
 20
31.5174894169
 30
0.0
 10
54.3411561342
 20
31.4595346736
 30
0.0
  0
SPLINE
  5
260
100
AcDbEntity
  8
SMUSSO
100
AcDbSpline
 62
7
  6
CONTINUOUS
 70
0
 71
3
 72
11
 73
7
 74
0
 42
0.0000001
 43
0.0000001
 44
0.0000000001
 40
0.0
 40
0.0
 40
0.0
 40
0.0
 40
0.2898213059
 40
0.549050743
 40
0.7822355134
 40
1.0
 40
1.0
 40
1.0
 40
1.0
 10
52.5733891812
 20
-95.787417147
 30
0.0
 10
52.6172884357
 20
-95.8127640262
 30
0.0
 10
52.7045711833
 20
-95.8543121196
 30
0.0
 10
52.8387540341
 20
-95.8866812774
 30
0.0
 10
52.9646316687
 20
-95.8835297576
 30
0.0
 10
53.040428501
 20
-95.8560002473
 30
0.0
 10
53.0734133059
 20
-95.8369552393
 30
0.0
  0
SPLINE
  5
261
100
AcDbEntity
  8
RACCORDO
100
AcDbSpline
 62
7
  6
CONTINUOUS
 70
0
 71
3
 72
11
 73
7
 74
0
 42
0.0000001
 43
0.0000001
 44
0.0000000001
 40
0.0
 40
0.0
 40
0.0
 40
0.0
 40
0.2372212891
 40
0.5000061068
 40
0.7627876004
 40
1.0
 40
1.0
 40
1.0
 40
1.0
 10
28.4256926037
 20
28.5010392138
 30
0.0
 10
28.5461479016
 20
28.4314898345
 30
0.0
 10
28.7741172468
 20
28.239623489
 30
0.0
 10
29.0401987657
 20
27.876017813
 30
0.0
 10
29.2220482918
 20
27.4637866982
 30
0.0
 10
29.2742207411
 20
27.1704321952
 30
0.0
 10
29.2742207411
 20
27.0313453697
 30
0.0
  0
SPLINE
  5
262
100
AcDbEntity
  8
SMUSSO
100
AcDbSpline
 62
7
  6
CONTINUOUS
 70
0
 71
3
 72
11
 73
7
 74
0
 42
0.0000001
 43
0.0000001
 44
0.0000000001
 40
0.0
 40
0.0
 40
0.0
 40
0.0
 40
0.2898086042
 40
0.549045169
 40
0.7822281919
 40
1.0
 40
1.0
 40
1.0
 40
1.0
 10
54.3411561342
 20
-94.7668095735
 30
0.0
 10
54.3411561341
 20
-94.817491067
 30
0.0
 10
54.3335046009
 20
-94.913839847
 30
0.0
 10
54.2944386519
 20
-95.0462053969
 30
0.0
 10
54.2287833902
 20
-95.1536300501
 30
0.0
 10
54.1670531402
 20
-95.2055013105
 30
0.0
 10
54.1340721682
 20
-95.2245441053
 30
0.0
  0
SPLINE
  5
263
100
AcDbEntity
  8
RACCORDO
100
AcDbSpline
 62
7
  6
CONTINUOUS
 70
0
 71
3
 72
11
 73
7
 74
0
 42
0.0000001
 43
0.0000001
 44
0.0000000001
 40
0.0
 40
0.0
 40
0.0
 40
0.0
 40
0.2898086042
 40
0.549045169
 40
0.7822281919
 40
1.0
 40
1.0
 40
1.0
 40
1.0
 10
29.2742207411
 20
-65.8829721293
 30
0.0
 10
29.2742207411
 20
-65.9437899214
 30
0.0
 10
29.2650389012
 20
-66.0594084575
 30
0.0
 10
29.2181597624
 20
-66.2182471174
 30
0.0
 10
29.1393734483
 20
-66.3471567012
 30
0.0
 10
29.0652971483
 20
-66.4094022136
 30
0.0
 10
29.025719982
 20
-66.4322535675
 30
0.0
  0
SPLINE
  5
264
100
AcDbEntity
  8
RACCORDO
100
AcDbSpline
 62
7
  6
CONTINUOUS
 70
0
 71
3
 72
11
 73
7
 74
0
 42
0.0000001
 43
0.0000001
 44
0.0000000001
 40
0.0
 40
0.0
 40
0.0
 40
0.0
 40
0.2372123996
 40
0.4999938932
 40
0.7627787109
 40
1.0
 40
1.0
 40
1.0
 40
1.0
 10
-32.3854905783
 20
-27.8317800312
 30
0.0
 10
-32.3854905783
 20
-27.9708668567
 30
0.0
 10
-32.333318129
 20
-28.2642213597
 30
0.0
 10
-32.1514686029
 20
-28.6764524745
 30
0.0
 10
-31.885387084
 20
-29.0400581504
 30
0.0
 10
-31.6574177389
 20
-29.231924496
 30
0.0
 10
-31.5369624409
 20
-29.3014738753
 30
0.0
  0
SPLINE
  5
265
100
AcDbEntity
  8
RACCORDO
100
AcDbSpline
 62
7
  6
CONTINUOUS
 70
0
 71
3
 72
11
 73
7
 74
0
 42
0.0000001
 43
0.0000001
 44
0.0000000001
 40
0.0
 40
0.0
 40
0.0
 40
0.0
 40
0.2898086042
 40
0.549045169
 40
0.7822281919
 40
1.0
 40
1.0
 40
1.0
 40
1.0
 10
-34.5068109219
 20
63.8577136879
 30
0.0
 10
-34.5068109219
 20
63.91853148
 30
0.0
 10
-34.497629082
 20
64.034150016
 30
0.0
 10
-34.4507499431
 20
64.1929886759
 30
0.0
 10
-34.3719636291
 20
64.3218982597
 30
0.0
 10
-34.2978873291
 20
64.3841437722
 30
0.0
 10
-34.2583101628
 20
64.406995126
 30
0.0
  0
SPLINE
  5
266
100
AcDbEntity
  8
RACCORDO
100
AcDbSpline
 62
7
  6
CONTINUOUS
 70
0
 71
3
 72
11
 73
7
 74
0
 42
0.0000001
 43
0.0000001
 44
0.0000000001
 40
0.0
 40
0.0
 40
0.0
 40
0.0
 40
0.2177664648
 40
0.4509472453
 40
0.7101858544
 40
1.0
 40
1.0
 40
1.0
 40
1.0
 10
29.025719982
 20
-66.4322535675
 30
0.0
 10
28.9861378694
 20
-66.4551077773
 30
0.0
 10
28.8951820763
 20
-66.4881445391
 30
0.0
 10
28.7441281739
 20
-66.4919208926
 30
0.0
 10
28.5831057303
 20
-66.4530909217
 30
0.0
 10
28.4783703904
 20
-66.4032224433
 30
0.0
 10
28.4256926037
 20
-66.3728069495
 30
0.0
  0
SPLINE
  5
267
100
AcDbEntity
  8
RACCORDO
100
AcDbSpline
 62
7
  6
CONTINUOUS
 70
0
 71
3
 72
11
 73
7
 74
0
 42
0.0000001
 43
0.0000001
 44
0.0000000001
 40
0.0
 40
0.0
 40
0.0
 40
0.0
 40
0.2372212891
 40
0.5000061068
 40
0.7627876004
 40
1.0
 40
1.0
 40
1.0
 40
1.0
 10
-33.6582827845
 20
-30.5262976553
 30
0.0
 10
-33.7787380824
 20
-30.4567482759
 30
0.0
 10
-34.0067074276
 20
-30.2648819304
 30
0.0
 10
-34.2727889465
 20
-29.9012762545
 30
0.0
 10
-34.4546384725
 20
-29.4890451397
 30
0.0
 10
-34.5068109219
 20
-29.1956906367
 30
0.0
 10
-34.5068109219
 20
-29.0566038112
 30
0.0
  0
SPLINE
  5
268
100
AcDbEntity
  8
SMUSSO
100
AcDbSpline
 62
7
  6
CONTINUOUS
 70
0
 71
3
 72
11
 73
7
 74
0
 42
0.0000001
 43
0.0000001
 44
0.0000000001
 40
0.0
 40
0.0
 40
0.0
 40
0.0
 40
0.2177740748
 40
0.4509520118
 40
0.7102003167
 40
1.0
 40
1.0
 40
1.0
 40
1.0
 10
53.0734133059
 20
-95.8369552393
 30
0.0
 10
53.1063946228
 20
-95.8179122452
 30
0.0
 10
53.1681258674
 20
-95.7660420569
 30
0.0
 10
53.2337765479
 20
-95.6586138236
 30
0.0
 10
53.2728560982
 20
-95.5262523225
 30
0.0
 10
53.2804959625
 20
-95.4299013995
 30
0.0
 10
53.2804959624
 20
-95.3792214635
 30
0.0
  0
SPLINE
  5
269
100
AcDbEntity
  8
SMUSSO
100
AcDbSpline
 62
7
  6
CONTINUOUS
 70
0
 71
3
 72
11
 73
7
 74
0
 42
0.0000001
 43
0.0000001
 44
0.0000000001
 40
0.0
 40
0.0
 40
0.0
 40
0.0
 40
0.2372123791
 40
0.4999939269
 40
0.7627788298
 40
1.0
 40
1.0
 40
1.0
 40
1.0
 10
53.2804959624
 20
30.4388481903
 30
0.0
 10
53.2804959627
 20
30.5547538922
 30
0.0
 10
53.2370184763
 20
30.7992157643
 30
0.0
 10
53.0854799947
 20
31.1427433071
 30
0.0
 10
52.8637421648
 20
31.4457458732
 30
0.0
 10
52.6737685668
 20
31.6056352614
 30
0.0
 10
52.5733891812
 20
31.6635930604
 30
0.0
  0
SPLINE
  5
26A
100
AcDbEntity
  8
SMUSSO
100
AcDbSpline
 62
7
  6
CONTINUOUS
 70
0
 71
3
 72
11
 73
7
 74
0
 42
0.0000001
 43
0.0000001
 44
0.0000000001
 40
0.0
 40
0.0
 40
0.0
 40
0.0
 40
0.2898069851
 40
0.5490547662
 40
0.782231557
 40
1.0
 40
1.0
 40
1.0
 40
1.0
 10
-56.3917657996
 20
94.5787078922
 30
0.0
 10
-56.4356628563
 20
94.6040535027
 30
0.0
 10
-56.5229390082
 20
94.6456195398
 30
0.0
 10
-56.6571268968
 20
94.6779670004
 30
0.0
 10
-56.7830057663
 20
94.6748245975
 30
0.0
 10
-56.8588019226
 20
94.6472928382
 30
0.0
 10
-56.8917873054
 20
94.6282474966
 30
0.0
  0
SPLINE
  5
26B
100
AcDbEntity
  8
SMUSSO
100
AcDbSpline
 62
7
  6
CONTINUOUS
 70
0
 71
3
 72
11
 73
7
 74
0
 42
0.0000001
 43
0.0000001
 44
0.0000000001
 40
0.0
 40
0.0
 40
0.0
 40
0.0
 40
0.2372212893
 40
0.5000061074
 40
0.7627876014
 40
1.0
 40
1.0
 40
1.0
 40
1.0
 10
53.634049353
 20
32.2760049504
 30
0.0
 10
53.734428768
 20
32.2180471341
 30
0.0
 10
53.9244032226
 20
32.0581585127
 30
0.0
 10
54.1461378218
 20
31.7551537822
 30
0.0
 10
54.2976790932
 20
31.4116278532
 30
0.0
 10
54.3411561342
 20
31.1671657677
 30
0.0
 10
54.3411561342
 20
31.0512600802
 30
0.0
  0
ELLIPSE
  5
26C
100
AcDbEntity
  8
0
100
AcDbEllipse
 62
7
  6
CONTINUOUS
 10
56.9892621309
 20
-90.2085152486
 30
0.0
 11
-0.0789593082
 21
0.1367536506
 31
0.0
 40
0.5559303978
 41
-2.6734061024
 42
-2.3751218051
  0
ELLIPSE
  5
26D
100
AcDbEntity
  8
0
100
AcDbEllipse
 62
7
  6
CONTINUOUS
 10
56.9892621309
 20
33.3968994047
 30
0.0
 11
-0.0760331802
 21
0.1316838075
 31
0.0
 40
0.599556811
 41
-2.337364303
 42
-0.8043328123
  0
ELLIPSE
  5
26E
100
AcDbEntity
  8
0
100
AcDbEllipse
 62
7
  6
CONTINUOUS
 10
-50.0596156752
 20
95.2055798124
 30
0.0
 11
-0.0789593082
 21
0.1367536506
 31
0.0
 40
0.5559303978
 41
-0.7665606423
 42
-0.4681919906
  0
ENDSEC
  0
SECTION
  2
OBJECTS
  0
DICTIONARY
  5
C
100
AcDbDictionary
280
0
281
1
  3
ACAD_GROUP
350
D
  3
ACAD_MLINESTYLE
350
17
  3
ACAD_LAYOUT
350
1A
  3
ACAD_PLOTSETTINGS
350
19
  3
ACAD_PLOTSTYLENAME
350
E
  0
DICTIONARY
  5
D
102
{ACAD_REACTORS
330
C
102
}
100
AcDbDictionary
280
0
281
1
  0
ACDBDICTIONARYWDFLT
  5
E
102
{ACAD_REACTORS
330
C
102
}
100
AcDbDictionary
281
1
  3
Normal
350
F
100
AcDbDictionaryWithDefault
340
F
  0
DICTIONARY
  5
17
102
{ACAD_REACTORS
330
C
102
}
100
AcDbDictionary
280
0
281
1
  3
Standard
350
18
  0
DICTIONARY
  5
19
102
{ACAD_REACTORS
330
C
102
}
100
AcDbDictionary
281
1
  0
DICTIONARY
  5
1A
102
{ACAD_REACTORS
330
C
102
}
100
AcDbDictionary
281
1
  3
Model
350
26F
  3
Layout1
350
270
  0
ACDBPLACEHOLDER
  5
F
102
{ACAD_REACTORS
330
E
102
}
  0
MLINESTYLE
  5
18
102
{ACAD_REACTORS
330
17
102
}
100
AcDbMlineStyle
  2
STANDARD
 70
0
  3

 62
256
 51
90.0
 52
90.0
 71
2
 49
0.5
 62
256
  6
BYLAYER
 49
-0.5
 62
256
  6
BYLAYER
  0
LAYOUT
  5
26F
102
{ACAD_REACTORS
330
1A
102
}
100
AcDbPlotSettings
  1

  2
none_device
  4
ISO_A4_(297.00_x_210.00_MM)
  6

 40
0.0
 41
0.0
 42
0.0
 43
0.0
 44
297.0
 45
210.0
 46
0.0
 47
0.0
 48
0.0
 49
0.0
140
0.0
141
0.0
142
1.0
143
1.0
 70
1024
 72
1
 73
0
 74
0
  7

 75
0
147
1.0
148
0.0
149
0.0
100
AcDbLayout
  1
Model
 70
0
 71
0
 10
0.0
 20
0.0
 11
297.0
 21
210.0
 12
0.0
 22
0.0
 32
0.0
 14
0.0
 24
0.0
 34
0.0
 15
0.0
 25
0.0
 35
0.0
146
0.0
 13
0.0
 23
0.0
 33
0.0
 16
1.0
 26
0.0
 36
0.0
 17
0.0
 27
1.0
 37
0.0
 76
0
330
21D
345
0
346
0
  0
LAYOUT
  5
270
102
{ACAD_REACTORS
330
1A
102
}
100
AcDbPlotSettings
  1

  2
none_device
  4
ISO_A4_(297.00_x_210.00_MM)
  6

 40
0.0
 41
0.0
 42
0.0
 43
0.0
 44
297.0
 45
210.0
 46
0.0
 47
0.0
 48
0.0
 49
0.0
140
0.0
141
0.0
142
1.0
143
1.0
 70
0
 72
1
 73
0
 74
0
  7

 75
0
147
1.0
148
0.0
149
0.0
100
AcDbLayout
  1
Layout1
 70
0
 71
1
 10
0.0
 20
0.0
 11
297.0
 21
210.0
 12
0.0
 22
0.0
 32
0.0
 14
0.0
 24
0.0
 34
0.0
 15
0.0
 25
0.0
 35
0.0
146
0.0
 13
0.0
 23
0.0
 33
0.0
 16
1.0
 26
0.0
 36
0.0
 17
0.0
 27
1.0
 37
0.0
 76
0
330
21E
345
0
346
0
  0
ENDSEC
  0
EOF
