  0
SECTION
  2
HEADER
  9
$ACADVER
  1
AC1021
  9
$DWGCODEPAGE
  3
ANSI_1252
  9
$EXTMAX
 10
297.0
 20
210.0
 30
0.0
  9
$EXTMIN
 10
0.0
 20
0.0
 30
0.0
  9
$LIMMIN
 10
0.0
 20
0.0
  9
$LIMMAX
 10
297.0
 20
210.0
  9
$VIEWCTR
 10
148.5
 20
105.0
  9
$VIEWSIZE
 40
210.0
  9
$CLAYER
  8
0
  9
$LTSCALE
 40
16.335
  9
$CELTYPE
  6
BYLAYER
  9
$DIMSCALE
 40
1.0
  9
$DIMASZ
 40
3.0
  9
$DIMEXO
 40
0.5
  9
$DIMDLI
 40
11.286
  9
$DIMEXE
 40
1.5
  9
$DIMCEN
 40
2.673
  9
$DIMLFAC
 40
1.0
  9
$DIMBLK
  1
_FILLED
  9
$DIMALT
 70
0
  9
$DIMALTF
 40
25.4
  9
$DIMTXT
 40
3.0
  9
$DIMTOL
 70
1
  9
$DIMLIM
 70
0
  9
$DIMTFAC
 40
1.0
  9
$DIMTP
 40
0.01
  9
$DIMTM
 40
0.01
  9
$DIMGAP
 40
0.625
  9
$DIMDSEP
 70
44
  9
$AUNITS
 70
0
  9
$PDMODE
 70
3
  9
$PDSIZE
 40
3.0
  9
$HANDSEED
  5
322
  9
$TILEMODE
 70
1
  9
$MEASUREMENT
 70
1
  9
$INSUNITS
 70
4
  0
ENDSEC
  0
SECTION
  2
CLASSES
  0
CLASS
  1
ACDBDICTIONARYWDFLT
  2
AcDbDictionaryWithDefault
  3
AutoCAD 2000
 90
0
 91
1
280
0
281
0
  0
CLASS
  1
ACDBPLACEHOLDER
  2
AcDbPlaceHolder
  3
AutoCAD 2000
 90
0
 91
1
280
0
281
0
  0
CLASS
  1
LAYOUT
  2
AcDbLayout
  3
AutoCAD 2000
 90
0
 91
0
280
0
281
0
  0
ENDSEC
  0
SECTION
  2
TABLES
  0
TABLE
  2
VPORT
  5
8
100
AcDbSymbolTable
 70
2
  0
VPORT
  5
1F4
100
AcDbSymbolTableRecord
100
AcDbViewportTableRecord
  2
*ACTIVE
 70
0
 10
0.0
 20
0.0
 11
1.0
 21
1.0
 12
148.5
 22
105.0
 13
0.0
 23
0.0
 14
1.0
 24
1.0
 15
0.0
 25
0.0
 16
0.0
 26
0.0
 36
1.0
 17
0.0
 27
0.0
 37
0.0
 40
210.0
 41
1.4142857143
 42
50.0
 43
0.0
 44
0.0
 50
0.0
 51
0.0
 71
0
 72
100
 73
1
 74
1
 75
0
 76
0
 77
0
 78
0
  0
ENDTAB
  0
TABLE
  2
LTYPE
  5
5
100
AcDbSymbolTable
 70
6
  0
LTYPE
  5
14
100
AcDbSymbolTableRecord
100
AcDbLinetypeTableRecord
  2
BYBLOCK
 70
0
  3

 72
65
 73
0
 40
0.0
  0
LTYPE
  5
15
100
AcDbSymbolTableRecord
100
AcDbLinetypeTableRecord
  2
BYLAYER
 70
0
  3

 72
65
 73
0
 40
0.0
  0
LTYPE
  5
16
100
AcDbSymbolTableRecord
100
AcDbLinetypeTableRecord
  2
CONTINUOUS
 70
64
  3
Solid line
 72
65
 73
0
 40
0.0
  0
LTYPE
  5
1F5
100
AcDbSymbolTableRecord
100
AcDbLinetypeTableRecord
  2
CENTER
 70
64
  3
____ _ ____ _ ____ _ ____ _ ____ _ ____ _ ____
 72
65
 73
4
 40
0.6
 49
0.375
 74
0
 49
-0.075
 74
0
 49
0.075
 74
0
 49
-0.075
 74
0
  0
LTYPE
  5
1F6
100
AcDbSymbolTableRecord
100
AcDbLinetypeTableRecord
  2
HIDDEN
 70
64
  3
- - - - - - - - - - - - - - - - - - - -
 72
65
 73
2
 40
0.2
 49
0.1
 74
0
 49
-0.1
 74
0
  0
LTYPE
  5
1F7
100
AcDbSymbolTableRecord
100
AcDbLinetypeTableRecord
  2
PHANTOM
 70
64
  3
_____ _ _ _____ _ _ _____ _ _ _____
 72
65
 73
6
 40
0.8
 49
0.45
 74
0
 49
-0.05
 74
0
 49
0.1
 74
0
 49
-0.05
 74
0
 49
0.1
 74
0
 49
-0.05
 74
0
  0
LTYPE
  5
1F8
100
AcDbSymbolTableRecord
100
AcDbLinetypeTableRecord
  2
DOT
 70
64
  3
. . . . . . . . . . . . . . . . . . . .
 72
65
 73
2
 40
0.2
 49
0.1
 74
0
 49
-0.1
 74
0
  0
LTYPE
  5
1F9
100
AcDbSymbolTableRecord
100
AcDbLinetypeTableRecord
  2
DASHED
 70
64
  3
- - - - - - - - - - - - - - - - - - - -
 72
65
 73
2
 40
0.2
 49
0.1
 74
0
 49
-0.1
 74
0
  0
ENDTAB
  0
TABLE
  2
LAYER
  5
2
100
AcDbSymbolTable
 70
36
  0
LAYER
  5
10
100
AcDbSymbolTableRecord
100
AcDbLayerTableRecord
  2
0
 70
0
 62
7
  6
CONTINUOUS
370
-3
390
F
  0
LAYER
  5
1FA
100
AcDbSymbolTableRecord
100
AcDbLayerTableRecord
  2
DEFAULT_1
 70
0
 62
7
  6
CENTER
370
-3
390
F
  0
LAYER
  5
1FB
100
AcDbSymbolTableRecord
100
AcDbLayerTableRecord
  2
DEFAULT_2
 70
0
 62
7
  6
HIDDEN
370
-3
390
F
  0
LAYER
  5
1FC
100
AcDbSymbolTableRecord
100
AcDbLayerTableRecord
  2
DEFAULT_3
 70
0
 62
7
  6
PHANTOM
370
-3
390
F
  0
LAYER
  5
1FD
100
AcDbSymbolTableRecord
100
AcDbLayerTableRecord
  2
ASSI
 70
0
 62
7
  6
CONTINUOUS
370
-3
390
F
  0
LAYER
  5
1FE
100
AcDbSymbolTableRecord
100
AcDbLayerTableRecord
  2
COORDINATE
 70
0
 62
7
  6
CONTINUOUS
370
-3
390
F
  0
LAYER
  5
1FF
100
AcDbSymbolTableRecord
100
AcDbLayerTableRecord
  2
COORD_ORIGINE
 70
0
 62
7
  6
CONTINUOUS
370
-3
390
F
  0
LAYER
  5
200
100
AcDbSymbolTableRecord
100
AcDbLayerTableRecord
  2
COPY_PUBLISH
 70
0
 62
7
  6
CONTINUOUS
370
-3
390
F
  0
LAYER
  5
201
100
AcDbSymbolTableRecord
100
AcDbLayerTableRecord
  2
COSMETIC
 70
0
 62
7
  6
CONTINUOUS
370
-3
390
F
  0
LAYER
  5
202
100
AcDbSymbolTableRecord
100
AcDbLayerTableRecord
  2
COSMETICI
 70
0
 62
7
  6
CONTINUOUS
370
-3
390
F
  0
LAYER
  5
203
100
AcDbSymbolTableRecord
100
AcDbLayerTableRecord
  2
CURVE
 70
0
 62
7
  6
CONTINUOUS
370
-3
390
F
  0
LAYER
  5
204
100
AcDbSymbolTableRecord
100
AcDbLayerTableRecord
  2
CURVE_TASSELLI
 70
0
 62
7
  6
CONTINUOUS
370
-3
390
F
  0
LAYER
  5
205
100
AcDbSymbolTableRecord
100
AcDbLayerTableRecord
  2
DRAFT
 70
0
 62
7
  6
CONTINUOUS
370
-3
390
F
  0
LAYER
  5
206
100
AcDbSymbolTableRecord
100
AcDbLayerTableRecord
  2
IGES
 70
0
 62
7
  6
CONTINUOUS
370
-3
390
F
  0
LAYER
  5
207
100
AcDbSymbolTableRecord
100
AcDbLayerTableRecord
  2
IMPORT_IGES
 70
0
 62
7
  6
CONTINUOUS
370
-3
390
F
  0
LAYER
  5
208
100
AcDbSymbolTableRecord
100
AcDbLayerTableRecord
  2
INTFCLR_2
 70
0
 62
7
  6
CONTINUOUS
370
-3
390
F
  0
LAYER
  5
209
100
AcDbSymbolTableRecord
100
AcDbLayerTableRecord
  2
INTF_1
 70
0
 62
7
  6
CONTINUOUS
370
-3
390
F
  0
LAYER
  5
20A
100
AcDbSymbolTableRecord
100
AcDbLayerTableRecord
  2
INTF_11
 70
0
 62
7
  6
CONTINUOUS
370
-3
390
F
  0
LAYER
  5
20B
100
AcDbSymbolTableRecord
100
AcDbLayerTableRecord
  2
INTF_21
 70
0
 62
7
  6
CONTINUOUS
370
-3
390
F
  0
LAYER
  5
20C
100
AcDbSymbolTableRecord
100
AcDbLayerTableRecord
  2
INTF_7
 70
0
 62
7
  6
CONTINUOUS
370
-3
390
F
  0
LAYER
  5
20D
100
AcDbSymbolTableRecord
100
AcDbLayerTableRecord
  2
NOTE
 70
0
 62
7
  6
CONTINUOUS
370
-3
390
F
  0
LAYER
  5
20E
100
AcDbSymbolTableRecord
100
AcDbLayerTableRecord
  2
PIANI
 70
0
 62
7
  6
CONTINUOUS
370
-3
390
F
  0
LAYER
  5
20F
100
AcDbSymbolTableRecord
100
AcDbLayerTableRecord
  2
PIANI_ORIGINE
 70
0
 62
7
  6
CONTINUOUS
370
-3
390
F
  0
LAYER
  5
210
100
AcDbSymbolTableRecord
100
AcDbLayerTableRecord
  2
PUNTI
 70
0
 62
7
  6
CONTINUOUS
370
-3
390
F
  0
LAYER
  5
211
100
AcDbSymbolTableRecord
100
AcDbLayerTableRecord
  2
RACCORDO
 70
0
 62
7
  6
CONTINUOUS
370
-3
390
F
  0
LAYER
  5
212
100
AcDbSymbolTableRecord
100
AcDbLayerTableRecord
  2
RGB__255__255__255__
 70
0
 62
7
  6
CONTINUOUS
370
-3
390
F
  0
LAYER
  5
213
100
AcDbSymbolTableRecord
100
AcDbLayerTableRecord
  2
RGB____0____0____0__
 70
0
 62
7
  6
CONTINUOUS
370
-3
390
F
  0
LAYER
  5
214
100
AcDbSymbolTableRecord
100
AcDbLayerTableRecord
  2
SIMBOLI
 70
0
 62
7
  6
CONTINUOUS
370
-3
390
F
  0
LAYER
  5
215
100
AcDbSymbolTableRecord
100
AcDbLayerTableRecord
  2
SMUSSO
 70
0
 62
7
  6
CONTINUOUS
370
-3
390
F
  0
LAYER
  5
216
100
AcDbSymbolTableRecord
100
AcDbLayerTableRecord
  2
SNAPLINE
 70
0
 62
7
  6
CONTINUOUS
370
-3
390
F
  0
LAYER
  5
217
100
AcDbSymbolTableRecord
100
AcDbLayerTableRecord
  2
SUPERFICI
 70
0
 62
7
  6
CONTINUOUS
370
-3
390
F
  0
LAYER
  5
218
100
AcDbSymbolTableRecord
100
AcDbLayerTableRecord
  2
TRASH
 70
0
 62
7
  6
CONTINUOUS
370
-3
390
F
  0
LAYER
  5
219
100
AcDbSymbolTableRecord
100
AcDbLayerTableRecord
  2
XSEC_DATUMS
 70
0
 62
7
  6
CONTINUOUS
370
-3
390
F
  0
ENDTAB
  0
TABLE
  2
STYLE
  5
3
100
AcDbSymbolTable
 70
1
  0
STYLE
  5
11
100
AcDbSymbolTableRecord
100
AcDbTextStyleTableRecord
  2
STANDARD
 70
0
 40
0.0
 41
0.8
 50
0.0
 71
0
 42
0.2
  3
txt
  4

  0
STYLE
  5
21A
100
AcDbSymbolTableRecord
100
AcDbTextStyleTableRecord
  2
TEXTSTYLE_1
 70
0
 40
0.0
 41
0.8
 50
0.0
 71
0
 42
0.2
  3
gdt
  4

  0
ENDTAB
  0
TABLE
  2
VIEW
  5
6
100
AcDbSymbolTable
 70
0
  0
ENDTAB
  0
TABLE
  2
UCS
  5
7
100
AcDbSymbolTable
 70
0
  0
ENDTAB
  0
TABLE
  2
APPID
  5
9
100
AcDbSymbolTable
 70
1
  0
APPID
  5
21B
100
AcDbSymbolTableRecord
100
AcDbRegAppTableRecord
  2
ACAD
 70
0
  0
ENDTAB
  0
TABLE
  2
BLOCK_RECORD
  5
1
100
AcDbSymbolTable
 70
0
  0
BLOCK_RECORD
  5
21C
100
AcDbSymbolTableRecord
100
AcDbBlockTableRecord
  2
*Model_Space
  0
BLOCK_RECORD
  5
21D
100
AcDbSymbolTableRecord
100
AcDbBlockTableRecord
  2
*Paper_Space
  0
BLOCK_RECORD
  5
21E
100
AcDbSymbolTableRecord
100
AcDbBlockTableRecord
  2
_FILLED
  0
ENDTAB
  0
TABLE
  2
DIMSTYLE
  5
A
100
AcDbSymbolTable
 70
1
100
AcDbDimStyleTable
 71
0
  0
DIMSTYLE
105
21F
100
AcDbSymbolTableRecord
100
AcDbDimStyleTableRecord
  2
STANDARD
 70
0
  3

  4

 40
1.0
 41
3.0
 42
0.5
 43
0.38
 44
1.5
 45
0.0
 46
0.0
 47
0.01
 48
0.01
140
3.0
141
0.09
142
0.0
143
25.4
144
1.0
145
0.0
146
1.0
147
0.625
 71
1.0
 72
0.0
 73
0
 74
0
 75
0
 76
0
 77
1
 78
8
 79
2
170
0
171
1
172
0
173
0
174
0
175
0
176
0
177
0
178
0
270
2
179
2
271
2
272
2
273
2
274
2
275
0
280
0
281
0
282
0
283
1
284
8
285
0
286
0
287
3
288
0
340
11
278
44
341
21E
342
21E
343
21E
344
21E
  0
ENDTAB
  0
ENDSEC
  0
SECTION
  2
BLOCKS
  0
BLOCK
  5
20
100
AcDbEntity
  8
0
100
AcDbBlockBegin
  2
*Model_Space
 70
0
 10
0.0
 20
0.0
 30
0.0
  3
*Model_Space
  1

  0
ENDBLK
  5
21
100
AcDbEntity
  8
0
100
AcDbBlockEnd
  0
BLOCK
  5
1C
100
AcDbEntity
  8
0
100
AcDbBlockBegin
  2
*Paper_Space
 70
0
 10
0.0
 20
0.0
 30
0.0
  3
*Paper_Space
  1

  0
ENDBLK
  5
1D
100
AcDbEntity
  8
0
100
AcDbBlockEnd
  0
BLOCK
  5
220
100
AcDbEntity
  8
0
100
AcDbBlockBegin
  2
_FILLED
 70
64
 10
0.0
 20
0.0
  3
_FILLED
  1

  0
SOLID
  5
221
100
AcDbEntity
  8
0
  6
BYBLOCK
 62
0
100
AcDbTrace
 10
0.0
 20
0.0
 11
-1.0
 21
0.3166666667
 12
-1.0
 22
-0.3166666667
 13
-1.0
 23
-0.3166666667
  0
ENDBLK
  5
222
100
AcDbEntity
  8
0
  6
BYBLOCK
 62
0
100
AcDbBlockEnd
  0
ENDSEC
  0
SECTION
  2
ENTITIES
  0
LINE
  5
223
100
AcDbEntity
  8
ASSI
100
AcDbLine
 62
7
  6
CONTINUOUS
 10
96.6751205156
 20
194.7978382962
 11
101.3159518881
 21
197.8652097208
  0
LINE
  5
224
100
AcDbEntity
  8
ASSI
100
AcDbLine
 62
7
  6
CONTINUOUS
 10
97.3826577849
 20
195.2062824901
 11
102.0234891574
 21
198.2736539147
  0
LINE
  5
225
100
AcDbEntity
  8
ASSI
100
AcDbLine
 62
7
  6
CONTINUOUS
 10
97.3618941707
 20
195.1934431391
 11
97.3826577849
 21
195.2062824901
  0
LINE
  5
226
100
AcDbEntity
  8
ASSI
100
AcDbLine
 62
7
  6
CONTINUOUS
 10
101.3159518881
 20
197.8652097208
 11
102.0234891574
 21
198.2736539147
  0
LINE
  5
227
100
AcDbEntity
  8
ASSI
100
AcDbLine
 62
7
  6
CONTINUOUS
 10
97.3618941707
 20
195.1934431391
 11
96.6754958231
 21
194.7972019347
  0
LINE
  5
228
100
AcDbEntity
  8
ASSI
100
AcDbLine
 62
7
  6
CONTINUOUS
 10
96.9792048709
 20
193.7782147007
 11
96.7002289367
 21
193.6171686252
  0
LINE
  5
229
100
AcDbEntity
  8
ASSI
100
AcDbLine
 62
7
  6
CONTINUOUS
 10
96.9792048709
 20
193.7782147007
 11
97.3618941707
 21
195.1934431391
  0
LINE
  5
22A
100
AcDbEntity
  8
ASSI
100
AcDbLine
 62
7
  6
CONTINUOUS
 10
205.2801775962
 20
6.195427626
 11
206.6971367271
 21
5.8192481702
  0
LWPOLYLINE
  5
22B
100
AcDbEntity
  8
ASSI
100
AcDbPolyline
 62
7
  6
CONTINUOUS
 90
13
 70
0
 10
119.2777377758
 20
165.7816565221
 10
119.2783888723
 20
165.7819369796
 10
119.2834905969
 20
165.7836736658
 10
119.2904544268
 20
165.7850882891
 10
119.2994984111
 20
165.7858486207
 10
119.3107200568
 20
165.7856129472
 10
119.3240945935
 20
165.7840552008
 10
119.3395917729
 20
165.7808817278
 10
119.3568751619
 20
165.7759041861
 10
119.375367266
 20
165.7691241598
 10
119.3947110327
 20
165.7605974112
 10
119.4147500145
 20
165.7503408177
 10
119.4237892145
 20
165.7452624023
  0
LINE
  5
22C
100
AcDbEntity
  8
ASSI
100
AcDbLine
 62
250
  6
CONTINUOUS
 10
119.1613298921
 20
165.5462179574
 11
119.5105746188
 21
165.6951534975
  0
LINE
  5
22D
100
AcDbEntity
  8
ASSI
100
AcDbLine
 62
7
  6
CONTINUOUS
 10
96.7002289367
 20
68.8881291556
 11
96.6754958231
 21
69.3443647332
  0
LINE
  5
22E
100
AcDbEntity
  8
ASSI
100
AcDbLine
 62
7
  6
CONTINUOUS
 10
96.9792048709
 20
68.4049286641
 11
97.3618941707
 21
68.155487922
  0
LINE
  5
22F
100
AcDbEntity
  8
ASSI
100
AcDbLine
 62
7
  6
CONTINUOUS
 10
96.7002289367
 20
68.8881291556
 11
96.9792048709
 21
68.4049286641
  0
LINE
  5
230
100
AcDbEntity
  8
ASSI
100
AcDbLine
 62
7
  6
CONTINUOUS
 10
96.7002289367
 20
193.6171686252
 11
96.6754958231
 21
194.7972019347
  0
LINE
  5
231
100
AcDbEntity
  8
ASSI
100
AcDbLine
 62
7
  6
CONTINUOUS
 10
96.6754958231
 20
69.3443647332
 11
96.6751205156
 21
69.3685575938
  0
LINE
  5
232
100
AcDbEntity
  8
ASSI
100
AcDbLine
 62
7
  6
CONTINUOUS
 10
96.6751205156
 20
194.7978382962
 11
96.6751205156
 21
69.3685575938
  0
LINE
  5
233
100
AcDbEntity
  8
ASSI
100
AcDbLine
 62
7
  6
CONTINUOUS
 10
96.7002289367
 20
193.6171686252
 11
96.7002289367
 21
68.8881291556
  0
LINE
  5
234
100
AcDbEntity
  8
ASSI
100
AcDbLine
 62
7
  6
CONTINUOUS
 10
97.3826577849
 20
68.1430670964
 11
206.0111008097
 21
5.4223655281
  0
LINE
  5
235
100
AcDbEntity
  8
ASSI
100
AcDbLine
 62
7
  6
CONTINUOUS
 10
96.9792048709
 20
68.4049286641
 11
205.001201662
 21
6.0343815505
  0
LINE
  5
236
100
AcDbEntity
  8
ASSI
100
AcDbLine
 62
7
  6
CONTINUOUS
 10
97.3826577849
 20
68.1430670964
 11
97.3618941707
 21
68.155487922
  0
LINE
  5
237
100
AcDbEntity
  8
ASSI
100
AcDbLine
 62
7
  6
CONTINUOUS
 10
205.001201662
 20
6.0343815505
 11
206.0107383794
 21
5.4230069658
  0
LWPOLYLINE
  5
238
100
AcDbEntity
  8
IMPORT_IGES
100
AcDbPolyline
 62
7
  6
CONTINUOUS
 90
73
 70
0
 10
153.6809956858
 20
48.1204262363
 10
153.6846678849
 20
48.1191600054
 10
153.6882294366
 20
48.1184706237
 10
153.6916995654
 20
48.1182232249
 10
153.6950974958
 20
48.1182829426
 10
153.6984424523
 20
48.1185149103
 10
153.7087663246
 20
48.1195768503
 10
153.7187852129
 20
48.1210978481
 10
153.7285298595
 20
48.1231650834
 10
153.7383731084
 20
48.1259520517
 10
153.747956796
 20
48.1293557335
 10
153.757283222
 20
48.1333116627
 10
153.766354686
 20
48.1377553734
 10
153.7771111718
 20
48.1437831743
 10
153.7874795863
 20
48.1504449957
 10
153.7974503179
 20
48.1577407789
 10
153.8070137549
 20
48.1656704656
 10
153.8154778362
 20
48.1735570567
 10
153.8235775133
 20
48.1819731299
 10
153.831304155
 20
48.1909072658
 10
153.8386491305
 20
48.2003480449
 10
153.8456038086
 20
48.210284048
 10
153.8529675295
 20
48.2220666246
 10
153.8598176249
 20
48.2344457649
 10
153.8661476434
 20
48.2474029514
 10
153.8719511339
 20
48.2609196666
 10
153.8772216453
 20
48.2749773932
 10
153.8816815187
 20
48.2886534699
 10
153.8856690773
 20
48.3027670178
 10
153.8891877153
 20
48.3172947346
 10
153.8922408271
 20
48.3322133182
 10
153.8948318069
 20
48.3474994665
 10
153.896964049
 20
48.3631298772
 10
153.8987908258
 20
48.3807512215
 10
153.9000803023
 20
48.3987366449
 10
153.9008497086
 20
48.4170593515
 10
153.9011140178
 20
48.4370897361
 10
153.9008045357
 20
48.4574522977
 10
153.899927804
 20
48.4781208766
 10
153.8988083495
 20
48.4950012549
 10
153.8973079352
 20
48.5120585469
 10
153.8954105097
 20
48.5292875357
 10
153.8932412838
 20
48.5457084192
 10
153.8906982689
 20
48.5622690879
 10
153.8877759757
 20
48.5789608886
 10
153.8840840582
 20
48.5976218454
 10
153.8799165152
 20
48.6164110554
 10
153.8752713781
 20
48.635305998
 10
153.8701466781
 20
48.6542841525
 10
153.8645404465
 20
48.6733229984
 10
153.8590108122
 20
48.6907092848
 10
153.8530853241
 20
48.7081085969
 10
153.8467697818
 20
48.7255022508
 10
153.8400699844
 20
48.7428715632
 10
153.8329917315
 20
48.7601978503
 10
153.8244216999
 20
48.7799795687
 10
153.815374727
 20
48.7996539982
 10
153.80586341
 20
48.8191949134
 10
153.7959003458
 20
48.838576089
 10
153.7856659935
 20
48.8574706857
 10
153.7750213258
 20
48.876162816
 10
153.7639814388
 20
48.8946301609
 10
153.7525614287
 20
48.9128504012
 10
153.740776392
 20
48.9308012179
 10
153.7286414247
 20
48.948460292
 10
153.7161716232
 20
48.9658053042
 10
153.7068789177
 20
48.9782326446
 10
153.6974156767
 20
48.9904436265
 10
153.6877812419
 20
49.002400611
 10
153.677974955
 20
49.0140659595
 10
153.6679961579
 20
49.025402033
 10
153.6578441923
 20
49.0363711928
 10
153.6475183999
 20
49.0469358
  0
LWPOLYLINE
  5
239
100
AcDbEntity
  8
CURVE
100
AcDbPolyline
 62
250
  6
CONTINUOUS
 90
73
 70
0
 10
153.6809956858
 20
48.1204262363
 10
153.6846678849
 20
48.1191600054
 10
153.6882294366
 20
48.1184706237
 10
153.6916995654
 20
48.1182232249
 10
153.6950974958
 20
48.1182829426
 10
153.6984424523
 20
48.1185149103
 10
153.7087663246
 20
48.1195768503
 10
153.7187852129
 20
48.1210978481
 10
153.7285298595
 20
48.1231650834
 10
153.7383731084
 20
48.1259520517
 10
153.747956796
 20
48.1293557335
 10
153.757283222
 20
48.1333116627
 10
153.766354686
 20
48.1377553734
 10
153.7771111718
 20
48.1437831743
 10
153.7874795863
 20
48.1504449957
 10
153.7974503179
 20
48.1577407789
 10
153.8070137549
 20
48.1656704656
 10
153.8154778362
 20
48.1735570567
 10
153.8235775133
 20
48.1819731299
 10
153.831304155
 20
48.1909072658
 10
153.8386491305
 20
48.2003480449
 10
153.8456038086
 20
48.210284048
 10
153.8529675295
 20
48.2220666246
 10
153.8598176249
 20
48.2344457649
 10
153.8661476434
 20
48.2474029514
 10
153.8719511339
 20
48.2609196666
 10
153.8772216453
 20
48.2749773932
 10
153.8816815187
 20
48.2886534699
 10
153.8856690773
 20
48.3027670178
 10
153.8891877153
 20
48.3172947346
 10
153.8922408271
 20
48.3322133182
 10
153.8948318069
 20
48.3474994665
 10
153.896964049
 20
48.3631298772
 10
153.8987908258
 20
48.3807512215
 10
153.9000803023
 20
48.3987366449
 10
153.9008497086
 20
48.4170593515
 10
153.9011140178
 20
48.4370897361
 10
153.9008045357
 20
48.4574522977
 10
153.899927804
 20
48.4781208766
 10
153.8988083495
 20
48.4950012549
 10
153.8973079352
 20
48.5120585469
 10
153.8954105097
 20
48.5292875357
 10
153.8932412838
 20
48.5457084192
 10
153.8906982689
 20
48.5622690879
 10
153.8877759757
 20
48.5789608886
 10
153.8840840582
 20
48.5976218454
 10
153.8799165152
 20
48.6164110554
 10
153.8752713781
 20
48.635305998
 10
153.8701466781
 20
48.6542841525
 10
153.8645404465
 20
48.6733229984
 10
153.8590108122
 20
48.6907092848
 10
153.8530853241
 20
48.7081085969
 10
153.8467697818
 20
48.7255022508
 10
153.8400699844
 20
48.7428715632
 10
153.8329917315
 20
48.7601978503
 10
153.8244216999
 20
48.7799795687
 10
153.815374727
 20
48.7996539982
 10
153.80586341
 20
48.8191949134
 10
153.7959003458
 20
48.838576089
 10
153.7856659935
 20
48.8574706857
 10
153.7750213258
 20
48.876162816
 10
153.7639814388
 20
48.8946301609
 10
153.7525614287
 20
48.9128504012
 10
153.740776392
 20
48.9308012179
 10
153.7286414247
 20
48.948460292
 10
153.7161716232
 20
48.9658053042
 10
153.7068789177
 20
48.9782326446
 10
153.6974156767
 20
48.9904436265
 10
153.6877812419
 20
49.002400611
 10
153.677974955
 20
49.0140659595
 10
153.6679961579
 20
49.025402033
 10
153.6578441923
 20
49.0363711928
 10
153.6475183999
 20
49.0469358
  0
LWPOLYLINE
  5
23A
100
AcDbEntity
  8
IMPORT_IGES
100
AcDbPolyline
 62
7
  6
CONTINUOUS
 90
23
 70
0
 10
153.158843342
 20
49.0630042164
 10
153.1706530381
 20
49.0584568077
 10
153.1824836618
 20
49.0537829523
 10
153.1943340083
 20
49.048971721
 10
153.2062028726
 20
49.0440121844
 10
153.2180890497
 20
49.0388934132
 10
153.2299913346
 20
49.0336044784
 10
153.2419085225
 20
49.0281344505
 10
153.2538394082
 20
49.0224724003
 10
153.2657827869
 20
49.0166073986
 10
153.2777374536
 20
49.0105285162
 10
153.2897022034
 20
49.0042248237
 10
153.3009445138
 20
48.9980940151
 10
153.3121919891
 20
48.9917615153
 10
153.323441967
 20
48.9852334738
 10
153.3346917851
 20
48.9785160403
 10
153.3459387808
 20
48.9716153643
 10
153.3571802919
 20
48.9645375956
 10
153.3684136559
 20
48.9572888837
 10
153.3796362103
 20
48.9498753782
 10
153.3908452928
 20
48.9423032288
 10
153.4020382409
 20
48.9345785851
 10
153.4132123922
 20
48.9267075966
  0
LWPOLYLINE
  5
23B
100
AcDbEntity
  8
CURVE
100
AcDbPolyline
 62
250
  6
CONTINUOUS
 90
23
 70
0
 10
153.158843342
 20
49.0630042164
 10
153.1706530381
 20
49.0584568077
 10
153.1824836618
 20
49.0537829523
 10
153.1943340083
 20
49.048971721
 10
153.2062028726
 20
49.0440121844
 10
153.2180890497
 20
49.0388934132
 10
153.2299913346
 20
49.0336044784
 10
153.2419085225
 20
49.0281344505
 10
153.2538394082
 20
49.0224724003
 10
153.2657827869
 20
49.0166073986
 10
153.2777374536
 20
49.0105285162
 10
153.2897022034
 20
49.0042248237
 10
153.3009445138
 20
48.9980940151
 10
153.3121919891
 20
48.9917615153
 10
153.323441967
 20
48.9852334738
 10
153.3346917851
 20
48.9785160403
 10
153.3459387808
 20
48.9716153643
 10
153.3571802919
 20
48.9645375956
 10
153.3684136559
 20
48.9572888837
 10
153.3796362103
 20
48.9498753782
 10
153.3908452928
 20
48.9423032288
 10
153.4020382409
 20
48.9345785851
 10
153.4132123922
 20
48.9267075966
  0
LINE
  5
23C
100
AcDbEntity
  8
CURVE
100
AcDbLine
 62
250
  6
CONTINUOUS
 10
152.750875232
 20
47.808457324
 11
152.4086607519
 21
48.0060476758
  0
LINE
  5
23D
100
AcDbEntity
  8
IMPORT_IGES
100
AcDbLine
 62
7
  6
CONTINUOUS
 10
152.750875232
 20
47.808457324
 11
152.4086607519
 21
48.0060476758
  0
LINE
  5
23E
100
AcDbEntity
  8
CURVE
100
AcDbLine
 62
250
  6
CONTINUOUS
 10
151.7927715816
 20
48.3616543638
 11
151.4715996556
 21
48.5470950087
  0
LINE
  5
23F
100
AcDbEntity
  8
IMPORT_IGES
100
AcDbLine
 62
7
  6
CONTINUOUS
 10
151.7927715816
 20
48.3616543638
 11
151.4715996556
 21
48.5470950087
  0
LINE
  5
240
100
AcDbEntity
  8
CURVE
100
AcDbLine
 62
250
  6
CONTINUOUS
 10
151.4206140938
 20
48.576533433
 11
151.102976422
 21
48.7599334438
  0
LINE
  5
241
100
AcDbEntity
  8
IMPORT_IGES
100
AcDbLine
 62
7
  6
CONTINUOUS
 10
151.4206140938
 20
48.576533433
 11
151.102976422
 21
48.7599334438
  0
LINE
  5
242
100
AcDbEntity
  8
CURVE
100
AcDbLine
 62
250
  6
CONTINUOUS
 10
150.6502044549
 20
49.0213583031
 11
150.6046665782
 21
49.0476513023
  0
LINE
  5
243
100
AcDbEntity
  8
IMPORT_IGES
100
AcDbLine
 62
7
  6
CONTINUOUS
 10
150.6502044549
 20
49.0213583031
 11
150.6046665782
 21
49.0476513023
  0
LINE
  5
244
100
AcDbEntity
  8
CURVE
100
AcDbLine
 62
250
  6
CONTINUOUS
 10
150.1536909989
 20
49.3080389498
 11
149.8430640548
 21
49.4873910542
  0
LINE
  5
245
100
AcDbEntity
  8
IMPORT_IGES
100
AcDbLine
 62
7
  6
CONTINUOUS
 10
150.1536909989
 20
49.3080389498
 11
149.8430640548
 21
49.4873910542
  0
LINE
  5
246
100
AcDbEntity
  8
CURVE
100
AcDbLine
 62
250
  6
CONTINUOUS
 10
148.7230795606
 20
50.1340560645
 11
148.4369420129
 21
50.2992682984
  0
LINE
  5
247
100
AcDbEntity
  8
IMPORT_IGES
100
AcDbLine
 62
7
  6
CONTINUOUS
 10
148.7230795606
 20
50.1340560645
 11
148.4369420129
 21
50.2992682984
  0
LINE
  5
248
100
AcDbEntity
  8
CURVE
100
AcDbLine
 62
250
  6
CONTINUOUS
 10
149.3435756324
 20
49.7757894093
 11
149.668270701
 21
49.5883145461
  0
LINE
  5
249
100
AcDbEntity
  8
IMPORT_IGES
100
AcDbLine
 62
7
  6
CONTINUOUS
 10
149.3435756324
 20
49.7757894093
 11
149.668270701
 21
49.5883145461
  0
LINE
  5
24A
100
AcDbEntity
  8
IMPORT_IGES
100
AcDbLine
 62
7
  6
CONTINUOUS
 10
152.8462214815
 20
47.7534052543
 11
153.1696097305
 21
47.5666849323
  0
LINE
  5
24B
100
AcDbEntity
  8
CURVE
100
AcDbLine
 62
250
  6
CONTINUOUS
 10
152.8462214815
 20
47.7534052543
 11
153.1696097305
 21
47.5666849323
  0
LINE
  5
24C
100
AcDbEntity
  8
IMPORT_IGES
100
AcDbLine
 62
7
  6
CONTINUOUS
 10
153.6668349105
 20
47.2795933451
 11
153.9791534925
 21
47.0992645101
  0
LINE
  5
24D
100
AcDbEntity
  8
CURVE
100
AcDbLine
 62
250
  6
CONTINUOUS
 10
153.6668349105
 20
47.2795933451
 11
153.9791534925
 21
47.0992645101
  0
LINE
  5
24E
100
AcDbEntity
  8
CURVE
100
AcDbLine
 62
250
  6
CONTINUOUS
 10
152.3245475757
 20
48.4131753399
 11
151.8823672595
 21
48.6684847126
  0
LINE
  5
24F
100
AcDbEntity
  8
IMPORT_IGES
100
AcDbLine
 62
7
  6
CONTINUOUS
 10
152.3245475757
 20
48.4131753399
 11
151.8823672595
 21
48.6684847126
  0
LINE
  5
250
100
AcDbEntity
  8
CURVE
100
AcDbLine
 62
250
  6
CONTINUOUS
 10
151.9487854597
 20
48.9075897594
 11
152.2596576015
 21
48.7280960809
  0
LINE
  5
251
100
AcDbEntity
  8
IMPORT_IGES
100
AcDbLine
 62
7
  6
CONTINUOUS
 10
151.9487854597
 20
48.9075897594
 11
152.2596576015
 21
48.7280960809
  0
LINE
  5
252
100
AcDbEntity
  8
IMPORT_IGES
100
AcDbLine
 62
7
  6
CONTINUOUS
 10
153.1696097305
 20
48.2695728102
 11
153.3437032818
 21
48.1690533756
  0
LINE
  5
253
100
AcDbEntity
  8
CURVE
100
AcDbLine
 62
250
  6
CONTINUOUS
 10
153.1696097305
 20
48.2695728102
 11
153.3437032818
 21
48.1690533756
  0
LINE
  5
254
100
AcDbEntity
  8
IMPORT_IGES
100
AcDbLine
 62
7
  6
CONTINUOUS
 10
153.3444031554
 20
48.4628043591
 11
153.158843342
 21
48.5699442697
  0
LINE
  5
255
100
AcDbEntity
  8
CURVE
100
AcDbLine
 62
250
  6
CONTINUOUS
 10
153.3444031554
 20
48.4628043591
 11
153.158843342
 21
48.5699442697
  0
LINE
  5
256
100
AcDbEntity
  8
CURVE
100
AcDbLine
 62
250
  6
CONTINUOUS
 10
147.9438168778
 20
52.3800757015
 11
148.296535597
 21
52.1764203336
  0
LINE
  5
257
100
AcDbEntity
  8
IMPORT_IGES
100
AcDbLine
 62
7
  6
CONTINUOUS
 10
147.9438168778
 20
52.3800757015
 11
148.296535597
 21
52.1764203336
  0
LINE
  5
258
100
AcDbEntity
  8
CURVE
100
AcDbLine
 62
250
  6
CONTINUOUS
 10
148.8986077667
 20
51.8287914085
 11
149.2230813425
 21
51.6414444325
  0
LINE
  5
259
100
AcDbEntity
  8
IMPORT_IGES
100
AcDbLine
 62
7
  6
CONTINUOUS
 10
148.8986077667
 20
51.8287914085
 11
149.2230813425
 21
51.6414444325
  0
LINE
  5
25A
100
AcDbEntity
  8
CURVE
100
AcDbLine
 62
250
  6
CONTINUOUS
 10
149.9835171398
 20
51.2023783336
 11
150.3079433057
 21
51.0150587314
  0
LINE
  5
25B
100
AcDbEntity
  8
IMPORT_IGES
100
AcDbLine
 62
7
  6
CONTINUOUS
 10
149.9835171398
 20
51.2023783336
 11
150.3079433057
 21
51.0150587314
  0
LINE
  5
25C
100
AcDbEntity
  8
CURVE
100
AcDbLine
 62
250
  6
CONTINUOUS
 10
150.9539036384
 20
50.6420893311
 11
151.2751570501
 21
50.4566016375
  0
LINE
  5
25D
100
AcDbEntity
  8
IMPORT_IGES
100
AcDbLine
 62
7
  6
CONTINUOUS
 10
150.9539036384
 20
50.6420893311
 11
151.2751570501
 21
50.4566016375
  0
LINE
  5
25E
100
AcDbEntity
  8
CURVE
100
AcDbLine
 62
250
  6
CONTINUOUS
 10
151.9595052654
 20
50.0614675549
 11
152.2736079422
 21
49.8801086059
  0
LINE
  5
25F
100
AcDbEntity
  8
IMPORT_IGES
100
AcDbLine
 62
7
  6
CONTINUOUS
 10
151.9595052654
 20
50.0614675549
 11
152.2736079422
 21
49.8801086059
  0
LINE
  5
260
100
AcDbEntity
  8
CURVE
100
AcDbLine
 62
250
  6
CONTINUOUS
 10
149.668270701
 20
51.3845054505
 11
149.3435756324
 21
51.5719803137
  0
LINE
  5
261
100
AcDbEntity
  8
IMPORT_IGES
100
AcDbLine
 62
7
  6
CONTINUOUS
 10
149.668270701
 20
51.3845054505
 11
149.3435756324
 21
51.5719803137
  0
LINE
  5
262
100
AcDbEntity
  8
ASSI
100
AcDbLine
 62
250
  6
CONTINUOUS
 10
182.5979407896
 20
33.9758403044
 11
119.3824657433
 21
70.4756633201
  0
LWPOLYLINE
  5
263
100
AcDbEntity
  8
ASSI
100
AcDbPolyline
 62
250
  6
CONTINUOUS
 90
24
 70
0
 10
182.7294970907
 20
34.2146955431
 10
119.4908599412
 20
70.7279546478
 10
119.467805231
 20
70.7430568484
 10
119.4449430687
 20
70.7597695903
 10
119.4223273048
 20
70.7780482087
 10
119.4000774509
 20
70.7978085269
 10
119.3783750693
 20
70.8189122897
 10
119.3573235703
 20
70.8412492595
 10
119.3369811013
 20
70.8647358156
 10
119.3174535363
 20
70.8892511655
 10
119.2988325803
 20
70.9146656565
 10
119.2811667179
 20
70.9408908702
 10
119.2644941182
 20
70.9678652869
 10
119.2489380941
 20
70.9953651795
 10
119.2344957874
 20
71.0233903024
 10
119.2210536598
 20
71.0522300828
 10
119.2086513098
 20
71.0819141813
 10
119.1974563441
 20
71.1121886628
 10
119.1875852321
 20
71.1429170157
 10
119.179113447
 20
71.174082925
 10
119.1721675324
 20
71.2054123352
 10
119.1668854367
 20
71.2363828365
 10
119.163311573
 20
71.2667337823
 10
119.1614528128
 20
71.2964507609
  0
LWPOLYLINE
  5
264
100
AcDbEntity
  8
IMPORT_IGES
100
AcDbPolyline
 62
7
  6
CONTINUOUS
 90
46
 70
0
 10
153.3437032818
 20
48.1690533756
 10
153.3490147272
 20
48.1659002223
 10
153.354334589
 20
48.162569438
 10
153.359656982
 20
48.1590644376
 10
153.3649760209
 20
48.1553886361
 10
153.3702858205
 20
48.1515454484
 10
153.3755804954
 20
48.1475382893
 10
153.3808541606
 20
48.1433705738
 10
153.3861009305
 20
48.1390457169
 10
153.3913149201
 20
48.1345671333
 10
153.3964902441
 20
48.129938238
 10
153.4016210171
 20
48.125162446
 10
153.406701354
 20
48.1202431721
 10
153.4117253695
 20
48.1151838313
 10
153.4166871783
 20
48.1099878384
 10
153.4215808952
 20
48.1046586084
 10
153.4264006348
 20
48.0991995562
 10
153.431020817
 20
48.0937589412
 10
153.4355628253
 20
48.0882039235
 10
153.4400243147
 20
48.0825401227
 10
153.4444029399
 20
48.0767731587
 10
153.4486963559
 20
48.0709086511
 10
153.4529022175
 20
48.0649522197
 10
153.4570181795
 20
48.0589094843
 10
153.4610418968
 20
48.0527860646
 10
153.4649710241
 20
48.0465875804
 10
153.4688032165
 20
48.0403196514
 10
153.4725361286
 20
48.0339878974
 10
153.4761674154
 20
48.0275979381
 10
153.4796947316
 20
48.0211553932
 10
153.4833819437
 20
48.0141514614
 10
153.4869468848
 20
48.0070982545
 10
153.4903910484
 20
48.0000011712
 10
153.4937159277
 20
47.9928656104
 10
153.4969230162
 20
47.9856969706
 10
153.5000138071
 20
47.9785006508
 10
153.5029897939
 20
47.9712820497
 10
153.5058524699
 20
47.9640465659
 10
153.5086033285
 20
47.9567995983
 10
153.5112438629
 20
47.9495465456
 10
153.5137755666
 20
47.9422928066
 10
153.516199933
 20
47.9350437799
 10
153.5185184553
 20
47.9278048644
 10
153.5207326269
 20
47.9205814588
 10
153.5228439413
 20
47.9133789619
 10
153.5248538916
 20
47.9062027723
  0
LWPOLYLINE
  5
265
100
AcDbEntity
  8
CURVE
100
AcDbPolyline
 62
250
  6
CONTINUOUS
 90
46
 70
0
 10
153.3437032818
 20
48.1690533756
 10
153.3490147272
 20
48.1659002223
 10
153.354334589
 20
48.162569438
 10
153.359656982
 20
48.1590644376
 10
153.3649760209
 20
48.1553886361
 10
153.3702858205
 20
48.1515454484
 10
153.3755804954
 20
48.1475382893
 10
153.3808541606
 20
48.1433705738
 10
153.3861009305
 20
48.1390457169
 10
153.3913149201
 20
48.1345671333
 10
153.3964902441
 20
48.129938238
 10
153.4016210171
 20
48.125162446
 10
153.406701354
 20
48.1202431721
 10
153.4117253695
 20
48.1151838313
 10
153.4166871783
 20
48.1099878384
 10
153.4215808952
 20
48.1046586084
 10
153.4264006348
 20
48.0991995562
 10
153.431020817
 20
48.0937589412
 10
153.4355628253
 20
48.0882039235
 10
153.4400243147
 20
48.0825401227
 10
153.4444029399
 20
48.0767731587
 10
153.4486963559
 20
48.0709086511
 10
153.4529022175
 20
48.0649522197
 10
153.4570181795
 20
48.0589094843
 10
153.4610418968
 20
48.0527860646
 10
153.4649710241
 20
48.0465875804
 10
153.4688032165
 20
48.0403196514
 10
153.4725361286
 20
48.0339878974
 10
153.4761674154
 20
48.0275979381
 10
153.4796947316
 20
48.0211553932
 10
153.4833819437
 20
48.0141514614
 10
153.4869468848
 20
48.0070982545
 10
153.4903910484
 20
48.0000011712
 10
153.4937159277
 20
47.9928656104
 10
153.4969230162
 20
47.9856969706
 10
153.5000138071
 20
47.9785006508
 10
153.5029897939
 20
47.9712820497
 10
153.5058524699
 20
47.9640465659
 10
153.5086033285
 20
47.9567995983
 10
153.5112438629
 20
47.9495465456
 10
153.5137755666
 20
47.9422928066
 10
153.516199933
 20
47.9350437799
 10
153.5185184553
 20
47.9278048644
 10
153.5207326269
 20
47.9205814588
 10
153.5228439413
 20
47.9133789619
 10
153.5248538916
 20
47.9062027723
  0
LWPOLYLINE
  5
266
100
AcDbEntity
  8
ASSI
100
AcDbPolyline
 62
250
  6
CONTINUOUS
 90
25
 70
0
 10
119.3824657433
 20
70.4756633201
 10
119.3507484581
 20
70.4951450703
 10
119.3193529485
 20
70.5167480039
 10
119.2882792145
 20
70.5404721209
 10
119.2573680728
 20
70.5664591452
 10
119.2267787066
 20
70.5945673529
 10
119.196988666
 20
70.624371572
 10
119.1680384543
 20
70.6558823392
 10
119.1398875681
 20
70.6890891178
 10
119.112892048
 20
70.7235351263
 10
119.0870900587
 20
70.7591991288
 10
119.0624434355
 20
70.7961023612
 10
119.0391937242
 20
70.8338517497
 10
119.0173996594
 20
70.872287626
 10
118.9970025066
 20
70.9115696585
 10
118.9780676087
 20
70.9517837781
 10
118.9604733447
 20
70.993143283
 10
118.9443413357
 20
71.0354348751
 10
118.9301017878
 20
71.0781045912
 10
118.9177710612
 20
71.1213403406
 10
118.9073327957
 20
71.164954214
 10
118.8991681173
 20
71.2078285195
 10
118.8934040678
 20
71.2495906933
 10
118.8899136054
 20
71.2906132992
 10
118.8886967301
 20
71.3308963373
  0
LWPOLYLINE
  5
267
100
AcDbEntity
  8
ASSI
100
AcDbPolyline
 62
250
  6
CONTINUOUS
 90
25
 70
0
 10
118.8886967301
 20
165.5517150093
 10
118.8897087889
 20
165.5877534457
 10
118.892718809
 20
165.6222667417
 10
118.8977267903
 20
165.6552548975
 10
118.9047758739
 20
165.6868768071
 10
118.9138229188
 20
165.7169735764
 10
118.9247385015
 20
165.7450685235
 10
118.9375520006
 20
165.7710979179
 10
118.9522340375
 20
165.79512549
 10
118.9685670524
 20
165.8168657493
 10
118.9865517381
 20
165.8362742283
 10
119.0061874019
 20
165.8533953944
 10
119.0272544054
 20
165.8680771597
 10
119.0496438375
 20
165.8803145899
 10
119.0734646094
 20
165.8901126193
 10
119.0988238167
 20
165.8973339632
 10
119.1258453704
 20
165.9020475084
 10
119.1544053594
 20
165.9041843681
 10
119.1842391459
 20
165.9034005976
 10
119.2155176504
 20
165.8995786191
 10
119.2480699524
 20
165.8928360104
 10
119.2811186526
 20
165.8831815599
 10
119.314404618
 20
165.8706181973
 10
119.3481869815
 20
165.8551429929
 10
119.3824657433
 20
165.8367559468
  0
LWPOLYLINE
  5
268
100
AcDbEntity
  8
ASSI
100
AcDbPolyline
 62
250
  6
CONTINUOUS
 90
16
 70
0
 10
118.8886967301
 20
71.3308963373
 10
118.9035319736
 20
71.3231475916
 10
118.9196336809
 20
71.316293308
 10
118.9368407582
 20
71.3104020623
 10
118.9549810529
 20
71.3055327947
 10
118.9738730756
 20
71.3017342212
 10
118.9933278162
 20
71.2990443457
 10
119.0131506346
 20
71.2974900796
 10
119.0331432083
 20
71.297086973
 10
119.0531055164
 20
71.297839059
 10
119.0728378408
 20
71.299738813
 10
119.0921427642
 20
71.3027672285
 10
119.1108271456
 20
71.306894007
 10
119.1287040521
 20
71.3120778609
 10
119.1455946297
 20
71.3182669271
 10
119.1613298921
 20
71.3253992854
  0
LWPOLYLINE
  5
269
100
AcDbEntity
  8
ASSI
100
AcDbPolyline
 62
250
  6
CONTINUOUS
 90
10
 70
0
 10
121.0194349729
 20
71.4651612508
 10
121.007025688
 20
71.4716464718
 10
120.9843926231
 20
71.4803778641
 10
120.9602657056
 20
71.4859942766
 10
120.934812606
 20
71.4884566778
 10
120.9082102113
 20
71.4877479553
 10
120.8806433954
 20
71.4838730343
 10
120.8523037345
 20
71.4768588436
 10
120.8233881756
 20
71.4667541286
 10
120.7940976682
 20
71.4536291122
  0
LINE
  5
26A
100
AcDbEntity
  8
ASSI
100
AcDbLine
 62
7
  6
CONTINUOUS
 10
120.5837504371
 20
71.3321585239
 11
183.033131159
 21
35.2746687696
  0
LINE
  5
26B
100
AcDbEntity
  8
ASSI
100
AcDbLine
 62
250
  6
CONTINUOUS
 10
120.7940976682
 20
71.4536291122
 11
183.033131159
 21
35.5175912129
  0
LINE
  5
26C
100
AcDbEntity
  8
ASSI
100
AcDbLine
 62
7
  6
CONTINUOUS
 10
121.0194471105
 20
71.4651542434
 11
183.033131159
 21
35.6592302877
  0
LWPOLYLINE
  5
26D
100
AcDbEntity
  8
ASSI
100
AcDbPolyline
 62
7
  6
CONTINUOUS
 90
30
 70
0
 10
121.0194349729
 20
71.4651612508
 10
121.0064074859
 20
71.4729716585
 10
120.9874690358
 20
71.485310234
 10
120.9669841053
 20
71.499905841
 10
120.9453081304
 20
71.5167134067
 10
120.9226323644
 20
71.5357683387
 10
120.8991356724
 20
71.5570999544
 10
120.8751559817
 20
71.5805611056
 10
120.850890251
 20
71.6060955213
 10
120.8265294579
 20
71.6336345591
 10
120.8023756055
 20
71.66294869
 10
120.7786131731
 20
71.6939009439
 10
120.7554177885
 20
71.7263437207
 10
120.7330396803
 20
71.7599864438
 10
120.7116327478
 20
71.7946288413
 10
120.6913304952
 20
71.8300776309
 10
120.6723097238
 20
71.8660220969
 10
120.6546670161
 20
71.9022465208
 10
120.6384931929
 20
71.9385171733
 10
120.6239081562
 20
71.9744754479
 10
120.6109464961
 20
72.0098955413
 10
120.5996290796
 20
72.0445503802
 10
120.58999697
 20
72.0780691865
 10
120.5820092226
 20
72.110254483
 10
120.575611051
 20
72.1409091477
 10
120.5707543652
 20
72.1696726268
 10
120.5673196809
 20
72.1964110961
 10
120.5651762735
 20
72.2209805534
 10
120.5641795736
 20
72.2430545409
 10
120.5640507255
 20
72.2538997784
  0
LWPOLYLINE
  5
26E
100
AcDbEntity
  8
ASSI
100
AcDbPolyline
 62
250
  6
CONTINUOUS
 90
9
 70
0
 10
183.0917098028
 20
34.2608812419
 10
183.0782893427
 20
34.2694469986
 10
183.0664180779
 20
34.278743994
 10
183.0562147728
 20
34.2886792097
 10
183.0477815037
 20
34.2991532425
 10
183.0412026362
 20
34.3100612996
 10
183.0365439827
 20
34.3212942483
 10
183.0338521451
 20
34.3327397038
 10
183.0331312572
 20
34.3424217425
  0
LWPOLYLINE
  5
26F
100
AcDbEntity
  8
IMPORT_IGES
100
AcDbPolyline
 62
7
  6
CONTINUOUS
 90
49
 70
0
 10
153.4132123922
 20
48.9267075966
 10
153.4191632464
 20
48.9223811777
 10
153.4251145064
 20
48.9178687893
 10
153.4310596176
 20
48.913174738
 10
153.4369920255
 20
48.9083033304
 10
153.4429051756
 20
48.9032588731
 10
153.4487925134
 20
48.8980456729
 10
153.4546474844
 20
48.8926680363
 10
153.460463534
 20
48.88713027
 10
153.4662341079
 20
48.8814366805
 10
153.4719526514
 20
48.8755915747
 10
153.47761261
 20
48.869599259
 10
153.4832074293
 20
48.8634640401
 10
153.4887305548
 20
48.8571902247
 10
153.4941754319
 20
48.8507821194
 10
153.4995355062
 20
48.8442440308
 10
153.5048042231
 20
48.8375802656
 10
153.5099750281
 20
48.8307951304
 10
153.5150413667
 20
48.8238929318
 10
153.5199966845
 20
48.8168779764
 10
153.5248344269
 20
48.809754571
 10
153.5295480393
 20
48.8025270221
 10
153.5341309674
 20
48.7951996364
 10
153.5385766565
 20
48.7877767205
 10
153.5428785523
 20
48.780262581
 10
153.5470089006
 20
48.7727035444
 10
153.5509886342
 20
48.7650677296
 10
153.5548158701
 20
48.7573643411
 10
153.5584887251
 20
48.7496025834
 10
153.5620053161
 20
48.7417916608
 10
153.5653637602
 20
48.7339407778
 10
153.5685621742
 20
48.7260591389
 10
153.5715986752
 20
48.7181559484
 10
153.5744713799
 20
48.7102404108
 10
153.5771784054
 20
48.7023217305
 10
153.5797178686
 20
48.6944091119
 10
153.5820878865
 20
48.6865117595
 10
153.5842865759
 20
48.6786388777
 10
153.5863120538
 20
48.6707996709
 10
153.5881624372
 20
48.6630033436
 10
153.5898358429
 20
48.6552591002
 10
153.5913303879
 20
48.647576145
 10
153.5926441892
 20
48.6399636826
 10
153.5937753637
 20
48.6324309174
 10
153.5947220283
 20
48.6249870538
 10
153.5954822999
 20
48.6176412962
 10
153.5960542956
 20
48.6104028491
 10
153.5964361321
 20
48.6032809168
 10
153.5966259266
 20
48.5962847039
  0
LWPOLYLINE
  5
270
100
AcDbEntity
  8
CURVE
100
AcDbPolyline
 62
250
  6
CONTINUOUS
 90
49
 70
0
 10
153.4132123922
 20
48.9267075966
 10
153.4191632464
 20
48.9223811777
 10
153.4251145064
 20
48.9178687893
 10
153.4310596176
 20
48.913174738
 10
153.4369920255
 20
48.9083033304
 10
153.4429051756
 20
48.9032588731
 10
153.4487925134
 20
48.8980456729
 10
153.4546474844
 20
48.8926680363
 10
153.460463534
 20
48.88713027
 10
153.4662341079
 20
48.8814366805
 10
153.4719526514
 20
48.8755915747
 10
153.47761261
 20
48.869599259
 10
153.4832074293
 20
48.8634640401
 10
153.4887305548
 20
48.8571902247
 10
153.4941754319
 20
48.8507821194
 10
153.4995355062
 20
48.8442440308
 10
153.5048042231
 20
48.8375802656
 10
153.5099750281
 20
48.8307951304
 10
153.5150413667
 20
48.8238929318
 10
153.5199966845
 20
48.8168779764
 10
153.5248344269
 20
48.809754571
 10
153.5295480393
 20
48.8025270221
 10
153.5341309674
 20
48.7951996364
 10
153.5385766565
 20
48.7877767205
 10
153.5428785523
 20
48.780262581
 10
153.5470089006
 20
48.7727035444
 10
153.5509886342
 20
48.7650677296
 10
153.5548158701
 20
48.7573643411
 10
153.5584887251
 20
48.7496025834
 10
153.5620053161
 20
48.7417916608
 10
153.5653637602
 20
48.7339407778
 10
153.5685621742
 20
48.7260591389
 10
153.5715986752
 20
48.7181559484
 10
153.5744713799
 20
48.7102404108
 10
153.5771784054
 20
48.7023217305
 10
153.5797178686
 20
48.6944091119
 10
153.5820878865
 20
48.6865117595
 10
153.5842865759
 20
48.6786388777
 10
153.5863120538
 20
48.6707996709
 10
153.5881624372
 20
48.6630033436
 10
153.5898358429
 20
48.6552591002
 10
153.5913303879
 20
48.647576145
 10
153.5926441892
 20
48.6399636826
 10
153.5937753637
 20
48.6324309174
 10
153.5947220283
 20
48.6249870538
 10
153.5954822999
 20
48.6176412962
 10
153.5960542956
 20
48.6104028491
 10
153.5964361321
 20
48.6032809168
 10
153.5966259266
 20
48.5962847039
  0
LWPOLYLINE
  5
271
100
AcDbEntity
  8
IMPORT_IGES
100
AcDbPolyline
 62
7
  6
CONTINUOUS
 90
30
 70
0
 10
153.6475183999
 20
49.0469358
 10
153.6287218138
 20
49.0652632465
 10
153.6097427056
 20
49.0830626144
 10
153.5905977032
 20
49.1003525424
 10
153.5713034347
 20
49.1171516697
 10
153.5518765283
 20
49.133478635
 10
153.532333612
 20
49.1493520772
 10
153.5126913138
 20
49.1647906353
 10
153.4929662618
 20
49.1798129481
 10
153.4731750841
 20
49.1944376547
 10
153.4533344088
 20
49.2086833937
 10
153.4334608638
 20
49.2225688043
 10
153.4135710774
 20
49.2361125252
 10
153.3843365227
 20
49.2554330468
 10
153.3551040328
 20
49.2740952912
 10
153.3258748375
 20
49.2921387468
 10
153.2966501665
 20
49.3096029018
 10
153.2674312498
 20
49.3265272444
 10
153.2382193172
 20
49.3429512628
 10
153.2090155984
 20
49.3589144452
 10
153.1798213234
 20
49.3744562799
 10
153.1426194579
 20
49.3937117634
 10
153.1054398763
 20
49.4123724012
 10
153.0682875159
 20
49.4304639477
 10
153.0311673139
 20
49.4480121575
 10
152.9940842074
 20
49.4650427853
 10
152.9570431337
 20
49.4815815856
 10
152.92004903
 20
49.497654313
 10
152.8831068335
 20
49.5132867222
 10
152.8462214815
 20
49.5285045676
  0
LWPOLYLINE
  5
272
100
AcDbEntity
  8
CURVE
100
AcDbPolyline
 62
250
  6
CONTINUOUS
 90
30
 70
0
 10
153.6475183999
 20
49.0469358
 10
153.6287218138
 20
49.0652632465
 10
153.6097427056
 20
49.0830626144
 10
153.5905977032
 20
49.1003525424
 10
153.5713034347
 20
49.1171516697
 10
153.5518765283
 20
49.133478635
 10
153.532333612
 20
49.1493520772
 10
153.5126913138
 20
49.1647906353
 10
153.4929662618
 20
49.1798129481
 10
153.4731750841
 20
49.1944376547
 10
153.4533344088
 20
49.2086833937
 10
153.4334608638
 20
49.2225688043
 10
153.4135710774
 20
49.2361125252
 10
153.3843365227
 20
49.2554330468
 10
153.3551040328
 20
49.2740952912
 10
153.3258748375
 20
49.2921387468
 10
153.2966501665
 20
49.3096029018
 10
153.2674312498
 20
49.3265272444
 10
153.2382193172
 20
49.3429512628
 10
153.2090155984
 20
49.3589144452
 10
153.1798213234
 20
49.3744562799
 10
153.1426194579
 20
49.3937117634
 10
153.1054398763
 20
49.4123724012
 10
153.0682875159
 20
49.4304639477
 10
153.0311673139
 20
49.4480121575
 10
152.9940842074
 20
49.4650427853
 10
152.9570431337
 20
49.4815815856
 10
152.92004903
 20
49.497654313
 10
152.8831068335
 20
49.5132867222
 10
152.8462214815
 20
49.5285045676
  0
LWPOLYLINE
  5
273
100
AcDbEntity
  8
ASSI
100
AcDbPolyline
 62
250
  6
CONTINUOUS
 90
28
 70
0
 10
120.4414055159
 20
72.0645098388
 10
120.4432299771
 20
72.041893941
 10
120.4460927354
 20
72.018573277
 10
120.4500047306
 20
71.9946214741
 10
120.4549863579
 20
71.9700886403
 10
120.4610302489
 20
71.9450803775
 10
120.4680863344
 20
71.919760633
 10
120.4761288135
 20
71.8942232294
 10
120.4851419447
 20
71.8685464342
 10
120.495063121
 20
71.8428739822
 10
120.5058337887
 20
71.817330688
 10
120.5174305815
 20
71.7919580063
 10
120.5298381271
 20
71.7667737425
 10
120.5430238069
 20
71.7418458024
 10
120.5569399869
 20
71.7172673149
 10
120.5715541438
 20
71.6930950541
 10
120.5867650938
 20
71.6694956113
 10
120.6025739629
 20
71.6464511174
 10
120.6191277783
 20
71.623766704
 10
120.6364604046
 20
71.6014738797
 10
120.6544779115
 20
71.579756822
 10
120.6731571362
 20
71.5586852797
 10
120.6925230313
 20
71.5382943392
 10
120.7124528484
 20
71.5187956029
 10
120.7326789179
 20
71.5004912455
 10
120.7530509358
 20
71.4835137239
 10
120.7735524387
 20
71.467870455
 10
120.7940976682
 20
71.4536291122
  0
LWPOLYLINE
  5
274
100
AcDbEntity
  8
ASSI
100
AcDbPolyline
 62
250
  6
CONTINUOUS
 90
9
 70
0
 10
119.3824657433
 20
165.8367559468
 10
119.3831731867
 20
165.8208515629
 10
119.3852884391
 20
165.8059232365
 10
119.388790338
 20
165.7921203219
 10
119.3936438476
 20
165.7795809139
 10
119.3998004098
 20
165.7684304663
 10
119.4071984296
 20
165.7587805368
 10
119.4157638916
 20
165.7507276705
 10
119.4237892145
 20
165.7452624023
  0
LINE
  5
275
100
AcDbEntity
  8
ASSI
100
AcDbLine
 62
250
  6
CONTINUOUS
 10
118.8886967301
 20
71.3308963373
 11
118.8886967301
 21
165.5517150093
  0
LINE
  5
276
100
AcDbEntity
  8
ASSI
100
AcDbLine
 62
250
  6
CONTINUOUS
 10
119.1614528128
 20
71.2964507609
 11
119.1613298921
 21
165.5462179574
  0
LINE
  5
277
100
AcDbEntity
  8
ASSI
100
AcDbLine
 62
7
  6
CONTINUOUS
 10
120.2310582848
 20
165.2791552585
 11
120.2310582848
 21
71.9430392505
  0
LINE
  5
278
100
AcDbEntity
  8
ASSI
100
AcDbLine
 62
250
  6
CONTINUOUS
 10
120.4414055159
 20
165.1577034036
 11
120.4414055159
 21
72.0645098388
  0
LINE
  5
279
100
AcDbEntity
  8
ASSI
100
AcDbLine
 62
7
  6
CONTINUOUS
 10
120.5640507258
 20
165.0868895965
 11
120.5640507258
 21
72.2539099692
  0
LINE
  5
27A
100
AcDbEntity
  8
0
100
AcDbLine
 62
7
  6
CONTINUOUS
 10
120.6553223535
 20
71.9009009665
 11
120.6553223535
 21
165.0341905025
  0
LINE
  5
27B
100
AcDbEntity
  8
0
100
AcDbLine
 62
250
  6
CONTINUOUS
 10
121.353724132
 20
71.2721468806
 11
121.353724132
 21
164.6309420686
  0
LINE
  5
27C
100
AcDbEntity
  8
0
100
AcDbLine
 62
7
  6
CONTINUOUS
 10
121.4379221919
 20
71.223531976
 11
121.4379221919
 21
164.5823271641
  0
LWPOLYLINE
  5
27D
100
AcDbEntity
  8
ASSI
100
AcDbPolyline
 62
250
  6
CONTINUOUS
 90
15
 70
0
 10
119.1613298921
 20
165.5462179574
 10
119.1613841502
 20
165.5715043462
 10
119.1629350458
 20
165.5959371029
 10
119.1659770343
 20
165.6194061575
 10
119.1704983626
 20
165.6418265059
 10
119.1764858908
 20
165.6630694751
 10
119.1839106709
 20
165.6829786035
 10
119.1927289413
 20
165.7014615526
 10
119.2028973591
 20
165.7184604305
 10
119.2143642533
 20
165.7338987744
 10
119.2270631942
 20
165.7477116566
 10
119.240941852
 20
165.7598666797
 10
119.2559660333
 20
165.7703428453
 10
119.2720036415
 20
165.7790662421
 10
119.2777347006
 20
165.7816567849
  0
LWPOLYLINE
  5
27E
100
AcDbEntity
  8
ASSI
100
AcDbPolyline
 62
250
  6
CONTINUOUS
 90
10
 70
0
 10
120.5640507255
 20
72.2538997784
 10
120.5634632158
 20
72.2399190144
 10
120.5597096062
 20
72.2159502042
 10
120.5525114083
 20
72.1922451996
 10
120.5419186478
 20
72.1689687386
 10
120.5280049406
 20
72.1462825811
 10
120.5108669808
 20
72.1243443834
 10
120.4906238693
 20
72.1033066046
 10
120.467416287
 20
72.0833154469
 10
120.4414055159
 20
72.0645098388
  0
LWPOLYLINE
  5
27F
100
AcDbEntity
  8
ASSI
100
AcDbPolyline
 62
250
  6
CONTINUOUS
 90
16
 70
0
 10
119.3824657433
 20
70.4756633201
 10
119.3831731982
 20
70.4923847814
 10
119.3852884813
 20
70.5097558733
 10
119.3887904237
 20
70.5276027977
 10
119.3936439832
 20
70.545746996
 10
119.3998005955
 20
70.5640069383
 10
119.4071986609
 20
70.58219994
 10
119.4157641587
 20
70.6001439836
 10
119.4254113894
 20
70.6176595451
 10
119.4360438339
 20
70.6345713918
 10
119.4475551148
 20
70.6507103268
 10
119.4598300629
 20
70.6659148878
 10
119.4727458737
 20
70.6800329651
 10
119.4861733294
 20
70.6929233155
 10
119.4999780904
 20
70.704456976
 10
119.5140220444
 20
70.7145185588
  0
LINE
  5
280
100
AcDbEntity
  8
IMPORT_IGES
100
AcDbLine
 62
7
  6
CONTINUOUS
 10
150.6046665782
 20
49.0476513023
 11
150.2237604963
 21
50.4403902672
  0
LINE
  5
281
100
AcDbEntity
  8
CURVE
100
AcDbLine
 62
250
  6
CONTINUOUS
 10
150.6046665782
 20
49.0476513023
 11
150.2237604963
 21
50.4403902672
  0
LINE
  5
282
100
AcDbEntity
  8
IMPORT_IGES
100
AcDbLine
 62
7
  6
CONTINUOUS
 10
150.3079433057
 20
51.0150587314
 11
150.6292085699
 21
49.8323734769
  0
LINE
  5
283
100
AcDbEntity
  8
CURVE
100
AcDbLine
 62
250
  6
CONTINUOUS
 10
150.3079433057
 20
51.0150587314
 11
150.6292085699
 21
49.8323734769
  0
LWPOLYLINE
  5
284
100
AcDbEntity
  8
IMPORT_IGES
100
AcDbPolyline
 62
7
  6
CONTINUOUS
 90
5
 70
0
 10
153.5248538916
 20
47.9062027723
 10
153.5302098314
 20
47.886146991
 10
153.5353072738
 20
47.8661355296
 10
153.5401911484
 20
47.8461611158
 10
153.5449063849
 20
47.8262164773
  0
LWPOLYLINE
  5
285
100
AcDbEntity
  8
CURVE
100
AcDbPolyline
 62
250
  6
CONTINUOUS
 90
5
 70
0
 10
153.5248538916
 20
47.9062027723
 10
153.5302098314
 20
47.886146991
 10
153.5353072738
 20
47.8661355296
 10
153.5401911484
 20
47.8461611158
 10
153.5449063849
 20
47.8262164773
  0
LINE
  5
286
100
AcDbEntity
  8
IMPORT_IGES
100
AcDbLine
 62
7
  6
CONTINUOUS
 10
148.4369420129
 20
50.2992682984
 11
147.9438168778
 21
52.3800757015
  0
LINE
  5
287
100
AcDbEntity
  8
CURVE
100
AcDbLine
 62
250
  6
CONTINUOUS
 10
148.4369420129
 20
50.2992682984
 11
147.9438168778
 21
52.3800757015
  0
LINE
  5
288
100
AcDbEntity
  8
IMPORT_IGES
100
AcDbLine
 62
7
  6
CONTINUOUS
 10
148.296535597
 20
52.1764203336
 11
148.5930433029
 21
50.7689210301
  0
LINE
  5
289
100
AcDbEntity
  8
CURVE
100
AcDbLine
 62
250
  6
CONTINUOUS
 10
148.296535597
 20
52.1764203336
 11
148.5930433029
 21
50.7689210301
  0
LINE
  5
28A
100
AcDbEntity
  8
IMPORT_IGES
100
AcDbLine
 62
7
  6
CONTINUOUS
 10
151.2751570501
 20
50.4566016375
 11
151.4206140938
 21
48.576533433
  0
LINE
  5
28B
100
AcDbEntity
  8
CURVE
100
AcDbLine
 62
250
  6
CONTINUOUS
 10
151.2751570501
 20
50.4566016375
 11
151.4206140938
 21
48.576533433
  0
LINE
  5
28C
100
AcDbEntity
  8
IMPORT_IGES
100
AcDbLine
 62
7
  6
CONTINUOUS
 10
152.2736079422
 20
49.8801086059
 11
152.750875232
 21
47.808457324
  0
LINE
  5
28D
100
AcDbEntity
  8
CURVE
100
AcDbLine
 62
250
  6
CONTINUOUS
 10
152.2736079422
 20
49.8801086059
 11
152.750875232
 21
47.808457324
  0
LINE
  5
28E
100
AcDbEntity
  8
IMPORT_IGES
100
AcDbLine
 62
7
  6
CONTINUOUS
 10
153.5449063849
 20
47.8262164773
 11
153.5540106613
 21
47.786387437
  0
LINE
  5
28F
100
AcDbEntity
  8
CURVE
100
AcDbLine
 62
250
  6
CONTINUOUS
 10
153.5449063849
 20
47.8262164773
 11
153.5540106613
 21
47.786387437
  0
LINE
  5
290
100
AcDbEntity
  8
IMPORT_IGES
100
AcDbLine
 62
7
  6
CONTINUOUS
 10
153.5540106613
 20
47.786387437
 11
153.6202767062
 21
47.4916584515
  0
LINE
  5
291
100
AcDbEntity
  8
CURVE
100
AcDbLine
 62
250
  6
CONTINUOUS
 10
153.5540106613
 20
47.786387437
 11
153.6202767062
 21
47.4916584515
  0
LWPOLYLINE
  5
292
100
AcDbEntity
  8
IMPORT_IGES
100
AcDbPolyline
 62
7
  6
CONTINUOUS
 90
37
 70
0
 10
153.8528486164
 20
47.7220281204
 10
153.8496213133
 20
47.7365914996
 10
153.8463003478
 20
47.7511738191
 10
153.8428693386
 20
47.7657755715
 10
153.8393119044
 20
47.7803972493
 10
153.8356116639
 20
47.7950393453
 10
153.8317522356
 20
47.8097023519
 10
153.8277172383
 20
47.8243867618
 10
153.8234902906
 20
47.8390930677
 10
153.8190550112
 20
47.853821762
 10
153.8143950188
 20
47.8685733375
 10
153.8094939319
 20
47.8833482868
 10
153.8059847543
 20
47.8934933089
 10
153.8023477057
 20
47.9036426881
 10
153.7985760059
 20
47.913789557
 10
153.7946628749
 20
47.9239270484
 10
153.7906015324
 20
47.934048295
 10
153.7863851983
 20
47.9441464294
 10
153.7820070925
 20
47.9542145844
 10
153.7774604347
 20
47.9642458927
 10
153.7727384449
 20
47.974233487
 10
153.7678343429
 20
47.9841705
 10
153.7627413486
 20
47.9940500644
 10
153.7574526817
 20
48.0038653129
 10
153.7524330272
 20
48.012791391
 10
153.7472491542
 20
48.0216428257
 10
153.7419066838
 20
48.0304046897
 10
153.7364112365
 20
48.0390620559
 10
153.7307684332
 20
48.0475999968
 10
153.7249838947
 20
48.0560035854
 10
153.7190632418
 20
48.0642578943
 10
153.7130120953
 20
48.0723479963
 10
153.7068360759
 20
48.0802589641
 10
153.7005408045
 20
48.0879758705
 10
153.6941319018
 20
48.0954837882
 10
153.6876149886
 20
48.1027677899
 10
153.6809956858
 20
48.1098129485
  0
LWPOLYLINE
  5
293
100
AcDbEntity
  8
CURVE
100
AcDbPolyline
 62
250
  6
CONTINUOUS
 90
37
 70
0
 10
153.8528486164
 20
47.7220281204
 10
153.8496213133
 20
47.7365914996
 10
153.8463003478
 20
47.7511738191
 10
153.8428693386
 20
47.7657755715
 10
153.8393119044
 20
47.7803972493
 10
153.8356116639
 20
47.7950393453
 10
153.8317522356
 20
47.8097023519
 10
153.8277172383
 20
47.8243867618
 10
153.8234902906
 20
47.8390930677
 10
153.8190550112
 20
47.853821762
 10
153.8143950188
 20
47.8685733375
 10
153.8094939319
 20
47.8833482868
 10
153.8059847543
 20
47.8934933089
 10
153.8023477057
 20
47.9036426881
 10
153.7985760059
 20
47.913789557
 10
153.7946628749
 20
47.9239270484
 10
153.7906015324
 20
47.934048295
 10
153.7863851983
 20
47.9441464294
 10
153.7820070925
 20
47.9542145844
 10
153.7774604347
 20
47.9642458927
 10
153.7727384449
 20
47.974233487
 10
153.7678343429
 20
47.9841705
 10
153.7627413486
 20
47.9940500644
 10
153.7574526817
 20
48.0038653129
 10
153.7524330272
 20
48.012791391
 10
153.7472491542
 20
48.0216428257
 10
153.7419066838
 20
48.0304046897
 10
153.7364112365
 20
48.0390620559
 10
153.7307684332
 20
48.0475999968
 10
153.7249838947
 20
48.0560035854
 10
153.7190632418
 20
48.0642578943
 10
153.7130120953
 20
48.0723479963
 10
153.7068360759
 20
48.0802589641
 10
153.7005408045
 20
48.0879758705
 10
153.6941319018
 20
48.0954837882
 10
153.6876149886
 20
48.1027677899
 10
153.6809956858
 20
48.1098129485
  0
LINE
  5
294
100
AcDbEntity
  8
IMPORT_IGES
100
AcDbLine
 62
7
  6
CONTINUOUS
 10
153.6202767062
 20
47.4916584515
 11
153.6668349105
 21
47.2795933451
  0
LINE
  5
295
100
AcDbEntity
  8
CURVE
100
AcDbLine
 62
250
  6
CONTINUOUS
 10
153.6202767062
 20
47.4916584515
 11
153.6668349105
 21
47.2795933451
  0
LINE
  5
296
100
AcDbEntity
  8
IMPORT_IGES
100
AcDbLine
 62
7
  6
CONTINUOUS
 10
153.859087761
 20
47.6929562122
 11
153.8528486164
 21
47.7220281204
  0
LINE
  5
297
100
AcDbEntity
  8
CURVE
100
AcDbLine
 62
250
  6
CONTINUOUS
 10
153.859087761
 20
47.6929562122
 11
153.8528486164
 21
47.7220281204
  0
LINE
  5
298
100
AcDbEntity
  8
IMPORT_IGES
100
AcDbLine
 62
7
  6
CONTINUOUS
 10
152.4086607519
 20
48.0060476758
 11
152.3245475757
 21
48.4131753399
  0
LINE
  5
299
100
AcDbEntity
  8
CURVE
100
AcDbLine
 62
250
  6
CONTINUOUS
 10
152.4086607519
 20
48.0060476758
 11
152.3245475757
 21
48.4131753399
  0
LINE
  5
29A
100
AcDbEntity
  8
IMPORT_IGES
100
AcDbLine
 62
7
  6
CONTINUOUS
 10
153.8833185424
 20
47.5758463028
 11
153.859087761
 21
47.6929562122
  0
LINE
  5
29B
100
AcDbEntity
  8
CURVE
100
AcDbLine
 62
250
  6
CONTINUOUS
 10
153.8833185424
 20
47.5758463028
 11
153.859087761
 21
47.6929562122
  0
LINE
  5
29C
100
AcDbEntity
  8
IMPORT_IGES
100
AcDbLine
 62
7
  6
CONTINUOUS
 10
153.9791534925
 20
47.0992645101
 11
153.9643394968
 21
47.171941364
  0
LINE
  5
29D
100
AcDbEntity
  8
CURVE
100
AcDbLine
 62
250
  6
CONTINUOUS
 10
153.9791534925
 20
47.0992645101
 11
153.9643394968
 21
47.171941364
  0
LINE
  5
29E
100
AcDbEntity
  8
IMPORT_IGES
100
AcDbLine
 62
7
  6
CONTINUOUS
 10
153.9643394968
 20
47.171941364
 11
153.8833185424
 21
47.5758463028
  0
LINE
  5
29F
100
AcDbEntity
  8
CURVE
100
AcDbLine
 62
250
  6
CONTINUOUS
 10
153.9643394968
 20
47.171941364
 11
153.8833185424
 21
47.5758463028
  0
LINE
  5
2A0
100
AcDbEntity
  8
IMPORT_IGES
100
AcDbLine
 62
7
  6
CONTINUOUS
 10
152.2596576015
 20
48.7280960809
 11
152.1104559225
 21
49.4807925349
  0
LINE
  5
2A1
100
AcDbEntity
  8
CURVE
100
AcDbLine
 62
250
  6
CONTINUOUS
 10
152.2596576015
 20
48.7280960809
 11
152.1104559225
 21
49.4807925349
  0
LINE
  5
2A2
100
AcDbEntity
  8
IMPORT_IGES
100
AcDbLine
 62
7
  6
CONTINUOUS
 10
151.102976422
 20
48.7599334438
 11
151.0362670958
 21
49.9663699605
  0
LINE
  5
2A3
100
AcDbEntity
  8
CURVE
100
AcDbLine
 62
250
  6
CONTINUOUS
 10
151.102976422
 20
48.7599334438
 11
151.0362670958
 21
49.9663699605
  0
LWPOLYLINE
  5
2A4
100
AcDbEntity
  8
IMPORT_IGES
100
AcDbPolyline
 62
7
  6
CONTINUOUS
 90
58
 70
0
 10
153.5966259266
 20
48.5962847039
 10
153.5966748421
 20
48.5879293639
 10
153.596594067
 20
48.5796248686
 10
153.5963755548
 20
48.5713847672
 10
153.5960112592
 20
48.5632226091
 10
153.5954931334
 20
48.5551519433
 10
153.5948131312
 20
48.5471863192
 10
153.5939632059
 20
48.539339286
 10
153.592935311
 20
48.5316243929
 10
153.5917214002
 20
48.5240551892
 10
153.5903134269
 20
48.5166452241
 10
153.5887033446
 20
48.5094080468
 10
153.5868831068
 20
48.5023572065
 10
153.584844667
 20
48.4955062526
 10
153.5825799788
 20
48.4888687342
 10
153.5800809956
 20
48.4824582006
 10
153.5773396709
 20
48.4762882011
 10
153.5746121174
 20
48.4708608781
 10
153.5716791295
 20
48.4656534823
 10
153.5685451772
 20
48.4606729386
 10
153.5652147305
 20
48.455926172
 10
153.5616922595
 20
48.4514201073
 10
153.5579822341
 20
48.4471616695
 10
153.5540891243
 20
48.4431577836
 10
153.5500174002
 20
48.4394153743
 10
153.5457715317
 20
48.4359413668
 10
153.541355989
 20
48.4327426858
 10
153.5367752419
 20
48.4298262564
 10
153.5320337605
 20
48.4271990034
 10
153.5271360148
 20
48.4248678517
 10
153.5220864749
 20
48.4228397264
 10
153.5166591262
 20
48.4210506377
 10
153.5110789558
 20
48.419590009
 10
153.5053536545
 20
48.4184486029
 10
153.4994909132
 20
48.4176171819
 10
153.4934984225
 20
48.4170865086
 10
153.4873838732
 20
48.4168473456
 10
153.4811549561
 20
48.4168904556
 10
153.4748193619
 20
48.4172066011
 10
153.4683847815
 20
48.4177865447
 10
153.4618589056
 20
48.418621049
 10
153.455249425
 20
48.4197008765
 10
153.4485640303
 20
48.4210167899
 10
153.4418104125
 20
48.4225595519
 10
153.4349962622
 20
48.4243199248
 10
153.4281292703
 20
48.4262886714
 10
153.4212171274
 20
48.4284565543
 10
153.4142675244
 20
48.430814336
 10
153.407288152
 20
48.4333527791
 10
153.4002867011
 20
48.4360626463
 10
153.3932708622
 20
48.4389347
 10
153.3862483263
 20
48.441959703
 10
153.3792267841
 20
48.4451284177
 10
153.3722139264
 20
48.4484316069
 10
153.3652174439
 20
48.451860033
 10
153.3582450274
 20
48.4554044587
 10
153.3513043676
 20
48.4590556465
 10
153.3444031554
 20
48.4628043591
  0
LWPOLYLINE
  5
2A5
100
AcDbEntity
  8
CURVE
100
AcDbPolyline
 62
250
  6
CONTINUOUS
 90
58
 70
0
 10
153.5966259266
 20
48.5962847039
 10
153.5966748421
 20
48.5879293639
 10
153.596594067
 20
48.5796248686
 10
153.5963755548
 20
48.5713847672
 10
153.5960112592
 20
48.5632226091
 10
153.5954931334
 20
48.5551519433
 10
153.5948131312
 20
48.5471863192
 10
153.5939632059
 20
48.539339286
 10
153.592935311
 20
48.5316243929
 10
153.5917214002
 20
48.5240551892
 10
153.5903134269
 20
48.5166452241
 10
153.5887033446
 20
48.5094080468
 10
153.5868831068
 20
48.5023572065
 10
153.584844667
 20
48.4955062526
 10
153.5825799788
 20
48.4888687342
 10
153.5800809956
 20
48.4824582006
 10
153.5773396709
 20
48.4762882011
 10
153.5746121174
 20
48.4708608781
 10
153.5716791295
 20
48.4656534823
 10
153.5685451772
 20
48.4606729386
 10
153.5652147305
 20
48.455926172
 10
153.5616922595
 20
48.4514201073
 10
153.5579822341
 20
48.4471616695
 10
153.5540891243
 20
48.4431577836
 10
153.5500174002
 20
48.4394153743
 10
153.5457715317
 20
48.4359413668
 10
153.541355989
 20
48.4327426858
 10
153.5367752419
 20
48.4298262564
 10
153.5320337605
 20
48.4271990034
 10
153.5271360148
 20
48.4248678517
 10
153.5220864749
 20
48.4228397264
 10
153.5166591262
 20
48.4210506377
 10
153.5110789558
 20
48.419590009
 10
153.5053536545
 20
48.4184486029
 10
153.4994909132
 20
48.4176171819
 10
153.4934984225
 20
48.4170865086
 10
153.4873838732
 20
48.4168473456
 10
153.4811549561
 20
48.4168904556
 10
153.4748193619
 20
48.4172066011
 10
153.4683847815
 20
48.4177865447
 10
153.4618589056
 20
48.418621049
 10
153.455249425
 20
48.4197008765
 10
153.4485640303
 20
48.4210167899
 10
153.4418104125
 20
48.4225595519
 10
153.4349962622
 20
48.4243199248
 10
153.4281292703
 20
48.4262886714
 10
153.4212171274
 20
48.4284565543
 10
153.4142675244
 20
48.430814336
 10
153.407288152
 20
48.4333527791
 10
153.4002867011
 20
48.4360626463
 10
153.3932708622
 20
48.4389347
 10
153.3862483263
 20
48.441959703
 10
153.3792267841
 20
48.4451284177
 10
153.3722139264
 20
48.4484316069
 10
153.3652174439
 20
48.451860033
 10
153.3582450274
 20
48.4554044587
 10
153.3513043676
 20
48.4590556465
 10
153.3444031554
 20
48.4628043591
  0
LINE
  5
2A6
100
AcDbEntity
  8
IMPORT_IGES
100
AcDbLine
 62
7
  6
CONTINUOUS
 10
149.3435756324
 20
51.5719803137
 11
149.3435756324
 21
49.7757894093
  0
LINE
  5
2A7
100
AcDbEntity
  8
CURVE
100
AcDbLine
 62
250
  6
CONTINUOUS
 10
149.3435756324
 20
51.5719803137
 11
149.3435756324
 21
49.7757894093
  0
LINE
  5
2A8
100
AcDbEntity
  8
CURVE
100
AcDbLine
 62
250
  6
CONTINUOUS
 10
149.668270701
 20
49.5883145461
 11
149.668270701
 21
51.3845054505
  0
LINE
  5
2A9
100
AcDbEntity
  8
IMPORT_IGES
100
AcDbLine
 62
7
  6
CONTINUOUS
 10
149.668270701
 20
49.5883145461
 11
149.668270701
 21
51.3845054505
  0
LINE
  5
2AA
100
AcDbEntity
  8
IMPORT_IGES
100
AcDbLine
 62
7
  6
CONTINUOUS
 10
152.8462214815
 20
49.5285045676
 11
152.8462214815
 21
47.7534052543
  0
LINE
  5
2AB
100
AcDbEntity
  8
CURVE
100
AcDbLine
 62
250
  6
CONTINUOUS
 10
152.8462214815
 20
49.5285045676
 11
152.8462214815
 21
47.7534052543
  0
LINE
  5
2AC
100
AcDbEntity
  8
IMPORT_IGES
100
AcDbLine
 62
7
  6
CONTINUOUS
 10
153.158843342
 20
48.5699442697
 11
153.158843342
 21
49.0630042164
  0
LINE
  5
2AD
100
AcDbEntity
  8
CURVE
100
AcDbLine
 62
250
  6
CONTINUOUS
 10
153.158843342
 20
48.5699442697
 11
153.158843342
 21
49.0630042164
  0
LINE
  5
2AE
100
AcDbEntity
  8
IMPORT_IGES
100
AcDbLine
 62
7
  6
CONTINUOUS
 10
153.1696097305
 20
47.5666849323
 11
153.1696097305
 21
48.2695728102
  0
LINE
  5
2AF
100
AcDbEntity
  8
CURVE
100
AcDbLine
 62
250
  6
CONTINUOUS
 10
153.1696097305
 20
47.5666849323
 11
153.1696097305
 21
48.2695728102
  0
LINE
  5
2B0
100
AcDbEntity
  8
IMPORT_IGES
100
AcDbLine
 62
7
  6
CONTINUOUS
 10
153.6809956858
 20
48.1098129485
 11
153.6809956858
 21
48.1204262363
  0
LINE
  5
2B1
100
AcDbEntity
  8
CURVE
100
AcDbLine
 62
250
  6
CONTINUOUS
 10
153.6809956858
 20
48.1098129485
 11
153.6809956858
 21
48.1204262363
  0
LINE
  5
2B2
100
AcDbEntity
  8
CURVE
100
AcDbLine
 62
250
  6
CONTINUOUS
 10
150.2237604963
 20
50.4403902672
 11
150.1536909989
 21
49.3080389498
  0
LINE
  5
2B3
100
AcDbEntity
  8
IMPORT_IGES
100
AcDbLine
 62
7
  6
CONTINUOUS
 10
150.2237604963
 20
50.4403902672
 11
150.1536909989
 21
49.3080389498
  0
LINE
  5
2B4
100
AcDbEntity
  8
CURVE
100
AcDbLine
 62
250
  6
CONTINUOUS
 10
149.8430640548
 20
49.4873910542
 11
149.9835171398
 21
51.2023783336
  0
LINE
  5
2B5
100
AcDbEntity
  8
IMPORT_IGES
100
AcDbLine
 62
7
  6
CONTINUOUS
 10
149.8430640548
 20
49.4873910542
 11
149.9835171398
 21
51.2023783336
  0
LINE
  5
2B6
100
AcDbEntity
  8
ASSI
100
AcDbLine
 62
7
  6
CONTINUOUS
 10
206.0111008097
 20
132.4855809217
 11
210.987783162
 21
135.3590361998
  0
LINE
  5
2B7
100
AcDbEntity
  8
ASSI
100
AcDbLine
 62
7
  6
CONTINUOUS
 10
206.718638079
 20
131.2600904243
 11
211.6953204313
 21
134.1335457024
  0
LINE
  5
2B8
100
AcDbEntity
  8
ASSI
100
AcDbLine
 62
7
  6
CONTINUOUS
 10
96.6751205156
 20
194.7978382962
 11
96.6754958231
 21
194.7972019347
  0
LINE
  5
2B9
100
AcDbEntity
  8
ASSI
100
AcDbLine
 62
7
  6
CONTINUOUS
 10
206.0107383794
 20
5.4230069658
 11
206.0111008097
 21
5.4223655281
  0
LINE
  5
2BA
100
AcDbEntity
  8
CURVE
100
AcDbLine
 62
250
  6
CONTINUOUS
 10
152.1104559225
 20
49.4807925349
 11
151.9487854597
 21
48.9075897594
  0
LINE
  5
2BB
100
AcDbEntity
  8
IMPORT_IGES
100
AcDbLine
 62
7
  6
CONTINUOUS
 10
152.1104559225
 20
49.4807925349
 11
151.9487854597
 21
48.9075897594
  0
LINE
  5
2BC
100
AcDbEntity
  8
CURVE
100
AcDbLine
 62
250
  6
CONTINUOUS
 10
148.5930433029
 20
50.7689210301
 11
148.8986077667
 21
51.8287914085
  0
LINE
  5
2BD
100
AcDbEntity
  8
IMPORT_IGES
100
AcDbLine
 62
7
  6
CONTINUOUS
 10
148.5930433029
 20
50.7689210301
 11
148.8986077667
 21
51.8287914085
  0
LINE
  5
2BE
100
AcDbEntity
  8
CURVE
100
AcDbLine
 62
250
  6
CONTINUOUS
 10
151.8823672595
 20
48.6684847126
 11
151.7927715816
 21
48.3616543638
  0
LINE
  5
2BF
100
AcDbEntity
  8
IMPORT_IGES
100
AcDbLine
 62
7
  6
CONTINUOUS
 10
151.8823672595
 20
48.6684847126
 11
151.7927715816
 21
48.3616543638
  0
LINE
  5
2C0
100
AcDbEntity
  8
CURVE
100
AcDbLine
 62
250
  6
CONTINUOUS
 10
151.4715996556
 20
48.5470950087
 11
151.9595052654
 21
50.0614675549
  0
LINE
  5
2C1
100
AcDbEntity
  8
IMPORT_IGES
100
AcDbLine
 62
7
  6
CONTINUOUS
 10
151.4715996556
 20
48.5470950087
 11
151.9595052654
 21
50.0614675549
  0
LINE
  5
2C2
100
AcDbEntity
  8
CURVE
100
AcDbLine
 62
250
  6
CONTINUOUS
 10
149.2230813425
 20
51.6414444325
 11
148.7230795606
 21
50.1340560645
  0
LINE
  5
2C3
100
AcDbEntity
  8
IMPORT_IGES
100
AcDbLine
 62
7
  6
CONTINUOUS
 10
149.2230813425
 20
51.6414444325
 11
148.7230795606
 21
50.1340560645
  0
LINE
  5
2C4
100
AcDbEntity
  8
ASSI
100
AcDbLine
 62
250
  6
CONTINUOUS
 10
119.1613298921
 20
71.3253992854
 11
120.4414055159
 21
72.0645098388
  0
LINE
  5
2C5
100
AcDbEntity
  8
ASSI
100
AcDbLine
 62
250
  6
CONTINUOUS
 10
119.5140220444
 20
70.7145185588
 11
120.7940976682
 21
71.4536291122
  0
LINE
  5
2C6
100
AcDbEntity
  8
CURVE
100
AcDbLine
 62
250
  6
CONTINUOUS
 10
150.6292085699
 20
49.8323734769
 11
150.9539036384
 21
50.6420893311
  0
LINE
  5
2C7
100
AcDbEntity
  8
IMPORT_IGES
100
AcDbLine
 62
7
  6
CONTINUOUS
 10
150.6292085699
 20
49.8323734769
 11
150.9539036384
 21
50.6420893311
  0
LINE
  5
2C8
100
AcDbEntity
  8
CURVE
100
AcDbLine
 62
250
  6
CONTINUOUS
 10
151.0362670958
 20
49.9663699605
 11
150.6502044549
 21
49.0213583031
  0
LINE
  5
2C9
100
AcDbEntity
  8
IMPORT_IGES
100
AcDbLine
 62
7
  6
CONTINUOUS
 10
151.0362670958
 20
49.9663699605
 11
150.6502044549
 21
49.0213583031
  0
LINE
  5
2CA
100
AcDbEntity
  8
ASSI
100
AcDbLine
 62
7
  6
CONTINUOUS
 10
205.001201662
 20
131.4076675871
 11
206.0107383794
 21
132.4609621829
  0
LINE
  5
2CB
100
AcDbEntity
  8
ASSI
100
AcDbLine
 62
7
  6
CONTINUOUS
 10
205.2801775962
 20
130.9244670956
 11
206.6971367271
 21
131.2720853717
  0
LWPOLYLINE
  5
2CC
100
AcDbEntity
  8
ASSI
100
AcDbPolyline
 62
250
  6
CONTINUOUS
 90
9
 70
0
 10
182.5979407896
 20
129.3369329311
 10
182.5986482445
 20
129.3210284211
 10
182.6007635276
 20
129.306100005
 10
182.60426547
 20
129.2922970359
 10
182.6091190295
 20
129.2797576064
 10
182.6152756417
 20
129.2686071656
 10
182.6226737072
 20
129.2589572645
 10
182.631239205
 20
129.2509044431
 10
182.6393573138
 20
129.2453855589
  0
LINE
  5
2CD
100
AcDbEntity
  8
ASSI
100
AcDbLine
 62
7
  6
CONTINUOUS
 10
183.033131159
 20
128.5633548325
 11
183.033131159
 21
34.3425361605
  0
LINE
  5
2CE
100
AcDbEntity
  8
ASSI
100
AcDbLine
 62
250
  6
CONTINUOUS
 10
183.0917098028
 20
128.4816999139
 11
183.0917098028
 21
34.2608812419
  0
LWPOLYLINE
  5
2CF
100
AcDbEntity
  8
ASSI
100
AcDbPolyline
 62
7
  6
CONTINUOUS
 90
12
 70
0
 10
183.0331312572
 20
34.3424217425
 10
183.0330330529
 20
34.3331196416
 10
183.0319426965
 20
34.3104848036
 10
183.0296892317
 20
34.2893207659
 10
183.0263352957
 20
34.2697730365
 10
183.0220115812
 20
34.2521793648
 10
183.0170064829
 20
34.2370492496
 10
183.0116523515
 20
34.2245855275
 10
183.0062236659
 20
34.2146656669
 10
183.0010201065
 20
34.2071533603
 10
182.9962914339
 20
34.2017948564
 10
182.9922224512
 20
34.198224067
  0
LWPOLYLINE
  5
2D0
100
AcDbEntity
  8
ASSI
100
AcDbPolyline
 62
250
  6
CONTINUOUS
 90
4
 70
0
 10
183.0917098028
 20
34.2608812419
 10
183.090697744
 20
34.2248428056
 10
183.0876877239
 20
34.1903295095
 10
183.0826797426
 20
34.1573413537
  0
LINE
  5
2D1
100
AcDbEntity
  8
CURVE
100
AcDbLine
 62
7
  6
CONTINUOUS
 10
148.0242864008
 20
52.0405237964
 11
148.2100935136
 21
52.2263309092
  0
LWPOLYLINE
  5
2D2
100
AcDbEntity
  8
ASSI
100
AcDbPolyline
 62
250
  6
CONTINUOUS
 90
16
 70
0
 10
182.5979407896
 20
33.9758403044
 10
182.598648233
 20
33.9925616262
 10
182.6007634854
 20
34.0099325931
 10
182.6042653843
 20
34.0277794128
 10
182.6091188939
 20
34.045923532
 10
182.615275456
 20
34.0641834232
 10
182.6226734758
 20
34.0823764006
 10
182.6312389379
 20
34.1003204477
 10
182.6408861467
 20
34.1178360388
 10
182.6515185843
 20
34.1347479344
 10
182.6630298757
 20
34.1508869351
 10
182.6753048533
 20
34.1660915741
 10
182.6882207087
 20
34.1802097326
 10
182.7016482219
 20
34.1931001618
 10
182.7154530539
 20
34.204633896
 10
182.7294970907
 20
34.2146955431
  0
LINE
  5
2D3
100
AcDbEntity
  8
CURVE
100
AcDbLine
 62
7
  6
CONTINUOUS
 10
148.1047559237
 20
51.7009718913
 11
148.3458957085
 21
51.9421116761
  0
LINE
  5
2D4
100
AcDbEntity
  8
CURVE
100
AcDbLine
 62
7
  6
CONTINUOUS
 10
148.1852254466
 20
51.3614199862
 11
148.4189820217
 21
51.5951765613
  0
LINE
  5
2D5
100
AcDbEntity
  8
CURVE
100
AcDbLine
 62
7
  6
CONTINUOUS
 10
148.2656949696
 20
51.0218680811
 11
148.492068335
 21
51.2482414465
  0
LINE
  5
2D6
100
AcDbEntity
  8
CURVE
100
AcDbLine
 62
7
  6
CONTINUOUS
 10
148.8281172226
 20
51.5842903341
 11
149.0089234209
 21
51.7650965324
  0
LINE
  5
2D7
100
AcDbEntity
  8
CURVE
100
AcDbLine
 62
7
  6
CONTINUOUS
 10
148.3461644925
 20
50.6823161761
 11
148.5651546482
 21
50.9013063317
  0
LINE
  5
2D8
100
AcDbEntity
  8
CURVE
100
AcDbLine
 62
7
  6
CONTINUOUS
 10
148.6579692495
 20
50.994120933
 11
149.1822768984
 21
51.5184285819
  0
LINE
  5
2D9
100
AcDbEntity
  8
CURVE
100
AcDbLine
 62
7
  6
CONTINUOUS
 10
148.4266340155
 20
50.342764271
 11
148.9738053291
 21
50.8899355846
  0
LINE
  5
2DA
100
AcDbEntity
  8
CURVE
100
AcDbLine
 62
7
  6
CONTINUOUS
 10
149.3435756324
 20
51.2597058879
 11
149.5415450168
 21
51.4576752723
  0
LINE
  5
2DB
100
AcDbEntity
  8
CURVE
100
AcDbLine
 62
7
  6
CONTINUOUS
 10
148.6691091029
 20
50.1652179304
 11
148.7653337598
 21
50.2614425873
  0
LINE
  5
2DC
100
AcDbEntity
  8
CURVE
100
AcDbLine
 62
7
  6
CONTINUOUS
 10
149.3435756324
 20
50.8396844599
 11
149.668270701
 21
51.1643795284
  0
LINE
  5
2DD
100
AcDbEntity
  8
CURVE
100
AcDbLine
 62
7
  6
CONTINUOUS
 10
149.3435756324
 20
50.4196630318
 11
149.668270701
 21
50.7443581004
  0
LINE
  5
2DE
100
AcDbEntity
  8
CURVE
100
AcDbLine
 62
7
  6
CONTINUOUS
 10
149.970781297
 20
51.0468686965
 11
150.0740299639
 21
51.1501173634
  0
LINE
  5
2DF
100
AcDbEntity
  8
CURVE
100
AcDbLine
 62
7
  6
CONTINUOUS
 10
149.3435756324
 20
49.9996416038
 11
149.668270701
 21
50.3243366724
  0
LINE
  5
2E0
100
AcDbEntity
  8
CURVE
100
AcDbLine
 62
7
  6
CONTINUOUS
 10
149.9333141493
 20
50.5893801207
 11
150.3188481967
 21
50.9749141681
  0
LINE
  5
2E1
100
AcDbEntity
  8
CURVE
100
AcDbLine
 62
7
  6
CONTINUOUS
 10
149.4679390102
 20
49.7039835536
 11
149.668270701
 21
49.9043152444
  0
LINE
  5
2E2
100
AcDbEntity
  8
CURVE
100
AcDbLine
 62
7
  6
CONTINUOUS
 10
149.8958470015
 20
50.1318915449
 11
150.4085707596
 21
50.644615303
  0
LINE
  5
2E3
100
AcDbEntity
  8
CURVE
100
AcDbLine
 62
7
  6
CONTINUOUS
 10
149.8583798538
 20
49.6744029691
 11
150.1973359577
 21
50.013359073
  0
LINE
  5
2E4
100
AcDbEntity
  8
CURVE
100
AcDbLine
 62
7
  6
CONTINUOUS
 10
150.3097943461
 20
50.1258174615
 11
150.4982933225
 21
50.3143164379
  0
LINE
  5
2E5
100
AcDbEntity
  8
CURVE
100
AcDbLine
 62
7
  6
CONTINUOUS
 10
150.0004922817
 20
49.396493969
 11
150.1696307952
 21
49.5656324826
  0
LINE
  5
2E6
100
AcDbEntity
  8
CURVE
100
AcDbLine
 62
7
  6
CONTINUOUS
 10
150.3999976913
 20
49.7959993787
 11
150.5880158854
 21
49.9840175728
  0
LINE
  5
2E7
100
AcDbEntity
  8
CURVE
100
AcDbLine
 62
7
  6
CONTINUOUS
 10
150.7583023189
 20
50.1543040063
 11
151.139136507
 21
50.5351381943
  0
LINE
  5
2E8
100
AcDbEntity
  8
CURVE
100
AcDbLine
 62
7
  6
CONTINUOUS
 10
150.4902010366
 20
49.4661812959
 11
151.2899118569
 21
50.2658921162
  0
LINE
  5
2E9
100
AcDbEntity
  8
CURVE
100
AcDbLine
 62
7
  6
CONTINUOUS
 10
150.5804043818
 20
49.1363632131
 11
150.7778481178
 21
49.3338069491
  0
LINE
  5
2EA
100
AcDbEntity
  8
CURVE
100
AcDbLine
 62
7
  6
CONTINUOUS
 10
151.0558712099
 20
49.6118300412
 11
151.3200744408
 21
49.8760332721
  0
LINE
  5
2EB
100
AcDbEntity
  8
CURVE
100
AcDbLine
 62
7
  6
CONTINUOUS
 10
151.0778791728
 20
49.2138165761
 11
151.3502370247
 21
49.486174428
  0
LINE
  5
2EC
100
AcDbEntity
  8
CURVE
100
AcDbLine
 62
7
  6
CONTINUOUS
 10
151.0998871357
 20
48.8158031109
 11
151.3803996086
 21
49.0963155838
  0
LINE
  5
2ED
100
AcDbEntity
  8
CURVE
100
AcDbLine
 62
7
  6
CONTINUOUS
 10
151.7760077208
 20
49.4919236961
 11
152.20424305
 21
49.9201590253
  0
LINE
  5
2EE
100
AcDbEntity
  8
CURVE
100
AcDbLine
 62
7
  6
CONTINUOUS
 10
151.3318754605
 20
48.6277700077
 11
151.4105621925
 21
48.7064567397
  0
LINE
  5
2EF
100
AcDbEntity
  8
CURVE
100
AcDbLine
 62
7
  6
CONTINUOUS
 10
151.5763609483
 20
48.8722554955
 11
152.0812113583
 21
49.3771059055
  0
LINE
  5
2F0
100
AcDbEntity
  8
CURVE
100
AcDbLine
 62
7
  6
CONTINUOUS
 10
152.1227709287
 20
49.4186654759
 11
152.3317667791
 21
49.6276613263
  0
LINE
  5
2F1
100
AcDbEntity
  8
CURVE
100
AcDbLine
 62
7
  6
CONTINUOUS
 10
151.5981520963
 20
48.4740252155
 11
152.0013604816
 21
48.8772336007
  0
LINE
  5
2F2
100
AcDbEntity
  8
CURVE
100
AcDbLine
 62
7
  6
CONTINUOUS
 10
152.192255386
 20
49.0681285052
 11
152.4104128727
 21
49.2862859919
  0
LINE
  5
2F3
100
AcDbEntity
  8
CURVE
100
AcDbLine
 62
7
  6
CONTINUOUS
 10
152.091742425
 20
48.5475941161
 11
152.4890589663
 21
48.9449106575
  0
LINE
  5
2F4
100
AcDbEntity
  8
CURVE
100
AcDbLine
 62
7
  6
CONTINUOUS
 10
152.8462214815
 20
49.3020731727
 11
153.0041047326
 21
49.4599564237
  0
LINE
  5
2F5
100
AcDbEntity
  8
CURVE
100
AcDbLine
 62
7
  6
CONTINUOUS
 10
152.3335878776
 20
48.3694181407
 11
152.5677050599
 21
48.603535323
  0
LINE
  5
2F6
100
AcDbEntity
  8
CURVE
100
AcDbLine
 62
7
  6
CONTINUOUS
 10
152.8462214815
 20
48.8820517447
 11
153.2819487972
 21
49.3177790604
  0
LINE
  5
2F7
100
AcDbEntity
  8
CURVE
100
AcDbLine
 62
7
  6
CONTINUOUS
 10
152.4055064428
 20
48.0213152779
 11
152.6463511535
 21
48.2621599886
  0
LINE
  5
2F8
100
AcDbEntity
  8
CURVE
100
AcDbLine
 62
7
  6
CONTINUOUS
 10
152.8462214815
 20
48.4620303166
 11
153.158843342
 21
48.7746521772
  0
LINE
  5
2F9
100
AcDbEntity
  8
CURVE
100
AcDbLine
 62
7
  6
CONTINUOUS
 10
153.3520019552
 20
48.9678107903
 11
153.532990666
 21
49.1487995011
  0
LINE
  5
2FA
100
AcDbEntity
  8
CURVE
100
AcDbLine
 62
7
  6
CONTINUOUS
 10
152.6632586394
 20
47.8590460464
 11
152.7249972471
 21
47.9207846542
  0
LINE
  5
2FB
100
AcDbEntity
  8
CURVE
100
AcDbLine
 62
7
  6
CONTINUOUS
 10
152.8462214815
 20
48.0420088886
 11
153.2953434253
 21
48.4911308324
  0
LINE
  5
2FC
100
AcDbEntity
  8
CURVE
100
AcDbLine
 62
7
  6
CONTINUOUS
 10
153.5569151314
 20
48.7527025385
 11
153.7382995555
 21
48.9340869626
  0
LINE
  5
2FD
100
AcDbEntity
  8
CURVE
100
AcDbLine
 62
7
  6
CONTINUOUS
 10
152.9295350594
 20
47.7053010385
 11
153.1696097305
 21
47.9453757096
  0
LINE
  5
2FE
100
AcDbEntity
  8
CURVE
100
AcDbLine
 62
7
  6
CONTINUOUS
 10
153.3733273626
 20
48.1490933417
 11
153.8716861768
 21
48.6474521559
  0
LINE
  5
2FF
100
AcDbEntity
  8
CURVE
100
AcDbLine
 62
7
  6
CONTINUOUS
 10
153.5301211858
 20
47.8858657369
 11
153.7145528059
 21
48.0702973569
  0
LINE
  5
300
100
AcDbEntity
  8
CURVE
100
AcDbLine
 62
7
  6
CONTINUOUS
 10
153.6085541821
 20
47.5442773051
 11
153.8402677858
 21
47.7759909088
  0
LINE
  5
301
100
AcDbEntity
  8
CURVE
100
AcDbLine
 62
7
  6
CONTINUOUS
 10
153.7283649667
 20
47.2440666617
 11
153.9130415747
 21
47.4287432697
  0
LINE
  5
302
100
AcDbEntity
  8
ASSI
100
AcDbLine
 62
7
  6
CONTINUOUS
 10
119.4238822675
 20
165.7452085746
 11
182.6393573138
 21
129.2453855589
  0
LINE
  5
303
100
AcDbEntity
  8
ASSI
100
AcDbLine
 62
250
  6
CONTINUOUS
 10
119.3824657433
 20
165.8367559468
 11
182.5979407896
 21
129.3369329311
  0
LWPOLYLINE
  5
304
100
AcDbEntity
  8
ASSI
100
AcDbPolyline
 62
7
  6
CONTINUOUS
 90
27
 70
0
 10
182.6393814281
 20
129.2453716423
 10
182.6507932499
 20
129.2385650221
 10
182.6721207492
 20
129.2247046037
 10
182.6942402438
 20
129.2087859353
 10
182.7168582537
 20
129.1908864811
 10
182.7398060028
 20
129.1710273333
 10
182.7629295373
 20
129.1492372286
 10
182.7859811456
 20
129.1256569098
 10
182.8088015333
 20
129.1003718096
 10
182.8312362594
 20
129.0734819408
 10
182.853070074
 20
129.0451857559
 10
182.8741600998
 20
129.0156234361
 10
182.8943726166
 20
128.9849457894
 10
182.9135345182
 20
128.9533922509
 10
182.9315356125
 20
128.9211370185
 10
182.9482762964
 20
128.8883622167
 10
182.96363046
 20
128.8553374901
 10
182.9775313802
 20
128.8222527264
 10
182.9899252724
 20
128.7893024233
 10
183.0007414687
 20
128.7567759442
 10
183.0099667268
 20
128.7248580824
 10
183.0176034209
 20
128.6937301779
 10
183.0236476948
 20
128.6636816575
 10
183.0281473541
 20
128.634865172
 10
183.0311653281
 20
128.607438958
 10
183.0327765511
 20
128.5816954713
 10
183.033131169
 20
128.5633912458
  0
LWPOLYLINE
  5
305
100
AcDbEntity
  8
ASSI
100
AcDbPolyline
 62
250
  6
CONTINUOUS
 90
5
 70
0
 10
182.5979407896
 20
129.3369329311
 10
182.6296580748
 20
129.3174511809
 10
182.6610535844
 20
129.2958482473
 10
182.6921273184
 20
129.2721241303
 10
182.7230384601
 20
129.246137106
  0
LWPOLYLINE
  5
306
100
AcDbEntity
  8
ASSI
100
AcDbPolyline
 62
250
  6
CONTINUOUS
 90
9
 70
0
 10
183.0917098028
 20
128.4816999139
 10
183.0782894461
 20
128.4902655976
 10
183.0664182436
 20
128.4995625216
 10
183.056214964
 20
128.5094976724
 10
183.0477816885
 20
128.5199716511
 10
183.0412027902
 20
128.5308796683
 10
183.0365440892
 20
128.5421125917
 10
183.0338521948
 20
128.5535580386
 10
183.033131159
 20
128.5633548325
  0
LWPOLYLINE
  5
307
100
AcDbEntity
  8
ASSI
100
AcDbPolyline
 62
250
  6
CONTINUOUS
 90
5
 70
0
 10
183.0730737372
 20
128.6476420372
 10
183.0812384156
 20
128.6047677317
 10
183.087002465
 20
128.5630055579
 10
183.0904929274
 20
128.521982952
 10
183.0917098028
 20
128.4816999139
  0
LWPOLYLINE
  5
308
100
AcDbEntity
  8
ASSI
100
AcDbPolyline
 62
250
  6
CONTINUOUS
 90
22
 70
0
 10
183.0826797426
 20
34.1573413537
 10
183.0756306589
 20
34.1257194441
 10
183.066583614
 20
34.0956226748
 10
183.0556680314
 20
34.0675277277
 10
183.0428545323
 20
34.0414983333
 10
183.0281724954
 20
34.0174707612
 10
183.0118394805
 20
33.9957305019
 10
182.9938547947
 20
33.9763220229
 10
182.974219131
 20
33.9592008568
 10
182.9531521275
 20
33.9445190915
 10
182.9307626954
 20
33.9322816613
 10
182.9069419234
 20
33.9224836319
 10
182.8815827162
 20
33.915262288
 10
182.8545611625
 20
33.9105487428
 10
182.8260011735
 20
33.9084118831
 10
182.796167387
 20
33.9091956536
 10
182.7648888825
 20
33.9130176321
 10
182.7323365805
 20
33.9197602408
 10
182.6992878803
 20
33.9294146913
 10
182.6660019149
 20
33.9419780539
 10
182.6322195514
 20
33.9574532583
 10
182.5979407896
 20
33.9758403044
  0
LWPOLYLINE
  5
309
100
AcDbEntity
  8
ASSI
100
AcDbPolyline
 62
250
  6
CONTINUOUS
 90
16
 70
0
 10
118.8886967301
 20
165.5517150093
 10
118.9035321001
 20
165.5439662038
 10
118.919633931
 20
165.5371118843
 10
118.9368411209
 20
165.5312206239
 10
118.9549815089
 20
165.52635136
 10
118.973873601
 20
165.5225528043
 10
118.9933283853
 20
165.5198629562
 10
119.0131512186
 20
165.5183087229
 10
119.0331437777
 20
165.51790565
 10
119.0531060469
 20
165.5186577664
 10
119.072838309
 20
165.5205575442
 10
119.0921431502
 20
165.5235859733
 10
119.110827439
 20
165.5277127538
 10
119.1287042485
 20
165.5328965972
 10
119.1455947267
 20
165.5390856387
 10
119.1613298921
 20
165.5462179574
  0
LWPOLYLINE
  5
30A
100
AcDbEntity
  8
ASSI
100
AcDbPolyline
 62
250
  6
CONTINUOUS
 90
17
 70
0
 10
182.7230384601
 20
129.246137106
 10
182.7536278263
 20
129.2180288983
 10
182.7834178668
 20
129.1882246792
 10
182.8123680786
 20
129.156713912
 10
182.8405189648
 20
129.1235071334
 10
182.8675144849
 20
129.0890611249
 10
182.8933164742
 20
129.0533971224
 10
182.9179630974
 20
129.01649389
 10
182.9412128086
 20
128.9787445015
 10
182.9630068735
 20
128.9403086252
 10
182.9834040263
 20
128.9010265927
 10
183.0023389241
 20
128.8608124731
 10
183.0199331881
 20
128.8194529682
 10
183.0360651972
 20
128.7771613761
 10
183.0503047451
 20
128.73449166
 10
183.0626354717
 20
128.6912559106
 10
183.0730737372
 20
128.6476420372
  0
LINE
  5
30B
100
AcDbEntity
  8
ASSI
100
AcDbLine
 62
7
  6
CONTINUOUS
 10
205.2801775962
 20
6.195427626
 11
205.2801775962
 21
130.9244670956
  0
LINE
  5
30C
100
AcDbEntity
  8
ASSI
100
AcDbLine
 62
7
  6
CONTINUOUS
 10
206.718638079
 20
5.8308097219
 11
206.718638079
 21
131.2600904243
  0
LINE
  5
30D
100
AcDbEntity
  8
ASSI
100
AcDbLine
 62
7
  6
CONTINUOUS
 10
206.0111008097
 20
132.4855809217
 11
206.0107383794
 21
132.4609621829
  0
LINE
  5
30E
100
AcDbEntity
  8
ASSI
100
AcDbLine
 62
7
  6
CONTINUOUS
 10
206.6971367271
 20
131.2720853717
 11
206.718638079
 21
131.2600904243
  0
LINE
  5
30F
100
AcDbEntity
  8
ASSI
100
AcDbLine
 62
7
  6
CONTINUOUS
 10
205.001201662
 20
131.4076675871
 11
96.9792048709
 21
193.7782147007
  0
LINE
  5
310
100
AcDbEntity
  8
ASSI
100
AcDbLine
 62
7
  6
CONTINUOUS
 10
206.0111008097
 20
132.4855809217
 11
97.3826577849
 21
195.2062824901
  0
LINE
  5
311
100
AcDbEntity
  8
ASSI
100
AcDbLine
 62
7
  6
CONTINUOUS
 10
211.6953204313
 20
8.3164701863
 11
211.6953204313
 21
134.1335457024
  0
LINE
  5
312
100
AcDbEntity
  8
ASSI
100
AcDbLine
 62
7
  6
CONTINUOUS
 10
210.987783162
 20
135.3590361998
 11
102.0234891574
 21
198.2736539147
  0
LINE
  5
313
100
AcDbEntity
  8
ASSI
100
AcDbLine
 62
7
  6
CONTINUOUS
 10
205.2801775962
 20
130.9244670956
 11
205.001201662
 21
131.4076675871
  0
LINE
  5
314
100
AcDbEntity
  8
ASSI
100
AcDbLine
 62
7
  6
CONTINUOUS
 10
206.6971367271
 20
131.2720853717
 11
206.0107383794
 21
132.4609621829
  0
LINE
  5
315
100
AcDbEntity
  8
ASSI
100
AcDbLine
 62
7
  6
CONTINUOUS
 10
210.987783162
 20
135.3590361998
 11
211.6953204313
 21
134.1335457024
  0
LINE
  5
316
100
AcDbEntity
  8
ASSI
100
AcDbLine
 62
250
  6
CONTINUOUS
 10
182.7294970907
 20
34.2146955431
 11
183.033131159
 21
34.4427310271
  0
LINE
  5
317
100
AcDbEntity
  8
ASSI
100
AcDbLine
 62
7
  6
CONTINUOUS
 10
182.9920135692
 20
34.1980674603
 11
182.991656422
 21
34.1977999697
  0
LWPOLYLINE
  5
318
100
AcDbEntity
  8
ASSI
100
AcDbPolyline
 62
250
  6
CONTINUOUS
 90
14
 70
0
 10
182.991656422
 20
34.1977999697
 10
182.9794523105
 20
34.1894940295
 10
182.9634331832
 20
34.1807813033
 10
182.9465165258
 20
34.1738727745
 10
182.9285234632
 20
34.1687406261
 10
182.9093950992
 20
34.1654645859
 10
182.8892619946
 20
34.164162799
 10
182.8682017431
 20
34.1649249475
 10
182.8462049515
 20
34.1678436019
 10
182.8234230879
 20
34.1729774204
 10
182.800215333
 20
34.1802782993
 10
182.7767896861
 20
34.1896774246
 10
182.7531769439
 20
34.2011649505
 10
182.7294970907
 20
34.2146955431
  0
LINE
  5
319
100
AcDbEntity
  8
ASSI
100
AcDbLine
 62
7
  6
CONTINUOUS
 10
205.001201662
 20
6.0343815505
 11
205.2801775962
 21
6.195427626
  0
LINE
  5
31A
100
AcDbEntity
  8
ASSI
100
AcDbLine
 62
7
  6
CONTINUOUS
 10
206.0107383794
 20
5.4230069658
 11
206.6971367271
 21
5.8192481702
  0
LINE
  5
31B
100
AcDbEntity
  8
ASSI
100
AcDbLine
 62
7
  6
CONTINUOUS
 10
211.6953204313
 20
8.3164701863
 11
210.987783162
 21
7.9080259924
  0
LINE
  5
31C
100
AcDbEntity
  8
ASSI
100
AcDbLine
 62
7
  6
CONTINUOUS
 10
206.718638079
 20
5.8308097219
 11
206.6971367271
 21
5.8192481702
  0
LINE
  5
31D
100
AcDbEntity
  8
ASSI
100
AcDbLine
 62
7
  6
CONTINUOUS
 10
206.718638079
 20
5.8308097219
 11
211.6953204313
 21
8.3164701863
  0
LINE
  5
31E
100
AcDbEntity
  8
ASSI
100
AcDbLine
 62
7
  6
CONTINUOUS
 10
206.0111008097
 20
5.4223655281
 11
210.987783162
 21
7.9080259924
  0
ELLIPSE
  5
31F
100
AcDbEntity
  8
ASSI
100
AcDbEllipse
 62
7
  6
CONTINUOUS
 10
120.5854750168
 20
71.7403947802
 30
0.0
 11
-0.2500122581
 21
0.4330056244
 31
0.0
 40
0.5801478137
 41
0.7877823601
 42
2.353712702
  0
ENDSEC
  0
SECTION
  2
OBJECTS
  0
DICTIONARY
  5
C
100
AcDbDictionary
280
0
281
1
  3
ACAD_GROUP
350
D
  3
ACAD_MLINESTYLE
350
17
  3
ACAD_LAYOUT
350
1A
  3
ACAD_PLOTSETTINGS
350
19
  3
ACAD_PLOTSTYLENAME
350
E
  0
DICTIONARY
  5
D
102
{ACAD_REACTORS
330
C
102
}
100
AcDbDictionary
280
0
281
1
  0
ACDBDICTIONARYWDFLT
  5
E
102
{ACAD_REACTORS
330
C
102
}
100
AcDbDictionary
281
1
  3
Normal
350
F
100
AcDbDictionaryWithDefault
340
F
  0
DICTIONARY
  5
17
102
{ACAD_REACTORS
330
C
102
}
100
AcDbDictionary
280
0
281
1
  3
Standard
350
18
  0
DICTIONARY
  5
19
102
{ACAD_REACTORS
330
C
102
}
100
AcDbDictionary
281
1
  0
DICTIONARY
  5
1A
102
{ACAD_REACTORS
330
C
102
}
100
AcDbDictionary
281
1
  3
Model
350
320
  3
Layout1
350
321
  0
ACDBPLACEHOLDER
  5
F
102
{ACAD_REACTORS
330
E
102
}
  0
MLINESTYLE
  5
18
102
{ACAD_REACTORS
330
17
102
}
100
AcDbMlineStyle
  2
STANDARD
 70
0
  3

 62
256
 51
90.0
 52
90.0
 71
2
 49
0.5
 62
256
  6
BYLAYER
 49
-0.5
 62
256
  6
BYLAYER
  0
LAYOUT
  5
320
102
{ACAD_REACTORS
330
1A
102
}
100
AcDbPlotSettings
  1

  2
none_device
  4
ISO_A4_(297.00_x_210.00_MM)
  6

 40
0.0
 41
0.0
 42
0.0
 43
0.0
 44
297.0
 45
210.0
 46
0.0
 47
0.0
 48
0.0
 49
0.0
140
0.0
141
0.0
142
1.0
143
1.0
 70
1024
 72
1
 73
0
 74
0
  7

 75
0
147
1.0
148
0.0
149
0.0
100
AcDbLayout
  1
Model
 70
0
 71
0
 10
0.0
 20
0.0
 11
297.0
 21
210.0
 12
0.0
 22
0.0
 32
0.0
 14
0.0
 24
0.0
 34
0.0
 15
0.0
 25
0.0
 35
0.0
146
0.0
 13
0.0
 23
0.0
 33
0.0
 16
1.0
 26
0.0
 36
0.0
 17
0.0
 27
1.0
 37
0.0
 76
0
330
21C
345
0
346
0
  0
LAYOUT
  5
321
102
{ACAD_REACTORS
330
1A
102
}
100
AcDbPlotSettings
  1

  2
none_device
  4
ISO_A4_(297.00_x_210.00_MM)
  6

 40
0.0
 41
0.0
 42
0.0
 43
0.0
 44
297.0
 45
210.0
 46
0.0
 47
0.0
 48
0.0
 49
0.0
140
0.0
141
0.0
142
1.0
143
1.0
 70
0
 72
1
 73
0
 74
0
  7

 75
0
147
1.0
148
0.0
149
0.0
100
AcDbLayout
  1
Layout1
 70
0
 71
1
 10
0.0
 20
0.0
 11
297.0
 21
210.0
 12
0.0
 22
0.0
 32
0.0
 14
0.0
 24
0.0
 34
0.0
 15
0.0
 25
0.0
 35
0.0
146
0.0
 13
0.0
 23
0.0
 33
0.0
 16
1.0
 26
0.0
 36
0.0
 17
0.0
 27
1.0
 37
0.0
 76
0
330
21D
345
0
346
0
  0
ENDSEC
  0
EOF
