  0
SECTION
  2
HEADER
  9
$ACADVER
  1
AC1021
  9
$DWGCODEPAGE
  3
ANSI_1252
  9
$EXTMAX
 10
297.0
 20
210.0
 30
0.0
  9
$EXTMIN
 10
0.0
 20
0.0
 30
0.0
  9
$LIMMIN
 10
0.0
 20
0.0
  9
$LIMMAX
 10
297.0
 20
210.0
  9
$VIEWCTR
 10
148.5
 20
105.0
  9
$VIEWSIZE
 40
210.0
  9
$CLAYER
  8
0
  9
$LTSCALE
 40
16.335
  9
$CELTYPE
  6
BYLAYER
  9
$DIMSCALE
 40
1.0
  9
$DIMASZ
 40
3.0
  9
$DIMEXO
 40
0.5
  9
$DIMDLI
 40
11.286
  9
$DIMEXE
 40
1.5
  9
$DIMCEN
 40
2.673
  9
$DIMLFAC
 40
1.0
  9
$DIMBLK
  1
_FILLED
  9
$DIMALT
 70
0
  9
$DIMALTF
 40
25.4
  9
$DIMTXT
 40
3.0
  9
$DIMTOL
 70
1
  9
$DIMLIM
 70
0
  9
$DIMTFAC
 40
1.0
  9
$DIMTP
 40
0.01
  9
$DIMTM
 40
0.01
  9
$DIMGAP
 40
0.625
  9
$DIMDSEP
 70
44
  9
$AUNITS
 70
0
  9
$PDMODE
 70
3
  9
$PDSIZE
 40
3.0
  9
$HANDSEED
  5
2CA
  9
$TILEMODE
 70
1
  9
$MEASUREMENT
 70
1
  9
$INSUNITS
 70
4
  0
ENDSEC
  0
SECTION
  2
CLASSES
  0
CLASS
  1
ACDBDICTIONARYWDFLT
  2
AcDbDictionaryWithDefault
  3
AutoCAD 2000
 90
0
 91
1
280
0
281
0
  0
CLASS
  1
ACDBPLACEHOLDER
  2
AcDbPlaceHolder
  3
AutoCAD 2000
 90
0
 91
1
280
0
281
0
  0
CLASS
  1
LAYOUT
  2
AcDbLayout
  3
AutoCAD 2000
 90
0
 91
0
280
0
281
0
  0
ENDSEC
  0
SECTION
  2
TABLES
  0
TABLE
  2
VPORT
  5
8
100
AcDbSymbolTable
 70
2
  0
VPORT
  5
1F4
100
AcDbSymbolTableRecord
100
AcDbViewportTableRecord
  2
*ACTIVE
 70
0
 10
0.0
 20
0.0
 11
1.0
 21
1.0
 12
148.5
 22
105.0
 13
0.0
 23
0.0
 14
1.0
 24
1.0
 15
0.0
 25
0.0
 16
0.0
 26
0.0
 36
1.0
 17
0.0
 27
0.0
 37
0.0
 40
210.0
 41
1.4142857143
 42
50.0
 43
0.0
 44
0.0
 50
0.0
 51
0.0
 71
0
 72
100
 73
1
 74
1
 75
0
 76
0
 77
0
 78
0
  0
ENDTAB
  0
TABLE
  2
LTYPE
  5
5
100
AcDbSymbolTable
 70
6
  0
LTYPE
  5
14
100
AcDbSymbolTableRecord
100
AcDbLinetypeTableRecord
  2
BYBLOCK
 70
0
  3

 72
65
 73
0
 40
0.0
  0
LTYPE
  5
15
100
AcDbSymbolTableRecord
100
AcDbLinetypeTableRecord
  2
BYLAYER
 70
0
  3

 72
65
 73
0
 40
0.0
  0
LTYPE
  5
16
100
AcDbSymbolTableRecord
100
AcDbLinetypeTableRecord
  2
CONTINUOUS
 70
64
  3
Solid line
 72
65
 73
0
 40
0.0
  0
LTYPE
  5
1F5
100
AcDbSymbolTableRecord
100
AcDbLinetypeTableRecord
  2
CENTER
 70
64
  3
____ _ ____ _ ____ _ ____ _ ____ _ ____ _ ____
 72
65
 73
4
 40
0.6
 49
0.375
 74
0
 49
-0.075
 74
0
 49
0.075
 74
0
 49
-0.075
 74
0
  0
LTYPE
  5
1F6
100
AcDbSymbolTableRecord
100
AcDbLinetypeTableRecord
  2
HIDDEN
 70
64
  3
- - - - - - - - - - - - - - - - - - - -
 72
65
 73
2
 40
0.2
 49
0.1
 74
0
 49
-0.1
 74
0
  0
LTYPE
  5
1F7
100
AcDbSymbolTableRecord
100
AcDbLinetypeTableRecord
  2
PHANTOM
 70
64
  3
_____ _ _ _____ _ _ _____ _ _ _____
 72
65
 73
6
 40
0.8
 49
0.45
 74
0
 49
-0.05
 74
0
 49
0.1
 74
0
 49
-0.05
 74
0
 49
0.1
 74
0
 49
-0.05
 74
0
  0
LTYPE
  5
1F8
100
AcDbSymbolTableRecord
100
AcDbLinetypeTableRecord
  2
DOT
 70
64
  3
. . . . . . . . . . . . . . . . . . . .
 72
65
 73
2
 40
0.2
 49
0.1
 74
0
 49
-0.1
 74
0
  0
LTYPE
  5
1F9
100
AcDbSymbolTableRecord
100
AcDbLinetypeTableRecord
  2
DASHED
 70
64
  3
- - - - - - - - - - - - - - - - - - - -
 72
65
 73
2
 40
0.2
 49
0.1
 74
0
 49
-0.1
 74
0
  0
ENDTAB
  0
TABLE
  2
LAYER
  5
2
100
AcDbSymbolTable
 70
36
  0
LAYER
  5
10
100
AcDbSymbolTableRecord
100
AcDbLayerTableRecord
  2
0
 70
0
 62
7
  6
CONTINUOUS
370
-3
390
F
  0
LAYER
  5
1FA
100
AcDbSymbolTableRecord
100
AcDbLayerTableRecord
  2
DEFAULT_1
 70
0
 62
7
  6
CENTER
370
-3
390
F
  0
LAYER
  5
1FB
100
AcDbSymbolTableRecord
100
AcDbLayerTableRecord
  2
DEFAULT_2
 70
0
 62
7
  6
HIDDEN
370
-3
390
F
  0
LAYER
  5
1FC
100
AcDbSymbolTableRecord
100
AcDbLayerTableRecord
  2
DEFAULT_3
 70
0
 62
7
  6
PHANTOM
370
-3
390
F
  0
LAYER
  5
1FD
100
AcDbSymbolTableRecord
100
AcDbLayerTableRecord
  2
ASSI
 70
0
 62
7
  6
CONTINUOUS
370
-3
390
F
  0
LAYER
  5
1FE
100
AcDbSymbolTableRecord
100
AcDbLayerTableRecord
  2
COORDINATE
 70
0
 62
7
  6
CONTINUOUS
370
-3
390
F
  0
LAYER
  5
1FF
100
AcDbSymbolTableRecord
100
AcDbLayerTableRecord
  2
COORD_ORIGINE
 70
0
 62
7
  6
CONTINUOUS
370
-3
390
F
  0
LAYER
  5
200
100
AcDbSymbolTableRecord
100
AcDbLayerTableRecord
  2
COPY_PUBLISH
 70
0
 62
7
  6
CONTINUOUS
370
-3
390
F
  0
LAYER
  5
201
100
AcDbSymbolTableRecord
100
AcDbLayerTableRecord
  2
COSMETIC
 70
0
 62
7
  6
CONTINUOUS
370
-3
390
F
  0
LAYER
  5
202
100
AcDbSymbolTableRecord
100
AcDbLayerTableRecord
  2
COSMETICI
 70
0
 62
7
  6
CONTINUOUS
370
-3
390
F
  0
LAYER
  5
203
100
AcDbSymbolTableRecord
100
AcDbLayerTableRecord
  2
CURVE
 70
0
 62
7
  6
CONTINUOUS
370
-3
390
F
  0
LAYER
  5
204
100
AcDbSymbolTableRecord
100
AcDbLayerTableRecord
  2
CURVE_TASSELLI
 70
0
 62
7
  6
CONTINUOUS
370
-3
390
F
  0
LAYER
  5
205
100
AcDbSymbolTableRecord
100
AcDbLayerTableRecord
  2
DRAFT
 70
0
 62
7
  6
CONTINUOUS
370
-3
390
F
  0
LAYER
  5
206
100
AcDbSymbolTableRecord
100
AcDbLayerTableRecord
  2
IGES
 70
0
 62
7
  6
CONTINUOUS
370
-3
390
F
  0
LAYER
  5
207
100
AcDbSymbolTableRecord
100
AcDbLayerTableRecord
  2
IMPORT_IGES
 70
0
 62
7
  6
CONTINUOUS
370
-3
390
F
  0
LAYER
  5
208
100
AcDbSymbolTableRecord
100
AcDbLayerTableRecord
  2
INTFCLR_2
 70
0
 62
7
  6
CONTINUOUS
370
-3
390
F
  0
LAYER
  5
209
100
AcDbSymbolTableRecord
100
AcDbLayerTableRecord
  2
INTF_1
 70
0
 62
7
  6
CONTINUOUS
370
-3
390
F
  0
LAYER
  5
20A
100
AcDbSymbolTableRecord
100
AcDbLayerTableRecord
  2
INTF_11
 70
0
 62
7
  6
CONTINUOUS
370
-3
390
F
  0
LAYER
  5
20B
100
AcDbSymbolTableRecord
100
AcDbLayerTableRecord
  2
INTF_21
 70
0
 62
7
  6
CONTINUOUS
370
-3
390
F
  0
LAYER
  5
20C
100
AcDbSymbolTableRecord
100
AcDbLayerTableRecord
  2
INTF_7
 70
0
 62
7
  6
CONTINUOUS
370
-3
390
F
  0
LAYER
  5
20D
100
AcDbSymbolTableRecord
100
AcDbLayerTableRecord
  2
NOTE
 70
0
 62
7
  6
CONTINUOUS
370
-3
390
F
  0
LAYER
  5
20E
100
AcDbSymbolTableRecord
100
AcDbLayerTableRecord
  2
PIANI
 70
0
 62
7
  6
CONTINUOUS
370
-3
390
F
  0
LAYER
  5
20F
100
AcDbSymbolTableRecord
100
AcDbLayerTableRecord
  2
PIANI_ORIGINE
 70
0
 62
7
  6
CONTINUOUS
370
-3
390
F
  0
LAYER
  5
210
100
AcDbSymbolTableRecord
100
AcDbLayerTableRecord
  2
PIANI_RIFERIMENTO
 70
0
 62
7
  6
CONTINUOUS
370
-3
390
F
  0
LAYER
  5
211
100
AcDbSymbolTableRecord
100
AcDbLayerTableRecord
  2
PUNTI
 70
0
 62
7
  6
CONTINUOUS
370
-3
390
F
  0
LAYER
  5
212
100
AcDbSymbolTableRecord
100
AcDbLayerTableRecord
  2
RACCORDO
 70
0
 62
7
  6
CONTINUOUS
370
-3
390
F
  0
LAYER
  5
213
100
AcDbSymbolTableRecord
100
AcDbLayerTableRecord
  2
RGB__255__255__255__
 70
0
 62
7
  6
CONTINUOUS
370
-3
390
F
  0
LAYER
  5
214
100
AcDbSymbolTableRecord
100
AcDbLayerTableRecord
  2
RGB____0____0____0__
 70
0
 62
7
  6
CONTINUOUS
370
-3
390
F
  0
LAYER
  5
215
100
AcDbSymbolTableRecord
100
AcDbLayerTableRecord
  2
SIMBOLI
 70
0
 62
7
  6
CONTINUOUS
370
-3
390
F
  0
LAYER
  5
216
100
AcDbSymbolTableRecord
100
AcDbLayerTableRecord
  2
SMUSSO
 70
0
 62
7
  6
CONTINUOUS
370
-3
390
F
  0
LAYER
  5
217
100
AcDbSymbolTableRecord
100
AcDbLayerTableRecord
  2
SNAPLINE
 70
0
 62
7
  6
CONTINUOUS
370
-3
390
F
  0
LAYER
  5
218
100
AcDbSymbolTableRecord
100
AcDbLayerTableRecord
  2
SUPERFICI
 70
0
 62
7
  6
CONTINUOUS
370
-3
390
F
  0
LAYER
  5
219
100
AcDbSymbolTableRecord
100
AcDbLayerTableRecord
  2
TRASH
 70
0
 62
7
  6
CONTINUOUS
370
-3
390
F
  0
LAYER
  5
21A
100
AcDbSymbolTableRecord
100
AcDbLayerTableRecord
  2
XSEC_DATUMS
 70
0
 62
7
  6
CONTINUOUS
370
-3
390
F
  0
ENDTAB
  0
TABLE
  2
STYLE
  5
3
100
AcDbSymbolTable
 70
1
  0
STYLE
  5
11
100
AcDbSymbolTableRecord
100
AcDbTextStyleTableRecord
  2
STANDARD
 70
0
 40
0.0
 41
0.8
 50
0.0
 71
0
 42
0.2
  3
txt
  4

  0
STYLE
  5
21B
100
AcDbSymbolTableRecord
100
AcDbTextStyleTableRecord
  2
TEXTSTYLE_1
 70
0
 40
0.0
 41
0.8
 50
0.0
 71
0
 42
0.2
  3
gdt
  4

  0
ENDTAB
  0
TABLE
  2
VIEW
  5
6
100
AcDbSymbolTable
 70
0
  0
ENDTAB
  0
TABLE
  2
UCS
  5
7
100
AcDbSymbolTable
 70
0
  0
ENDTAB
  0
TABLE
  2
APPID
  5
9
100
AcDbSymbolTable
 70
1
  0
APPID
  5
21C
100
AcDbSymbolTableRecord
100
AcDbRegAppTableRecord
  2
ACAD
 70
0
  0
ENDTAB
  0
TABLE
  2
BLOCK_RECORD
  5
1
100
AcDbSymbolTable
 70
0
  0
BLOCK_RECORD
  5
21D
100
AcDbSymbolTableRecord
100
AcDbBlockTableRecord
  2
*Model_Space
  0
BLOCK_RECORD
  5
21E
100
AcDbSymbolTableRecord
100
AcDbBlockTableRecord
  2
*Paper_Space
  0
BLOCK_RECORD
  5
21F
100
AcDbSymbolTableRecord
100
AcDbBlockTableRecord
  2
_FILLED
  0
ENDTAB
  0
TABLE
  2
DIMSTYLE
  5
A
100
AcDbSymbolTable
 70
1
100
AcDbDimStyleTable
 71
0
  0
DIMSTYLE
105
220
100
AcDbSymbolTableRecord
100
AcDbDimStyleTableRecord
  2
STANDARD
 70
0
  3

  4

 40
1.0
 41
3.0
 42
0.5
 43
0.38
 44
1.5
 45
0.0
 46
0.0
 47
0.01
 48
0.01
140
3.0
141
0.09
142
0.0
143
25.4
144
1.0
145
0.0
146
1.0
147
0.625
 71
1.0
 72
0.0
 73
0
 74
0
 75
0
 76
0
 77
1
 78
8
 79
2
170
0
171
1
172
0
173
0
174
0
175
0
176
0
177
0
178
0
270
2
179
2
271
2
272
2
273
2
274
2
275
0
280
0
281
0
282
0
283
1
284
8
285
0
286
0
287
3
288
0
340
11
278
44
341
21F
342
21F
343
21F
344
21F
  0
ENDTAB
  0
ENDSEC
  0
SECTION
  2
BLOCKS
  0
BLOCK
  5
20
100
AcDbEntity
  8
0
100
AcDbBlockBegin
  2
*Model_Space
 70
0
 10
0.0
 20
0.0
 30
0.0
  3
*Model_Space
  1

  0
ENDBLK
  5
21
100
AcDbEntity
  8
0
100
AcDbBlockEnd
  0
BLOCK
  5
1C
100
AcDbEntity
  8
0
100
AcDbBlockBegin
  2
*Paper_Space
 70
0
 10
0.0
 20
0.0
 30
0.0
  3
*Paper_Space
  1

  0
ENDBLK
  5
1D
100
AcDbEntity
  8
0
100
AcDbBlockEnd
  0
BLOCK
  5
221
100
AcDbEntity
  8
0
100
AcDbBlockBegin
  2
_FILLED
 70
64
 10
0.0
 20
0.0
  3
_FILLED
  1

  0
SOLID
  5
222
100
AcDbEntity
  8
0
  6
BYBLOCK
 62
0
100
AcDbTrace
 10
0.0
 20
0.0
 11
-1.0
 21
0.3166666667
 12
-1.0
 22
-0.3166666667
 13
-1.0
 23
-0.3166666667
  0
ENDBLK
  5
223
100
AcDbEntity
  8
0
  6
BYBLOCK
 62
0
100
AcDbBlockEnd
  0
ENDSEC
  0
SECTION
  2
ENTITIES
  0
LWPOLYLINE
  5
224
100
AcDbEntity
  8
SMUSSO
100
AcDbPolyline
 62
7
  6
CONTINUOUS
 90
15
 70
0
 10
94.6140709589
 20
203.1087187111
 10
94.5997642859
 20
203.0999713352
 10
94.572419942
 20
203.0802807428
 10
94.5469086088
 20
203.0577561555
 10
94.5233165057
 20
203.0324737298
 10
94.5017231679
 20
203.0045188444
 10
94.4822011622
 20
202.973985802
 10
94.4648170405
 20
202.9409782029
 10
94.4496308229
 20
202.9056084261
 10
94.4366951317
 20
202.8679968657
 10
94.4260525074
 20
202.8282700774
 10
94.4177364617
 20
202.7865610408
 10
94.4117743018
 20
202.7430104059
 10
94.408187036
 20
202.6977660159
 10
94.4069867942
 20
202.6509809587
  0
LINE
  5
225
100
AcDbEntity
  8
RACCORDO
100
AcDbLine
 62
7
  6
CONTINUOUS
 10
94.6140694152
 20
203.1087178199
 11
95.674729587
 21
203.7211297098
  0
LINE
  5
226
100
AcDbEntity
  8
SMUSSO
100
AcDbLine
 62
250
  6
CONTINUOUS
 10
95.1140935754
 20
203.0591766422
 11
96.1747537472
 21
203.6715885322
  0
LWPOLYLINE
  5
227
100
AcDbEntity
  8
SMUSSO
100
AcDbPolyline
 62
7
  6
CONTINUOUS
 90
15
 70
0
 10
95.674729587
 20
203.7211297098
 10
95.6895078169
 20
203.7291723344
 10
95.7202344806
 20
203.7430047065
 10
95.7524990935
 20
203.7538327484
 10
95.7861924834
 20
203.7616198221
 10
95.8212006457
 20
203.766339579
 10
95.8574051358
 20
203.7679760482
 10
95.8946834383
 20
203.7665236896
 10
95.932909381
 20
203.7619874222
 10
95.9719535953
 20
203.7543826077
 10
96.0116839877
 20
203.743734984
 10
96.0519661536
 20
203.7300805745
 10
96.0926638024
 20
203.7134655767
 10
96.1336392161
 20
203.6939462135
 10
96.1747537472
 20
203.6715885322
  0
LINE
  5
228
100
AcDbEntity
  8
0
100
AcDbLine
 62
7
  6
CONTINUOUS
 10
98.6909143224
 20
204.3207631136
 11
96.8060332894
 21
203.3071350912
  0
LINE
  5
229
100
AcDbEntity
  8
ASSI
100
AcDbLine
 62
7
  6
CONTINUOUS
 10
98.6909143224
 20
204.3207631136
 11
96.8060332894
 21
203.3071350912
  0
LINE
  5
22A
100
AcDbEntity
  8
0
100
AcDbLine
 62
250
  6
CONTINUOUS
 10
99.2115245338
 20
204.2821384924
 11
97.0928295514
 21
203.1427728946
  0
LINE
  5
22B
100
AcDbEntity
  8
ASSI
100
AcDbLine
 62
250
  6
CONTINUOUS
 10
99.2115245338
 20
204.2821384924
 11
97.0928295514
 21
203.1427728946
  0
LINE
  5
22C
100
AcDbEntity
  8
SMUSSO
100
AcDbLine
 62
250
  6
CONTINUOUS
 10
94.4069867942
 20
201.8344317721
 11
95.1140935754
 21
203.0591766422
  0
LINE
  5
22D
100
AcDbEntity
  8
0
100
AcDbLine
 62
250
  6
CONTINUOUS
 10
207.0956824962
 20
24.0287218764
 11
206.6058341433
 21
23.8970606771
  0
LINE
  5
22E
100
AcDbEntity
  8
0
100
AcDbLine
 62
250
  6
CONTINUOUS
 10
206.2431470898
 20
20.4773155897
 11
207.1517061959
 21
20.7158318617
  0
LINE
  5
22F
100
AcDbEntity
  8
0
100
AcDbLine
 62
250
  6
CONTINUOUS
 10
207.5630920503
 20
21.0914746381
 11
206.2431470898
 21
20.8008835769
  0
LINE
  5
230
100
AcDbEntity
  8
0
100
AcDbLine
 62
250
  6
CONTINUOUS
 10
207.5630920503
 20
24.1526086775
 11
207.299583974
 21
24.0844021383
  0
LINE
  5
231
100
AcDbEntity
  8
0
100
AcDbLine
 62
250
  6
CONTINUOUS
 10
206.2431470898
 20
23.5296791054
 11
207.5630920503
 21
23.832331882
  0
LINE
  5
232
100
AcDbEntity
  8
0
100
AcDbLine
 62
250
  6
CONTINUOUS
 10
206.2431470898
 20
22.5268805138
 11
206.9759843536
 21
22.6412562938
  0
LINE
  5
233
100
AcDbEntity
  8
0
100
AcDbLine
 62
250
  6
CONTINUOUS
 10
207.5630920503
 20
23.0132268556
 11
206.7047859325
 21
22.8850298654
  0
LINE
  5
234
100
AcDbEntity
  8
SMUSSO
100
AcDbLine
 62
250
  6
CONTINUOUS
 10
203.372141775
 20
13.1012472865
 11
204.7863553374
 21
13.1012472865
  0
LINE
  5
235
100
AcDbEntity
  8
RACCORDO
100
AcDbLine
 62
250
  6
CONTINUOUS
 10
116.9990484531
 20
172.3381824379
 11
117.8475355864
 21
172.8280882746
  0
LWPOLYLINE
  5
236
100
AcDbEntity
  8
RACCORDO
100
AcDbPolyline
 62
7
  6
CONTINUOUS
 90
15
 70
0
 10
117.2475606147
 20
172.8874441277
 10
117.2653318439
 20
172.8971205251
 10
117.3021532173
 20
172.913716568
 10
117.3408346197
 20
172.9266791155
 10
117.3813574014
 20
172.9360445992
 10
117.4233125218
 20
172.9417184832
 10
117.466714488
 20
172.9436633784
 10
117.5115487929
 20
172.9419166738
 10
117.5573628753
 20
172.9364960008
 10
117.6041666585
 20
172.927364149
 10
117.6519502191
 20
172.9145583287
 10
117.7002312258
 20
172.8982078032
 10
117.7488489013
 20
172.8783556601
 10
117.7979640229
 20
172.8549588117
 10
117.8475765905
 20
172.828017258
  0
LWPOLYLINE
  5
237
100
AcDbEntity
  8
SMUSSO
100
AcDbPolyline
 62
7
  6
CONTINUOUS
 90
15
 70
0
 10
204.0792485562
 20
12.693051603
 10
204.1203663142
 20
12.6706957065
 10
204.161343725
 20
12.6511774294
 10
204.2020421404
 20
12.6345628189
 10
204.2423231957
 20
12.620907716
 10
204.2820512452
 20
12.6102587019
 10
204.3210938231
 20
12.6026529418
 10
204.3593197829
 20
12.5981167262
 10
204.3965988133
 20
12.5966648462
 10
204.4328038464
 20
12.5983016788
 10
204.4678119934
 20
12.6030214649
 10
204.5015051823
 20
12.610808456
 10
204.5337696275
 20
12.6216364315
 10
204.5644962246
 20
12.6354687922
 10
204.57927426
 20
12.6435113166
  0
LINE
  5
238
100
AcDbEntity
  8
SMUSSO
100
AcDbLine
 62
7
  6
CONTINUOUS
 10
94.4069867942
 20
76.0163621183
 11
94.4069867942
 21
202.6509809587
  0
LINE
  5
239
100
AcDbEntity
  8
SMUSSO
100
AcDbLine
 62
7
  6
CONTINUOUS
 10
203.372141775
 20
13.1012472865
 11
204.0792485562
 21
12.693051603
  0
LINE
  5
23A
100
AcDbEntity
  8
SMUSSO
100
AcDbLine
 62
7
  6
CONTINUOUS
 10
94.4069867942
 20
76.0163621183
 11
203.372141775
 21
13.1012472865
  0
LINE
  5
23B
100
AcDbEntity
  8
RACCORDO
100
AcDbLine
 62
7
  6
CONTINUOUS
 10
117.8475765905
 20
77.9541710947
 11
179.9315519787
 21
42.1076618005
  0
LINE
  5
23C
100
AcDbEntity
  8
RACCORDO
100
AcDbLine
 62
7
  6
CONTINUOUS
 10
119.9688969341
 20
79.1789948747
 11
180.7800801161
 21
44.0673798485
  0
LWPOLYLINE
  5
23D
100
AcDbEntity
  8
RACCORDO
100
AcDbPolyline
 62
7
  6
CONTINUOUS
 90
28
 70
0
 10
117.8475765905
 20
77.9541710947
 10
117.7979640229
 20
77.9845208905
 10
117.7488489013
 20
78.0178409534
 10
117.7002312258
 20
78.0541312834
 10
117.6519502191
 20
78.0935344541
 10
117.6041666585
 20
78.135907892
 10
117.5573628753
 20
78.1808238757
 10
117.5115487929
 20
78.2283081567
 10
117.466714488
 20
78.2783349837
 10
117.4233125218
 20
78.3303993815
 10
117.3813574014
 20
78.3845219869
 10
117.3408346197
 20
78.4406821632
 10
117.3021532173
 20
78.4983130246
 10
117.2653318439
 20
78.5574294664
 10
117.2303518498
 20
78.6180165935
 10
117.197566326
 20
78.6794628339
 10
117.1669974985
 20
78.741776889
 10
117.1386231413
 20
78.8049500576
 10
117.1127296677
 20
78.8683446642
 10
117.0893422044
 20
78.9319629516
 10
117.0684356246
 20
78.995802677
 10
117.0502209613
 20
79.0592194367
 10
117.0347254784
 20
79.1222089468
 10
117.0219219119
 20
79.1847754912
 10
117.0119395021
 20
79.2462875179
 10
117.0048213291
 20
79.3065345093
 10
117.0005243128
 20
79.365726983
 10
116.9990484531
 20
79.4238649388
  0
LWPOLYLINE
  5
23E
100
AcDbEntity
  8
RACCORDO
100
AcDbPolyline
 62
7
  6
CONTINUOUS
 90
28
 70
0
 10
119.1203687967
 20
80.6486887188
 10
119.1218446563
 20
80.590550763
 10
119.1261416727
 20
80.5313582893
 10
119.1332598457
 20
80.4711112978
 10
119.1432422555
 20
80.4095992712
 10
119.156045822
 20
80.3470327268
 10
119.1715413048
 20
80.2840432166
 10
119.1897559682
 20
80.220626457
 10
119.2106625479
 20
80.1567867316
 10
119.2340500112
 20
80.0931684442
 10
119.2599434849
 20
80.0297738376
 10
119.2883178421
 20
79.966600669
 10
119.3188866696
 20
79.9042866139
 10
119.3516721934
 20
79.8428403734
 10
119.3866521875
 20
79.7822532464
 10
119.4234735609
 20
79.7231368045
 10
119.4621549633
 20
79.6655059432
 10
119.5026777449
 20
79.6093457669
 10
119.5446328654
 20
79.5552231615
 10
119.5880348315
 20
79.5031587637
 10
119.6328691365
 20
79.4531319367
 10
119.6786832189
 20
79.4056476557
 10
119.7254870021
 20
79.3607316719
 10
119.7732705627
 20
79.3183582341
 10
119.8215515693
 20
79.2789550633
 10
119.8701692449
 20
79.2426647334
 10
119.9192843665
 20
79.2093446705
 10
119.9688969341
 20
79.1789948747
  0
LINE
  5
23F
100
AcDbEntity
  8
RACCORDO
100
AcDbLine
 62
7
  6
CONTINUOUS
 10
116.9990484531
 20
172.3381824379
 11
116.9990484531
 21
79.4238649388
  0
LINE
  5
240
100
AcDbEntity
  8
RACCORDO
100
AcDbLine
 62
7
  6
CONTINUOUS
 10
119.1203687967
 20
172.09312299
 11
119.1203687967
 21
80.6486887188
  0
LINE
  5
241
100
AcDbEntity
  8
0
100
AcDbLine
 62
250
  6
CONTINUOUS
 10
119.712704558
 20
79.3729985447
 11
119.712704558
 21
171.7511157452
  0
LINE
  5
242
100
AcDbEntity
  8
ASSI
100
AcDbLine
 62
250
  6
CONTINUOUS
 10
119.712704558
 20
79.3729985447
 11
119.712704558
 21
171.7511157452
  0
LINE
  5
243
100
AcDbEntity
  8
0
100
AcDbLine
 62
7
  6
CONTINUOUS
 10
119.7969026179
 20
79.2990716042
 11
119.7969026179
 21
171.7025008406
  0
LINE
  5
244
100
AcDbEntity
  8
ASSI
100
AcDbLine
 62
7
  6
CONTINUOUS
 10
119.7969026179
 20
79.2990716042
 11
119.7969026179
 21
171.7025008406
  0
LWPOLYLINE
  5
245
100
AcDbEntity
  8
RACCORDO
100
AcDbPolyline
 62
7
  6
CONTINUOUS
 90
15
 70
0
 10
116.9990484531
 20
172.3381824379
 10
117.0005243128
 20
172.394616108
 10
117.0048213291
 20
172.4488464949
 10
117.0119395021
 20
172.5008735985
 10
117.0219219119
 20
172.5508581885
 10
117.0347254784
 20
172.5986394954
 10
117.0502209613
 20
172.6437352103
 10
117.0684356246
 20
172.6861181333
 10
117.0893422044
 20
172.7258154644
 10
117.1127296677
 20
172.7624264954
 10
117.1386231413
 20
172.7959199677
 10
117.1669974985
 20
172.8263271398
 10
117.197566326
 20
172.8533410792
 10
117.2303518498
 20
172.8769274185
 10
117.2475606147
 20
172.8874441277
  0
LINE
  5
246
100
AcDbEntity
  8
SMUSSO
100
AcDbLine
 62
250
  6
CONTINUOUS
 10
204.0792485562
 20
140.1440618104
 11
205.139908728
 21
140.7564737004
  0
LINE
  5
247
100
AcDbEntity
  8
0
100
AcDbLine
 62
250
  6
CONTINUOUS
 10
205.1410717393
 20
140.7570720178
 11
207.1870717011
 21
141.9384108095
  0
LINE
  5
248
100
AcDbEntity
  8
ASSI
100
AcDbLine
 62
250
  6
CONTINUOUS
 10
205.1410717393
 20
140.7570720178
 11
207.1870717011
 21
141.9384108095
  0
LINE
  5
249
100
AcDbEntity
  8
0
100
AcDbLine
 62
250
  6
CONTINUOUS
 10
205.8480708247
 20
139.5325136822
 11
207.8940707865
 21
140.7138524739
  0
LINE
  5
24A
100
AcDbEntity
  8
ASSI
100
AcDbLine
 62
250
  6
CONTINUOUS
 10
205.8480708247
 20
139.5325136822
 11
207.8940707865
 21
140.7138524739
  0
LINE
  5
24B
100
AcDbEntity
  8
SMUSSO
100
AcDbLine
 62
250
  6
CONTINUOUS
 10
204.7863553374
 20
138.9193169403
 11
205.8470155092
 21
139.5317288302
  0
LINE
  5
24C
100
AcDbEntity
  8
RACCORDO
100
AcDbLine
 62
250
  6
CONTINUOUS
 10
116.9990484531
 20
79.4238649388
 11
119.1203687967
 21
80.6486887188
  0
LINE
  5
24D
100
AcDbEntity
  8
RACCORDO
100
AcDbLine
 62
250
  6
CONTINUOUS
 10
117.8475765905
 20
77.9541710947
 11
119.9688969341
 21
79.1789948747
  0
LINE
  5
24E
100
AcDbEntity
  8
RACCORDO
100
AcDbLine
 62
7
  6
CONTINUOUS
 10
180.7800801161
 20
42.5974966207
 11
180.7800801161
 21
135.5118141197
  0
LINE
  5
24F
100
AcDbEntity
  8
SMUSSO
100
AcDbLine
 62
250
  6
CONTINUOUS
 10
203.372141775
 20
138.9193169403
 11
204.0792485562
 21
140.1440618104
  0
LINE
  5
250
100
AcDbEntity
  8
SMUSSO
100
AcDbLine
 62
250
  6
CONTINUOUS
 10
203.372141775
 20
138.9193169403
 11
204.7863553374
 21
138.9193169403
  0
LWPOLYLINE
  5
251
100
AcDbEntity
  8
RACCORDO
100
AcDbPolyline
 62
7
  6
CONTINUOUS
 90
15
 70
0
 10
180.7800801161
 20
42.5974966207
 10
180.7786042565
 20
42.5410629506
 10
180.7743072401
 20
42.4868325637
 10
180.7671890671
 20
42.43480546
 10
180.7572066573
 20
42.38482087
 10
180.7444030908
 20
42.3370395632
 10
180.728907608
 20
42.2919438482
 10
180.7106929446
 20
42.2495609253
 10
180.6897863648
 20
42.2098635941
 10
180.6663989015
 20
42.1732525631
 10
180.6405054279
 20
42.1397590909
 10
180.6121310707
 20
42.1093519187
 10
180.5815622432
 20
42.0823379794
 10
180.5487767194
 20
42.05875164
 10
180.5315679545
 20
42.0482349309
  0
LINE
  5
252
100
AcDbEntity
  8
0
100
AcDbLine
 62
250
  6
CONTINUOUS
 10
207.8976251746
 20
140.6482928398
 11
208.6047319558
 21
141.8188589559
  0
LINE
  5
253
100
AcDbEntity
  8
ASSI
100
AcDbLine
 62
250
  6
CONTINUOUS
 10
207.8976251746
 20
140.6482928398
 11
208.6047319558
 21
141.8188589559
  0
LINE
  5
254
100
AcDbEntity
  8
0
100
AcDbLine
 62
250
  6
CONTINUOUS
 10
207.1320705795
 20
141.9742722932
 11
208.4992599427
 21
142.0015418412
  0
LINE
  5
255
100
AcDbEntity
  8
ASSI
100
AcDbLine
 62
250
  6
CONTINUOUS
 10
207.1320705795
 20
141.9742722932
 11
208.4992599427
 21
142.0015418412
  0
LINE
  5
256
100
AcDbEntity
  8
RACCORDO
100
AcDbLine
 62
7
  6
CONTINUOUS
 10
179.9315519787
 20
136.9815079638
 11
117.8475765905
 21
172.828017258
  0
LWPOLYLINE
  5
257
100
AcDbEntity
  8
RACCORDO
100
AcDbPolyline
 62
7
  6
CONTINUOUS
 90
28
 70
0
 10
179.9315519787
 20
136.9815079638
 10
179.9811645463
 20
136.951158168
 10
180.0302796679
 20
136.9178381051
 10
180.0788973435
 20
136.8815477752
 10
180.1271783501
 20
136.8421446044
 10
180.1749619107
 20
136.7997711666
 10
180.2217656939
 20
136.7548551828
 10
180.2675797763
 20
136.7073709018
 10
180.3124140812
 20
136.6573440748
 10
180.3558160474
 20
136.6052796771
 10
180.3977711678
 20
136.5511570716
 10
180.4382939495
 20
136.4949968954
 10
180.4769753519
 20
136.437366034
 10
180.5137967253
 20
136.3782495921
 10
180.5487767194
 20
136.3176624651
 10
180.5815622432
 20
136.2562162246
 10
180.6121310707
 20
136.1939021695
 10
180.6405054279
 20
136.1307290009
 10
180.6663989015
 20
136.0673343943
 10
180.6897863648
 20
136.003716107
 10
180.7106929446
 20
135.9398763816
 10
180.728907608
 20
135.8764596219
 10
180.7444030908
 20
135.8134701117
 10
180.7572066573
 20
135.7509035673
 10
180.7671890671
 20
135.6893915407
 10
180.7743072401
 20
135.6291445492
 10
180.7786042565
 20
135.5699520756
 10
180.7800801161
 20
135.5118141197
  0
LINE
  5
258
100
AcDbEntity
  8
0
100
AcDbLine
 62
250
  6
CONTINUOUS
 10
206.2585684517
 20
24.4231439057
 11
206.2526643243
 21
24.4676613252
  0
LWPOLYLINE
  5
259
100
AcDbEntity
  8
0
100
AcDbPolyline
 62
250
  6
CONTINUOUS
 90
33
 70
0
 10
206.2526643243
 20
24.4676613252
 10
206.2472213983
 20
24.5109131217
 10
206.2446975161
 20
24.5320569811
 10
206.2423170511
 20
24.5528814629
 10
206.2400826583
 20
24.5734133161
 10
206.237995553
 20
24.5936852345
 10
206.2360569505
 20
24.6137299114
 10
206.2342680663
 20
24.6335800405
 10
206.2322448446
 20
24.6581644667
 10
206.2304627747
 20
24.6825330974
 10
206.2289271749
 20
24.7067230345
 10
206.2276433633
 20
24.73077138
 10
206.226617266
 20
24.7547176061
 10
206.2258572418
 20
24.7786106667
 10
206.2253722574
 20
24.802501886
 10
206.2251712794
 20
24.8264425881
 10
206.2252642365
 20
24.8504785557
 10
206.2256649051
 20
24.8746334064
 10
206.2263880235
 20
24.898925216
 10
206.22744833
 20
24.9233720606
 10
206.2288608255
 20
24.9479893488
 10
206.230641562
 20
24.9727818196
 10
206.2328068542
 20
24.9977515446
 10
206.2353730167
 20
25.0229005955
 10
206.2383554357
 20
25.0482301083
 10
206.2417657841
 20
25.073737477
 10
206.2456148062
 20
25.0994191603
 10
206.2499132464
 20
25.1252716166
 10
206.2536879946
 20
25.1460757392
 10
206.2577939164
 20
25.1669945618
 10
206.2622676815
 20
25.1880357565
 10
206.2671459593
 20
25.2092069952
 10
206.2724654196
 20
25.2305159497
  0
LWPOLYLINE
  5
25A
100
AcDbEntity
  8
0
100
AcDbPolyline
 62
250
  6
CONTINUOUS
 90
56
 70
0
 10
206.8303633533
 20
25.2618141634
 10
206.8301055492
 20
25.2711912631
 10
206.8297004376
 20
25.2802845653
 10
206.8291515189
 20
25.2890914403
 10
206.8284622938
 20
25.2976092581
 10
206.8276362625
 20
25.3058353888
 10
206.8266769256
 20
25.3137672023
 10
206.8255877837
 20
25.3214020689
 10
206.8243711089
 20
25.328739804
 10
206.8230242608
 20
25.3357900048
 10
206.8215433707
 20
25.3425647138
 10
206.8199245699
 20
25.3490759735
 10
206.8181639899
 20
25.3553358267
 10
206.8162577618
 20
25.3613563157
 10
206.8142020171
 20
25.3671494832
 10
206.8122775832
 20
25.3720387953
 10
206.8102333278
 20
25.3767551411
 10
206.8080668653
 20
25.3812903771
 10
206.8057758098
 20
25.3856363601
 10
206.8033561795
 20
25.3897864527
 10
206.8007976079
 20
25.3937400423
 10
206.7980881326
 20
25.3974980225
 10
206.7952157909
 20
25.4010612868
 10
206.7921706675
 20
25.4044278986
 10
206.7889510358
 20
25.4075846009
 10
206.7855572164
 20
25.4105153067
 10
206.7819895298
 20
25.4132039289
 10
206.7782491241
 20
25.4156379286
 10
206.7743404578
 20
25.4178189597
 10
206.7702688167
 20
25.4197522239
 10
206.7660394871
 20
25.4214429233
 10
206.761657289
 20
25.4228955822
 10
206.7571251802
 20
25.4241120146
 10
206.7524456528
 20
25.4250933568
 10
206.7476211985
 20
25.4258407453
 10
206.7426548834
 20
25.4263553858
 10
206.737552068
 20
25.4266387619
 10
206.7323186872
 20
25.4266924266
 10
206.7269606755
 20
25.426517933
 10
206.7214830274
 20
25.4261162482
 10
206.7158869772
 20
25.4254859958
 10
206.710172819
 20
25.4246252137
 10
206.7043408469
 20
25.4235319395
 10
206.698391355
 20
25.4222042112
 10
206.6923246376
 20
25.4206400664
 10
206.6861409888
 20
25.4188375431
 10
206.6798407026
 20
25.4167946789
 10
206.6741427267
 20
25.4147742505
 10
206.6683527829
 20
25.4125538238
 10
206.6624708287
 20
25.4101248495
 10
206.6564968214
 20
25.4074787786
 10
206.6504307187
 20
25.4046070619
 10
206.644272478
 20
25.4015011505
 10
206.6380220568
 20
25.3981524951
 10
206.6316794126
 20
25.3945525467
 10
206.625244503
 20
25.3906927562
  0
LINE
  5
25B
100
AcDbEntity
  8
SMUSSO
100
AcDbLine
 62
7
  6
CONTINUOUS
 10
203.372141775
 20
13.1012472865
 11
203.372141775
 21
138.9193169403
  0
LINE
  5
25C
100
AcDbEntity
  8
SMUSSO
100
AcDbLine
 62
7
  6
CONTINUOUS
 10
203.372141775
 20
138.9193169403
 11
94.4069867942
 21
201.8344317721
  0
LWPOLYLINE
  5
25D
100
AcDbEntity
  8
SMUSSO
100
AcDbPolyline
 62
7
  6
CONTINUOUS
 90
28
 70
0
 10
204.7863553374
 20
138.9193169403
 10
204.7851621795
 20
138.9674830228
 10
204.7815792157
 20
139.0168668953
 10
204.7756185761
 20
139.0673014622
 10
204.7672997755
 20
139.1186156911
 10
204.7566516147
 20
139.1706363277
 10
204.7437120849
 20
139.2231884832
 10
204.7285259302
 20
139.2760948929
 10
204.7111435695
 20
139.32917598
 10
204.6916228914
 20
139.3822515993
 10
204.6700295657
 20
139.4351419389
 10
204.6464370415
 20
139.4876682565
 10
204.6209253702
 20
139.5396529478
 10
204.5935809433
 20
139.5909201524
 10
204.5644962169
 20
139.6412963585
 10
204.533769621
 20
139.6906111186
 10
204.5015052282
 20
139.7386976268
 10
204.4678121083
 20
139.7853931143
 10
204.4328039751
 20
139.8305394092
 10
204.3965987866
 20
139.8739834629
 10
204.3593195455
 20
139.9155785609
 10
204.3210935907
 20
139.9551846498
 10
204.2820515037
 20
139.9926684296
 10
204.2423241607
 20
140.0279023569
 10
204.2020434868
 20
140.0607657679
 10
204.1613449476
 20
140.0911469833
 10
204.1203670881
 20
140.1189436841
 10
204.0792485562
 20
140.1440618104
  0
LWPOLYLINE
  5
25E
100
AcDbEntity
  8
0
100
AcDbPolyline
 62
7
  6
CONTINUOUS
 90
7
 70
0
 10
207.8976251746
 20
140.6482928398
 10
207.8975340912
 20
140.6592511973
 10
207.897242482
 20
140.6701968542
 10
207.8967503469
 20
140.6811298102
 10
207.8960576859
 20
140.6920500656
 10
207.8951644991
 20
140.7029576201
 10
207.8940707865
 20
140.7138524739
  0
LWPOLYLINE
  5
25F
100
AcDbEntity
  8
ASSI
100
AcDbPolyline
 62
7
  6
CONTINUOUS
 90
7
 70
0
 10
207.8976251746
 20
140.6482928398
 10
207.8975340912
 20
140.6592511973
 10
207.897242482
 20
140.6701968542
 10
207.8967503469
 20
140.6811298102
 10
207.8960576859
 20
140.6920500656
 10
207.8951644991
 20
140.7029576201
 10
207.8940707865
 20
140.7138524739
  0
LINE
  5
260
100
AcDbEntity
  8
SMUSSO
100
AcDbLine
 62
7
  6
CONTINUOUS
 10
204.7863553374
 20
13.1012472865
 11
204.7863553374
 21
138.9193169403
  0
LINE
  5
261
100
AcDbEntity
  8
SMUSSO
100
AcDbLine
 62
7
  6
CONTINUOUS
 10
205.8470155092
 20
139.9400034236
 11
205.8470155092
 21
13.7136591765
  0
LINE
  5
262
100
AcDbEntity
  8
0
100
AcDbLine
 62
250
  6
CONTINUOUS
 10
206.2430678867
 20
20.9209953353
 11
206.2430678867
 21
21.2447845859
  0
LINE
  5
263
100
AcDbEntity
  8
0
100
AcDbLine
 62
250
  6
CONTINUOUS
 10
206.2431470898
 20
23.8429064965
 11
206.2431470898
 21
23.5296791054
  0
LINE
  5
264
100
AcDbEntity
  8
0
100
AcDbLine
 62
250
  6
CONTINUOUS
 10
206.2431470898
 20
22.8472389563
 11
206.2431470898
 21
22.5268805138
  0
LINE
  5
265
100
AcDbEntity
  8
0
100
AcDbLine
 62
250
  6
CONTINUOUS
 10
206.2431470898
 20
21.8827213901
 11
206.2431470898
 21
21.5591999417
  0
LINE
  5
266
100
AcDbEntity
  8
0
100
AcDbLine
 62
250
  6
CONTINUOUS
 10
206.2431470898
 20
20.8008835769
 11
206.2431470898
 21
20.4773155897
  0
LINE
  5
267
100
AcDbEntity
  8
0
100
AcDbLine
 62
250
  6
CONTINUOUS
 10
206.2431470898
 20
19.8769217223
 11
206.2431470898
 21
19.525186327
  0
LINE
  5
268
100
AcDbEntity
  8
0
100
AcDbLine
 62
250
  6
CONTINUOUS
 10
206.8303633533
 20
25.0767716645
 11
206.8303633533
 21
25.2618141634
  0
LINE
  5
269
100
AcDbEntity
  8
0
100
AcDbLine
 62
250
  6
CONTINUOUS
 10
207.0465384095
 20
25.3903677881
 11
207.0465384095
 21
25.216759585
  0
LINE
  5
26A
100
AcDbEntity
  8
0
100
AcDbLine
 62
250
  6
CONTINUOUS
 10
207.0956824962
 20
24.3387274758
 11
207.0956824962
 21
24.0287218764
  0
LINE
  5
26B
100
AcDbEntity
  8
0
100
AcDbLine
 62
250
  6
CONTINUOUS
 10
207.299583974
 20
24.0844021383
 11
207.299583974
 21
24.5253499748
  0
LINE
  5
26C
100
AcDbEntity
  8
0
100
AcDbLine
 62
250
  6
CONTINUOUS
 10
207.5630918738
 20
26.3328949191
 11
207.5630918738
 21
26.0214470372
  0
LINE
  5
26D
100
AcDbEntity
  8
0
100
AcDbLine
 62
250
  6
CONTINUOUS
 10
207.5630918738
 20
25.5256080506
 11
207.5630918738
 21
25.2031213622
  0
LINE
  5
26E
100
AcDbEntity
  8
0
100
AcDbLine
 62
250
  6
CONTINUOUS
 10
207.5630920503
 20
22.0340299703
 11
207.5630920503
 21
21.7102407197
  0
LINE
  5
26F
100
AcDbEntity
  8
0
100
AcDbLine
 62
250
  6
CONTINUOUS
 10
207.5630920503
 20
20.8061346058
 11
207.5630920503
 21
21.0914746381
  0
LINE
  5
270
100
AcDbEntity
  8
0
100
AcDbLine
 62
250
  6
CONTINUOUS
 10
207.5630920503
 20
22.2083365768
 11
207.5630920503
 21
22.5180972351
  0
LINE
  5
271
100
AcDbEntity
  8
0
100
AcDbLine
 62
250
  6
CONTINUOUS
 10
207.5630920503
 20
22.9678155953
 11
207.5630920503
 21
23.0132268556
  0
LINE
  5
272
100
AcDbEntity
  8
0
100
AcDbLine
 62
250
  6
CONTINUOUS
 10
207.5630920503
 20
23.4647365517
 11
207.5630920503
 21
23.7814886449
  0
LINE
  5
273
100
AcDbEntity
  8
0
100
AcDbLine
 62
250
  6
CONTINUOUS
 10
207.5630920503
 20
23.832331882
 11
207.5630920503
 21
24.1526086775
  0
LINE
  5
274
100
AcDbEntity
  8
0
100
AcDbLine
 62
250
  6
CONTINUOUS
 10
207.5630920503
 20
24.7667804809
 11
207.5630920503
 21
25.1080413789
  0
LINE
  5
275
100
AcDbEntity
  8
0
100
AcDbLine
 62
7
  6
CONTINUOUS
 10
207.8976251746
 20
140.6482928398
 11
207.8976251746
 21
16.1082566696
  0
LINE
  5
276
100
AcDbEntity
  8
ASSI
100
AcDbLine
 62
7
  6
CONTINUOUS
 10
207.8976251746
 20
140.6482928398
 11
207.8976251746
 21
16.1082566696
  0
LINE
  5
277
100
AcDbEntity
  8
0
100
AcDbLine
 62
7
  6
CONTINUOUS
 10
208.6047319558
 20
141.8188589559
 11
208.6047319558
 21
18.2038873001
  0
LINE
  5
278
100
AcDbEntity
  8
ASSI
100
AcDbLine
 62
7
  6
CONTINUOUS
 10
208.6047319558
 20
141.8188589559
 11
208.6047319558
 21
18.2038873001
  0
LWPOLYLINE
  5
279
100
AcDbEntity
  8
SMUSSO
100
AcDbPolyline
 62
7
  6
CONTINUOUS
 90
15
 70
0
 10
205.8470155092
 20
13.7136591765
 10
205.8458191951
 20
13.6668763621
 10
205.8422343011
 20
13.6216333231
 10
205.836272958
 20
13.5780831474
 10
205.827955338
 20
13.536373197
 10
205.8173095858
 20
13.4966446023
 10
205.8043717213
 20
13.4590317855
 10
205.78918552
 20
13.423662014
 10
205.7718023676
 20
13.3906549724
 10
205.7522810853
 20
13.3601223503
 10
205.7306877282
 20
13.3321674619
 10
205.7070953608
 20
13.3068848957
 10
205.6815838112
 20
13.2843601992
 10
205.6542394019
 20
13.2646695883
 10
205.6399328881
 20
13.2559223153
  0
LWPOLYLINE
  5
27A
100
AcDbEntity
  8
SMUSSO
100
AcDbPolyline
 62
7
  6
CONTINUOUS
 90
15
 70
0
 10
95.1140935754
 20
203.0591766422
 10
95.0729821271
 20
203.0815361818
 10
95.0320085695
 20
203.1010566837
 10
94.9913115505
 20
203.1176721005
 10
94.9510281219
 20
203.1313258331
 10
94.9112952425
 20
203.1419720585
 10
94.872249317
 20
203.1495758857
 10
94.8340234252
 20
203.1541121405
 10
94.796745945
 20
203.1555649157
 10
94.7605420842
 20
203.1539287599
 10
94.7255339631
 20
203.1492089888
 10
94.6918404221
 20
203.1414217943
 10
94.6595756912
 20
203.1305936539
 10
94.6288490123
 20
203.1167612459
 10
94.6140709589
 20
203.1087187111
  0
LWPOLYLINE
  5
27B
100
AcDbEntity
  8
0
100
AcDbPolyline
 62
7
  6
CONTINUOUS
 90
7
 70
0
 10
99.2737607202
 20
204.2503086238
 10
99.2641303326
 20
204.2557639079
 10
99.2542030209
 20
204.2611590697
 10
99.2439787852
 20
204.266494109
 10
99.2334576254
 20
204.2717690259
 10
99.2226395416
 20
204.2769838204
 10
99.2115245338
 20
204.2821384924
  0
LWPOLYLINE
  5
27C
100
AcDbEntity
  8
ASSI
100
AcDbPolyline
 62
7
  6
CONTINUOUS
 90
7
 70
0
 10
99.2737607202
 20
204.2503086238
 10
99.2641303326
 20
204.2557639079
 10
99.2542030209
 20
204.2611590697
 10
99.2439787852
 20
204.266494109
 10
99.2334576254
 20
204.2717690259
 10
99.2226395416
 20
204.2769838204
 10
99.2115245338
 20
204.2821384924
  0
LINE
  5
27D
100
AcDbEntity
  8
SMUSSO
100
AcDbLine
 62
7
  6
CONTINUOUS
 10
204.0792485562
 20
140.1440618104
 11
95.1140935754
 21
203.0591766422
  0
LINE
  5
27E
100
AcDbEntity
  8
SMUSSO
100
AcDbLine
 62
7
  6
CONTINUOUS
 10
96.1747537472
 20
203.6715885322
 11
205.4934621186
 21
140.5523758586
  0
LINE
  5
27F
100
AcDbEntity
  8
0
100
AcDbLine
 62
7
  6
CONTINUOUS
 10
99.2737607202
 20
204.2503086238
 11
207.1320705795
 21
141.9742722932
  0
LINE
  5
280
100
AcDbEntity
  8
ASSI
100
AcDbLine
 62
7
  6
CONTINUOUS
 10
99.2737607202
 20
204.2503086238
 11
207.1320705795
 21
141.9742722932
  0
LINE
  5
281
100
AcDbEntity
  8
0
100
AcDbLine
 62
7
  6
CONTINUOUS
 10
101.442105263
 20
203.815001212
 11
208.4992599427
 21
142.0015418412
  0
LINE
  5
282
100
AcDbEntity
  8
ASSI
100
AcDbLine
 62
7
  6
CONTINUOUS
 10
101.442105263
 20
203.815001212
 11
208.4992599427
 21
142.0015418412
  0
LWPOLYLINE
  5
283
100
AcDbEntity
  8
SMUSSO
100
AcDbPolyline
 62
7
  6
CONTINUOUS
 90
28
 70
0
 10
205.139908728
 20
140.7564737004
 10
205.1810233538
 20
140.7313532907
 10
205.2219988575
 20
140.7035552027
 10
205.2626965907
 20
140.6731734972
 10
205.302978843
 20
140.6403109789
 10
205.3427093143
 20
140.6050788429
 10
205.3817535759
 20
140.5675962977
 10
205.419979518
 20
140.5279901679
 10
205.4572577917
 20
140.4863944711
 10
205.4934622544
 20
140.442949959
 10
205.5284703999
 20
140.3978036368
 10
205.5621637736
 20
140.3511082634
 10
205.5944283692
 20
140.3030218394
 10
205.6251550138
 20
140.2537070729
 10
205.6542397374
 20
140.2033308307
 10
205.6815841256
 20
140.1520635716
 10
205.7070956526
 20
140.10007877
 10
205.7306879967
 20
140.0475523241
 10
205.7522813306
 20
139.9946619622
 10
205.7718025948
 20
139.9415866315
 10
205.7891857275
 20
139.8885059393
 10
205.8043718967
 20
139.835599541
 10
205.8173097159
 20
139.7830464834
 10
205.8279554223
 20
139.7310245585
 10
205.8362730054
 20
139.6797097499
 10
205.8422343227
 20
139.629275677
 10
205.8458192006
 20
139.5798930056
 10
205.8470155092
 20
139.5317288302
  0
LWPOLYLINE
  5
284
100
AcDbEntity
  8
SMUSSO
100
AcDbPolyline
 62
7
  6
CONTINUOUS
 90
22
 70
0
 10
205.4934621186
 20
140.5523758586
 10
205.5201207623
 20
140.5357903529
 10
205.5463428535
 20
140.5172388706
 10
205.5721283921
 20
140.4967214118
 10
205.5976169898
 20
140.4741011259
 10
205.6226690349
 20
140.4495148635
 10
205.6468656922
 20
140.4233731761
 10
205.6701920789
 20
140.3956500116
 10
205.6926630777
 20
140.3663714221
 10
205.7139045018
 20
140.3360261161
 10
205.7338946595
 20
140.3045985286
 10
205.7526552425
 20
140.2721042246
 10
205.7698771395
 20
140.2390786065
 10
205.785536021
 20
140.2055106875
 10
205.7996562165
 20
140.1714114544
 10
205.812001604
 20
140.1373492698
 10
205.8225421874
 20
140.1033242352
 10
205.8313079628
 20
140.0693362491
 10
205.8381527961
 20
140.0359533691
 10
205.8430279759
 20
140.0033649478
 10
205.8459822136
 20
139.9713816326
 10
205.8470155092
 20
139.9400034236
  0
LWPOLYLINE
  5
285
100
AcDbEntity
  8
0
100
AcDbPolyline
 62
7
  6
CONTINUOUS
 90
7
 70
0
 10
207.1870717011
 20
141.9384108095
 10
207.1781843706
 20
141.9448051338
 10
207.1691852309
 20
141.951032494
 10
207.1600742819
 20
141.95709289
 10
207.1508515237
 20
141.9629863219
 10
207.1415169562
 20
141.9687127896
 10
207.1320705795
 20
141.9742722932
  0
LWPOLYLINE
  5
286
100
AcDbEntity
  8
ASSI
100
AcDbPolyline
 62
7
  6
CONTINUOUS
 90
7
 70
0
 10
207.1870717011
 20
141.9384108095
 10
207.1781843706
 20
141.9448051338
 10
207.1691852309
 20
141.951032494
 10
207.1600742819
 20
141.95709289
 10
207.1508515237
 20
141.9629863219
 10
207.1415169562
 20
141.9687127896
 10
207.1320705795
 20
141.9742722932
  0
LWPOLYLINE
  5
287
100
AcDbEntity
  8
0
100
AcDbPolyline
 62
7
  6
CONTINUOUS
 90
28
 70
0
 10
207.8940707865
 20
140.7138524739
 10
207.8883395356
 20
140.7589571889
 10
207.8807033395
 20
140.8056053206
 10
207.8711593871
 20
140.8536378599
 10
207.8597392257
 20
140.9029137347
 10
207.84642945
 20
140.9532413201
 10
207.831175015
 20
141.0043781452
 10
207.8139990799
 20
141.0561435981
 10
207.7949522313
 20
141.1083623345
 10
207.7740390044
 20
141.1607952103
 10
207.7513048291
 20
141.2132686319
 10
207.7268312708
 20
141.2655917506
 10
207.7006995387
 20
141.31750109
 10
207.6730106354
 20
141.3687767597
 10
207.6438516812
 20
141.4192881622
 10
207.6132953227
 20
141.4689094073
 10
207.5814110649
 20
141.517499776
 10
207.5483388367
 20
141.5648618004
 10
207.5142662191
 20
141.6107932676
 10
207.4793178119
 20
141.6551279713
 10
207.4436211322
 20
141.697739913
 10
207.4073807054
 20
141.7385058424
 10
207.3707280721
 20
141.7772884585
 10
207.3338032395
 20
141.8139837901
 10
207.2968277833
 20
141.8485336542
 10
207.2599684236
 20
141.8808551608
 10
207.223336616
 20
141.9108412184
 10
207.1870717011
 20
141.9384108095
  0
LWPOLYLINE
  5
288
100
AcDbEntity
  8
ASSI
100
AcDbPolyline
 62
7
  6
CONTINUOUS
 90
28
 70
0
 10
207.8940707865
 20
140.7138524739
 10
207.8883395356
 20
140.7589571889
 10
207.8807033395
 20
140.8056053206
 10
207.8711593871
 20
140.8536378599
 10
207.8597392257
 20
140.9029137347
 10
207.84642945
 20
140.9532413201
 10
207.831175015
 20
141.0043781452
 10
207.8139990799
 20
141.0561435981
 10
207.7949522313
 20
141.1083623345
 10
207.7740390044
 20
141.1607952103
 10
207.7513048291
 20
141.2132686319
 10
207.7268312708
 20
141.2655917506
 10
207.7006995387
 20
141.31750109
 10
207.6730106354
 20
141.3687767597
 10
207.6438516812
 20
141.4192881622
 10
207.6132953227
 20
141.4689094073
 10
207.5814110649
 20
141.517499776
 10
207.5483388367
 20
141.5648618004
 10
207.5142662191
 20
141.6107932676
 10
207.4793178119
 20
141.6551279713
 10
207.4436211322
 20
141.697739913
 10
207.4073807054
 20
141.7385058424
 10
207.3707280721
 20
141.7772884585
 10
207.3338032395
 20
141.8139837901
 10
207.2968277833
 20
141.8485336542
 10
207.2599684236
 20
141.8808551608
 10
207.223336616
 20
141.9108412184
 10
207.1870717011
 20
141.9384108095
  0
LWPOLYLINE
  5
289
100
AcDbEntity
  8
0
100
AcDbPolyline
 62
250
  6
CONTINUOUS
 90
24
 70
0
 10
206.4602419424
 20
25.1091269332
 10
206.4591398566
 20
25.0965502713
 10
206.4581859605
 20
25.0840487908
 10
206.4573799122
 20
25.0716240161
 10
206.4567213697
 20
25.0592774715
 10
206.4562099913
 20
25.0470106813
 10
206.4558454349
 20
25.0348251698
 10
206.4556273586
 20
25.0227224613
 10
206.4555564705
 20
25.0122010288
 10
206.4555974686
 20
25.0017410691
 10
206.455750352
 20
24.9913394919
 10
206.4560151197
 20
24.9809932068
 10
206.4563922453
 20
24.9706989548
 10
206.4568840996
 20
24.9604528017
 10
206.4574935278
 20
24.9502506445
 10
206.4582233752
 20
24.9400883801
 10
206.4590751764
 20
24.9299629986
 10
206.4600452234
 20
24.9198758613
 10
206.4611284977
 20
24.9098294227
 10
206.4623199808
 20
24.8998261371
 10
206.4636137972
 20
24.8898657689
 10
206.4650006433
 20
24.8799373226
 10
206.4664703587
 20
24.8700271122
 10
206.4680127828
 20
24.8601214523
  0
LWPOLYLINE
  5
28A
100
AcDbEntity
  8
0
100
AcDbPolyline
 62
7
  6
CONTINUOUS
 90
7
 70
0
 10
207.8940707865
 20
16.0384466822
 10
207.8951644099
 20
16.0506476369
 10
207.8960575431
 20
16.0626222088
 10
207.8967501863
 20
16.0743703981
 10
207.8972423392
 20
16.0858922046
 10
207.897534002
 20
16.0971876284
 10
207.8976251746
 20
16.1082566696
  0
LWPOLYLINE
  5
28B
100
AcDbEntity
  8
ASSI
100
AcDbPolyline
 62
7
  6
CONTINUOUS
 90
7
 70
0
 10
207.8940707865
 20
16.0384466822
 10
207.8951644099
 20
16.0506476369
 10
207.8960575431
 20
16.0626222088
 10
207.8967501863
 20
16.0743703981
 10
207.8972423392
 20
16.0858922046
 10
207.897534002
 20
16.0971876284
 10
207.8976251746
 20
16.1082566696
  0
LWPOLYLINE
  5
28C
100
AcDbEntity
  8
0
100
AcDbPolyline
 62
7
  6
CONTINUOUS
 90
6
 70
0
 10
99.2115245338
 20
204.2821384924
 10
99.1660909272
 20
204.3017592264
 10
99.1211833308
 20
204.3188798314
 10
99.0769358255
 20
204.3334187522
 10
99.0335068036
 20
204.3453200829
 10
99.0135889936
 20
204.3499427041
  0
LWPOLYLINE
  5
28D
100
AcDbEntity
  8
ASSI
100
AcDbPolyline
 62
7
  6
CONTINUOUS
 90
6
 70
0
 10
99.2115245338
 20
204.2821384924
 10
99.1660909272
 20
204.3017592264
 10
99.1211833308
 20
204.3188798314
 10
99.0769358255
 20
204.3334187522
 10
99.0335068036
 20
204.3453200829
 10
99.0135889936
 20
204.3499427041
  0
LWPOLYLINE
  5
28E
100
AcDbEntity
  8
0
100
AcDbPolyline
 62
250
  6
CONTINUOUS
 90
85
 70
0
 10
206.2724654196
 20
25.2305159497
 10
206.2755292316
 20
25.2417295953
 10
206.2789933414
 20
25.2532721588
 10
206.2828709206
 20
25.2651690932
 10
206.2871751407
 20
25.2774458511
 10
206.2919191731
 20
25.2901278855
 10
206.2971161894
 20
25.3032406491
 10
206.3027747838
 20
25.3167933834
 10
206.3088852411
 20
25.3307304844
 10
206.3154332687
 20
25.3449801368
 10
206.3224045742
 20
25.3594705252
 10
206.329784865
 20
25.3741298343
 10
206.3375598486
 20
25.3888862488
 10
206.3457155709
 20
25.4036738257
 10
206.3542394313
 20
25.4184501113
 10
206.3631191676
 20
25.4331785245
 10
206.3723425178
 20
25.4478224841
 10
206.3818972196
 20
25.4623454088
 10
206.3917710108
 20
25.4767107175
 10
206.4019461901
 20
25.4908794896
 10
206.4123832993
 20
25.5048034478
 10
206.4230374408
 20
25.5184319752
 10
206.4338637173
 20
25.5317144553
 10
206.4448172313
 20
25.5446002712
 10
206.4558530854
 20
25.5570388064
 10
206.4669307776
 20
25.5689891213
 10
206.4780273884
 20
25.580448985
 10
206.489124394
 20
25.591425844
 10
206.5002032703
 20
25.6019271446
 10
206.5112454934
 20
25.6119603331
 10
206.5222325393
 20
25.621532856
 10
206.5353167405
 20
25.6324225488
 10
206.5482547729
 20
25.6426740306
 10
206.5610065973
 20
25.6523017261
 10
206.5735321745
 20
25.6613200602
 10
206.5857914653
 20
25.6697434576
 10
206.5977519541
 20
25.6775880148
 10
206.6094112193
 20
25.6848765144
 10
206.620774363
 20
25.6916334108
 10
206.6318464875
 20
25.6978831583
 10
206.6426326947
 20
25.7036502113
 10
206.6531382015
 20
25.7089580855
 10
206.6633686836
 20
25.7138265427
 10
206.6733299312
 20
25.718274406
 10
206.6830277348
 20
25.7223204986
 10
206.6924678847
 20
25.7259836436
 10
206.7039156114
 20
25.7300517571
 10
206.7149873718
 20
25.7335818483
 10
206.7257007359
 20
25.7366048393
 10
206.7360732739
 20
25.7391516521
 10
206.7461188369
 20
25.7412519568
 10
206.7558364002
 20
25.7429304161
 10
206.7652212203
 20
25.7442104405
 10
206.7742685536
 20
25.7451154406
 10
206.7829763831
 20
25.7456683176
 10
206.7913535979
 20
25.7458899343
 10
206.799411814
 20
25.7458006444
 10
206.8071626471
 20
25.7454208012
 10
206.8170359654
 20
25.7444950592
 10
206.826392702
 20
25.7431222575
 10
206.8352420834
 20
25.7413356914
 10
206.8435962329
 20
25.7391691248
 10
206.8514788605
 20
25.7366581962
 10
206.858916573
 20
25.7338390127
 10
206.8659367833
 20
25.730750645
 10
206.8725701288
 20
25.7274440182
 10
206.8788480532
 20
25.7239730209
 10
206.8848008753
 20
25.7203879587
 10
206.890454414
 20
25.7167248049
 10
206.8958333633
 20
25.7130159498
 10
206.8997024062
 20
25.7102226324
 10
206.9034423531
 20
25.7074284767
 10
206.9070631598
 20
25.7046410573
 10
206.9105687249
 20
25.7018716506
 10
206.9139629363
 20
25.6991300601
 10
206.9172556954
 20
25.6964164956
 10
206.9235424011
 20
25.6909603639
 10
206.9264955167
 20
25.6880803506
 10
206.9292514058
 20
25.6850471497
 10
206.9317459185
 20
25.681842513
 10
206.9339378106
 20
25.6784478356
 10
206.9357944706
 20
25.674842488
 10
206.9372949125
 20
25.6709980988
 10
206.9384209096
 20
25.6668897754
 10
206.9391536483
 20
25.6625142809
  0
LINE
  5
28F
100
AcDbEntity
  8
RACCORDO
100
AcDbLine
 62
250
  6
CONTINUOUS
 10
179.9315519787
 20
42.1076618005
 11
180.780039112
 21
42.5975676373
  0
LWPOLYLINE
  5
290
100
AcDbEntity
  8
RACCORDO
100
AcDbPolyline
 62
7
  6
CONTINUOUS
 90
15
 70
0
 10
180.5315679545
 20
42.0482349309
 10
180.5137967253
 20
42.0385585334
 10
180.4769753519
 20
42.0219624905
 10
180.4382939495
 20
42.0089999431
 10
180.3977711678
 20
41.9996344593
 10
180.3558160474
 20
41.9939605753
 10
180.3124140812
 20
41.9920156802
 10
180.2675797763
 20
41.9937623848
 10
180.2217656939
 20
41.9991830577
 10
180.1749619107
 20
42.0083149096
 10
180.1271783501
 20
42.0211207298
 10
180.0788973435
 20
42.0374712553
 10
180.0302796679
 20
42.0573233984
 10
179.9811645463
 20
42.0807202468
 10
179.9315519787
 20
42.1076618005
  0
LWPOLYLINE
  5
291
100
AcDbEntity
  8
0
100
AcDbPolyline
 62
250
  6
CONTINUOUS
 90
40
 70
0
 10
206.946953371
 20
25.6671777525
 10
206.9488016967
 20
25.6734832175
 10
206.950808043
 20
25.679849852
 10
206.9529760052
 20
25.6862827085
 10
206.9553091786
 20
25.6927868396
 10
206.9578114688
 20
25.6993672334
 10
206.9604880237
 20
25.7060286203
 10
206.9633443014
 20
25.7127756664
 10
206.9663857599
 20
25.7196130376
 10
206.9696162489
 20
25.726542409
 10
206.9730331835
 20
25.7335534908
 10
206.9766323703
 20
25.7406330022
 10
206.980409616
 20
25.7477676626
 10
206.9843600067
 20
25.7549443977
 10
206.9884757466
 20
25.7621509593
 10
206.9927483197
 20
25.7693753057
 10
206.9971692097
 20
25.7766053952
 10
207.0017317094
 20
25.7838321834
 10
207.0064363475
 20
25.7910586153
 10
207.0112854618
 20
25.7982906332
 10
207.01628139
 20
25.8055341792
 10
207.0214253999
 20
25.8127935065
 10
207.0267144808
 20
25.8200661113
 10
207.032144552
 20
25.8273478009
 10
207.0377115329
 20
25.8346343824
 10
207.0442367055
 20
25.8429633376
 10
207.05093227
 20
25.8512918792
 10
207.0577951272
 20
25.8596186803
 10
207.0648221779
 20
25.8679424143
 10
207.072010323
 20
25.8762617544
 10
207.0793564634
 20
25.8845753739
 10
207.0868574997
 20
25.8928819459
 10
207.0958000101
 20
25.9025620642
 10
207.1049421997
 20
25.9122274459
 10
207.1142771352
 20
25.9218747524
 10
207.1237978834
 20
25.9315006454
 10
207.1334975112
 20
25.9411017862
 10
207.1433690852
 20
25.9506748365
 10
207.153405885
 20
25.9602224377
 10
207.1636020408
 20
25.9697711515
  0
LWPOLYLINE
  5
292
100
AcDbEntity
  8
0
100
AcDbPolyline
 62
7
  6
CONTINUOUS
 90
6
 70
0
 10
207.8538382391
 20
15.8332058349
 10
207.8596921023
 20
15.8524195271
 10
207.8711215309
 20
15.8959954686
 10
207.8806797738
 20
15.9416358733
 10
207.8883296809
 20
15.989171327
 10
207.8940707865
 20
16.0384466822
  0
LWPOLYLINE
  5
293
100
AcDbEntity
  8
ASSI
100
AcDbPolyline
 62
7
  6
CONTINUOUS
 90
6
 70
0
 10
207.8538382391
 20
15.8332058349
 10
207.8596921023
 20
15.8524195271
 10
207.8711215309
 20
15.8959954686
 10
207.8806797738
 20
15.9416358733
 10
207.8883296809
 20
15.989171327
 10
207.8940707865
 20
16.0384466822
  0
LINE
  5
294
100
AcDbEntity
  8
0
100
AcDbLine
 62
7
  6
CONTINUOUS
 10
208.5998917905
 20
18.1697250113
 11
207.8538454541
 21
15.8332098058
  0
LINE
  5
295
100
AcDbEntity
  8
ASSI
100
AcDbLine
 62
7
  6
CONTINUOUS
 10
208.5998917905
 20
18.1697250113
 11
207.8538454541
 21
15.8332098058
  0
LINE
  5
296
100
AcDbEntity
  8
0
100
AcDbLine
 62
7
  6
CONTINUOUS
 10
101.4100898545
 20
203.8278946082
 11
99.0135952603
 21
204.3499464958
  0
LINE
  5
297
100
AcDbEntity
  8
ASSI
100
AcDbLine
 62
7
  6
CONTINUOUS
 10
101.4100898545
 20
203.8278946082
 11
99.0135952603
 21
204.3499464958
  0
LINE
  5
298
100
AcDbEntity
  8
0
100
AcDbLine
 62
250
  6
CONTINUOUS
 10
207.8976251746
 20
16.1082566696
 11
208.6047319558
 21
18.2038873001
  0
LINE
  5
299
100
AcDbEntity
  8
ASSI
100
AcDbLine
 62
250
  6
CONTINUOUS
 10
207.8976251746
 20
16.1082566696
 11
208.6047319558
 21
18.2038873001
  0
LINE
  5
29A
100
AcDbEntity
  8
0
100
AcDbLine
 62
250
  6
CONTINUOUS
 10
99.2737607202
 20
204.2503086238
 11
101.442105263
 21
203.815001212
  0
LINE
  5
29B
100
AcDbEntity
  8
ASSI
100
AcDbLine
 62
250
  6
CONTINUOUS
 10
99.2737607202
 20
204.2503086238
 11
101.442105263
 21
203.815001212
  0
LWPOLYLINE
  5
29C
100
AcDbEntity
  8
0
100
AcDbPolyline
 62
7
  6
CONTINUOUS
 90
11
 70
0
 10
99.0135889936
 20
204.3499427041
 10
98.991007871
 20
204.3545030542
 10
98.9495027105
 20
204.3608660078
 10
98.9091119503
 20
204.3643636165
 10
98.8699803887
 20
204.3649701391
 10
98.8322034882
 20
204.3626375935
 10
98.7958919151
 20
204.3573566795
 10
98.7611831772
 20
204.3491397072
 10
98.7282020312
 20
204.3380030638
 10
98.6970640017
 20
204.3239886056
 10
98.690907824
 20
204.320759619
  0
LWPOLYLINE
  5
29D
100
AcDbEntity
  8
ASSI
100
AcDbPolyline
 62
7
  6
CONTINUOUS
 90
11
 70
0
 10
99.0135889936
 20
204.3499427041
 10
98.991007871
 20
204.3545030542
 10
98.9495027105
 20
204.3608660078
 10
98.9091119503
 20
204.3643636165
 10
98.8699803887
 20
204.3649701391
 10
98.8322034882
 20
204.3626375935
 10
98.7958919151
 20
204.3573566795
 10
98.7611831772
 20
204.3491397072
 10
98.7282020312
 20
204.3380030638
 10
98.6970640017
 20
204.3239886056
 10
98.690907824
 20
204.320759619
  0
LWPOLYLINE
  5
29E
100
AcDbEntity
  8
0
100
AcDbPolyline
 62
250
  6
CONTINUOUS
 90
48
 70
0
 10
207.1628136901
 20
25.6405224092
 10
207.1586544817
 20
25.6361421687
 10
207.1545693827
 20
25.6317234535
 10
207.1505501918
 20
25.6272594738
 10
207.1465887073
 20
25.62274344
 10
207.1426767279
 20
25.6181685625
 10
207.1378474964
 20
25.6123600827
 10
207.1330885071
 20
25.6064550496
 10
207.1284054653
 20
25.6004594618
 10
207.1238040763
 20
25.5943793185
 10
207.1192900953
 20
25.5882208377
 10
207.1148694774
 20
25.581991115
 10
207.1105482274
 20
25.5756974653
 10
207.1063323505
 20
25.5693472035
 10
207.1030394949
 20
25.5642310704
 10
207.0998206488
 20
25.5590866615
 10
207.0966785394
 20
25.5539172514
 10
207.0936158944
 20
25.5487261146
 10
207.0906354412
 20
25.5435165256
 10
207.08773973
 20
25.5382915243
 10
207.0849306012
 20
25.5330532123
 10
207.0822097181
 20
25.5278034567
 10
207.0795787439
 20
25.5225441244
 10
207.0770393416
 20
25.5172770825
 10
207.074593176
 20
25.5120035567
 10
207.0722419173
 20
25.5067222075
 10
207.0699872376
 20
25.5014310542
 10
207.0678308085
 20
25.4961281159
 10
207.0657743021
 20
25.4908114118
 10
207.0638194512
 20
25.4854806522
 10
207.0619682335
 20
25.4801423118
 10
207.0602226879
 20
25.4748045562
 10
207.0585848532
 20
25.469475551
 10
207.057056768
 20
25.464163462
 10
207.0556398854
 20
25.4588764418
 10
207.0543333147
 20
25.4536225912
 10
207.0531355793
 20
25.4484099981
 10
207.0520452025
 20
25.4432467504
 10
207.0510607079
 20
25.4381409358
 10
207.050180394
 20
25.4330991773
 10
207.0494016604
 20
25.4281222384
 10
207.0487216819
 20
25.4232094176
 10
207.0481376333
 20
25.4183600135
 10
207.0476466894
 20
25.4135733246
 10
207.0471603957
 20
25.4076741465
 10
207.0468142161
 20
25.4018528446
 10
207.0466072033
 20
25.3960903986
 10
207.0465384095
 20
25.3903677881
  0
LINE
  5
29F
100
AcDbEntity
  8
0
100
AcDbLine
 62
250
  6
CONTINUOUS
 10
206.7011926121
 20
22.0726399861
 11
207.5630920503
 21
22.9678155953
  0
LINE
  5
2A0
100
AcDbEntity
  8
0
100
AcDbLine
 62
250
  6
CONTINUOUS
 10
206.9759843536
 20
22.6412562938
 11
206.2431470898
 21
21.8827213901
  0
LINE
  5
2A1
100
AcDbEntity
  8
0
100
AcDbLine
 62
250
  6
CONTINUOUS
 10
206.2431470898
 20
19.525186327
 11
207.5630920503
 21
20.8061346058
  0
LINE
  5
2A2
100
AcDbEntity
  8
0
100
AcDbLine
 62
250
  6
CONTINUOUS
 10
207.5630920503
 20
25.1080413789
 11
206.2431470898
 21
23.8429064965
  0
LWPOLYLINE
  5
2A3
100
AcDbEntity
  8
0
100
AcDbPolyline
 62
250
  6
CONTINUOUS
 90
7
 70
0
 10
207.2686719226
 20
25.7451857282
 10
207.250458618
 20
25.7277790763
 10
207.2324604211
 20
25.7103812056
 10
207.2146856967
 20
25.6929729203
 10
207.1971428094
 20
25.6755350249
 10
207.179840124
 20
25.6580483238
 10
207.1627860052
 20
25.6404936213
  0
LINE
  5
2A4
100
AcDbEntity
  8
0
100
AcDbLine
 62
250
  6
CONTINUOUS
 10
207.3088318229
 20
25.7830259875
 11
207.2686719226
 21
25.7451857282
  0
LINE
  5
2A5
100
AcDbEntity
  8
0
100
AcDbLine
 62
250
  6
CONTINUOUS
 10
207.5630918738
 20
26.0214470372
 11
207.3981972775
 21
25.8663593506
  0
LINE
  5
2A6
100
AcDbEntity
  8
0
100
AcDbLine
 62
250
  6
CONTINUOUS
 10
207.3981972775
 20
25.8663593506
 11
207.3088318229
 21
25.7830259875
  0
LINE
  5
2A7
100
AcDbEntity
  8
0
100
AcDbLine
 62
250
  6
CONTINUOUS
 10
207.1517061959
 20
20.7158318617
 11
206.2431470898
 21
19.8769217223
  0
LINE
  5
2A8
100
AcDbEntity
  8
0
100
AcDbLine
 62
250
  6
CONTINUOUS
 10
207.1636020408
 20
25.9697711515
 11
207.1844497914
 21
25.9890020835
  0
LINE
  5
2A9
100
AcDbEntity
  8
0
100
AcDbLine
 62
250
  6
CONTINUOUS
 10
207.299583974
 20
24.5253499748
 11
207.5630920503
 21
24.7667804809
  0
LINE
  5
2AA
100
AcDbEntity
  8
0
100
AcDbLine
 62
250
  6
CONTINUOUS
 10
207.1844497914
 20
25.9890020835
 11
207.2976778429
 21
26.0924259262
  0
LINE
  5
2AB
100
AcDbEntity
  8
0
100
AcDbLine
 62
250
  6
CONTINUOUS
 10
207.5054850659
 20
26.2804145123
 11
207.5630918738
 21
26.3328949191
  0
LINE
  5
2AC
100
AcDbEntity
  8
0
100
AcDbLine
 62
250
  6
CONTINUOUS
 10
207.2976778429
 20
26.0924259262
 11
207.5054850659
 21
26.2804145123
  0
LINE
  5
2AD
100
AcDbEntity
  8
0
100
AcDbLine
 62
250
  6
CONTINUOUS
 10
206.6058341433
 20
23.8970606771
 11
207.0956824962
 21
24.3387274758
  0
LINE
  5
2AE
100
AcDbEntity
  8
0
100
AcDbLine
 62
250
  6
CONTINUOUS
 10
207.5630920503
 20
23.7814886449
 11
206.2431470898
 21
22.8472389563
  0
LINE
  5
2AF
100
AcDbEntity
  8
0
100
AcDbLine
 62
250
  6
CONTINUOUS
 10
206.7047859325
 20
22.8850298654
 11
207.5630920503
 21
23.4647365517
  0
LWPOLYLINE
  5
2B0
100
AcDbEntity
  8
0
100
AcDbPolyline
 62
250
  6
CONTINUOUS
 90
49
 70
0
 10
206.625244503
 20
25.3906927562
 10
206.6203248097
 20
25.3875727344
 10
206.6154309214
 20
25.3842933857
 10
206.6105607786
 20
25.3808548973
 10
206.6057123215
 20
25.3772574568
 10
206.6008834905
 20
25.3735012514
 10
206.5960722259
 20
25.3695864685
 10
206.5912764681
 20
25.3655132956
 10
206.5864941573
 20
25.36128192
 10
206.5817245962
 20
25.3568931236
 10
206.5769725361
 20
25.3523500667
 10
206.5722440906
 20
25.3476565041
 10
206.5675453734
 20
25.3428161905
 10
206.562882498
 20
25.3378328808
 10
206.5582615781
 20
25.3327103297
 10
206.5536887273
 20
25.3274522921
 10
206.5491700591
 20
25.3220625227
 10
206.5447115893
 20
25.3165448226
 10
206.5403189416
 20
25.3109031778
 10
206.5359976417
 20
25.3051416206
 10
206.5317532156
 20
25.2992641831
 10
206.5275911825
 20
25.2932743461
 10
206.5235170353
 20
25.2871733838
 10
206.5195362603
 20
25.2809620187
 10
206.5156543441
 20
25.2746409735
 10
206.5118766805
 20
25.2682124853
 10
206.5082082941
 20
25.2616848497
 10
206.504654117
 20
25.2550678767
 10
206.5012190813
 20
25.2483713764
 10
206.4979076177
 20
25.2416050485
 10
206.4947221508
 20
25.2347781512
 10
206.4916646041
 20
25.2278998326
 10
206.4887369008
 20
25.2209792404
 10
206.485940716
 20
25.214024971
 10
206.4832767324
 20
25.2070434146
 10
206.4807453844
 20
25.2000404098
 10
206.4783471065
 20
25.1930217952
 10
206.4760823332
 20
25.1859934093
 10
206.473951499
 20
25.1789610908
 10
206.4719550383
 20
25.1719306783
 10
206.4700933856
 20
25.1649080103
 10
206.468367242
 20
25.1578977943
 10
206.4667783757
 20
25.1509002129
 10
206.4653288212
 20
25.1439143176
 10
206.4640206133
 20
25.1369391598
 10
206.4628557868
 20
25.129973791
 10
206.4618363763
 20
25.1230172627
 10
206.4609644166
 20
25.1160686263
 10
206.4602419423
 20
25.1091269332
  0
LWPOLYLINE
  5
2B1
100
AcDbEntity
  8
0
100
AcDbPolyline
 62
7
  6
CONTINUOUS
 90
11
 70
0
 10
207.6672356164
 20
15.5683351114
 10
207.6728767157
 20
15.5719015469
 10
207.7005946396
 20
15.5918375048
 10
207.726742716
 20
15.6148093488
 10
207.7512266047
 20
15.6407379186
 10
207.7739690424
 20
15.6695227245
 10
207.7948895922
 20
15.7010490299
 10
207.8139423727
 20
15.7352177419
 10
207.8311234243
 20
15.771927111
 10
207.8463797935
 20
15.8110351437
 10
207.8538382391
 20
15.8332058349
  0
LWPOLYLINE
  5
2B2
100
AcDbEntity
  8
ASSI
100
AcDbPolyline
 62
7
  6
CONTINUOUS
 90
11
 70
0
 10
207.6672356164
 20
15.5683351114
 10
207.6728767157
 20
15.5719015469
 10
207.7005946396
 20
15.5918375048
 10
207.726742716
 20
15.6148093488
 10
207.7512266047
 20
15.6407379186
 10
207.7739690424
 20
15.6695227245
 10
207.7948895922
 20
15.7010490299
 10
207.8139423727
 20
15.7352177419
 10
207.8311234243
 20
15.771927111
 10
207.8463797935
 20
15.8110351437
 10
207.8538382391
 20
15.8332058349
  0
LINE
  5
2B3
100
AcDbEntity
  8
0
100
AcDbLine
 62
250
  6
CONTINUOUS
 10
205.8480708247
 20
14.7731696152
 11
207.8940707865
 21
16.0384466822
  0
LINE
  5
2B4
100
AcDbEntity
  8
ASSI
100
AcDbLine
 62
250
  6
CONTINUOUS
 10
205.8480708247
 20
14.7731696152
 11
207.8940707865
 21
16.0384466822
  0
LINE
  5
2B5
100
AcDbEntity
  8
0
100
AcDbLine
 62
7
  6
CONTINUOUS
 10
205.8470155092
 20
14.4426836932
 11
207.6672418723
 21
15.5683389801
  0
LINE
  5
2B6
100
AcDbEntity
  8
ASSI
100
AcDbLine
 62
7
  6
CONTINUOUS
 10
205.8470155092
 20
14.4426836932
 11
207.6672418723
 21
15.5683389801
  0
LWPOLYLINE
  5
2B7
100
AcDbEntity
  8
SMUSSO
100
AcDbPolyline
 62
7
  6
CONTINUOUS
 90
15
 70
0
 10
204.57927426
 20
12.6435113166
 10
204.5935809357
 20
12.6522586942
 10
204.6209253638
 20
12.6719493351
 10
204.6464370876
 20
12.694474148
 10
204.6700296807
 20
12.7197568566
 10
204.6916230202
 20
12.747711743
 10
204.7111435428
 20
12.778243929
 10
204.7285256929
 20
12.8112503897
 10
204.7437118525
 20
12.8466201331
 10
204.7566518734
 20
12.8842341934
 10
204.767300741
 20
12.9239645865
 10
204.7756199231
 20
12.965675434
 10
204.7815804389
 20
13.0092251196
 10
204.7851629537
 20
13.0544667665
 10
204.7863553374
 20
13.1012472865
  0
LINE
  5
2B8
100
AcDbEntity
  8
0
100
AcDbLine
 62
250
  6
CONTINUOUS
 10
206.9391536483
 20
25.6625142809
 11
206.946953371
 21
25.6671777525
  0
LINE
  5
2B9
100
AcDbEntity
  8
0
100
AcDbLine
 62
250
  6
CONTINUOUS
 10
207.0465384095
 20
25.216759585
 11
207.5630918738
 21
25.5256080506
  0
LINE
  5
2BA
100
AcDbEntity
  8
0
100
AcDbLine
 62
250
  6
CONTINUOUS
 10
206.4680127828
 20
24.8601214523
 11
206.8303633533
 21
25.0767716645
  0
LINE
  5
2BB
100
AcDbEntity
  8
0
100
AcDbLine
 62
250
  6
CONTINUOUS
 10
207.5630918738
 20
25.2031213622
 11
206.2585684517
 21
24.4231439057
  0
LINE
  5
2BC
100
AcDbEntity
  8
0
100
AcDbLine
 62
250
  6
CONTINUOUS
 10
206.2430678867
 20
21.2447845859
 11
207.5630920503
 21
22.0340299703
  0
LINE
  5
2BD
100
AcDbEntity
  8
0
100
AcDbLine
 62
250
  6
CONTINUOUS
 10
207.5630920503
 20
21.7102407197
 11
206.2430678867
 21
20.9209953353
  0
LINE
  5
2BE
100
AcDbEntity
  8
SMUSSO
100
AcDbLine
 62
250
  6
CONTINUOUS
 10
204.7863553374
 20
13.1012472865
 11
205.8470155092
 21
13.7136591765
  0
LINE
  5
2BF
100
AcDbEntity
  8
RACCORDO
100
AcDbLine
 62
7
  6
CONTINUOUS
 10
204.5792727164
 20
12.6435104253
 11
205.6399328881
 21
13.2559223153
  0
LINE
  5
2C0
100
AcDbEntity
  8
0
100
AcDbLine
 62
250
  6
CONTINUOUS
 10
207.5630920503
 20
22.5180972351
 11
206.7011926121
 21
22.0726399861
  0
LINE
  5
2C1
100
AcDbEntity
  8
0
100
AcDbLine
 62
250
  6
CONTINUOUS
 10
206.2431470898
 20
21.5591999417
 11
207.5630920503
 21
22.2083365768
  0
ELLIPSE
  5
2C2
100
AcDbEntity
  8
0
100
AcDbEllipse
 62
7
  6
CONTINUOUS
 10
208.4951215059
 20
18.2719535014
 30
0.0
 11
-0.0789593082
 21
0.1367536506
 31
0.0
 40
0.5559303978
 41
-2.6734061024
 42
-2.3751218051
  0
ELLIPSE
  5
2C3
100
AcDbEntity
  8
0
100
AcDbEllipse
 62
7
  6
CONTINUOUS
 10
208.4951215059
 20
141.8773681547
 30
0.0
 11
-0.0760331802
 21
0.1316838075
 31
0.0
 40
0.599556811
 41
-2.337364303
 42
-0.8043328123
  0
ELLIPSE
  5
2C4
100
AcDbEntity
  8
0
100
AcDbEllipse
 62
7
  6
CONTINUOUS
 10
101.4462436998
 20
203.6860485624
 30
0.0
 11
-0.0789593082
 21
0.1367536506
 31
0.0
 40
0.5559303978
 41
-0.7665606423
 42
-0.4681919906
  0
ELLIPSE
  5
2C5
100
AcDbEntity
  8
ASSI
100
AcDbEllipse
 62
7
  6
CONTINUOUS
 10
208.4951215059
 20
18.2719535014
 30
0.0
 11
-0.0789593082
 21
0.1367536506
 31
0.0
 40
0.5559303978
 41
-2.6734061024
 42
-2.3751218051
  0
ELLIPSE
  5
2C6
100
AcDbEntity
  8
ASSI
100
AcDbEllipse
 62
7
  6
CONTINUOUS
 10
208.4951215059
 20
141.8773681547
 30
0.0
 11
-0.0760331802
 21
0.1316838075
 31
0.0
 40
0.599556811
 41
-2.337364303
 42
-0.8043328123
  0
ELLIPSE
  5
2C7
100
AcDbEntity
  8
ASSI
100
AcDbEllipse
 62
7
  6
CONTINUOUS
 10
101.4462436998
 20
203.6860485624
 30
0.0
 11
-0.0789593082
 21
0.1367536506
 31
0.0
 40
0.5559303978
 41
-0.7665606423
 42
-0.4681919906
  0
ENDSEC
  0
SECTION
  2
OBJECTS
  0
DICTIONARY
  5
C
100
AcDbDictionary
280
0
281
1
  3
ACAD_GROUP
350
D
  3
ACAD_MLINESTYLE
350
17
  3
ACAD_LAYOUT
350
1A
  3
ACAD_PLOTSETTINGS
350
19
  3
ACAD_PLOTSTYLENAME
350
E
  0
DICTIONARY
  5
D
102
{ACAD_REACTORS
330
C
102
}
100
AcDbDictionary
280
0
281
1
  0
ACDBDICTIONARYWDFLT
  5
E
102
{ACAD_REACTORS
330
C
102
}
100
AcDbDictionary
281
1
  3
Normal
350
F
100
AcDbDictionaryWithDefault
340
F
  0
DICTIONARY
  5
17
102
{ACAD_REACTORS
330
C
102
}
100
AcDbDictionary
280
0
281
1
  3
Standard
350
18
  0
DICTIONARY
  5
19
102
{ACAD_REACTORS
330
C
102
}
100
AcDbDictionary
281
1
  0
DICTIONARY
  5
1A
102
{ACAD_REACTORS
330
C
102
}
100
AcDbDictionary
281
1
  3
Model
350
2C8
  3
Layout1
350
2C9
  0
ACDBPLACEHOLDER
  5
F
102
{ACAD_REACTORS
330
E
102
}
  0
MLINESTYLE
  5
18
102
{ACAD_REACTORS
330
17
102
}
100
AcDbMlineStyle
  2
STANDARD
 70
0
  3

 62
256
 51
90.0
 52
90.0
 71
2
 49
0.5
 62
256
  6
BYLAYER
 49
-0.5
 62
256
  6
BYLAYER
  0
LAYOUT
  5
2C8
102
{ACAD_REACTORS
330
1A
102
}
100
AcDbPlotSettings
  1

  2
none_device
  4
ISO_A4_(297.00_x_210.00_MM)
  6

 40
0.0
 41
0.0
 42
0.0
 43
0.0
 44
297.0
 45
210.0
 46
0.0
 47
0.0
 48
0.0
 49
0.0
140
0.0
141
0.0
142
1.0
143
1.0
 70
1024
 72
1
 73
0
 74
0
  7

 75
0
147
1.0
148
0.0
149
0.0
100
AcDbLayout
  1
Model
 70
0
 71
0
 10
0.0
 20
0.0
 11
297.0
 21
210.0
 12
0.0
 22
0.0
 32
0.0
 14
0.0
 24
0.0
 34
0.0
 15
0.0
 25
0.0
 35
0.0
146
0.0
 13
0.0
 23
0.0
 33
0.0
 16
1.0
 26
0.0
 36
0.0
 17
0.0
 27
1.0
 37
0.0
 76
0
330
21D
345
0
346
0
  0
LAYOUT
  5
2C9
102
{ACAD_REACTORS
330
1A
102
}
100
AcDbPlotSettings
  1

  2
none_device
  4
ISO_A4_(297.00_x_210.00_MM)
  6

 40
0.0
 41
0.0
 42
0.0
 43
0.0
 44
297.0
 45
210.0
 46
0.0
 47
0.0
 48
0.0
 49
0.0
140
0.0
141
0.0
142
1.0
143
1.0
 70
0
 72
1
 73
0
 74
0
  7

 75
0
147
1.0
148
0.0
149
0.0
100
AcDbLayout
  1
Layout1
 70
0
 71
1
 10
0.0
 20
0.0
 11
297.0
 21
210.0
 12
0.0
 22
0.0
 32
0.0
 14
0.0
 24
0.0
 34
0.0
 15
0.0
 25
0.0
 35
0.0
146
0.0
 13
0.0
 23
0.0
 33
0.0
 16
1.0
 26
0.0
 36
0.0
 17
0.0
 27
1.0
 37
0.0
 76
0
330
21E
345
0
346
0
  0
ENDSEC
  0
EOF
