  0
SECTION
  2
HEADER
  9
$ACADVER
  1
AC1021
  9
$DWGCODEPAGE
  3
ANSI_1252
  9
$EXTMAX
 10
297.0
 20
210.0
 30
0.0
  9
$EXTMIN
 10
0.0
 20
0.0
 30
0.0
  9
$LIMMIN
 10
0.0
 20
0.0
  9
$LIMMAX
 10
297.0
 20
210.0
  9
$VIEWCTR
 10
148.5
 20
105.0
  9
$VIEWSIZE
 40
210.0
  9
$CLAYER
  8
0
  9
$LTSCALE
 40
16.335
  9
$CELTYPE
  6
BYLAYER
  9
$DIMSCALE
 40
1.0
  9
$DIMASZ
 40
3.0
  9
$DIMEXO
 40
0.5
  9
$DIMDLI
 40
11.286
  9
$DIMEXE
 40
1.5
  9
$DIMCEN
 40
2.673
  9
$DIMLFAC
 40
1.0
  9
$DIMBLK
  1
_FILLED
  9
$DIMALT
 70
0
  9
$DIMALTF
 40
25.4
  9
$DIMTXT
 40
3.0
  9
$DIMTOL
 70
1
  9
$DIMLIM
 70
0
  9
$DIMTFAC
 40
1.0
  9
$DIMTP
 40
0.01
  9
$DIMTM
 40
0.01
  9
$DIMGAP
 40
0.625
  9
$DIMDSEP
 70
44
  9
$AUNITS
 70
0
  9
$PDMODE
 70
3
  9
$PDSIZE
 40
3.0
  9
$HANDSEED
  5
2B6
  9
$TILEMODE
 70
1
  9
$MEASUREMENT
 70
1
  9
$INSUNITS
 70
4
  0
ENDSEC
  0
SECTION
  2
CLASSES
  0
CLASS
  1
ACDBDICTIONARYWDFLT
  2
AcDbDictionaryWithDefault
  3
AutoCAD 2000
 90
0
 91
1
280
0
281
0
  0
CLASS
  1
ACDBPLACEHOLDER
  2
AcDbPlaceHolder
  3
AutoCAD 2000
 90
0
 91
1
280
0
281
0
  0
CLASS
  1
LAYOUT
  2
AcDbLayout
  3
AutoCAD 2000
 90
0
 91
0
280
0
281
0
  0
ENDSEC
  0
SECTION
  2
TABLES
  0
TABLE
  2
VPORT
  5
8
100
AcDbSymbolTable
 70
2
  0
VPORT
  5
1F4
100
AcDbSymbolTableRecord
100
AcDbViewportTableRecord
  2
*ACTIVE
 70
0
 10
0.0
 20
0.0
 11
1.0
 21
1.0
 12
148.5
 22
105.0
 13
0.0
 23
0.0
 14
1.0
 24
1.0
 15
0.0
 25
0.0
 16
0.0
 26
0.0
 36
1.0
 17
0.0
 27
0.0
 37
0.0
 40
210.0
 41
1.4142857143
 42
50.0
 43
0.0
 44
0.0
 50
0.0
 51
0.0
 71
0
 72
100
 73
1
 74
1
 75
0
 76
0
 77
0
 78
0
  0
ENDTAB
  0
TABLE
  2
LTYPE
  5
5
100
AcDbSymbolTable
 70
6
  0
LTYPE
  5
14
100
AcDbSymbolTableRecord
100
AcDbLinetypeTableRecord
  2
BYBLOCK
 70
0
  3

 72
65
 73
0
 40
0.0
  0
LTYPE
  5
15
100
AcDbSymbolTableRecord
100
AcDbLinetypeTableRecord
  2
BYLAYER
 70
0
  3

 72
65
 73
0
 40
0.0
  0
LTYPE
  5
16
100
AcDbSymbolTableRecord
100
AcDbLinetypeTableRecord
  2
CONTINUOUS
 70
64
  3
Solid line
 72
65
 73
0
 40
0.0
  0
LTYPE
  5
1F5
100
AcDbSymbolTableRecord
100
AcDbLinetypeTableRecord
  2
CENTER
 70
64
  3
____ _ ____ _ ____ _ ____ _ ____ _ ____ _ ____
 72
65
 73
4
 40
0.6
 49
0.375
 74
0
 49
-0.075
 74
0
 49
0.075
 74
0
 49
-0.075
 74
0
  0
LTYPE
  5
1F6
100
AcDbSymbolTableRecord
100
AcDbLinetypeTableRecord
  2
HIDDEN
 70
64
  3
- - - - - - - - - - - - - - - - - - - -
 72
65
 73
2
 40
0.2
 49
0.1
 74
0
 49
-0.1
 74
0
  0
LTYPE
  5
1F7
100
AcDbSymbolTableRecord
100
AcDbLinetypeTableRecord
  2
PHANTOM
 70
64
  3
_____ _ _ _____ _ _ _____ _ _ _____
 72
65
 73
6
 40
0.8
 49
0.45
 74
0
 49
-0.05
 74
0
 49
0.1
 74
0
 49
-0.05
 74
0
 49
0.1
 74
0
 49
-0.05
 74
0
  0
LTYPE
  5
1F8
100
AcDbSymbolTableRecord
100
AcDbLinetypeTableRecord
  2
DOT
 70
64
  3
. . . . . . . . . . . . . . . . . . . .
 72
65
 73
2
 40
0.2
 49
0.1
 74
0
 49
-0.1
 74
0
  0
LTYPE
  5
1F9
100
AcDbSymbolTableRecord
100
AcDbLinetypeTableRecord
  2
DASHED
 70
64
  3
- - - - - - - - - - - - - - - - - - - -
 72
65
 73
2
 40
0.2
 49
0.1
 74
0
 49
-0.1
 74
0
  0
ENDTAB
  0
TABLE
  2
LAYER
  5
2
100
AcDbSymbolTable
 70
36
  0
LAYER
  5
10
100
AcDbSymbolTableRecord
100
AcDbLayerTableRecord
  2
0
 70
0
 62
7
  6
CONTINUOUS
370
-3
390
F
  0
LAYER
  5
1FA
100
AcDbSymbolTableRecord
100
AcDbLayerTableRecord
  2
DEFAULT_1
 70
0
 62
7
  6
CENTER
370
-3
390
F
  0
LAYER
  5
1FB
100
AcDbSymbolTableRecord
100
AcDbLayerTableRecord
  2
DEFAULT_2
 70
0
 62
7
  6
HIDDEN
370
-3
390
F
  0
LAYER
  5
1FC
100
AcDbSymbolTableRecord
100
AcDbLayerTableRecord
  2
DEFAULT_3
 70
0
 62
7
  6
PHANTOM
370
-3
390
F
  0
LAYER
  5
1FD
100
AcDbSymbolTableRecord
100
AcDbLayerTableRecord
  2
ASSI
 70
0
 62
7
  6
CONTINUOUS
370
-3
390
F
  0
LAYER
  5
1FE
100
AcDbSymbolTableRecord
100
AcDbLayerTableRecord
  2
COORDINATE
 70
0
 62
7
  6
CONTINUOUS
370
-3
390
F
  0
LAYER
  5
1FF
100
AcDbSymbolTableRecord
100
AcDbLayerTableRecord
  2
COORD_ORIGINE
 70
0
 62
7
  6
CONTINUOUS
370
-3
390
F
  0
LAYER
  5
200
100
AcDbSymbolTableRecord
100
AcDbLayerTableRecord
  2
COPY_PUBLISH
 70
0
 62
7
  6
CONTINUOUS
370
-3
390
F
  0
LAYER
  5
201
100
AcDbSymbolTableRecord
100
AcDbLayerTableRecord
  2
COSMETIC
 70
0
 62
7
  6
CONTINUOUS
370
-3
390
F
  0
LAYER
  5
202
100
AcDbSymbolTableRecord
100
AcDbLayerTableRecord
  2
COSMETICI
 70
0
 62
7
  6
CONTINUOUS
370
-3
390
F
  0
LAYER
  5
203
100
AcDbSymbolTableRecord
100
AcDbLayerTableRecord
  2
CURVE
 70
0
 62
7
  6
CONTINUOUS
370
-3
390
F
  0
LAYER
  5
204
100
AcDbSymbolTableRecord
100
AcDbLayerTableRecord
  2
CURVE_TASSELLI
 70
0
 62
7
  6
CONTINUOUS
370
-3
390
F
  0
LAYER
  5
205
100
AcDbSymbolTableRecord
100
AcDbLayerTableRecord
  2
DRAFT
 70
0
 62
7
  6
CONTINUOUS
370
-3
390
F
  0
LAYER
  5
206
100
AcDbSymbolTableRecord
100
AcDbLayerTableRecord
  2
IGES
 70
0
 62
7
  6
CONTINUOUS
370
-3
390
F
  0
LAYER
  5
207
100
AcDbSymbolTableRecord
100
AcDbLayerTableRecord
  2
IMPORT_IGES
 70
0
 62
7
  6
CONTINUOUS
370
-3
390
F
  0
LAYER
  5
208
100
AcDbSymbolTableRecord
100
AcDbLayerTableRecord
  2
INTFCLR_2
 70
0
 62
7
  6
CONTINUOUS
370
-3
390
F
  0
LAYER
  5
209
100
AcDbSymbolTableRecord
100
AcDbLayerTableRecord
  2
INTF_1
 70
0
 62
7
  6
CONTINUOUS
370
-3
390
F
  0
LAYER
  5
20A
100
AcDbSymbolTableRecord
100
AcDbLayerTableRecord
  2
INTF_11
 70
0
 62
7
  6
CONTINUOUS
370
-3
390
F
  0
LAYER
  5
20B
100
AcDbSymbolTableRecord
100
AcDbLayerTableRecord
  2
INTF_21
 70
0
 62
7
  6
CONTINUOUS
370
-3
390
F
  0
LAYER
  5
20C
100
AcDbSymbolTableRecord
100
AcDbLayerTableRecord
  2
INTF_7
 70
0
 62
7
  6
CONTINUOUS
370
-3
390
F
  0
LAYER
  5
20D
100
AcDbSymbolTableRecord
100
AcDbLayerTableRecord
  2
NOTE
 70
0
 62
7
  6
CONTINUOUS
370
-3
390
F
  0
LAYER
  5
20E
100
AcDbSymbolTableRecord
100
AcDbLayerTableRecord
  2
PIANI
 70
0
 62
7
  6
CONTINUOUS
370
-3
390
F
  0
LAYER
  5
20F
100
AcDbSymbolTableRecord
100
AcDbLayerTableRecord
  2
PIANI_ORIGINE
 70
0
 62
7
  6
CONTINUOUS
370
-3
390
F
  0
LAYER
  5
210
100
AcDbSymbolTableRecord
100
AcDbLayerTableRecord
  2
PIANI_RIFERIMENTO
 70
0
 62
7
  6
CONTINUOUS
370
-3
390
F
  0
LAYER
  5
211
100
AcDbSymbolTableRecord
100
AcDbLayerTableRecord
  2
PUNTI
 70
0
 62
7
  6
CONTINUOUS
370
-3
390
F
  0
LAYER
  5
212
100
AcDbSymbolTableRecord
100
AcDbLayerTableRecord
  2
RACCORDO
 70
0
 62
7
  6
CONTINUOUS
370
-3
390
F
  0
LAYER
  5
213
100
AcDbSymbolTableRecord
100
AcDbLayerTableRecord
  2
RGB__255__255__255__
 70
0
 62
7
  6
CONTINUOUS
370
-3
390
F
  0
LAYER
  5
214
100
AcDbSymbolTableRecord
100
AcDbLayerTableRecord
  2
RGB____0____0____0__
 70
0
 62
7
  6
CONTINUOUS
370
-3
390
F
  0
LAYER
  5
215
100
AcDbSymbolTableRecord
100
AcDbLayerTableRecord
  2
SIMBOLI
 70
0
 62
7
  6
CONTINUOUS
370
-3
390
F
  0
LAYER
  5
216
100
AcDbSymbolTableRecord
100
AcDbLayerTableRecord
  2
SMUSSO
 70
0
 62
7
  6
CONTINUOUS
370
-3
390
F
  0
LAYER
  5
217
100
AcDbSymbolTableRecord
100
AcDbLayerTableRecord
  2
SNAPLINE
 70
0
 62
7
  6
CONTINUOUS
370
-3
390
F
  0
LAYER
  5
218
100
AcDbSymbolTableRecord
100
AcDbLayerTableRecord
  2
SUPERFICI
 70
0
 62
7
  6
CONTINUOUS
370
-3
390
F
  0
LAYER
  5
219
100
AcDbSymbolTableRecord
100
AcDbLayerTableRecord
  2
TRASH
 70
0
 62
7
  6
CONTINUOUS
370
-3
390
F
  0
LAYER
  5
21A
100
AcDbSymbolTableRecord
100
AcDbLayerTableRecord
  2
XSEC_DATUMS
 70
0
 62
7
  6
CONTINUOUS
370
-3
390
F
  0
ENDTAB
  0
TABLE
  2
STYLE
  5
3
100
AcDbSymbolTable
 70
1
  0
STYLE
  5
11
100
AcDbSymbolTableRecord
100
AcDbTextStyleTableRecord
  2
STANDARD
 70
0
 40
0.0
 41
0.8
 50
0.0
 71
0
 42
0.2
  3
txt
  4

  0
STYLE
  5
21B
100
AcDbSymbolTableRecord
100
AcDbTextStyleTableRecord
  2
TEXTSTYLE_1
 70
0
 40
0.0
 41
0.8
 50
0.0
 71
0
 42
0.2
  3
gdt
  4

  0
ENDTAB
  0
TABLE
  2
VIEW
  5
6
100
AcDbSymbolTable
 70
0
  0
ENDTAB
  0
TABLE
  2
UCS
  5
7
100
AcDbSymbolTable
 70
0
  0
ENDTAB
  0
TABLE
  2
APPID
  5
9
100
AcDbSymbolTable
 70
1
  0
APPID
  5
21C
100
AcDbSymbolTableRecord
100
AcDbRegAppTableRecord
  2
ACAD
 70
0
  0
ENDTAB
  0
TABLE
  2
BLOCK_RECORD
  5
1
100
AcDbSymbolTable
 70
0
  0
BLOCK_RECORD
  5
21D
100
AcDbSymbolTableRecord
100
AcDbBlockTableRecord
  2
*Model_Space
  0
BLOCK_RECORD
  5
21E
100
AcDbSymbolTableRecord
100
AcDbBlockTableRecord
  2
*Paper_Space
  0
BLOCK_RECORD
  5
21F
100
AcDbSymbolTableRecord
100
AcDbBlockTableRecord
  2
_FILLED
  0
ENDTAB
  0
TABLE
  2
DIMSTYLE
  5
A
100
AcDbSymbolTable
 70
1
100
AcDbDimStyleTable
 71
0
  0
DIMSTYLE
105
220
100
AcDbSymbolTableRecord
100
AcDbDimStyleTableRecord
  2
STANDARD
 70
0
  3

  4

 40
1.0
 41
3.0
 42
0.5
 43
0.38
 44
1.5
 45
0.0
 46
0.0
 47
0.01
 48
0.01
140
3.0
141
0.09
142
0.0
143
25.4
144
1.0
145
0.0
146
1.0
147
0.625
 71
1.0
 72
0.0
 73
0
 74
0
 75
0
 76
0
 77
1
 78
8
 79
2
170
0
171
1
172
0
173
0
174
0
175
0
176
0
177
0
178
0
270
2
179
2
271
2
272
2
273
2
274
2
275
0
280
0
281
0
282
0
283
1
284
8
285
0
286
0
287
3
288
0
340
11
278
44
341
21F
342
21F
343
21F
344
21F
  0
ENDTAB
  0
ENDSEC
  0
SECTION
  2
BLOCKS
  0
BLOCK
  5
20
100
AcDbEntity
  8
0
100
AcDbBlockBegin
  2
*Model_Space
 70
0
 10
0.0
 20
0.0
 30
0.0
  3
*Model_Space
  1

  0
ENDBLK
  5
21
100
AcDbEntity
  8
0
100
AcDbBlockEnd
  0
BLOCK
  5
1C
100
AcDbEntity
  8
0
100
AcDbBlockBegin
  2
*Paper_Space
 70
0
 10
0.0
 20
0.0
 30
0.0
  3
*Paper_Space
  1

  0
ENDBLK
  5
1D
100
AcDbEntity
  8
0
100
AcDbBlockEnd
  0
BLOCK
  5
221
100
AcDbEntity
  8
0
100
AcDbBlockBegin
  2
_FILLED
 70
64
 10
0.0
 20
0.0
  3
_FILLED
  1

  0
SOLID
  5
222
100
AcDbEntity
  8
0
  6
BYBLOCK
 62
0
100
AcDbTrace
 10
0.0
 20
0.0
 11
-1.0
 21
0.3166666667
 12
-1.0
 22
-0.3166666667
 13
-1.0
 23
-0.3166666667
  0
ENDBLK
  5
223
100
AcDbEntity
  8
0
  6
BYBLOCK
 62
0
100
AcDbBlockEnd
  0
ENDSEC
  0
SECTION
  2
ENTITIES
  0
LINE
  5
224
100
AcDbEntity
  8
SMUSSO
100
AcDbLine
 62
7
  6
CONTINUOUS
 10
95.3562055442
 20
199.123116633
 11
97.1239724972
 21
200.1437636614
  0
LINE
  5
225
100
AcDbEntity
  8
0
100
AcDbLine
 62
7
  6
CONTINUOUS
 10
99.6401330724
 20
200.7929382428
 11
97.7552520394
 21
199.7793102204
  0
LINE
  5
226
100
AcDbEntity
  8
0
100
AcDbLine
 62
250
  6
CONTINUOUS
 10
100.1607432838
 20
200.7543136216
 11
98.0420483014
 21
199.6149480238
  0
LINE
  5
227
100
AcDbEntity
  8
RACCORDO
100
AcDbLine
 62
250
  6
CONTINUOUS
 10
117.9482672031
 20
168.8103575671
 11
118.7967543364
 21
169.3002634038
  0
LWPOLYLINE
  5
228
100
AcDbEntity
  8
RACCORDO
100
AcDbPolyline
 62
7
  6
CONTINUOUS
 90
15
 70
0
 10
118.1967793647
 20
169.3596192568
 10
118.2145505939
 20
169.3692956543
 10
118.2513719673
 20
169.3858916972
 10
118.2900533697
 20
169.3988542447
 10
118.3305761514
 20
169.4082197284
 10
118.3725312718
 20
169.4138936124
 10
118.415933238
 20
169.4158385076
 10
118.4607675429
 20
169.414091803
 10
118.5065816253
 20
169.40867113
 10
118.5533854085
 20
169.3995392781
 10
118.6011689691
 20
169.3867334579
 10
118.6494499758
 20
169.3703829324
 10
118.6980676513
 20
169.3505307893
 10
118.7471827729
 20
169.3271339409
 10
118.7967953405
 20
169.3001923872
  0
LINE
  5
229
100
AcDbEntity
  8
SMUSSO
100
AcDbLine
 62
7
  6
CONTINUOUS
 10
95.3562055442
 20
199.123116633
 11
95.3562055442
 21
72.4885372475
  0
LWPOLYLINE
  5
22A
100
AcDbEntity
  8
0
100
AcDbPolyline
 62
7
  6
CONTINUOUS
 90
18
 70
0
 10
152.5470963536
 20
52.1521965693
 10
152.5545012942
 20
52.1529410048
 10
152.5583217
 20
52.153404628
 10
152.5622199056
 20
52.1539651039
 10
152.5661967919
 20
52.154611573
 10
152.5702514779
 20
52.1553548949
 10
152.5743837766
 20
52.1562374315
 10
152.5785975302
 20
52.1572651427
 10
152.5828888966
 20
52.1584320685
 10
152.5872461618
 20
52.1597626908
 10
152.5916659426
 20
52.1612601491
 10
152.5961516222
 20
52.1629213038
 10
152.600701637
 20
52.1647612183
 10
152.6053185013
 20
52.1667807105
 10
152.6099997007
 20
52.1689789625
 10
152.6147361285
 20
52.1713685843
 10
152.6195291038
 20
52.1739433656
 10
152.6226551906
 20
52.1757062519
  0
LINE
  5
22B
100
AcDbEntity
  8
SMUSSO
100
AcDbLine
 62
7
  6
CONTINUOUS
 10
95.3562055442
 20
72.4885372475
 11
205.0284673062
 21
9.1651872773
  0
LWPOLYLINE
  5
22C
100
AcDbEntity
  8
0
100
AcDbPolyline
 62
7
  6
CONTINUOUS
 90
6
 70
0
 10
152.529575454
 20
52.1541427691
 10
152.5329971478
 20
52.1530985045
 10
152.5364622159
 20
52.1523667245
 10
152.5399706585
 20
52.1519474292
 10
152.5435118189
 20
52.1519157569
 10
152.5470963536
 20
52.1521965693
  0
LWPOLYLINE
  5
22D
100
AcDbEntity
  8
0
100
AcDbPolyline
 62
7
  6
CONTINUOUS
 90
10
 70
0
 10
152.0074231102
 20
53.0967207492
 10
152.0372396402
 20
53.0851431714
 10
152.0664580089
 20
53.072801364
 10
152.0950782163
 20
53.059695327
 10
152.1228207721
 20
53.0459947111
 10
152.1499651667
 20
53.0315298657
 10
152.1773498703
 20
53.0157918387
 10
152.2052543731
 20
52.9986109797
 10
152.2333991851
 20
52.9801569391
 10
152.2617843061
 20
52.9604297171
  0
LINE
  5
22E
100
AcDbEntity
  8
0
100
AcDbLine
 62
7
  6
CONTINUOUS
 10
147.2855217811
 20
54.3329848312
 11
147.5716593288
 21
54.1677725973
  0
LINE
  5
22F
100
AcDbEntity
  8
0
100
AcDbLine
 62
7
  6
CONTINUOUS
 10
148.1921554006
 20
53.8095059421
 11
148.5168504691
 21
53.6220310789
  0
LINE
  5
230
100
AcDbEntity
  8
0
100
AcDbLine
 62
7
  6
CONTINUOUS
 10
148.691643823
 20
53.5211075871
 11
149.0022707671
 21
53.3417554826
  0
LINE
  5
231
100
AcDbEntity
  8
0
100
AcDbLine
 62
7
  6
CONTINUOUS
 10
149.4532463464
 20
53.0813678352
 11
149.498784223
 21
53.0550748359
  0
LINE
  5
232
100
AcDbEntity
  8
0
100
AcDbLine
 62
7
  6
CONTINUOUS
 10
149.9515561902
 20
52.7936499767
 11
150.269193862
 21
52.6102499659
  0
LINE
  5
233
100
AcDbEntity
  8
0
100
AcDbLine
 62
7
  6
CONTINUOUS
 10
150.3201794237
 20
52.5808115415
 11
150.6413513498
 21
52.3953708967
  0
LINE
  5
234
100
AcDbEntity
  8
0
100
AcDbLine
 62
7
  6
CONTINUOUS
 10
151.2572405201
 20
52.0397642087
 11
151.5994550001
 21
51.8421738568
  0
LINE
  5
235
100
AcDbEntity
  8
0
100
AcDbLine
 62
7
  6
CONTINUOUS
 10
151.6948012497
 20
51.7871217871
 11
152.0181894987
 21
51.6004014652
  0
LINE
  5
236
100
AcDbEntity
  8
0
100
AcDbLine
 62
7
  6
CONTINUOUS
 10
152.5154146787
 20
51.3133098779
 11
152.8277332607
 21
51.132981043
  0
LINE
  5
237
100
AcDbEntity
  8
0
100
AcDbLine
 62
7
  6
CONTINUOUS
 10
150.7309470277
 20
52.7022012455
 11
151.1731273438
 21
52.4468918727
  0
LINE
  5
238
100
AcDbEntity
  8
0
100
AcDbLine
 62
7
  6
CONTINUOUS
 10
151.1082373697
 20
52.7618126138
 11
150.7973652279
 21
52.9413062923
  0
LINE
  5
239
100
AcDbEntity
  8
0
100
AcDbLine
 62
7
  6
CONTINUOUS
 10
152.0181894987
 20
52.3032893431
 11
152.19228305
 21
52.2027699084
  0
LINE
  5
23A
100
AcDbEntity
  8
0
100
AcDbLine
 62
7
  6
CONTINUOUS
 10
152.1929829236
 20
52.496520892
 11
152.0074231102
 21
52.6036608026
  0
LINE
  5
23B
100
AcDbEntity
  8
0
100
AcDbLine
 62
7
  6
CONTINUOUS
 10
151.1221877104
 20
53.9138251388
 11
150.8080850335
 21
54.0951840877
  0
LINE
  5
23C
100
AcDbEntity
  8
0
100
AcDbLine
 62
7
  6
CONTINUOUS
 10
150.1237368183
 20
54.4903181703
 11
149.8024834066
 21
54.675805864
  0
LINE
  5
23D
100
AcDbEntity
  8
0
100
AcDbLine
 62
7
  6
CONTINUOUS
 10
149.1565230739
 20
55.0487752643
 11
148.8320969079
 21
55.2360948665
  0
LINE
  5
23E
100
AcDbEntity
  8
0
100
AcDbLine
 62
7
  6
CONTINUOUS
 10
148.0716611107
 20
55.6751609653
 11
147.7471875349
 21
55.8625079414
  0
LINE
  5
23F
100
AcDbEntity
  8
0
100
AcDbLine
 62
7
  6
CONTINUOUS
 10
147.1451153652
 20
56.2101368665
 11
146.792396646
 21
56.4137922343
  0
LINE
  5
240
100
AcDbEntity
  8
0
100
AcDbLine
 62
7
  6
CONTINUOUS
 10
148.5168504691
 20
55.4182219834
 11
148.1921554006
 21
55.6056968466
  0
LWPOLYLINE
  5
241
100
AcDbEntity
  8
RACCORDO
100
AcDbPolyline
 62
7
  6
CONTINUOUS
 90
28
 70
0
 10
118.7967953405
 20
74.4263462239
 10
118.7471827729
 20
74.4566960197
 10
118.6980676513
 20
74.4900160826
 10
118.6494499758
 20
74.5263064126
 10
118.6011689691
 20
74.5657095833
 10
118.5533854085
 20
74.6080830212
 10
118.5065816253
 20
74.6529990049
 10
118.4607675429
 20
74.7004832859
 10
118.415933238
 20
74.7505101129
 10
118.3725312718
 20
74.8025745107
 10
118.3305761514
 20
74.8566971161
 10
118.2900533697
 20
74.9128572924
 10
118.2513719673
 20
74.9704881538
 10
118.2145505939
 20
75.0296045956
 10
118.1795705998
 20
75.0901917226
 10
118.146785076
 20
75.1516379631
 10
118.1162162485
 20
75.2139520182
 10
118.0878418913
 20
75.2771251868
 10
118.0619484177
 20
75.3405197934
 10
118.0385609544
 20
75.4041380808
 10
118.0176543746
 20
75.4679778062
 10
117.9994397113
 20
75.5313945659
 10
117.9839442284
 20
75.594384076
 10
117.9711406619
 20
75.6569506204
 10
117.9611582521
 20
75.7184626471
 10
117.9540400791
 20
75.7787096385
 10
117.9497430628
 20
75.8379021122
 10
117.9482672031
 20
75.896040068
  0
LWPOLYLINE
  5
242
100
AcDbEntity
  8
0
100
AcDbPolyline
 62
7
  6
CONTINUOUS
 90
16
 70
0
 10
152.19228305
 20
52.2027699084
 10
152.2082636612
 20
52.1927020488
 10
152.2237708361
 20
52.1815238043
 10
152.2388045746
 20
52.1692351749
 10
152.253418923
 20
52.1557813569
 10
152.2675598349
 20
52.141217154
 10
152.2810651718
 20
52.1257069772
 10
152.2938691508
 20
52.1093518128
 10
152.3060375547
 20
52.0920506746
 10
152.3176055932
 20
52.0736650155
 10
152.3286259705
 20
52.05415417
 10
152.3390459823
 20
52.0335588036
 10
152.3487427257
 20
52.0118623655
 10
152.3576752329
 20
51.9890593388
 10
152.3658844718
 20
51.9651552403
 10
152.3733704422
 20
51.9401500702
  0
LINE
  5
243
100
AcDbEntity
  8
RACCORDO
100
AcDbLine
 62
7
  6
CONTINUOUS
 10
118.7967953405
 20
74.4263462239
 11
180.8807707287
 21
38.5798369297
  0
LINE
  5
244
100
AcDbEntity
  8
RACCORDO
100
AcDbLine
 62
7
  6
CONTINUOUS
 10
120.9181156841
 20
75.6511700039
 11
181.7292988661
 21
40.5395549777
  0
LWPOLYLINE
  5
245
100
AcDbEntity
  8
0
100
AcDbPolyline
 62
7
  6
CONTINUOUS
 90
19
 70
0
 10
152.2617843061
 20
52.9604297171
 10
152.2796298564
 20
52.9467770542
 10
152.2967546699
 20
52.9322361324
 10
152.3131587468
 20
52.9168069518
 10
152.3289313746
 20
52.9003516135
 10
152.3439832658
 20
52.8830080164
 10
152.3580465569
 20
52.8651898573
 10
152.3710334012
 20
52.8470252262
 10
152.3830316453
 20
52.8283860331
 10
152.3940369667
 20
52.8093017049
 10
152.4040671186
 20
52.7897036363
 10
152.4131043476
 20
52.7696604327
 10
152.4210910708
 20
52.7494073372
 10
152.4280684231
 20
52.7288016181
 10
152.4339952695
 20
52.707986007
 10
152.4386906229
 20
52.6876239424
 10
152.442094154
 20
52.6679365704
 10
152.444266192
 20
52.6487027448
 10
152.4452067369
 20
52.6299224656
  0
LWPOLYLINE
  5
246
100
AcDbEntity
  8
0
100
AcDbPolyline
 62
7
  6
CONTINUOUS
 90
16
 70
0
 10
152.4960981681
 20
53.0806523329
 10
152.4569092222
 20
53.1179761909
 10
152.4155536109
 20
53.1544625526
 10
152.3720313343
 20
53.1901114178
 10
152.3262551029
 20
53.2248964937
 10
152.2783122061
 20
53.2588440732
 10
152.2284645121
 20
53.2920330351
 10
152.1767965138
 20
53.3244322579
 10
152.1232237184
 20
53.3560728631
 10
152.067754515
 20
53.3871270943
 10
152.0104039317
 20
53.4176250332
 10
151.9511569403
 20
53.447536598
 10
151.889976846
 20
53.4769437873
 10
151.8268514169
 20
53.5058739339
 10
151.7617928848
 20
53.5342997049
 10
151.6948012497
 20
53.5622211005
  0
LWPOLYLINE
  5
247
100
AcDbEntity
  8
RACCORDO
100
AcDbPolyline
 62
7
  6
CONTINUOUS
 90
28
 70
0
 10
120.0695875467
 20
77.120863848
 10
120.0710634063
 20
77.0627258922
 10
120.0753604227
 20
77.0035334185
 10
120.0824785957
 20
76.943286427
 10
120.0924610055
 20
76.8817744004
 10
120.105264572
 20
76.819207856
 10
120.1207600548
 20
76.7562183458
 10
120.1389747182
 20
76.6928015862
 10
120.1598812979
 20
76.6289618608
 10
120.1832687612
 20
76.5653435734
 10
120.2091622349
 20
76.5019489668
 10
120.2375365921
 20
76.4387757982
 10
120.2681054196
 20
76.3764617431
 10
120.3008909434
 20
76.3150155026
 10
120.3358709375
 20
76.2544283756
 10
120.3726923109
 20
76.1953119337
 10
120.4113737133
 20
76.1376810723
 10
120.4518964949
 20
76.0815208961
 10
120.4938516154
 20
76.0273982907
 10
120.5372535815
 20
75.9753338929
 10
120.5820878865
 20
75.9253070659
 10
120.6279019689
 20
75.8778227849
 10
120.6747057521
 20
75.8329068011
 10
120.7224893127
 20
75.7905333633
 10
120.7707703193
 20
75.7511301925
 10
120.8193879949
 20
75.7148398626
 10
120.8685031165
 20
75.6815197997
 10
120.9181156841
 20
75.6511700039
  0
LINE
  5
248
100
AcDbEntity
  8
RACCORDO
100
AcDbLine
 62
7
  6
CONTINUOUS
 10
117.9482672031
 20
168.8103575671
 11
117.9482672031
 21
75.896040068
  0
LINE
  5
249
100
AcDbEntity
  8
RACCORDO
100
AcDbLine
 62
7
  6
CONTINUOUS
 10
120.0695875467
 20
168.5652981192
 11
120.0695875467
 21
77.120863848
  0
LINE
  5
24A
100
AcDbEntity
  8
0
100
AcDbLine
 62
250
  6
CONTINUOUS
 10
120.661923308
 20
75.8451736739
 11
120.661923308
 21
168.2232908743
  0
LINE
  5
24B
100
AcDbEntity
  8
0
100
AcDbLine
 62
7
  6
CONTINUOUS
 10
120.7461213679
 20
75.7712467334
 11
120.7461213679
 21
168.1746759698
  0
LWPOLYLINE
  5
24C
100
AcDbEntity
  8
RACCORDO
100
AcDbPolyline
 62
7
  6
CONTINUOUS
 90
15
 70
0
 10
117.9482672031
 20
168.8103575671
 10
117.9497430628
 20
168.8667912372
 10
117.9540400791
 20
168.921021624
 10
117.9611582521
 20
168.9730487277
 10
117.9711406619
 20
169.0230333177
 10
117.9839442284
 20
169.0708146245
 10
117.9994397113
 20
169.1159103395
 10
118.0176543746
 20
169.1582932625
 10
118.0385609544
 20
169.1979905936
 10
118.0619484177
 20
169.2346016246
 10
118.0878418913
 20
169.2680950969
 10
118.1162162485
 20
169.298502269
 10
118.146785076
 20
169.3255162084
 10
118.1795705998
 20
169.3491025477
 10
118.1967793647
 20
169.3596192568
  0
LINE
  5
24D
100
AcDbEntity
  8
0
100
AcDbLine
 62
7
  6
CONTINUOUS
 10
149.0723402645
 20
54.4741068001
 11
149.4532463464
 21
53.0813678352
  0
LINE
  5
24E
100
AcDbEntity
  8
0
100
AcDbLine
 62
7
  6
CONTINUOUS
 10
149.477788338
 20
53.8660900098
 11
149.1565230739
 21
55.0487752643
  0
LINE
  5
24F
100
AcDbEntity
  8
0
100
AcDbLine
 62
7
  6
CONTINUOUS
 10
146.792396646
 20
56.4137922343
 11
147.2855217811
 21
54.3329848312
  0
LINE
  5
250
100
AcDbEntity
  8
0
100
AcDbLine
 62
7
  6
CONTINUOUS
 10
147.4416230711
 20
54.802637563
 11
147.1451153652
 21
56.2101368665
  0
LINE
  5
251
100
AcDbEntity
  8
0
100
AcDbLine
 62
7
  6
CONTINUOUS
 10
152.3733704422
 20
51.9401500702
 11
152.4036757202
 21
51.8132308572
  0
LINE
  5
252
100
AcDbEntity
  8
0
100
AcDbLine
 62
7
  6
CONTINUOUS
 10
151.5994550001
 20
51.8421738568
 11
151.1221877104
 21
53.9138251388
  0
LINE
  5
253
100
AcDbEntity
  8
0
100
AcDbLine
 62
7
  6
CONTINUOUS
 10
152.4036757202
 20
51.8132308572
 11
152.4344478019
 21
51.6795541774
  0
LWPOLYLINE
  5
254
100
AcDbEntity
  8
0
100
AcDbPolyline
 62
7
  6
CONTINUOUS
 90
3
 70
0
 10
152.4344478019
 20
51.6795541774
 10
152.4985933092
 20
51.3904298558
 10
152.5154146787
 20
51.3133098779
  0
LINE
  5
255
100
AcDbEntity
  8
0
100
AcDbLine
 62
7
  6
CONTINUOUS
 10
151.1731273438
 20
52.4468918727
 11
151.2572405201
 21
52.0397642087
  0
LWPOLYLINE
  5
256
100
AcDbEntity
  8
0
100
AcDbPolyline
 62
7
  6
CONTINUOUS
 90
19
 70
0
 10
152.7550012521
 20
51.4954658823
 10
152.7099803395
 20
51.7168040512
 10
152.7029159548
 20
51.7497515567
 10
152.6955632318
 20
51.7819260204
 10
152.6880038542
 20
51.813362711
 10
152.6801561383
 20
51.8440263598
 10
152.6717750325
 20
51.8738111613
 10
152.6628061438
 20
51.9027498626
 10
152.6533038651
 20
51.9308097165
 10
152.6431863238
 20
51.9577866751
 10
152.6324016117
 20
51.9836814441
 10
152.6210016368
 20
52.0084933178
 10
152.6090602506
 20
52.0320161309
 10
152.5964766827
 20
52.0542604552
 10
152.5833517034
 20
52.0752157191
 10
152.5700614747
 20
52.0946440416
 10
152.5567313839
 20
52.1124661294
 10
152.5432360436
 20
52.128761276
 10
152.529575454
 20
52.1435294814
  0
LINE
  5
257
100
AcDbEntity
  8
0
100
AcDbLine
 62
7
  6
CONTINUOUS
 10
152.8277332607
 20
51.132981043
 11
152.7550012521
 21
51.4954658823
  0
LINE
  5
258
100
AcDbEntity
  8
0
100
AcDbLine
 62
7
  6
CONTINUOUS
 10
150.9590356906
 20
53.5145090678
 11
151.1082373697
 21
52.7618126138
  0
LINE
  5
259
100
AcDbEntity
  8
0
100
AcDbLine
 62
7
  6
CONTINUOUS
 10
150.269193862
 20
52.6102499659
 11
150.1237368183
 21
54.4903181703
  0
LINE
  5
25A
100
AcDbEntity
  8
0
100
AcDbLine
 62
7
  6
CONTINUOUS
 10
149.884846864
 20
54.0000864933
 11
149.9515561902
 21
52.7936499767
  0
LINE
  5
25B
100
AcDbEntity
  8
0
100
AcDbLine
 62
7
  6
CONTINUOUS
 10
148.1921554006
 20
55.6056968466
 11
148.1921554006
 21
53.8095059421
  0
LINE
  5
25C
100
AcDbEntity
  8
0
100
AcDbLine
 62
7
  6
CONTINUOUS
 10
148.5168504691
 20
53.6220310789
 11
148.5168504691
 21
55.4182219834
  0
LINE
  5
25D
100
AcDbEntity
  8
0
100
AcDbLine
 62
7
  6
CONTINUOUS
 10
151.6948012497
 20
53.5622211005
 11
151.6948012497
 21
51.7871217871
  0
LINE
  5
25E
100
AcDbEntity
  8
0
100
AcDbLine
 62
7
  6
CONTINUOUS
 10
152.0074231102
 20
52.6036608026
 11
152.0074231102
 21
53.0967207492
  0
LINE
  5
25F
100
AcDbEntity
  8
0
100
AcDbLine
 62
7
  6
CONTINUOUS
 10
152.0181894987
 20
51.6004014652
 11
152.0181894987
 21
52.3032893431
  0
LINE
  5
260
100
AcDbEntity
  8
0
100
AcDbLine
 62
7
  6
CONTINUOUS
 10
152.529575454
 20
52.1435294814
 11
152.529575454
 21
52.1541427691
  0
LWPOLYLINE
  5
261
100
AcDbEntity
  8
0
100
AcDbPolyline
 62
7
  6
CONTINUOUS
 90
12
 70
0
 10
152.4452067369
 20
52.6299224656
 10
152.4449615787
 20
52.6045161013
 10
152.4434313462
 20
52.5810789178
 10
152.4406160393
 20
52.5596109148
 10
152.436495474
 20
52.5401174177
 10
152.4310898344
 20
52.5225931012
 10
152.4244596723
 20
52.50702199
 10
152.4165637634
 20
52.493436479
 10
152.407443332
 20
52.4818041734
 10
152.3972826034
 20
52.4720119125
 10
152.386150953
 20
52.46401821
 10
152.3843606368
 20
52.4629594884
  0
LINE
  5
262
100
AcDbEntity
  8
0
100
AcDbLine
 62
7
  6
CONTINUOUS
 10
149.0022707671
 20
53.3417554826
 11
149.0723402645
 21
54.4741068001
  0
LINE
  5
263
100
AcDbEntity
  8
0
100
AcDbLine
 62
7
  6
CONTINUOUS
 10
148.8320969079
 20
55.2360948665
 11
148.691643823
 21
53.5211075871
  0
LINE
  5
264
100
AcDbEntity
  8
SMUSSO
100
AcDbLine
 62
7
  6
CONTINUOUS
 10
205.0284673062
 20
136.6162369396
 11
206.089127478
 21
137.2286488296
  0
LINE
  5
265
100
AcDbEntity
  8
0
100
AcDbLine
 62
250
  6
CONTINUOUS
 10
206.0902904893
 20
137.229247147
 11
208.1362904511
 21
138.4105859387
  0
LINE
  5
266
100
AcDbEntity
  8
SMUSSO
100
AcDbLine
 62
7
  6
CONTINUOUS
 10
205.0284673062
 20
135.7997272078
 11
204.321360525
 21
135.3914920694
  0
LINE
  5
267
100
AcDbEntity
  8
0
100
AcDbLine
 62
250
  6
CONTINUOUS
 10
206.7972895747
 20
136.0046888114
 11
208.8432895365
 21
137.1860276031
  0
LINE
  5
268
100
AcDbEntity
  8
SMUSSO
100
AcDbLine
 62
7
  6
CONTINUOUS
 10
205.7355740874
 20
135.3914920694
 11
206.7962342592
 21
136.0039039594
  0
LINE
  5
269
100
AcDbEntity
  8
RACCORDO
100
AcDbLine
 62
250
  6
CONTINUOUS
 10
117.9482672031
 20
75.896040068
 11
120.0695875467
 21
77.120863848
  0
LINE
  5
26A
100
AcDbEntity
  8
0
100
AcDbLine
 62
7
  6
CONTINUOUS
 10
150.7973652279
 20
52.9413062923
 11
150.9590356906
 21
53.5145090678
  0
LINE
  5
26B
100
AcDbEntity
  8
0
100
AcDbLine
 62
7
  6
CONTINUOUS
 10
147.7471875349
 20
55.8625079414
 11
147.4416230711
 21
54.802637563
  0
LINE
  5
26C
100
AcDbEntity
  8
0
100
AcDbLine
 62
7
  6
CONTINUOUS
 10
150.6413513498
 20
52.3953708967
 11
150.7309470277
 21
52.7022012455
  0
LINE
  5
26D
100
AcDbEntity
  8
0
100
AcDbLine
 62
7
  6
CONTINUOUS
 10
150.8080850335
 20
54.0951840877
 11
150.3201794237
 21
52.5808115415
  0
LINE
  5
26E
100
AcDbEntity
  8
0
100
AcDbLine
 62
7
  6
CONTINUOUS
 10
147.5716593288
 20
54.1677725973
 11
148.0716611107
 21
55.6751609653
  0
LINE
  5
26F
100
AcDbEntity
  8
RACCORDO
100
AcDbLine
 62
250
  6
CONTINUOUS
 10
118.7967953405
 20
74.4263462239
 11
120.9181156841
 21
75.6511700039
  0
LINE
  5
270
100
AcDbEntity
  8
0
100
AcDbLine
 62
7
  6
CONTINUOUS
 10
149.8024834066
 20
54.675805864
 11
149.477788338
 21
53.8660900098
  0
LINE
  5
271
100
AcDbEntity
  8
0
100
AcDbLine
 62
7
  6
CONTINUOUS
 10
149.498784223
 20
53.0550748359
 11
149.884846864
 21
54.0000864933
  0
LINE
  5
272
100
AcDbEntity
  8
RACCORDO
100
AcDbLine
 62
7
  6
CONTINUOUS
 10
181.7292988661
 20
39.0696717499
 11
181.7292988661
 21
131.9839892489
  0
LWPOLYLINE
  5
273
100
AcDbEntity
  8
RACCORDO
100
AcDbPolyline
 62
7
  6
CONTINUOUS
 90
15
 70
0
 10
181.7292988661
 20
39.0696717499
 10
181.7278230065
 20
39.0132380798
 10
181.7235259901
 20
38.9590076929
 10
181.7164078171
 20
38.9069805892
 10
181.7064254073
 20
38.8569959992
 10
181.6936218408
 20
38.8092146924
 10
181.678126358
 20
38.7641189774
 10
181.6599116946
 20
38.7217360545
 10
181.6390051148
 20
38.6820387233
 10
181.6156176515
 20
38.6454276923
 10
181.5897241779
 20
38.6119342201
 10
181.5613498207
 20
38.5815270479
 10
181.5307809932
 20
38.5545131086
 10
181.4979954694
 20
38.5309267692
 10
181.4807867045
 20
38.5204100601
  0
LINE
  5
274
100
AcDbEntity
  8
0
100
AcDbLine
 62
250
  6
CONTINUOUS
 10
208.8468439246
 20
137.120467969
 11
209.5539507058
 21
138.2910340851
  0
LINE
  5
275
100
AcDbEntity
  8
0
100
AcDbLine
 62
250
  6
CONTINUOUS
 10
208.0812893295
 20
138.4464474224
 11
209.4484786927
 21
138.4737169704
  0
LINE
  5
276
100
AcDbEntity
  8
0
100
AcDbLine
 62
7
  6
CONTINUOUS
 10
147.8629338534
 20
55.0458971284
 11
147.4416230711
 21
54.802637563
  0
LINE
  5
277
100
AcDbEntity
  8
0
100
AcDbLine
 62
7
  6
CONTINUOUS
 10
147.7072248408
 20
54.5764708927
 11
147.2855217811
 21
54.3329848312
  0
LINE
  5
278
100
AcDbEntity
  8
0
100
AcDbLine
 62
7
  6
CONTINUOUS
 10
149.2800489188
 20
54.5940351739
 11
149.0723402645
 21
54.4741068001
  0
LINE
  5
279
100
AcDbEntity
  8
0
100
AcDbLine
 62
7
  6
CONTINUOUS
 10
148.5168504691
 20
53.9969808053
 11
148.1921554006
 21
53.8095059421
  0
LINE
  5
27A
100
AcDbEntity
  8
0
100
AcDbLine
 62
7
  6
CONTINUOUS
 10
149.0252896884
 20
53.7137505282
 11
148.691643823
 21
53.5211075871
  0
LINE
  5
27B
100
AcDbEntity
  8
0
100
AcDbLine
 62
7
  6
CONTINUOUS
 10
150.1423454539
 20
54.2497969597
 11
149.477788338
 21
53.8660900098
  0
LINE
  5
27C
100
AcDbEntity
  8
0
100
AcDbLine
 62
7
  6
CONTINUOUS
 10
150.1498279944
 20
54.153083277
 11
149.884846864
 21
54.0000864933
  0
LINE
  5
27D
100
AcDbEntity
  8
0
100
AcDbLine
 62
7
  6
CONTINUOUS
 10
149.5268985826
 20
53.1238937133
 11
149.4532463464
 21
53.0813678352
  0
LINE
  5
27E
100
AcDbEntity
  8
0
100
AcDbLine
 62
7
  6
CONTINUOUS
 10
151.1842274994
 20
53.6445319958
 11
150.9590356906
 21
53.5145090678
  0
LINE
  5
27F
100
AcDbEntity
  8
0
100
AcDbLine
 62
7
  6
CONTINUOUS
 10
150.242028791
 20
52.9613652159
 11
149.9515561902
 21
52.7936499767
  0
LINE
  5
280
100
AcDbEntity
  8
0
100
AcDbLine
 62
7
  6
CONTINUOUS
 10
150.8709498247
 20
52.8988194683
 11
150.3201794237
 21
52.5808115415
  0
LINE
  5
281
100
AcDbEntity
  8
0
100
AcDbLine
 62
7
  6
CONTINUOUS
 10
150.9712138321
 20
52.8409282871
 11
150.7309470277
 21
52.7022012455
  0
LINE
  5
282
100
AcDbEntity
  8
0
100
AcDbLine
 62
7
  6
CONTINUOUS
 10
151.3547921351
 20
52.9041702453
 11
151.1082373697
 21
52.7618126138
  0
LINE
  5
283
100
AcDbEntity
  8
0
100
AcDbLine
 62
7
  6
CONTINUOUS
 10
152.2827583233
 20
53.2556958505
 11
152.0074231102
 21
53.0967207492
  0
LINE
  5
284
100
AcDbEntity
  8
0
100
AcDbLine
 62
7
  6
CONTINUOUS
 10
151.4264441402
 20
52.5931538161
 11
151.1731273438
 21
52.4468918727
  0
LINE
  5
285
100
AcDbEntity
  8
0
100
AcDbLine
 62
250
  6
CONTINUOUS
 10
152.4895741487
 20
53.0919516312
 11
152.2617843054
 21
52.9604297177
  0
LINE
  5
286
100
AcDbEntity
  8
0
100
AcDbLine
 62
7
  6
CONTINUOUS
 10
151.5191017018
 20
52.1909595731
 11
151.2572405201
 21
52.0397642087
  0
LINE
  5
287
100
AcDbEntity
  8
0
100
AcDbLine
 62
250
  6
CONTINUOUS
 10
152.6903839005
 20
52.7714938289
 11
152.4452067345
 21
52.6299224282
  0
LINE
  5
288
100
AcDbEntity
  8
0
100
AcDbLine
 62
7
  6
CONTINUOUS
 10
152.2855865979
 20
52.4576810769
 11
152.0181894987
 21
52.3032893431
  0
LINE
  5
289
100
AcDbEntity
  8
0
100
AcDbLine
 62
7
  6
CONTINUOUS
 10
152.3843604126
 20
52.4629598771
 11
152.7259961826
 21
52.6602160889
  0
LINE
  5
28A
100
AcDbEntity
  8
0
100
AcDbLine
 62
250
  6
CONTINUOUS
 10
152.74783022
 20
52.5235358818
 11
152.19228305
 21
52.2027699084
  0
LINE
  5
28B
100
AcDbEntity
  8
RACCORDO
100
AcDbLine
 62
7
  6
CONTINUOUS
 10
180.8807707287
 20
133.453683093
 11
118.7967953405
 21
169.3001923872
  0
LWPOLYLINE
  5
28C
100
AcDbEntity
  8
RACCORDO
100
AcDbPolyline
 62
7
  6
CONTINUOUS
 90
28
 70
0
 10
180.8807707287
 20
133.453683093
 10
180.9303832963
 20
133.4233332972
 10
180.9794984179
 20
133.3900132343
 10
181.0281160935
 20
133.3537229044
 10
181.0763971001
 20
133.3143197336
 10
181.1241806607
 20
133.2719462958
 10
181.1709844439
 20
133.227030312
 10
181.2167985263
 20
133.179546031
 10
181.2616328312
 20
133.129519204
 10
181.3050347974
 20
133.0774548063
 10
181.3469899178
 20
133.0233322008
 10
181.3875126995
 20
132.9671720246
 10
181.4261941019
 20
132.9095411632
 10
181.4630154753
 20
132.8504247213
 10
181.4979954694
 20
132.7898375943
 10
181.5307809932
 20
132.7283913538
 10
181.5613498207
 20
132.6660772987
 10
181.5897241779
 20
132.6029041301
 10
181.6156176515
 20
132.5395095235
 10
181.6390051148
 20
132.4758912361
 10
181.6599116946
 20
132.4120515108
 10
181.678126358
 20
132.3486347511
 10
181.6936218408
 20
132.2856452409
 10
181.7064254073
 20
132.2230786965
 10
181.7164078171
 20
132.1615666699
 10
181.7235259901
 20
132.1013196784
 10
181.7278230065
 20
132.0421272048
 10
181.7292988661
 20
131.9839892489
  0
LINE
  5
28D
100
AcDbEntity
  8
SMUSSO
100
AcDbLine
 62
7
  6
CONTINUOUS
 10
204.321360525
 20
9.5734224157
 11
204.321360525
 21
135.3914920694
  0
LINE
  5
28E
100
AcDbEntity
  8
SMUSSO
100
AcDbLine
 62
7
  6
CONTINUOUS
 10
205.0284673062
 20
136.6162369396
 11
205.0284673062
 21
135.7997272078
  0
LWPOLYLINE
  5
28F
100
AcDbEntity
  8
0
100
AcDbPolyline
 62
7
  6
CONTINUOUS
 90
54
 70
0
 10
152.6226551906
 20
52.1757062519
 10
152.6243773076
 20
52.1767095168
 10
152.6292676757
 20
52.1796982787
 10
152.6341994182
 20
52.1829040254
 10
152.639173325
 20
52.1863323829
 10
152.6441787025
 20
52.1900314702
 10
152.6492168097
 20
52.1939972789
 10
152.6542863875
 20
52.1982338174
 10
152.6593729656
 20
52.2028012296
 10
152.6644792317
 20
52.2076955351
 10
152.669602498
 20
52.2129207143
 10
152.6747202307
 20
52.2185488525
 10
152.6798379819
 20
52.2245761657
 10
152.6849501994
 20
52.2310064378
 10
152.6900176937
 20
52.2379231057
 10
152.6950463733
 20
52.2453231494
 10
152.7000303297
 20
52.2532095889
 10
152.7049126464
 20
52.2616749212
 10
152.7097000475
 20
52.270715881
 10
152.714385809
 20
52.2803357336
 10
152.7188928428
 20
52.290636771
 10
152.7232267337
 20
52.3016182121
 10
152.7273818969
 20
52.313280838
 10
152.7312644907
 20
52.3257292839
 10
152.7348797496
 20
52.3389687548
 10
152.7382224391
 20
52.3529940456
 10
152.7411830129
 20
52.3678941763
 10
152.7437635349
 20
52.3836619708
 10
152.7459619412
 20
52.4003046051
 10
152.7476624939
 20
52.4179326272
 10
152.7488774621
 20
52.436509687
 10
152.7495945767
 20
52.4560721346
 10
152.749661293
 20
52.4768395676
 10
152.7491400394
 20
52.4987981834
 10
152.7479683875
 20
52.5219617847
 10
152.7458065072
 20
52.5465913774
 10
152.7426879519
 20
52.5727984755
 10
152.7385791681
 20
52.6004715648
 10
152.7330396659
 20
52.6295371089
 10
152.7260123468
 20
52.6601549138
 10
152.7175543094
 20
52.6921651733
 10
152.7073963585
 20
52.7250149325
 10
152.6953675742
 20
52.7588915007
 10
152.6816388765
 20
52.7936075687
 10
152.6664538307
 20
52.8280482528
 10
152.6496249824
 20
52.8622443204
 10
152.631339786
 20
52.8961650041
 10
152.6124041699
 20
52.9286031189
 10
152.5927403082
 20
52.9594907569
 10
152.5724260267
 20
52.9888958259
 10
152.5525007314
 20
53.0158148642
 10
152.5333108908
 20
53.0399133845
 10
152.5145100364
 20
53.0615258741
 10
152.4960981681
 20
53.0806523329
  0
LINE
  5
290
100
AcDbEntity
  8
0
100
AcDbLine
 62
7
  6
CONTINUOUS
 10
152.0181894987
 20
51.9738421091
 11
151.6948012497
 21
51.7871217871
  0
LINE
  5
291
100
AcDbEntity
  8
0
100
AcDbLine
 62
7
  6
CONTINUOUS
 10
152.69938523
 20
52.2521888056
 11
152.529575454
 21
52.1541427691
  0
LINE
  5
292
100
AcDbEntity
  8
0
100
AcDbLine
 62
7
  6
CONTINUOUS
 10
152.7628746946
 20
51.4561901897
 11
152.5154146787
 21
51.3133098779
  0
LINE
  5
293
100
AcDbEntity
  8
0
100
AcDbLine
 62
250
  6
CONTINUOUS
 10
152.58972371
 20
52.0650422113
 11
152.373370504
 21
51.9401498091
  0
LWPOLYLINE
  5
294
100
AcDbEntity
  8
0
100
AcDbPolyline
 62
7
  6
CONTINUOUS
 90
12
 70
0
 10
152.3843606368
 20
52.4629594884
 10
152.3739790053
 20
52.4578645524
 10
152.3607428596
 20
52.4535622384
 10
152.3464581612
 20
52.451132832
 10
152.3311092648
 20
52.4505547694
 10
152.3146253335
 20
52.4517746581
 10
152.2969368817
 20
52.4547829708
 10
152.278113395
 20
52.4595892348
 10
152.2582924939
 20
52.46616864
 10
152.2375200516
 20
52.4745129162
 10
152.2157501948
 20
52.4846303335
 10
152.1929829236
 20
52.496520892
  0
LINE
  5
295
100
AcDbEntity
  8
SMUSSO
100
AcDbLine
 62
7
  6
CONTINUOUS
 10
204.321360525
 20
135.3914920694
 11
95.3562055442
 21
198.3066069013
  0
LINE
  5
296
100
AcDbEntity
  8
SMUSSO
100
AcDbLine
 62
7
  6
CONTINUOUS
 10
205.0284673062
 20
135.7997272078
 11
205.7355740874
 21
135.3914920694
  0
LWPOLYLINE
  5
297
100
AcDbEntity
  8
0
100
AcDbPolyline
 62
7
  6
CONTINUOUS
 90
7
 70
0
 10
208.8468439246
 20
137.120467969
 10
208.8467528412
 20
137.1314263265
 10
208.846461232
 20
137.1423719834
 10
208.8459690969
 20
137.1533049394
 10
208.8452764359
 20
137.1642251948
 10
208.8443832491
 20
137.1751327493
 10
208.8432895365
 20
137.1860276031
  0
LINE
  5
298
100
AcDbEntity
  8
SMUSSO
100
AcDbLine
 62
7
  6
CONTINUOUS
 10
205.7355740874
 20
9.5734224157
 11
205.7355740874
 21
135.3914920694
  0
LINE
  5
299
100
AcDbEntity
  8
SMUSSO
100
AcDbLine
 62
7
  6
CONTINUOUS
 10
206.7962342592
 20
10.1858343057
 11
206.7962342592
 21
136.8204136912
  0
LINE
  5
29A
100
AcDbEntity
  8
0
100
AcDbLine
 62
7
  6
CONTINUOUS
 10
208.8468439246
 20
137.120467969
 11
208.8468439246
 21
12.5804317988
  0
LINE
  5
29B
100
AcDbEntity
  8
0
100
AcDbLine
 62
7
  6
CONTINUOUS
 10
209.5539507058
 20
138.2910340851
 11
209.5539507058
 21
14.6760624293
  0
LWPOLYLINE
  5
29C
100
AcDbEntity
  8
0
100
AcDbPolyline
 62
7
  6
CONTINUOUS
 90
7
 70
0
 10
100.2229794702
 20
200.722483753
 10
100.2133490826
 20
200.7279390371
 10
100.2034217709
 20
200.7333341989
 10
100.1931975352
 20
200.7386692382
 10
100.1826763754
 20
200.7439441551
 10
100.1718582916
 20
200.7491589496
 10
100.1607432838
 20
200.7543136216
  0
LINE
  5
29D
100
AcDbEntity
  8
SMUSSO
100
AcDbLine
 62
7
  6
CONTINUOUS
 10
205.0284673062
 20
136.6162369396
 11
96.0633123254
 21
199.5313517714
  0
LINE
  5
29E
100
AcDbEntity
  8
SMUSSO
100
AcDbLine
 62
7
  6
CONTINUOUS
 10
97.1239724972
 20
200.1437636614
 11
206.7962342592
 21
136.8204136912
  0
LINE
  5
29F
100
AcDbEntity
  8
0
100
AcDbLine
 62
7
  6
CONTINUOUS
 10
100.2229794702
 20
200.722483753
 11
208.0812893295
 21
138.4464474224
  0
LINE
  5
2A0
100
AcDbEntity
  8
0
100
AcDbLine
 62
7
  6
CONTINUOUS
 10
102.391324013
 20
200.2871763412
 11
209.4484786927
 21
138.4737169704
  0
LWPOLYLINE
  5
2A1
100
AcDbEntity
  8
0
100
AcDbPolyline
 62
7
  6
CONTINUOUS
 90
7
 70
0
 10
208.1362904511
 20
138.4105859387
 10
208.1274031206
 20
138.416980263
 10
208.1184039809
 20
138.4232076232
 10
208.1092930319
 20
138.4292680192
 10
208.1000702737
 20
138.4351614511
 10
208.0907357062
 20
138.4408879188
 10
208.0812893295
 20
138.4464474224
  0
LWPOLYLINE
  5
2A2
100
AcDbEntity
  8
0
100
AcDbPolyline
 62
7
  6
CONTINUOUS
 90
28
 70
0
 10
208.8432895365
 20
137.1860276031
 10
208.8375582856
 20
137.231132318
 10
208.8299220895
 20
137.2777804498
 10
208.8203781371
 20
137.3258129891
 10
208.8089579757
 20
137.3750888639
 10
208.7956482
 20
137.4254164493
 10
208.780393765
 20
137.4765532744
 10
208.7632178299
 20
137.5283187272
 10
208.7441709813
 20
137.5805374637
 10
208.7232577544
 20
137.6329703395
 10
208.7005235791
 20
137.6854437611
 10
208.6760500208
 20
137.7377668798
 10
208.6499182887
 20
137.7896762192
 10
208.6222293854
 20
137.8409518889
 10
208.5930704312
 20
137.8914632913
 10
208.5625140727
 20
137.9410845365
 10
208.5306298149
 20
137.9896749052
 10
208.4975575867
 20
138.0370369296
 10
208.4634849691
 20
138.0829683968
 10
208.4285365619
 20
138.1273031005
 10
208.3928398822
 20
138.1699150422
 10
208.3565994554
 20
138.2106809716
 10
208.3199468221
 20
138.2494635876
 10
208.2830219895
 20
138.2861589193
 10
208.2460465333
 20
138.3207087834
 10
208.2091871736
 20
138.35303029
 10
208.172555366
 20
138.3830163476
 10
208.1362904511
 20
138.4105859387
  0
LWPOLYLINE
  5
2A3
100
AcDbEntity
  8
0
100
AcDbPolyline
 62
7
  6
CONTINUOUS
 90
7
 70
0
 10
208.8432895365
 20
12.5106218114
 10
208.8443831599
 20
12.5228227661
 10
208.8452762931
 20
12.534797338
 10
208.8459689363
 20
12.5465455273
 10
208.8464610892
 20
12.5580673338
 10
208.846752752
 20
12.5693627576
 10
208.8468439246
 20
12.5804317988
  0
LWPOLYLINE
  5
2A4
100
AcDbEntity
  8
0
100
AcDbPolyline
 62
7
  6
CONTINUOUS
 90
6
 70
0
 10
100.1607432838
 20
200.7543136216
 10
100.1153096772
 20
200.7739343556
 10
100.0704020808
 20
200.7910549606
 10
100.0261545755
 20
200.8055938814
 10
99.9827255536
 20
200.8174952121
 10
99.9628077436
 20
200.8221178333
  0
LINE
  5
2A5
100
AcDbEntity
  8
RACCORDO
100
AcDbLine
 62
250
  6
CONTINUOUS
 10
180.8807707287
 20
38.5798369297
 11
181.729257862
 21
39.0697427665
  0
LWPOLYLINE
  5
2A6
100
AcDbEntity
  8
RACCORDO
100
AcDbPolyline
 62
7
  6
CONTINUOUS
 90
15
 70
0
 10
181.4807867045
 20
38.5204100601
 10
181.4630154753
 20
38.5107336626
 10
181.4261941019
 20
38.4941376197
 10
181.3875126995
 20
38.4811750722
 10
181.3469899178
 20
38.4718095885
 10
181.3050347974
 20
38.4661357045
 10
181.2616328312
 20
38.4641908094
 10
181.2167985263
 20
38.465937514
 10
181.1709844439
 20
38.4713581869
 10
181.1241806607
 20
38.4804900388
 10
181.0763971001
 20
38.493295859
 10
181.0281160935
 20
38.5096463845
 10
180.9794984179
 20
38.5294985276
 10
180.9303832963
 20
38.552895376
 10
180.8807707287
 20
38.5798369297
  0
LWPOLYLINE
  5
2A7
100
AcDbEntity
  8
0
100
AcDbPolyline
 62
7
  6
CONTINUOUS
 90
6
 70
0
 10
208.8030569891
 20
12.3053809641
 10
208.8089108523
 20
12.3245946563
 10
208.8203402809
 20
12.3681705978
 10
208.8298985238
 20
12.4138110025
 10
208.8375484309
 20
12.4613464562
 10
208.8432895365
 20
12.5106218114
  0
LINE
  5
2A8
100
AcDbEntity
  8
0
100
AcDbLine
 62
7
  6
CONTINUOUS
 10
209.5491105405
 20
14.6419001405
 11
208.8030642041
 21
12.305384935
  0
LINE
  5
2A9
100
AcDbEntity
  8
0
100
AcDbLine
 62
7
  6
CONTINUOUS
 10
102.3593086045
 20
200.3000697374
 11
99.9628140103
 21
200.822121625
  0
LINE
  5
2AA
100
AcDbEntity
  8
0
100
AcDbLine
 62
250
  6
CONTINUOUS
 10
208.8468439246
 20
12.5804317988
 11
209.5539507058
 21
14.6760624293
  0
LINE
  5
2AB
100
AcDbEntity
  8
0
100
AcDbLine
 62
250
  6
CONTINUOUS
 10
100.2229794702
 20
200.722483753
 11
102.391324013
 21
200.2871763412
  0
LWPOLYLINE
  5
2AC
100
AcDbEntity
  8
0
100
AcDbPolyline
 62
7
  6
CONTINUOUS
 90
11
 70
0
 10
99.9628077436
 20
200.8221178333
 10
99.940226621
 20
200.8266781834
 10
99.8987214605
 20
200.833041137
 10
99.8583307003
 20
200.8365387457
 10
99.8191991387
 20
200.8371452683
 10
99.7814222382
 20
200.8348127227
 10
99.7451106651
 20
200.8295318087
 10
99.7104019272
 20
200.8213148364
 10
99.6774207812
 20
200.810178193
 10
99.6462827517
 20
200.7961637348
 10
99.640126574
 20
200.7929347482
  0
LWPOLYLINE
  5
2AD
100
AcDbEntity
  8
0
100
AcDbPolyline
 62
7
  6
CONTINUOUS
 90
11
 70
0
 10
208.6164543664
 20
12.0405102406
 10
208.6220954657
 20
12.0440766761
 10
208.6498133896
 20
12.064012634
 10
208.675961466
 20
12.086984478
 10
208.7004453547
 20
12.1129130478
 10
208.7231877924
 20
12.1416978537
 10
208.7441083422
 20
12.1732241591
 10
208.7631611227
 20
12.2073928711
 10
208.7803421743
 20
12.2441022402
 10
208.7955985435
 20
12.2832102729
 10
208.8030569891
 20
12.3053809641
  0
LINE
  5
2AE
100
AcDbEntity
  8
0
100
AcDbLine
 62
250
  6
CONTINUOUS
 10
206.7972895747
 20
11.2453447444
 11
208.8432895365
 21
12.5106218114
  0
LINE
  5
2AF
100
AcDbEntity
  8
0
100
AcDbLine
 62
7
  6
CONTINUOUS
 10
206.7962342592
 20
10.9148588224
 11
208.6164606223
 21
12.0405141093
  0
LINE
  5
2B0
100
AcDbEntity
  8
SMUSSO
100
AcDbLine
 62
7
  6
CONTINUOUS
 10
206.7962342592
 20
10.1858343057
 11
205.0284673062
 21
9.1651872773
  0
ELLIPSE
  5
2B1
100
AcDbEntity
  8
0
100
AcDbEllipse
 62
7
  6
CONTINUOUS
 10
209.4443402559
 20
14.7441286306
 30
0.0
 11
-0.0789593082
 21
0.1367536506
 31
0.0
 40
0.5559303978
 41
-2.6734061024
 42
-2.3751218051
  0
ELLIPSE
  5
2B2
100
AcDbEntity
  8
0
100
AcDbEllipse
 62
7
  6
CONTINUOUS
 10
209.4443402559
 20
138.3495432839
 30
0.0
 11
-0.0760331802
 21
0.1316838075
 31
0.0
 40
0.599556811
 41
-2.337364303
 42
-0.8043328123
  0
ELLIPSE
  5
2B3
100
AcDbEntity
  8
0
100
AcDbEllipse
 62
7
  6
CONTINUOUS
 10
102.3954624498
 20
200.1582236916
 30
0.0
 11
-0.0789593082
 21
0.1367536506
 31
0.0
 40
0.5559303978
 41
-0.7665606423
 42
-0.4681919906
  0
ENDSEC
  0
SECTION
  2
OBJECTS
  0
DICTIONARY
  5
C
100
AcDbDictionary
280
0
281
1
  3
ACAD_GROUP
350
D
  3
ACAD_MLINESTYLE
350
17
  3
ACAD_LAYOUT
350
1A
  3
ACAD_PLOTSETTINGS
350
19
  3
ACAD_PLOTSTYLENAME
350
E
  0
DICTIONARY
  5
D
102
{ACAD_REACTORS
330
C
102
}
100
AcDbDictionary
280
0
281
1
  0
ACDBDICTIONARYWDFLT
  5
E
102
{ACAD_REACTORS
330
C
102
}
100
AcDbDictionary
281
1
  3
Normal
350
F
100
AcDbDictionaryWithDefault
340
F
  0
DICTIONARY
  5
17
102
{ACAD_REACTORS
330
C
102
}
100
AcDbDictionary
280
0
281
1
  3
Standard
350
18
  0
DICTIONARY
  5
19
102
{ACAD_REACTORS
330
C
102
}
100
AcDbDictionary
281
1
  0
DICTIONARY
  5
1A
102
{ACAD_REACTORS
330
C
102
}
100
AcDbDictionary
281
1
  3
Model
350
2B4
  3
Layout1
350
2B5
  0
ACDBPLACEHOLDER
  5
F
102
{ACAD_REACTORS
330
E
102
}
  0
MLINESTYLE
  5
18
102
{ACAD_REACTORS
330
17
102
}
100
AcDbMlineStyle
  2
STANDARD
 70
0
  3

 62
256
 51
90.0
 52
90.0
 71
2
 49
0.5
 62
256
  6
BYLAYER
 49
-0.5
 62
256
  6
BYLAYER
  0
LAYOUT
  5
2B4
102
{ACAD_REACTORS
330
1A
102
}
100
AcDbPlotSettings
  1

  2
none_device
  4
ISO_A4_(297.00_x_210.00_MM)
  6

 40
0.0
 41
0.0
 42
0.0
 43
0.0
 44
297.0
 45
210.0
 46
0.0
 47
0.0
 48
0.0
 49
0.0
140
0.0
141
0.0
142
1.0
143
1.0
 70
1024
 72
1
 73
0
 74
0
  7

 75
0
147
1.0
148
0.0
149
0.0
100
AcDbLayout
  1
Model
 70
0
 71
0
 10
0.0
 20
0.0
 11
297.0
 21
210.0
 12
0.0
 22
0.0
 32
0.0
 14
0.0
 24
0.0
 34
0.0
 15
0.0
 25
0.0
 35
0.0
146
0.0
 13
0.0
 23
0.0
 33
0.0
 16
1.0
 26
0.0
 36
0.0
 17
0.0
 27
1.0
 37
0.0
 76
0
330
21D
345
0
346
0
  0
LAYOUT
  5
2B5
102
{ACAD_REACTORS
330
1A
102
}
100
AcDbPlotSettings
  1

  2
none_device
  4
ISO_A4_(297.00_x_210.00_MM)
  6

 40
0.0
 41
0.0
 42
0.0
 43
0.0
 44
297.0
 45
210.0
 46
0.0
 47
0.0
 48
0.0
 49
0.0
140
0.0
141
0.0
142
1.0
143
1.0
 70
0
 72
1
 73
0
 74
0
  7

 75
0
147
1.0
148
0.0
149
0.0
100
AcDbLayout
  1
Layout1
 70
0
 71
1
 10
0.0
 20
0.0
 11
297.0
 21
210.0
 12
0.0
 22
0.0
 32
0.0
 14
0.0
 24
0.0
 34
0.0
 15
0.0
 25
0.0
 35
0.0
146
0.0
 13
0.0
 23
0.0
 33
0.0
 16
1.0
 26
0.0
 36
0.0
 17
0.0
 27
1.0
 37
0.0
 76
0
330
21E
345
0
346
0
  0
ENDSEC
  0
EOF
