  0
SECTION
  2
HEADER
  9
$ACADVER
  1
AC1024
  9
$DWGCODEPAGE
  3
ANSI_1252
  9
$EXTMAX
 10
297.0
 20
210.0
 30
0.0
  9
$EXTMIN
 10
0.0
 20
0.0
 30
0.0
  9
$LIMMIN
 10
0.0
 20
0.0
  9
$LIMMAX
 10
297.0
 20
210.0
  9
$VIEWCTR
 10
148.5
 20
105.0
  9
$VIEWSIZE
 40
210.0
  9
$CLAYER
  8
0
  9
$LTSCALE
 40
16.335
  9
$CELTYPE
  6
BYLAYER
  9
$DIMSCALE
 40
1.0
  9
$DIMASZ
 40
3.0
  9
$DIMEXO
 40
0.5
  9
$DIMDLI
 40
11.286
  9
$DIMEXE
 40
1.5
  9
$DIMCEN
 40
2.673
  9
$DIMLFAC
 40
1.0
  9
$DIMBLK
  1
_FILLED
  9
$DIMALT
 70
0
  9
$DIMALTF
 40
0.0393700787
  9
$DIMTXT
 40
3.0
  9
$DIMTOL
 70
1
  9
$DIMLIM
 70
0
  9
$DIMTFAC
 40
1.0
  9
$DIMTP
 40
0.01
  9
$DIMTM
 40
0.01
  9
$DIMGAP
 40
0.625
  9
$DIMDSEP
 70
44
  9
$AUNITS
 70
0
  9
$PDMODE
 70
3
  9
$PDSIZE
 40
3.0
  9
$HANDSEED
  5
26D
  9
$TILEMODE
 70
1
  9
$MEASUREMENT
 70
1
  9
$INSUNITS
 70
4
  0
ENDSEC
  0
SECTION
  2
CLASSES
  0
CLASS
  1
ACDBDICTIONARYWDFLT
  2
AcDbDictionaryWithDefault
  3
AutoCAD 2000
 90
0
 91
1
280
0
281
0
  0
CLASS
  1
ACDBPLACEHOLDER
  2
AcDbPlaceHolder
  3
AutoCAD 2000
 90
0
 91
1
280
0
281
0
  0
CLASS
  1
LAYOUT
  2
AcDbLayout
  3
AutoCAD 2000
 90
0
 91
0
280
0
281
0
  0
ENDSEC
  0
SECTION
  2
TABLES
  0
TABLE
  2
VPORT
  5
8
100
AcDbSymbolTable
 70
2
  0
VPORT
  5
1F4
100
AcDbSymbolTableRecord
100
AcDbViewportTableRecord
  2
*ACTIVE
 70
0
 10
0.0
 20
0.0
 11
1.0
 21
1.0
 12
148.5
 22
105.0
 13
0.0
 23
0.0
 14
1.0
 24
1.0
 15
0.0
 25
0.0
 16
0.0
 26
0.0
 36
1.0
 17
0.0
 27
0.0
 37
0.0
 40
210.0
 41
1.4142857143
 42
50.0
 43
0.0
 44
0.0
 50
0.0
 51
0.0
 71
0
 72
100
 73
1
 74
1
 75
0
 76
0
 77
0
 78
0
  0
ENDTAB
  0
TABLE
  2
LTYPE
  5
5
100
AcDbSymbolTable
 70
6
  0
LTYPE
  5
14
100
AcDbSymbolTableRecord
100
AcDbLinetypeTableRecord
  2
BYBLOCK
 70
0
  3

 72
65
 73
0
 40
0.0
  0
LTYPE
  5
15
100
AcDbSymbolTableRecord
100
AcDbLinetypeTableRecord
  2
BYLAYER
 70
0
  3

 72
65
 73
0
 40
0.0
  0
LTYPE
  5
16
100
AcDbSymbolTableRecord
100
AcDbLinetypeTableRecord
  2
CONTINUOUS
 70
64
  3
Solid line
 72
65
 73
0
 40
0.0
  0
LTYPE
  5
1F5
100
AcDbSymbolTableRecord
100
AcDbLinetypeTableRecord
  2
CENTER
 70
64
  3
____ _ ____ _ ____ _ ____ _ ____ _ ____ _ ____
 72
65
 73
4
 40
0.6
 49
0.375
 74
0
 49
-0.075
 74
0
 49
0.075
 74
0
 49
-0.075
 74
0
  0
LTYPE
  5
1F6
100
AcDbSymbolTableRecord
100
AcDbLinetypeTableRecord
  2
HIDDEN
 70
64
  3
- - - - - - - - - - - - - - - - - - - -
 72
65
 73
2
 40
0.2
 49
0.1
 74
0
 49
-0.1
 74
0
  0
LTYPE
  5
1F7
100
AcDbSymbolTableRecord
100
AcDbLinetypeTableRecord
  2
PHANTOM
 70
64
  3
_____ _ _ _____ _ _ _____ _ _ _____
 72
65
 73
6
 40
0.8
 49
0.45
 74
0
 49
-0.05
 74
0
 49
0.1
 74
0
 49
-0.05
 74
0
 49
0.1
 74
0
 49
-0.05
 74
0
  0
LTYPE
  5
1F8
100
AcDbSymbolTableRecord
100
AcDbLinetypeTableRecord
  2
DOT
 70
64
  3
. . . . . . . . . . . . . . . . . . . .
 72
65
 73
2
 40
0.2
 49
0.1
 74
0
 49
-0.1
 74
0
  0
LTYPE
  5
1F9
100
AcDbSymbolTableRecord
100
AcDbLinetypeTableRecord
  2
DASHED
 70
64
  3
- - - - - - - - - - - - - - - - - - - -
 72
65
 73
2
 40
0.2
 49
0.1
 74
0
 49
-0.1
 74
0
  0
ENDTAB
  0
TABLE
  2
LAYER
  5
2
100
AcDbSymbolTable
 70
36
  0
LAYER
  5
10
100
AcDbSymbolTableRecord
100
AcDbLayerTableRecord
  2
0
 70
0
 62
7
  6
CONTINUOUS
370
-3
390
F
  0
LAYER
  5
1FA
100
AcDbSymbolTableRecord
100
AcDbLayerTableRecord
  2
DEFAULT_1
 70
0
 62
7
  6
CENTER
370
-3
390
F
  0
LAYER
  5
1FB
100
AcDbSymbolTableRecord
100
AcDbLayerTableRecord
  2
DEFAULT_2
 70
0
 62
7
  6
HIDDEN
370
-3
390
F
  0
LAYER
  5
1FC
100
AcDbSymbolTableRecord
100
AcDbLayerTableRecord
  2
DEFAULT_3
 70
0
 62
7
  6
PHANTOM
370
-3
390
F
  0
LAYER
  5
1FD
100
AcDbSymbolTableRecord
100
AcDbLayerTableRecord
  2
ASSI
 70
0
 62
7
  6
CONTINUOUS
370
-3
390
F
  0
LAYER
  5
1FE
100
AcDbSymbolTableRecord
100
AcDbLayerTableRecord
  2
COORDINATE
 70
0
 62
7
  6
CONTINUOUS
370
-3
390
F
  0
LAYER
  5
1FF
100
AcDbSymbolTableRecord
100
AcDbLayerTableRecord
  2
COORD_ORIGINE
 70
0
 62
7
  6
CONTINUOUS
370
-3
390
F
  0
LAYER
  5
200
100
AcDbSymbolTableRecord
100
AcDbLayerTableRecord
  2
COPY_PUBLISH
 70
0
 62
7
  6
CONTINUOUS
370
-3
390
F
  0
LAYER
  5
201
100
AcDbSymbolTableRecord
100
AcDbLayerTableRecord
  2
COSMETIC
 70
0
 62
7
  6
CONTINUOUS
370
-3
390
F
  0
LAYER
  5
202
100
AcDbSymbolTableRecord
100
AcDbLayerTableRecord
  2
COSMETICI
 70
0
 62
7
  6
CONTINUOUS
370
-3
390
F
  0
LAYER
  5
203
100
AcDbSymbolTableRecord
100
AcDbLayerTableRecord
  2
CURVE
 70
0
 62
7
  6
CONTINUOUS
370
-3
390
F
  0
LAYER
  5
204
100
AcDbSymbolTableRecord
100
AcDbLayerTableRecord
  2
CURVE_TASSELLI
 70
0
 62
7
  6
CONTINUOUS
370
-3
390
F
  0
LAYER
  5
205
100
AcDbSymbolTableRecord
100
AcDbLayerTableRecord
  2
DRAFT
 70
0
 62
7
  6
CONTINUOUS
370
-3
390
F
  0
LAYER
  5
206
100
AcDbSymbolTableRecord
100
AcDbLayerTableRecord
  2
IGES
 70
0
 62
7
  6
CONTINUOUS
370
-3
390
F
  0
LAYER
  5
207
100
AcDbSymbolTableRecord
100
AcDbLayerTableRecord
  2
IMPORT_IGES
 70
0
 62
7
  6
CONTINUOUS
370
-3
390
F
  0
LAYER
  5
208
100
AcDbSymbolTableRecord
100
AcDbLayerTableRecord
  2
INTFCLR_2
 70
0
 62
7
  6
CONTINUOUS
370
-3
390
F
  0
LAYER
  5
209
100
AcDbSymbolTableRecord
100
AcDbLayerTableRecord
  2
INTF_1
 70
0
 62
7
  6
CONTINUOUS
370
-3
390
F
  0
LAYER
  5
20A
100
AcDbSymbolTableRecord
100
AcDbLayerTableRecord
  2
INTF_11
 70
0
 62
7
  6
CONTINUOUS
370
-3
390
F
  0
LAYER
  5
20B
100
AcDbSymbolTableRecord
100
AcDbLayerTableRecord
  2
INTF_21
 70
0
 62
7
  6
CONTINUOUS
370
-3
390
F
  0
LAYER
  5
20C
100
AcDbSymbolTableRecord
100
AcDbLayerTableRecord
  2
INTF_7
 70
0
 62
7
  6
CONTINUOUS
370
-3
390
F
  0
LAYER
  5
20D
100
AcDbSymbolTableRecord
100
AcDbLayerTableRecord
  2
NOTE
 70
0
 62
7
  6
CONTINUOUS
370
-3
390
F
  0
LAYER
  5
20E
100
AcDbSymbolTableRecord
100
AcDbLayerTableRecord
  2
PIANI
 70
0
 62
7
  6
CONTINUOUS
370
-3
390
F
  0
LAYER
  5
20F
100
AcDbSymbolTableRecord
100
AcDbLayerTableRecord
  2
PIANI_ORIGINE
 70
0
 62
7
  6
CONTINUOUS
370
-3
390
F
  0
LAYER
  5
210
100
AcDbSymbolTableRecord
100
AcDbLayerTableRecord
  2
PIANI_RIFERIMENTO
 70
0
 62
7
  6
CONTINUOUS
370
-3
390
F
  0
LAYER
  5
211
100
AcDbSymbolTableRecord
100
AcDbLayerTableRecord
  2
PUNTI
 70
0
 62
7
  6
CONTINUOUS
370
-3
390
F
  0
LAYER
  5
212
100
AcDbSymbolTableRecord
100
AcDbLayerTableRecord
  2
RACCORDO
 70
0
 62
7
  6
CONTINUOUS
370
-3
390
F
  0
LAYER
  5
213
100
AcDbSymbolTableRecord
100
AcDbLayerTableRecord
  2
RGB__255__255__255__
 70
0
 62
7
  6
CONTINUOUS
370
-3
390
F
  0
LAYER
  5
214
100
AcDbSymbolTableRecord
100
AcDbLayerTableRecord
  2
RGB____0____0____0__
 70
0
 62
7
  6
CONTINUOUS
370
-3
390
F
  0
LAYER
  5
215
100
AcDbSymbolTableRecord
100
AcDbLayerTableRecord
  2
SIMBOLI
 70
0
 62
7
  6
CONTINUOUS
370
-3
390
F
  0
LAYER
  5
216
100
AcDbSymbolTableRecord
100
AcDbLayerTableRecord
  2
SMUSSO
 70
0
 62
7
  6
CONTINUOUS
370
-3
390
F
  0
LAYER
  5
217
100
AcDbSymbolTableRecord
100
AcDbLayerTableRecord
  2
SNAPLINE
 70
0
 62
7
  6
CONTINUOUS
370
-3
390
F
  0
LAYER
  5
218
100
AcDbSymbolTableRecord
100
AcDbLayerTableRecord
  2
SUPERFICI
 70
0
 62
7
  6
CONTINUOUS
370
-3
390
F
  0
LAYER
  5
219
100
AcDbSymbolTableRecord
100
AcDbLayerTableRecord
  2
TRASH
 70
0
 62
7
  6
CONTINUOUS
370
-3
390
F
  0
LAYER
  5
21A
100
AcDbSymbolTableRecord
100
AcDbLayerTableRecord
  2
XSEC_DATUMS
 70
0
 62
7
  6
CONTINUOUS
370
-3
390
F
  0
ENDTAB
  0
TABLE
  2
STYLE
  5
3
100
AcDbSymbolTable
 70
1
  0
STYLE
  5
11
100
AcDbSymbolTableRecord
100
AcDbTextStyleTableRecord
  2
STANDARD
 70
0
 40
0.0
 41
0.8
 50
0.0
 71
0
 42
0.2
  3
txt
  4

  0
STYLE
  5
21B
100
AcDbSymbolTableRecord
100
AcDbTextStyleTableRecord
  2
TEXTSTYLE_1
 70
0
 40
0.0
 41
0.8
 50
0.0
 71
0
 42
0.2
  3
gdt
  4

  0
ENDTAB
  0
TABLE
  2
VIEW
  5
6
100
AcDbSymbolTable
 70
0
  0
ENDTAB
  0
TABLE
  2
UCS
  5
7
100
AcDbSymbolTable
 70
0
  0
ENDTAB
  0
TABLE
  2
APPID
  5
9
100
AcDbSymbolTable
 70
1
  0
APPID
  5
21C
100
AcDbSymbolTableRecord
100
AcDbRegAppTableRecord
  2
ACAD
 70
0
  0
ENDTAB
  0
TABLE
  2
BLOCK_RECORD
  5
1
100
AcDbSymbolTable
 70
0
  0
BLOCK_RECORD
  5
21D
100
AcDbSymbolTableRecord
100
AcDbBlockTableRecord
  2
*Model_Space
  0
BLOCK_RECORD
  5
21E
100
AcDbSymbolTableRecord
100
AcDbBlockTableRecord
  2
*Paper_Space
  0
BLOCK_RECORD
  5
21F
100
AcDbSymbolTableRecord
100
AcDbBlockTableRecord
  2
_FILLED
  0
ENDTAB
  0
TABLE
  2
DIMSTYLE
  5
A
100
AcDbSymbolTable
 70
1
100
AcDbDimStyleTable
 71
0
  0
DIMSTYLE
105
220
100
AcDbSymbolTableRecord
100
AcDbDimStyleTableRecord
  2
STANDARD
 70
0
  3

  4

 40
1.0
 41
3.0
 42
0.5
 43
0.38
 44
1.5
 45
0.0
 46
0.0
 47
0.01
 48
0.01
140
3.0
141
0.09
142
0.0
143
25.4
144
1.0
145
0.0
146
1.0
147
0.625
 71
1.0
 72
0.0
 73
0
 74
0
 75
0
 76
0
 77
1
 78
8
 79
2
170
0
171
1
172
0
173
0
174
0
175
0
176
0
177
0
178
0
270
2
179
2
271
2
272
2
273
2
274
2
275
0
280
0
281
0
282
0
283
1
284
8
285
0
286
0
287
3
288
0
340
11
278
44
341
21F
342
21F
343
21F
344
21F
  0
ENDTAB
  0
ENDSEC
  0
SECTION
  2
BLOCKS
  0
BLOCK
  5
20
100
AcDbEntity
  8
0
100
AcDbBlockBegin
  2
*Model_Space
 70
0
 10
0.0
 20
0.0
 30
0.0
  3
*Model_Space
  1

  0
ENDBLK
  5
21
100
AcDbEntity
  8
0
100
AcDbBlockEnd
  0
BLOCK
  5
1C
100
AcDbEntity
  8
0
100
AcDbBlockBegin
  2
*Paper_Space
 70
0
 10
0.0
 20
0.0
 30
0.0
  3
*Paper_Space
  1

  0
ENDBLK
  5
1D
100
AcDbEntity
  8
0
100
AcDbBlockEnd
  0
BLOCK
  5
221
100
AcDbEntity
  8
0
100
AcDbBlockBegin
  2
_FILLED
 70
64
 10
0.0
 20
0.0
  3
_FILLED
  1

  0
SOLID
  5
222
100
AcDbEntity
  8
0
  6
BYBLOCK
 62
0
100
AcDbTrace
 10
0.0
 20
0.0
 11
-1.0
 21
0.3166666667
 12
-1.0
 22
-0.3166666667
 13
-1.0
 23
-0.3166666667
  0
ENDBLK
  5
223
100
AcDbEntity
  8
0
  6
BYBLOCK
 62
0
100
AcDbBlockEnd
  0
ENDSEC
  0
SECTION
  2
ENTITIES
  0
LINE
  5
224
100
AcDbEntity
  8
SMUSSO
100
AcDbLine
 62
7
  6
CONTINUOUS
 10
95.0026521536
 20
198.9189793363
 11
97.4775258877
 21
200.347900958
  0
LINE
  5
225
100
AcDbEntity
  8
0
100
AcDbLine
 62
7
  6
CONTINUOUS
 10
99.993686463
 20
200.9970755395
 11
98.10880543
 21
199.9834475171
  0
LINE
  5
226
100
AcDbEntity
  8
0
100
AcDbLine
 62
250
  6
CONTINUOUS
 10
100.5142966744
 20
200.9584509183
 11
98.395601692
 21
199.8190853204
  0
LINE
  5
227
100
AcDbEntity
  8
0
100
AcDbLine
 62
250
  6
CONTINUOUS
 10
117.9482672031
 20
168.8103575671
 11
118.7966791735
 21
169.3002200057
  0
LWPOLYLINE
  5
228
100
AcDbEntity
  8
0
100
AcDbPolyline
 62
7
  6
CONTINUOUS
 90
15
 70
0
 10
118.1967663484
 20
169.3596418004
 10
118.2145008167
 20
169.3692932532
 10
118.2513747084
 20
169.3858927703
 10
118.2900943493
 20
169.3988867429
 10
118.33052867
 20
169.4082311813
 10
118.3725407178
 20
169.4138944555
 10
118.4159884648
 20
169.415857435
 10
118.4607247263
 20
169.4141134849
 10
118.5065974851
 20
169.4086686378
 10
118.5534514977
 20
169.3995414917
 10
118.6011281417
 20
169.3867631139
 10
118.6494652984
 20
169.3703772048
 10
118.6982991105
 20
169.3504396625
 10
118.7474645743
 20
169.3270182016
 10
118.7967953405
 20
169.3001923872
  0
LINE
  5
229
100
AcDbEntity
  8
SMUSSO
100
AcDbLine
 62
7
  6
CONTINUOUS
 10
95.0026521536
 20
198.9189793363
 11
95.0026521536
 21
72.2843999508
  0
LINE
  5
22A
100
AcDbEntity
  8
SMUSSO
100
AcDbLine
 62
7
  6
CONTINUOUS
 10
95.0026521536
 20
72.2843999508
 11
204.6749139156
 21
8.9610499806
  0
LINE
  5
22B
100
AcDbEntity
  8
0
100
AcDbLine
 62
7
  6
CONTINUOUS
 10
180.5272173381
 20
37.9674644947
 11
118.4432419499
 21
73.8139737888
  0
LWPOLYLINE
  5
22C
100
AcDbEntity
  8
0
100
AcDbPolyline
 62
7
  6
CONTINUOUS
 90
31
 70
0
 10
118.4432419499
 20
73.8139737888
 10
118.3800498987
 20
73.8524048926
 10
118.3173710249
 20
73.8942904496
 10
118.2552053284
 20
73.9396304598
 10
118.1933852602
 20
73.9885679423
 10
118.1320783695
 20
74.040959878
 10
118.071787303
 20
74.0963772093
 10
118.0125204613
 20
74.1548448857
 10
117.9542694438
 20
74.2163379577
 10
117.8975116958
 20
74.28035252
 10
117.8422595905
 20
74.3469092764
 10
117.7885007546
 20
74.4159875231
 10
117.7366755135
 20
74.4870212433
 10
117.6867999894
 20
74.5600261197
 10
117.6388580601
 20
74.6349864695
 10
117.5932416845
 20
74.7112892282
 10
117.5499698829
 20
74.7889453546
 10
117.509023635
 20
74.8679438898
 10
117.4707378379
 20
74.9476388928
 10
117.4351341546
 20
75.0280363814
 10
117.4021909222
 20
75.1091303379
 10
117.3721780497
 20
75.1902567678
 10
117.3451195722
 20
75.2714162867
 10
117.3209914545
 20
75.352608279
 10
117.2999915004
 20
75.4331669035
 10
117.2821455847
 20
75.513086738
 10
117.2674278326
 20
75.5923732046
 10
117.2559584224
 20
75.6703767284
 10
117.2477774136
 20
75.7468807844
 10
117.2428447468
 20
75.8221018976
 10
117.2411604219
 20
75.896040068
  0
LWPOLYLINE
  5
22D
100
AcDbEntity
  8
0
100
AcDbPolyline
 62
7
  6
CONTINUOUS
 90
31
 70
0
 10
117.2411604219
 20
168.8103575671
 10
117.2428447271
 20
168.8823506152
 10
117.2477773863
 20
168.9518755573
 10
117.2559583996
 20
169.0189323935
 10
117.2674278466
 20
169.0836914448
 10
117.2821456477
 20
169.1459823901
 10
117.2999915639
 20
169.2052942659
 10
117.3209914033
 20
169.2616024711
 10
117.3451193579
 20
169.3149316068
 10
117.3721777643
 20
169.3648445129
 10
117.4021907405
 20
169.411312977
 10
117.4351341685
 20
169.4543652114
 10
117.4707380317
 20
169.493648693
 10
117.5090239739
 20
169.5291323089
 10
117.5499703512
 20
169.5608471719
 10
117.5932422154
 20
169.5885340965
 10
117.6388585684
 20
169.6121601489
 10
117.6868004082
 20
169.6317582628
 10
117.7366757802
 20
169.6471680543
 10
117.7885007288
 20
169.6583552464
 10
117.8422592096
 20
169.665354116
 10
117.8975111357
 20
169.66810711
 10
117.9542690589
 20
169.6665792284
 10
118.0125204274
 20
169.6608054712
 10
118.0717874984
 20
169.6508332844
 10
118.1320785149
 20
169.6366280316
 10
118.1933852341
 20
169.6182243491
 10
118.2552051843
 20
169.5957735921
 10
118.3173708751
 20
169.5693262123
 10
118.3800497969
 20
169.5388317579
 10
118.4432419499
 20
169.5042902289
  0
LINE
  5
22E
100
AcDbEntity
  8
0
100
AcDbLine
 62
7
  6
CONTINUOUS
 10
180.8807707287
 20
38.5798369297
 11
118.7967953405
 21
74.4263462239
  0
LINE
  5
22F
100
AcDbEntity
  8
RACCORDO
100
AcDbLine
 62
7
  6
CONTINUOUS
 10
121.2716690747
 20
75.8553073005
 11
181.7292988661
 21
40.947829571
  0
LWPOLYLINE
  5
230
100
AcDbEntity
  8
0
100
AcDbPolyline
 62
7
  6
CONTINUOUS
 90
28
 70
0
 10
118.7967953405
 20
74.4263462239
 10
118.747464962
 20
74.4564860919
 10
118.6982997695
 20
74.4898394567
 10
118.6494661116
 20
74.5262938108
 10
118.601128947
 20
74.5657263885
 10
118.553452184
 20
74.6080038559
 10
118.506598081
 20
74.6529825882
 10
118.4607253284
 20
74.7005104001
 10
118.4159890959
 20
74.7504266805
 10
118.3725413257
 20
74.8025620034
 10
118.3305291551
 20
74.856739845
 10
118.2900946738
 20
74.9127770056
 10
118.2513749198
 20
74.9704835885
 10
118.2145009829
 20
75.0296642012
 10
118.1795975704
 20
75.0901186742
 10
118.146782776
 20
75.1516424562
 10
118.1161676115
 20
75.2140274182
 10
118.0878557155
 20
75.2770623799
 10
118.0619429641
 20
75.3405338492
 10
118.0385169461
 20
75.404227259
 10
118.0176570073
 20
75.4679268473
 10
117.9994339389
 20
75.5314162115
 10
117.9839092635
 20
75.594480575
 10
117.971135394
 20
75.6569065202
 10
117.9611555505
 20
75.7184818995
 10
117.954003259
 20
75.7789981554
 10
117.9497023849
 20
75.8382509849
 10
117.9482672031
 20
75.896040068
  0
LWPOLYLINE
  5
231
100
AcDbEntity
  8
RACCORDO
100
AcDbPolyline
 62
7
  6
CONTINUOUS
 90
28
 70
0
 10
120.4231409372
 20
77.3250011447
 10
120.4246167969
 20
77.2668631888
 10
120.4289138133
 20
77.2076707152
 10
120.4360319863
 20
77.1474237237
 10
120.4460143961
 20
77.0859116971
 10
120.4588179626
 20
77.0233451526
 10
120.4743134454
 20
76.9603556425
 10
120.4925281088
 20
76.8969388828
 10
120.5134346885
 20
76.8330991574
 10
120.5368221518
 20
76.7694808701
 10
120.5627156255
 20
76.7060862635
 10
120.5910899827
 20
76.6429130949
 10
120.6216588102
 20
76.5805990397
 10
120.654444334
 20
76.5191527993
 10
120.6894243281
 20
76.4585656723
 10
120.7262457015
 20
76.3994492304
 10
120.7649271039
 20
76.341818369
 10
120.8054498855
 20
76.2856581928
 10
120.847405006
 20
76.2315355873
 10
120.8908069721
 20
76.1794711895
 10
120.9356412771
 20
76.1294443626
 10
120.9814553595
 20
76.0819600816
 10
121.0282591427
 20
76.0370440978
 10
121.0760427033
 20
75.99467066
 10
121.1243237099
 20
75.9552674892
 10
121.1729413855
 20
75.9189771592
 10
121.222056507
 20
75.8856570963
 10
121.2716690747
 20
75.8553073005
  0
LINE
  5
232
100
AcDbEntity
  8
0
100
AcDbLine
 62
7
  6
CONTINUOUS
 10
117.2411604219
 20
75.896040068
 11
117.2411604219
 21
168.8103575671
  0
LINE
  5
233
100
AcDbEntity
  8
0
100
AcDbLine
 62
7
  6
CONTINUOUS
 10
117.9482672031
 20
75.896040068
 11
117.9482672031
 21
168.8103575671
  0
LINE
  5
234
100
AcDbEntity
  8
RACCORDO
100
AcDbLine
 62
7
  6
CONTINUOUS
 10
120.4231409372
 20
168.3611213676
 11
120.4231409372
 21
77.3250011447
  0
LINE
  5
235
100
AcDbEntity
  8
0
100
AcDbLine
 62
250
  6
CONTINUOUS
 10
121.0154766986
 20
76.0493109705
 11
121.0154766986
 21
168.0191141228
  0
LINE
  5
236
100
AcDbEntity
  8
0
100
AcDbLine
 62
7
  6
CONTINUOUS
 10
121.0996747585
 20
75.9753840301
 11
121.0996747585
 21
167.9704992182
  0
LWPOLYLINE
  5
237
100
AcDbEntity
  8
0
100
AcDbPolyline
 62
7
  6
CONTINUOUS
 90
15
 70
0
 10
117.9482672031
 20
168.8103575671
 10
117.9497023623
 20
168.8664889037
 10
117.954003182
 20
168.9207749096
 10
117.9611554071
 20
168.9730317389
 10
117.9711352031
 20
169.0230826816
 10
117.9839090581
 20
169.0707578282
 10
117.9994337221
 20
169.1158947969
 10
118.0176567476
 20
169.1583406359
 10
118.0385166292
 20
169.1979516893
 10
118.0619426132
 20
169.2345933672
 10
118.0878553964
 20
169.268141564
 10
118.1161673699
 20
169.2984827985
 10
118.1467825986
 20
169.3255142297
 10
118.1795974135
 20
169.3491443499
 10
118.1967663484
 20
169.3596418004
  0
LINE
  5
238
100
AcDbEntity
  8
0
100
AcDbLine
 62
250
  6
CONTINUOUS
 10
117.2411604219
 20
75.896040068
 11
117.9482672031
 21
75.896040068
  0
LINE
  5
239
100
AcDbEntity
  8
0
100
AcDbLine
 62
250
  6
CONTINUOUS
 10
118.4432419499
 20
73.8139737888
 11
118.7967953405
 21
74.4263462239
  0
LINE
  5
23A
100
AcDbEntity
  8
SMUSSO
100
AcDbLine
 62
7
  6
CONTINUOUS
 10
204.6749139156
 20
136.4120996429
 11
206.4426808686
 21
137.4327861262
  0
LINE
  5
23B
100
AcDbEntity
  8
0
100
AcDbLine
 62
250
  6
CONTINUOUS
 10
206.4438438799
 20
137.4333844436
 11
208.4898438416
 21
138.6147232354
  0
LINE
  5
23C
100
AcDbEntity
  8
SMUSSO
100
AcDbLine
 62
7
  6
CONTINUOUS
 10
204.6749139156
 20
135.5955899112
 11
203.9678071344
 21
135.1873547728
  0
LINE
  5
23D
100
AcDbEntity
  8
0
100
AcDbLine
 62
250
  6
CONTINUOUS
 10
207.1508429653
 20
136.2088261081
 11
209.196842927
 21
137.3901648998
  0
LINE
  5
23E
100
AcDbEntity
  8
SMUSSO
100
AcDbLine
 62
7
  6
CONTINUOUS
 10
205.3820206968
 20
135.1873547728
 11
207.1497876498
 21
136.2080412561
  0
LINE
  5
23F
100
AcDbEntity
  8
0
100
AcDbLine
 62
250
  6
CONTINUOUS
 10
117.9482672031
 20
75.896040068
 11
120.4231409372
 21
77.3250011447
  0
LINE
  5
240
100
AcDbEntity
  8
0
100
AcDbLine
 62
250
  6
CONTINUOUS
 10
118.7967953405
 20
74.4263462239
 11
121.2716690747
 21
75.8553073005
  0
LINE
  5
241
100
AcDbEntity
  8
0
100
AcDbLine
 62
7
  6
CONTINUOUS
 10
181.7292988661
 20
131.5757146556
 11
181.7292988661
 21
38.6613971565
  0
LWPOLYLINE
  5
242
100
AcDbEntity
  8
0
100
AcDbPolyline
 62
7
  6
CONTINUOUS
 90
31
 70
0
 10
181.7292988661
 20
38.6613971565
 10
181.727614561
 20
38.5894041084
 10
181.7226819018
 20
38.5198791663
 10
181.7145008885
 20
38.4528223301
 10
181.7030314415
 20
38.3880632788
 10
181.6883136404
 20
38.3257723335
 10
181.6704677242
 20
38.2664604577
 10
181.6494678847
 20
38.2101522525
 10
181.6253399302
 20
38.1568231168
 10
181.5982815237
 20
38.1069102107
 10
181.5682685476
 20
38.0604417466
 10
181.5353251195
 20
38.0173895122
 10
181.4997212563
 20
37.9781060306
 10
181.4614353141
 20
37.9426224147
 10
181.4204889368
 20
37.9109075517
 10
181.3772170727
 20
37.8832206271
 10
181.3316007197
 20
37.8595945747
 10
181.2836588799
 20
37.8399964608
 10
181.2337835078
 20
37.8245866693
 10
181.1819585593
 20
37.8133994772
 10
181.1282000784
 20
37.8064006076
 10
181.0729481523
 20
37.8036476136
 10
181.0161902291
 20
37.8051754952
 10
180.9579388607
 20
37.8109492524
 10
180.8986717896
 20
37.8209214392
 10
180.8383807731
 20
37.835126692
 10
180.777074054
 20
37.8535303745
 10
180.7152541038
 20
37.8759811315
 10
180.653088413
 20
37.9024285113
 10
180.5904094911
 20
37.9329229657
 10
180.5272173381
 20
37.9674644947
  0
LWPOLYLINE
  5
243
100
AcDbEntity
  8
0
100
AcDbPolyline
 62
7
  6
CONTINUOUS
 90
15
 70
0
 10
181.7292988661
 20
39.0696717499
 10
181.7278637069
 20
39.0135404132
 10
181.7235628872
 20
38.9592544073
 10
181.7164106621
 20
38.906997578
 10
181.7064308661
 20
38.8569466353
 10
181.6936570111
 20
38.8092714887
 10
181.6781323471
 20
38.7641345201
 10
181.6599093216
 20
38.721688681
 10
181.6390494401
 20
38.6820776276
 10
181.615623456
 20
38.6454359497
 10
181.5897106728
 20
38.6118877529
 10
181.5613986993
 20
38.5815465184
 10
181.5307834706
 20
38.5545150872
 10
181.4979686557
 20
38.5308849671
 10
181.4807997209
 20
38.5203875165
  0
LINE
  5
244
100
AcDbEntity
  8
0
100
AcDbLine
 62
250
  6
CONTINUOUS
 10
209.2003973152
 20
137.3246052656
 11
209.9075040964
 21
138.4951713817
  0
LINE
  5
245
100
AcDbEntity
  8
0
100
AcDbLine
 62
250
  6
CONTINUOUS
 10
208.4348427201
 20
138.650584719
 11
209.8020320833
 21
138.6778542671
  0
LINE
  5
246
100
AcDbEntity
  8
0
100
AcDbLine
 62
7
  6
CONTINUOUS
 10
118.4432419499
 20
169.5042902289
 11
180.5272173381
 21
133.6577809348
  0
LWPOLYLINE
  5
247
100
AcDbEntity
  8
0
100
AcDbPolyline
 62
7
  6
CONTINUOUS
 90
31
 70
0
 10
180.5272173381
 20
133.6577809348
 10
180.5904093893
 20
133.619349831
 10
180.6530882632
 20
133.577464274
 10
180.7152539597
 20
133.5321242638
 10
180.7770740278
 20
133.4831867813
 10
180.8383809185
 20
133.4307948456
 10
180.8986719851
 20
133.3753775143
 10
180.9579388268
 20
133.3169098379
 10
181.0161898442
 20
133.2554167659
 10
181.0729475922
 20
133.1914022036
 10
181.1281996976
 20
133.1248454472
 10
181.1819585335
 20
133.0557672005
 10
181.2337837746
 20
132.9847334803
 10
181.2836592986
 20
132.9117286039
 10
181.3316012279
 20
132.8367682541
 10
181.3772176035
 20
132.7604654954
 10
181.4204894051
 20
132.682809369
 10
181.4614356531
 20
132.6038108338
 10
181.4997214501
 20
132.5241158308
 10
181.5353251334
 20
132.4437183422
 10
181.5682683658
 20
132.3626243857
 10
181.5982812383
 20
132.2814979558
 10
181.6253397159
 20
132.2003384369
 10
181.6494678335
 20
132.1191464446
 10
181.6704677877
 20
132.0385878201
 10
181.6883137033
 20
131.9586679856
 10
181.7030314554
 20
131.879381519
 10
181.7145008656
 20
131.8013779952
 10
181.7226818744
 20
131.7248739392
 10
181.7276145412
 20
131.649652826
 10
181.7292988661
 20
131.5757146556
  0
LINE
  5
248
100
AcDbEntity
  8
SMUSSO
100
AcDbLine
 62
7
  6
CONTINUOUS
 10
203.9678071344
 20
9.369285119
 11
203.9678071344
 21
135.1873547728
  0
LINE
  5
249
100
AcDbEntity
  8
SMUSSO
100
AcDbLine
 62
7
  6
CONTINUOUS
 10
204.6749139156
 20
136.4120996429
 11
204.6749139156
 21
135.5955899112
  0
LINE
  5
24A
100
AcDbEntity
  8
SMUSSO
100
AcDbLine
 62
7
  6
CONTINUOUS
 10
205.3820206968
 20
9.369285119
 11
205.3820206968
 21
135.1873547728
  0
LINE
  5
24B
100
AcDbEntity
  8
SMUSSO
100
AcDbLine
 62
7
  6
CONTINUOUS
 10
203.9678071344
 20
135.1873547728
 11
95.0026521536
 21
198.1024696046
  0
LINE
  5
24C
100
AcDbEntity
  8
SMUSSO
100
AcDbLine
 62
7
  6
CONTINUOUS
 10
204.6749139156
 20
135.5955899112
 11
205.3820206968
 21
135.1873547728
  0
LWPOLYLINE
  5
24D
100
AcDbEntity
  8
0
100
AcDbPolyline
 62
7
  6
CONTINUOUS
 90
7
 70
0
 10
209.2003973152
 20
137.3246052656
 10
209.2003062318
 20
137.3355636232
 10
209.2000146226
 20
137.34650928
 10
209.1995224875
 20
137.3574422361
 10
209.1988298265
 20
137.3683624914
 10
209.1979366397
 20
137.379270046
 10
209.196842927
 20
137.3901648998
  0
LINE
  5
24E
100
AcDbEntity
  8
SMUSSO
100
AcDbLine
 62
7
  6
CONTINUOUS
 10
207.1497876498
 20
10.3899716023
 11
207.1497876498
 21
137.0245509878
  0
LINE
  5
24F
100
AcDbEntity
  8
0
100
AcDbLine
 62
7
  6
CONTINUOUS
 10
209.2003973152
 20
137.3246052656
 11
209.2003973152
 21
12.7845690954
  0
LINE
  5
250
100
AcDbEntity
  8
0
100
AcDbLine
 62
7
  6
CONTINUOUS
 10
209.9075040964
 20
138.4951713817
 11
209.9075040964
 21
14.8801997259
  0
LINE
  5
251
100
AcDbEntity
  8
0
100
AcDbLine
 62
250
  6
CONTINUOUS
 10
180.5272173381
 20
37.9674644947
 11
180.8807707287
 21
38.5798369297
  0
LWPOLYLINE
  5
252
100
AcDbEntity
  8
0
100
AcDbPolyline
 62
7
  6
CONTINUOUS
 90
7
 70
0
 10
100.5765328608
 20
200.9266210497
 10
100.5669024732
 20
200.9320763338
 10
100.5569751615
 20
200.9374714955
 10
100.5467509258
 20
200.9428065348
 10
100.536229766
 20
200.9480814517
 10
100.5254116822
 20
200.9532962462
 10
100.5142966744
 20
200.9584509183
  0
LINE
  5
253
100
AcDbEntity
  8
SMUSSO
100
AcDbLine
 62
7
  6
CONTINUOUS
 10
204.6749139156
 20
136.4120996429
 11
95.7097589348
 21
199.3272144747
  0
LINE
  5
254
100
AcDbEntity
  8
SMUSSO
100
AcDbLine
 62
7
  6
CONTINUOUS
 10
97.4775258877
 20
200.347900958
 11
207.1497876498
 21
137.0245509878
  0
LINE
  5
255
100
AcDbEntity
  8
0
100
AcDbLine
 62
7
  6
CONTINUOUS
 10
100.5765328608
 20
200.9266210497
 11
208.4348427201
 21
138.650584719
  0
LINE
  5
256
100
AcDbEntity
  8
0
100
AcDbLine
 62
7
  6
CONTINUOUS
 10
102.7448774035
 20
200.4913136379
 11
209.8020320833
 21
138.6778542671
  0
LWPOLYLINE
  5
257
100
AcDbEntity
  8
0
100
AcDbPolyline
 62
7
  6
CONTINUOUS
 90
7
 70
0
 10
208.4898438416
 20
138.6147232354
 10
208.4809565112
 20
138.6211175597
 10
208.4719573715
 20
138.6273449198
 10
208.4628464225
 20
138.6334053158
 10
208.4536236643
 20
138.6392987477
 10
208.4442890968
 20
138.6450252155
 10
208.4348427201
 20
138.650584719
  0
LWPOLYLINE
  5
258
100
AcDbEntity
  8
0
100
AcDbPolyline
 62
7
  6
CONTINUOUS
 90
28
 70
0
 10
209.196842927
 20
137.3901648998
 10
209.1911116762
 20
137.4352696147
 10
209.1834754801
 20
137.4819177465
 10
209.1739315277
 20
137.5299502857
 10
209.1625113663
 20
137.5792261606
 10
209.1492015906
 20
137.6295537459
 10
209.1339471556
 20
137.6806905711
 10
209.1167712204
 20
137.7324560239
 10
209.0977243719
 20
137.7846747604
 10
209.0768111449
 20
137.8371076362
 10
209.0540769697
 20
137.8895810577
 10
209.0296034114
 20
137.9419041764
 10
209.0034716793
 20
137.9938135158
 10
208.975782776
 20
138.0450891855
 10
208.9466238218
 20
138.095600588
 10
208.9160674632
 20
138.1452218331
 10
208.8841832055
 20
138.1938122018
 10
208.8511109773
 20
138.2411742262
 10
208.8170383597
 20
138.2871056935
 10
208.7820899525
 20
138.3314403972
 10
208.7463932728
 20
138.3740523389
 10
208.7101528459
 20
138.4148182682
 10
208.6735002126
 20
138.4536008843
 10
208.6365753801
 20
138.4902962159
 10
208.5995999239
 20
138.52484608
 10
208.5627405642
 20
138.5571675867
 10
208.5261087566
 20
138.5871536443
 10
208.4898438416
 20
138.6147232354
  0
LWPOLYLINE
  5
259
100
AcDbEntity
  8
0
100
AcDbPolyline
 62
7
  6
CONTINUOUS
 90
7
 70
0
 10
209.196842927
 20
12.7147591081
 10
209.1979365505
 20
12.7269600627
 10
209.1988296837
 20
12.7389346347
 10
209.1995223269
 20
12.7506828239
 10
209.2000144798
 20
12.7622046305
 10
209.2003061426
 20
12.7735000543
 10
209.2003973152
 20
12.7845690954
  0
LINE
  5
25A
100
AcDbEntity
  8
0
100
AcDbLine
 62
250
  6
CONTINUOUS
 10
117.2411604219
 20
168.8103575671
 11
117.9482672031
 21
168.8103575671
  0
LWPOLYLINE
  5
25B
100
AcDbEntity
  8
0
100
AcDbPolyline
 62
7
  6
CONTINUOUS
 90
6
 70
0
 10
100.5142966744
 20
200.9584509183
 10
100.4688630678
 20
200.9780716523
 10
100.4239554714
 20
200.9951922572
 10
100.3797079661
 20
201.0097311781
 10
100.3362789442
 20
201.0216325088
 10
100.3163611341
 20
201.02625513
  0
LINE
  5
25C
100
AcDbEntity
  8
0
100
AcDbLine
 62
250
  6
CONTINUOUS
 10
180.8807707287
 20
38.5798369297
 11
181.7292988661
 21
39.0697664417
  0
LWPOLYLINE
  5
25D
100
AcDbEntity
  8
0
100
AcDbPolyline
 62
7
  6
CONTINUOUS
 90
15
 70
0
 10
181.4807997209
 20
38.5203875165
 10
181.4630652526
 20
38.5107360637
 10
181.4261913608
 20
38.4941365466
 10
181.3874717199
 20
38.481142574
 10
181.3470373992
 20
38.4717981356
 10
181.3050253514
 20
38.4661348615
 10
181.2615776044
 20
38.4641718819
 10
181.2168413429
 20
38.465915832
 10
181.1709685841
 20
38.4713606791
 10
181.1241145715
 20
38.4804878252
 10
181.0764379275
 20
38.493266203
 10
181.0281007708
 20
38.5096521121
 10
180.9792669588
 20
38.5295896544
 10
180.9301014949
 20
38.5530111153
 10
180.8807707287
 20
38.5798369297
  0
LWPOLYLINE
  5
25E
100
AcDbEntity
  8
0
100
AcDbPolyline
 62
7
  6
CONTINUOUS
 90
6
 70
0
 10
209.1566103797
 20
12.5095182608
 10
209.1624642429
 20
12.5287319529
 10
209.1738936715
 20
12.5723078944
 10
209.1834519144
 20
12.6179482992
 10
209.1911018215
 20
12.6654837528
 10
209.196842927
 20
12.7147591081
  0
LINE
  5
25F
100
AcDbEntity
  8
0
100
AcDbLine
 62
7
  6
CONTINUOUS
 10
209.9026639311
 20
14.8460374372
 11
209.1566175947
 21
12.5095222317
  0
LINE
  5
260
100
AcDbEntity
  8
0
100
AcDbLine
 62
7
  6
CONTINUOUS
 10
102.7128619951
 20
200.5042070341
 11
100.3163674009
 21
201.0262589216
  0
LINE
  5
261
100
AcDbEntity
  8
0
100
AcDbLine
 62
250
  6
CONTINUOUS
 10
209.2003973152
 20
12.7845690954
 11
209.9075040964
 21
14.8801997259
  0
LINE
  5
262
100
AcDbEntity
  8
0
100
AcDbLine
 62
250
  6
CONTINUOUS
 10
100.5765328608
 20
200.9266210497
 11
102.7448774035
 21
200.4913136379
  0
LWPOLYLINE
  5
263
100
AcDbEntity
  8
0
100
AcDbPolyline
 62
7
  6
CONTINUOUS
 90
11
 70
0
 10
100.3163611341
 20
201.02625513
 10
100.2937800116
 20
201.0308154801
 10
100.2522748511
 20
201.0371784337
 10
100.2118840909
 20
201.0406760424
 10
100.1727525293
 20
201.0412825649
 10
100.1349756288
 20
201.0389500194
 10
100.0986640557
 20
201.0336691054
 10
100.0639553178
 20
201.0254521331
 10
100.0309741718
 20
201.0143154897
 10
99.9998361423
 20
201.0003010314
 10
99.9936799646
 20
200.9970720448
  0
LWPOLYLINE
  5
264
100
AcDbEntity
  8
0
100
AcDbPolyline
 62
7
  6
CONTINUOUS
 90
11
 70
0
 10
208.970007757
 20
12.2446475373
 10
208.9756488563
 20
12.2482139728
 10
209.0033667802
 20
12.2681499307
 10
209.0295148566
 20
12.2911217747
 10
209.0539987453
 20
12.3170503444
 10
209.0767411829
 20
12.3458351503
 10
209.0976617328
 20
12.3773614558
 10
209.1167145133
 20
12.4115301677
 10
209.1338955649
 20
12.4482395369
 10
209.1491519341
 20
12.4873475695
 10
209.1566103797
 20
12.5095182608
  0
LINE
  5
265
100
AcDbEntity
  8
0
100
AcDbLine
 62
250
  6
CONTINUOUS
 10
207.1508429653
 20
11.4494820411
 11
209.196842927
 21
12.7147591081
  0
LINE
  5
266
100
AcDbEntity
  8
0
100
AcDbLine
 62
7
  6
CONTINUOUS
 10
207.1497876498
 20
11.1189961191
 11
208.9700140129
 21
12.244651406
  0
LINE
  5
267
100
AcDbEntity
  8
SMUSSO
100
AcDbLine
 62
7
  6
CONTINUOUS
 10
207.1497876498
 20
10.3899716023
 11
204.6749139156
 21
8.9610499806
  0
ELLIPSE
  5
268
100
AcDbEntity
  8
0
100
AcDbEllipse
 62
7
  6
CONTINUOUS
 10
209.7978936465
 20
14.9482659273
 30
0.0
 11
-0.0789593082
 21
0.1367536506
 31
0.0
 40
0.5559303978
 41
-2.6734061024
 42
-2.3751218051
  0
ELLIPSE
  5
269
100
AcDbEntity
  8
0
100
AcDbEllipse
 62
7
  6
CONTINUOUS
 10
209.7978936465
 20
138.5536805805
 30
0.0
 11
-0.0760331802
 21
0.1316838075
 31
0.0
 40
0.599556811
 41
-2.337364303
 42
-0.8043328123
  0
ELLIPSE
  5
26A
100
AcDbEntity
  8
0
100
AcDbEllipse
 62
7
  6
CONTINUOUS
 10
102.7490158404
 20
200.3623609882
 30
0.0
 11
-0.0789593082
 21
0.1367536506
 31
0.0
 40
0.5559303978
 41
-0.7665606423
 42
-0.4681919906
  0
ENDSEC
  0
SECTION
  2
OBJECTS
  0
DICTIONARY
  5
C
100
AcDbDictionary
280
0
281
1
  3
ACAD_GROUP
350
D
  3
ACAD_MLINESTYLE
350
17
  3
ACAD_LAYOUT
350
1A
  3
ACAD_PLOTSETTINGS
350
19
  3
ACAD_PLOTSTYLENAME
350
E
  0
DICTIONARY
  5
D
102
{ACAD_REACTORS
330
C
102
}
100
AcDbDictionary
280
0
281
1
  0
ACDBDICTIONARYWDFLT
  5
E
102
{ACAD_REACTORS
330
C
102
}
100
AcDbDictionary
281
1
  3
Normal
350
F
100
AcDbDictionaryWithDefault
340
F
  0
DICTIONARY
  5
17
102
{ACAD_REACTORS
330
C
102
}
100
AcDbDictionary
280
0
281
1
  3
Standard
350
18
  0
DICTIONARY
  5
19
102
{ACAD_REACTORS
330
C
102
}
100
AcDbDictionary
281
1
  0
DICTIONARY
  5
1A
102
{ACAD_REACTORS
330
C
102
}
100
AcDbDictionary
281
1
  3
Model
350
26B
  3
Layout1
350
26C
  0
ACDBPLACEHOLDER
  5
F
102
{ACAD_REACTORS
330
E
102
}
  0
MLINESTYLE
  5
18
102
{ACAD_REACTORS
330
17
102
}
100
AcDbMlineStyle
  2
STANDARD
 70
0
  3

 62
256
 51
90.0
 52
90.0
 71
2
 49
0.5
 62
256
  6
BYLAYER
 49
-0.5
 62
256
  6
BYLAYER
  0
LAYOUT
  5
26B
102
{ACAD_REACTORS
330
1A
102
}
100
AcDbPlotSettings
  1

  2
none_device
  4
ISO_A4_(297.00_x_210.00_MM)
  6

 40
0.0
 41
0.0
 42
0.0
 43
0.0
 44
297.0
 45
210.0
 46
0.0
 47
0.0
 48
0.0
 49
0.0
140
0.0
141
0.0
142
1.0
143
1.0
 70
1024
 72
1
 73
0
 74
0
  7

 75
0
147
1.0
148
0.0
149
0.0
100
AcDbLayout
  1
Model
 70
0
 71
0
 10
0.0
 20
0.0
 11
297.0
 21
210.0
 12
0.0
 22
0.0
 32
0.0
 14
0.0
 24
0.0
 34
0.0
 15
0.0
 25
0.0
 35
0.0
146
0.0
 13
0.0
 23
0.0
 33
0.0
 16
1.0
 26
0.0
 36
0.0
 17
0.0
 27
1.0
 37
0.0
 76
0
330
21D
345
0
346
0
  0
LAYOUT
  5
26C
102
{ACAD_REACTORS
330
1A
102
}
100
AcDbPlotSettings
  1

  2
none_device
  4
ISO_A4_(297.00_x_210.00_MM)
  6

 40
0.0
 41
0.0
 42
0.0
 43
0.0
 44
297.0
 45
210.0
 46
0.0
 47
0.0
 48
0.0
 49
0.0
140
0.0
141
0.0
142
1.0
143
1.0
 70
0
 72
1
 73
0
 74
0
  7

 75
0
147
1.0
148
0.0
149
0.0
100
AcDbLayout
  1
Layout1
 70
0
 71
1
 10
0.0
 20
0.0
 11
297.0
 21
210.0
 12
0.0
 22
0.0
 32
0.0
 14
0.0
 24
0.0
 34
0.0
 15
0.0
 25
0.0
 35
0.0
146
0.0
 13
0.0
 23
0.0
 33
0.0
 16
1.0
 26
0.0
 36
0.0
 17
0.0
 27
1.0
 37
0.0
 76
0
330
21E
345
0
346
0
  0
ENDSEC
  0
EOF
