  0
SECTION
  2
HEADER
  9
$ACADVER
  1
AC1024
  9
$DWGCODEPAGE
  3
ANSI_1252
  9
$EXTMAX
 10
297.0
 20
210.0
 30
0.0
  9
$EXTMIN
 10
0.0
 20
0.0
 30
0.0
  9
$LIMMIN
 10
0.0
 20
0.0
  9
$LIMMAX
 10
297.0
 20
210.0
  9
$VIEWCTR
 10
148.5
 20
105.0
  9
$VIEWSIZE
 40
210.0
  9
$CLAYER
  8
0
  9
$LTSCALE
 40
16.335
  9
$CELTYPE
  6
BYLAYER
  9
$DIMSCALE
 40
1.0
  9
$DIMASZ
 40
3.0
  9
$DIMEXO
 40
0.5
  9
$DIMDLI
 40
11.286
  9
$DIMEXE
 40
1.5
  9
$DIMCEN
 40
2.673
  9
$DIMLFAC
 40
1.0
  9
$DIMBLK
  1
_FILLED
  9
$DIMALT
 70
0
  9
$DIMALTF
 40
0.0393700787
  9
$DIMTXT
 40
3.0
  9
$DIMTOL
 70
1
  9
$DIMLIM
 70
0
  9
$DIMTFAC
 40
1.0
  9
$DIMTP
 40
0.01
  9
$DIMTM
 40
0.01
  9
$DIMGAP
 40
0.625
  9
$DIMDSEP
 70
44
  9
$AUNITS
 70
0
  9
$PDMODE
 70
3
  9
$PDSIZE
 40
3.0
  9
$HANDSEED
  5
2F5
  9
$TILEMODE
 70
1
  9
$MEASUREMENT
 70
1
  9
$INSUNITS
 70
4
  0
ENDSEC
  0
SECTION
  2
CLASSES
  0
CLASS
  1
ACDBDICTIONARYWDFLT
  2
AcDbDictionaryWithDefault
  3
AutoCAD 2000
 90
0
 91
1
280
0
281
0
  0
CLASS
  1
ACDBPLACEHOLDER
  2
AcDbPlaceHolder
  3
AutoCAD 2000
 90
0
 91
1
280
0
281
0
  0
CLASS
  1
LAYOUT
  2
AcDbLayout
  3
AutoCAD 2000
 90
0
 91
0
280
0
281
0
  0
ENDSEC
  0
SECTION
  2
TABLES
  0
TABLE
  2
VPORT
  5
8
100
AcDbSymbolTable
 70
2
  0
VPORT
  5
1F4
100
AcDbSymbolTableRecord
100
AcDbViewportTableRecord
  2
*ACTIVE
 70
0
 10
0.0
 20
0.0
 11
1.0
 21
1.0
 12
148.5
 22
105.0
 13
0.0
 23
0.0
 14
1.0
 24
1.0
 15
0.0
 25
0.0
 16
0.0
 26
0.0
 36
1.0
 17
0.0
 27
0.0
 37
0.0
 40
210.0
 41
1.4142857143
 42
50.0
 43
0.0
 44
0.0
 50
0.0
 51
0.0
 71
0
 72
100
 73
1
 74
1
 75
0
 76
0
 77
0
 78
0
  0
ENDTAB
  0
TABLE
  2
LTYPE
  5
5
100
AcDbSymbolTable
 70
6
  0
LTYPE
  5
14
100
AcDbSymbolTableRecord
100
AcDbLinetypeTableRecord
  2
BYBLOCK
 70
0
  3

 72
65
 73
0
 40
0.0
  0
LTYPE
  5
15
100
AcDbSymbolTableRecord
100
AcDbLinetypeTableRecord
  2
BYLAYER
 70
0
  3

 72
65
 73
0
 40
0.0
  0
LTYPE
  5
16
100
AcDbSymbolTableRecord
100
AcDbLinetypeTableRecord
  2
CONTINUOUS
 70
64
  3
Solid line
 72
65
 73
0
 40
0.0
  0
LTYPE
  5
1F5
100
AcDbSymbolTableRecord
100
AcDbLinetypeTableRecord
  2
CENTER
 70
64
  3
____ _ ____ _ ____ _ ____ _ ____ _ ____ _ ____
 72
65
 73
4
 40
0.6
 49
0.375
 74
0
 49
-0.075
 74
0
 49
0.075
 74
0
 49
-0.075
 74
0
  0
LTYPE
  5
1F6
100
AcDbSymbolTableRecord
100
AcDbLinetypeTableRecord
  2
HIDDEN
 70
64
  3
- - - - - - - - - - - - - - - - - - - -
 72
65
 73
2
 40
0.2
 49
0.1
 74
0
 49
-0.1
 74
0
  0
LTYPE
  5
1F7
100
AcDbSymbolTableRecord
100
AcDbLinetypeTableRecord
  2
PHANTOM
 70
64
  3
_____ _ _ _____ _ _ _____ _ _ _____
 72
65
 73
6
 40
0.8
 49
0.45
 74
0
 49
-0.05
 74
0
 49
0.1
 74
0
 49
-0.05
 74
0
 49
0.1
 74
0
 49
-0.05
 74
0
  0
LTYPE
  5
1F8
100
AcDbSymbolTableRecord
100
AcDbLinetypeTableRecord
  2
DOT
 70
64
  3
. . . . . . . . . . . . . . . . . . . .
 72
65
 73
2
 40
0.2
 49
0.1
 74
0
 49
-0.1
 74
0
  0
LTYPE
  5
1F9
100
AcDbSymbolTableRecord
100
AcDbLinetypeTableRecord
  2
DASHED
 70
64
  3
- - - - - - - - - - - - - - - - - - - -
 72
65
 73
2
 40
0.2
 49
0.1
 74
0
 49
-0.1
 74
0
  0
ENDTAB
  0
TABLE
  2
LAYER
  5
2
100
AcDbSymbolTable
 70
36
  0
LAYER
  5
10
100
AcDbSymbolTableRecord
100
AcDbLayerTableRecord
  2
0
 70
0
 62
7
  6
CONTINUOUS
370
-3
390
F
  0
LAYER
  5
1FA
100
AcDbSymbolTableRecord
100
AcDbLayerTableRecord
  2
DEFAULT_1
 70
0
 62
7
  6
CENTER
370
-3
390
F
  0
LAYER
  5
1FB
100
AcDbSymbolTableRecord
100
AcDbLayerTableRecord
  2
DEFAULT_2
 70
0
 62
7
  6
HIDDEN
370
-3
390
F
  0
LAYER
  5
1FC
100
AcDbSymbolTableRecord
100
AcDbLayerTableRecord
  2
DEFAULT_3
 70
0
 62
7
  6
PHANTOM
370
-3
390
F
  0
LAYER
  5
1FD
100
AcDbSymbolTableRecord
100
AcDbLayerTableRecord
  2
ASSI
 70
0
 62
7
  6
CONTINUOUS
370
-3
390
F
  0
LAYER
  5
1FE
100
AcDbSymbolTableRecord
100
AcDbLayerTableRecord
  2
COORDINATE
 70
0
 62
7
  6
CONTINUOUS
370
-3
390
F
  0
LAYER
  5
1FF
100
AcDbSymbolTableRecord
100
AcDbLayerTableRecord
  2
COORD_ORIGINE
 70
0
 62
7
  6
CONTINUOUS
370
-3
390
F
  0
LAYER
  5
200
100
AcDbSymbolTableRecord
100
AcDbLayerTableRecord
  2
COPY_PUBLISH
 70
0
 62
7
  6
CONTINUOUS
370
-3
390
F
  0
LAYER
  5
201
100
AcDbSymbolTableRecord
100
AcDbLayerTableRecord
  2
COSMETIC
 70
0
 62
7
  6
CONTINUOUS
370
-3
390
F
  0
LAYER
  5
202
100
AcDbSymbolTableRecord
100
AcDbLayerTableRecord
  2
COSMETICI
 70
0
 62
7
  6
CONTINUOUS
370
-3
390
F
  0
LAYER
  5
203
100
AcDbSymbolTableRecord
100
AcDbLayerTableRecord
  2
CURVE
 70
0
 62
7
  6
CONTINUOUS
370
-3
390
F
  0
LAYER
  5
204
100
AcDbSymbolTableRecord
100
AcDbLayerTableRecord
  2
CURVE_TASSELLI
 70
0
 62
7
  6
CONTINUOUS
370
-3
390
F
  0
LAYER
  5
205
100
AcDbSymbolTableRecord
100
AcDbLayerTableRecord
  2
DRAFT
 70
0
 62
7
  6
CONTINUOUS
370
-3
390
F
  0
LAYER
  5
206
100
AcDbSymbolTableRecord
100
AcDbLayerTableRecord
  2
IMPORT_IGES
 70
0
 62
7
  6
CONTINUOUS
370
-3
390
F
  0
LAYER
  5
207
100
AcDbSymbolTableRecord
100
AcDbLayerTableRecord
  2
INTFCLR_2
 70
0
 62
7
  6
CONTINUOUS
370
-3
390
F
  0
LAYER
  5
208
100
AcDbSymbolTableRecord
100
AcDbLayerTableRecord
  2
INTF_1
 70
0
 62
7
  6
CONTINUOUS
370
-3
390
F
  0
LAYER
  5
209
100
AcDbSymbolTableRecord
100
AcDbLayerTableRecord
  2
INTF_2
 70
0
 62
7
  6
CONTINUOUS
370
-3
390
F
  0
LAYER
  5
20A
100
AcDbSymbolTableRecord
100
AcDbLayerTableRecord
  2
INTF_21
 70
0
 62
7
  6
CONTINUOUS
370
-3
390
F
  0
LAYER
  5
20B
100
AcDbSymbolTableRecord
100
AcDbLayerTableRecord
  2
INTF_7
 70
0
 62
7
  6
CONTINUOUS
370
-3
390
F
  0
LAYER
  5
20C
100
AcDbSymbolTableRecord
100
AcDbLayerTableRecord
  2
INTF_CYAN
 70
0
 62
7
  6
CONTINUOUS
370
-3
390
F
  0
LAYER
  5
20D
100
AcDbSymbolTableRecord
100
AcDbLayerTableRecord
  2
NOTE
 70
0
 62
7
  6
CONTINUOUS
370
-3
390
F
  0
LAYER
  5
20E
100
AcDbSymbolTableRecord
100
AcDbLayerTableRecord
  2
PIANI
 70
0
 62
7
  6
CONTINUOUS
370
-3
390
F
  0
LAYER
  5
20F
100
AcDbSymbolTableRecord
100
AcDbLayerTableRecord
  2
PIANI_ORIGINE
 70
0
 62
7
  6
CONTINUOUS
370
-3
390
F
  0
LAYER
  5
210
100
AcDbSymbolTableRecord
100
AcDbLayerTableRecord
  2
PIANI_RIFERIMENTO
 70
0
 62
7
  6
CONTINUOUS
370
-3
390
F
  0
LAYER
  5
211
100
AcDbSymbolTableRecord
100
AcDbLayerTableRecord
  2
PUNTI
 70
0
 62
7
  6
CONTINUOUS
370
-3
390
F
  0
LAYER
  5
212
100
AcDbSymbolTableRecord
100
AcDbLayerTableRecord
  2
RACCORDO
 70
0
 62
7
  6
CONTINUOUS
370
-3
390
F
  0
LAYER
  5
213
100
AcDbSymbolTableRecord
100
AcDbLayerTableRecord
  2
RGB__255__255__255__
 70
0
 62
7
  6
CONTINUOUS
370
-3
390
F
  0
LAYER
  5
214
100
AcDbSymbolTableRecord
100
AcDbLayerTableRecord
  2
RGB____0____0____0__
 70
0
 62
7
  6
CONTINUOUS
370
-3
390
F
  0
LAYER
  5
215
100
AcDbSymbolTableRecord
100
AcDbLayerTableRecord
  2
SIMBOLI
 70
0
 62
7
  6
CONTINUOUS
370
-3
390
F
  0
LAYER
  5
216
100
AcDbSymbolTableRecord
100
AcDbLayerTableRecord
  2
SMUSSO
 70
0
 62
7
  6
CONTINUOUS
370
-3
390
F
  0
LAYER
  5
217
100
AcDbSymbolTableRecord
100
AcDbLayerTableRecord
  2
SUPERFICI
 70
0
 62
7
  6
CONTINUOUS
370
-3
390
F
  0
LAYER
  5
218
100
AcDbSymbolTableRecord
100
AcDbLayerTableRecord
  2
TRASH
 70
0
 62
7
  6
CONTINUOUS
370
-3
390
F
  0
LAYER
  5
219
100
AcDbSymbolTableRecord
100
AcDbLayerTableRecord
  2
XSEC_DATUMS
 70
0
 62
7
  6
CONTINUOUS
370
-3
390
F
  0
ENDTAB
  0
TABLE
  2
STYLE
  5
3
100
AcDbSymbolTable
 70
1
  0
STYLE
  5
11
100
AcDbSymbolTableRecord
100
AcDbTextStyleTableRecord
  2
STANDARD
 70
0
 40
0.0
 41
0.8
 50
0.0
 71
0
 42
0.2
  3
txt
  4

  0
STYLE
  5
21A
100
AcDbSymbolTableRecord
100
AcDbTextStyleTableRecord
  2
TEXTSTYLE_1
 70
0
 40
0.0
 41
0.8
 50
0.0
 71
0
 42
0.2
  3
gdt
  4

  0
ENDTAB
  0
TABLE
  2
VIEW
  5
6
100
AcDbSymbolTable
 70
0
  0
ENDTAB
  0
TABLE
  2
UCS
  5
7
100
AcDbSymbolTable
 70
0
  0
ENDTAB
  0
TABLE
  2
APPID
  5
9
100
AcDbSymbolTable
 70
1
  0
APPID
  5
21B
100
AcDbSymbolTableRecord
100
AcDbRegAppTableRecord
  2
ACAD
 70
0
  0
ENDTAB
  0
TABLE
  2
BLOCK_RECORD
  5
1
100
AcDbSymbolTable
 70
0
  0
BLOCK_RECORD
  5
21C
100
AcDbSymbolTableRecord
100
AcDbBlockTableRecord
  2
*Model_Space
  0
BLOCK_RECORD
  5
21D
100
AcDbSymbolTableRecord
100
AcDbBlockTableRecord
  2
*Paper_Space
  0
BLOCK_RECORD
  5
21E
100
AcDbSymbolTableRecord
100
AcDbBlockTableRecord
  2
_FILLED
  0
ENDTAB
  0
TABLE
  2
DIMSTYLE
  5
A
100
AcDbSymbolTable
 70
1
100
AcDbDimStyleTable
 71
0
  0
DIMSTYLE
105
21F
100
AcDbSymbolTableRecord
100
AcDbDimStyleTableRecord
  2
STANDARD
 70
0
  3

  4

 40
1.0
 41
3.0
 42
0.5
 43
0.38
 44
1.5
 45
0.0
 46
0.0
 47
0.01
 48
0.01
140
3.0
141
0.09
142
0.0
143
25.4
144
1.0
145
0.0
146
1.0
147
0.625
 71
1
 72
0
 73
0
 74
0
 75
0
 76
0
 77
1
 78
8
 79
2
170
0
171
1
172
0
173
0
174
0
175
0
176
0
177
0
178
0
270
2
179
2
271
2
272
2
273
2
274
2
275
0
280
0
281
0
282
0
283
1
284
8
285
0
286
0
287
3
288
0
340
11
278
44
341
21E
342
21E
343
21E
344
21E
  0
ENDTAB
  0
ENDSEC
  0
SECTION
  2
BLOCKS
  0
BLOCK
  5
20
100
AcDbEntity
  8
0
100
AcDbBlockBegin
  2
*Model_Space
 70
0
 10
0.0
 20
0.0
 30
0.0
  3
*Model_Space
  1

  0
ENDBLK
  5
21
100
AcDbEntity
  8
0
100
AcDbBlockEnd
  0
BLOCK
  5
1C
100
AcDbEntity
  8
0
100
AcDbBlockBegin
  2
*Paper_Space
 70
0
 10
0.0
 20
0.0
 30
0.0
  3
*Paper_Space
  1

  0
ENDBLK
  5
1D
100
AcDbEntity
  8
0
100
AcDbBlockEnd
  0
BLOCK
  5
220
100
AcDbEntity
  8
0
100
AcDbBlockBegin
  2
_FILLED
 70
64
 10
0.0
 20
0.0
  3
_FILLED
  1

  0
SOLID
  5
221
100
AcDbEntity
  8
0
  6
BYBLOCK
 62
0
100
AcDbTrace
 10
0.0
 20
0.0
 11
-1.0
 21
0.3166666667
 12
-1.0
 22
-0.3166666667
 13
-1.0
 23
-0.3166666667
  0
ENDBLK
  5
222
100
AcDbEntity
  8
0
  6
BYBLOCK
 62
0
100
AcDbBlockEnd
  0
ENDSEC
  0
SECTION
  2
ENTITIES
  0
LINE
  5
223
100
AcDbEntity
  8
0
100
AcDbLine
 62
7
  6
CONTINUOUS
 10
131.0928361446
 20
148.7149926003
 11
130.4064377969
 21
148.2175289181
  0
LINE
  5
224
100
AcDbEntity
  8
ASSI
100
AcDbLine
 62
7
  6
CONTINUOUS
 10
131.0928361446
 20
148.7149926003
 11
130.4064377969
 21
148.2175289181
  0
LINE
  5
225
100
AcDbEntity
  8
0
100
AcDbLine
 62
7
  6
CONTINUOUS
 10
130.7101468447
 20
147.3273716503
 11
130.4311709106
 21
147.1251852728
  0
LINE
  5
226
100
AcDbEntity
  8
ASSI
100
AcDbLine
 62
7
  6
CONTINUOUS
 10
130.7101468447
 20
147.3273716503
 11
130.4311709106
 21
147.1251852728
  0
LINE
  5
227
100
AcDbEntity
  8
0
100
AcDbLine
 62
7
  6
CONTINUOUS
 10
131.0928361446
 20
148.7149926003
 11
131.1135997587
 21
148.7285704786
  0
LINE
  5
228
100
AcDbEntity
  8
ASSI
100
AcDbLine
 62
7
  6
CONTINUOUS
 10
131.0928361446
 20
148.7149926003
 11
131.1135997587
 21
148.7285704786
  0
LINE
  5
229
100
AcDbEntity
  8
0
100
AcDbLine
 62
7
  6
CONTINUOUS
 10
131.1135997587
 20
148.7285704786
 11
134.9014135459
 21
150.9274000117
  0
LINE
  5
22A
100
AcDbEntity
  8
ASSI
100
AcDbLine
 62
7
  6
CONTINUOUS
 10
131.1135997587
 20
148.7285704786
 11
134.9014135459
 21
150.9274000117
  0
LINE
  5
22B
100
AcDbEntity
  8
CURVE
100
AcDbLine
 62
250
  6
CONTINUOUS
 10
161.8585084375
 20
69.8873089831
 11
160.8851398907
 21
69.7408419236
  0
LINE
  5
22C
100
AcDbEntity
  8
CURVE
100
AcDbLine
 62
250
  6
CONTINUOUS
 10
160.8851398907
 20
70.102113081
 11
162.2992389018
 21
70.2524572083
  0
LINE
  5
22D
100
AcDbEntity
  8
CURVE
100
AcDbLine
 62
250
  6
CONTINUOUS
 10
161.6702518636
 20
72.0602628642
 11
160.8851398907
 21
72.0292239865
  0
LINE
  5
22E
100
AcDbEntity
  8
0
100
AcDbLine
 62
7
  6
CONTINUOUS
 10
158.3919676189
 20
64.9422770878
 11
159.8089267498
 21
64.5460464511
  0
LINE
  5
22F
100
AcDbEntity
  8
ASSI
100
AcDbLine
 62
7
  6
CONTINUOUS
 10
158.3919676189
 20
64.9422770878
 11
159.8089267498
 21
64.5460464511
  0
LINE
  5
230
100
AcDbEntity
  8
CURVE
100
AcDbLine
 62
250
  6
CONTINUOUS
 10
161.2736986025
 20
73.5112181659
 11
161.7984885068
 21
73.5936080058
  0
LINE
  5
231
100
AcDbEntity
  8
CURVE
100
AcDbLine
 62
250
  6
CONTINUOUS
 10
162.0169342976
 20
73.6288801259
 11
162.2992389018
 21
73.6702766938
  0
LINE
  5
232
100
AcDbEntity
  8
CURVE
100
AcDbLine
 62
250
  6
CONTINUOUS
 10
162.2992389018
 20
73.3126809482
 11
160.8851398907
 21
73.1488692599
  0
LINE
  5
233
100
AcDbEntity
  8
CURVE
100
AcDbLine
 62
250
  6
CONTINUOUS
 10
161.3797087583
 20
72.3682118502
 11
162.2992389018
 21
72.3981330071
  0
LINE
  5
234
100
AcDbEntity
  8
0
100
AcDbLine
 62
7
  6
CONTINUOUS
 10
131.1135997587
 20
78.0502134497
 11
159.1228908324
 21
64.0455679128
  0
LINE
  5
235
100
AcDbEntity
  8
ASSI
100
AcDbLine
 62
7
  6
CONTINUOUS
 10
131.1135997587
 20
78.0502134497
 11
159.1228908324
 21
64.0455679128
  0
LINE
  5
236
100
AcDbEntity
  8
0
100
AcDbLine
 62
7
  6
CONTINUOUS
 10
130.7101468447
 20
78.4415131304
 11
158.1129916848
 21
64.7400907103
  0
LINE
  5
237
100
AcDbEntity
  8
ASSI
100
AcDbLine
 62
7
  6
CONTINUOUS
 10
130.7101468447
 20
78.4415131304
 11
158.1129916848
 21
64.7400907103
  0
LINE
  5
238
100
AcDbEntity
  8
0
100
AcDbLine
 62
7
  6
CONTINUOUS
 10
131.1135997587
 20
78.0502134497
 11
131.0928361446
 21
78.0634288977
  0
LINE
  5
239
100
AcDbEntity
  8
ASSI
100
AcDbLine
 62
7
  6
CONTINUOUS
 10
131.1135997587
 20
78.0502134497
 11
131.0928361446
 21
78.0634288977
  0
LINE
  5
23A
100
AcDbEntity
  8
0
100
AcDbLine
 62
7
  6
CONTINUOUS
 10
130.7101468447
 20
78.4415131304
 11
131.0928361446
 21
78.0634288977
  0
LINE
  5
23B
100
AcDbEntity
  8
ASSI
100
AcDbLine
 62
7
  6
CONTINUOUS
 10
130.7101468447
 20
78.4415131304
 11
131.0928361446
 21
78.0634288977
  0
LINE
  5
23C
100
AcDbEntity
  8
0
100
AcDbLine
 62
7
  6
CONTINUOUS
 10
158.1129916848
 20
64.7400907103
 11
159.1225284022
 21
64.0485827689
  0
LINE
  5
23D
100
AcDbEntity
  8
ASSI
100
AcDbLine
 62
7
  6
CONTINUOUS
 10
158.1129916848
 20
64.7400907103
 11
159.1225284022
 21
64.0485827689
  0
LINE
  5
23E
100
AcDbEntity
  8
0
100
AcDbLine
 62
7
  6
CONTINUOUS
 10
130.4311709106
 20
78.922675442
 11
130.7101468447
 21
78.4415131304
  0
LINE
  5
23F
100
AcDbEntity
  8
ASSI
100
AcDbLine
 62
7
  6
CONTINUOUS
 10
130.4311709106
 20
78.922675442
 11
130.7101468447
 21
78.4415131304
  0
LINE
  5
240
100
AcDbEntity
  8
0
100
AcDbLine
 62
7
  6
CONTINUOUS
 10
130.4060624894
 20
148.2157864714
 11
130.4064377969
 21
148.2175289181
  0
LINE
  5
241
100
AcDbEntity
  8
ASSI
100
AcDbLine
 62
7
  6
CONTINUOUS
 10
130.4060624894
 20
148.2157864714
 11
130.4064377969
 21
148.2175289181
  0
LINE
  5
242
100
AcDbEntity
  8
0
100
AcDbLine
 62
7
  6
CONTINUOUS
 10
130.7101468447
 20
147.3273716503
 11
131.0928361446
 21
148.7149926003
  0
LINE
  5
243
100
AcDbEntity
  8
ASSI
100
AcDbLine
 62
7
  6
CONTINUOUS
 10
130.7101468447
 20
147.3273716503
 11
131.0928361446
 21
148.7149926003
  0
LINE
  5
244
100
AcDbEntity
  8
0
100
AcDbLine
 62
7
  6
CONTINUOUS
 10
130.4311709106
 20
78.922675442
 11
130.4064377969
 21
79.2472909276
  0
LINE
  5
245
100
AcDbEntity
  8
ASSI
100
AcDbLine
 62
7
  6
CONTINUOUS
 10
130.4311709106
 20
78.922675442
 11
130.4064377969
 21
79.2472909276
  0
LINE
  5
246
100
AcDbEntity
  8
0
100
AcDbLine
 62
7
  6
CONTINUOUS
 10
159.1228908324
 20
134.7239249418
 11
163.1848238171
 21
136.785694876
  0
LINE
  5
247
100
AcDbEntity
  8
ASSI
100
AcDbLine
 62
7
  6
CONTINUOUS
 10
159.1228908324
 20
134.7239249418
 11
163.1848238171
 21
136.785694876
  0
LINE
  5
248
100
AcDbEntity
  8
0
100
AcDbLine
 62
7
  6
CONTINUOUS
 10
130.4311709106
 20
147.1251852728
 11
130.4064377969
 21
148.2175289181
  0
LINE
  5
249
100
AcDbEntity
  8
ASSI
100
AcDbLine
 62
7
  6
CONTINUOUS
 10
130.4311709106
 20
147.1251852728
 11
130.4064377969
 21
148.2175289181
  0
LINE
  5
24A
100
AcDbEntity
  8
0
100
AcDbLine
 62
7
  6
CONTINUOUS
 10
130.4064377969
 20
79.2472909276
 11
130.4060624894
 21
79.2705347262
  0
LINE
  5
24B
100
AcDbEntity
  8
ASSI
100
AcDbLine
 62
7
  6
CONTINUOUS
 10
130.4064377969
 20
79.2472909276
 11
130.4060624894
 21
79.2705347262
  0
LINE
  5
24C
100
AcDbEntity
  8
0
100
AcDbLine
 62
7
  6
CONTINUOUS
 10
130.4060624894
 20
148.2157864714
 11
130.4060624894
 21
79.2705347262
  0
LINE
  5
24D
100
AcDbEntity
  8
ASSI
100
AcDbLine
 62
7
  6
CONTINUOUS
 10
130.4060624894
 20
148.2157864714
 11
130.4060624894
 21
79.2705347262
  0
LINE
  5
24E
100
AcDbEntity
  8
0
100
AcDbLine
 62
7
  6
CONTINUOUS
 10
130.4311709106
 20
147.1251852728
 11
130.4311709106
 21
78.922675442
  0
LINE
  5
24F
100
AcDbEntity
  8
ASSI
100
AcDbLine
 62
7
  6
CONTINUOUS
 10
130.4311709106
 20
147.1251852728
 11
130.4311709106
 21
78.922675442
  0
LINE
  5
250
100
AcDbEntity
  8
0
100
AcDbLine
 62
7
  6
CONTINUOUS
 10
159.8304281017
 20
133.5036036652
 11
163.8923610864
 21
135.5653735995
  0
LINE
  5
251
100
AcDbEntity
  8
ASSI
100
AcDbLine
 62
7
  6
CONTINUOUS
 10
159.8304281017
 20
133.5036036652
 11
163.8923610864
 21
135.5653735995
  0
LINE
  5
252
100
AcDbEntity
  8
0
100
AcDbLine
 62
7
  6
CONTINUOUS
 10
158.1129916848
 20
133.6259492302
 11
159.1225284022
 21
134.7001464715
  0
LINE
  5
253
100
AcDbEntity
  8
ASSI
100
AcDbLine
 62
7
  6
CONTINUOUS
 10
158.1129916848
 20
133.6259492302
 11
159.1225284022
 21
134.7001464715
  0
LINE
  5
254
100
AcDbEntity
  8
0
100
AcDbLine
 62
7
  6
CONTINUOUS
 10
141.0881673931
 20
105.9633813085
 11
141.0881673931
 21
109.4274829237
  0
LINE
  5
255
100
AcDbEntity
  8
ASSI
100
AcDbLine
 62
7
  6
CONTINUOUS
 10
141.0881673931
 20
105.9633813085
 11
141.0881673931
 21
109.4274829237
  0
LINE
  5
256
100
AcDbEntity
  8
0
100
AcDbLine
 62
7
  6
CONTINUOUS
 10
142.785223668
 20
105.9633813085
 11
142.785223668
 21
109.4274829237
  0
LINE
  5
257
100
AcDbEntity
  8
ASSI
100
AcDbLine
 62
7
  6
CONTINUOUS
 10
142.785223668
 20
105.9633813085
 11
142.785223668
 21
109.4274829237
  0
LWPOLYLINE
  5
258
100
AcDbEntity
  8
0
100
AcDbPolyline
 62
7
  6
CONTINUOUS
 90
35
 70
0
 10
141.0881673931
 20
109.4274829237
 10
141.0928238232
 20
109.6391229189
 10
141.1064606978
 20
109.8445351769
 10
141.1290780169
 20
110.0437196978
 10
141.1607865171
 20
110.237188276
 10
141.2014754619
 20
110.424429117
 10
141.2508126415
 20
110.6039068372
 10
141.3088693303
 20
110.775557404
 10
141.3755742541
 20
110.9394448499
 10
141.4503813802
 20
111.0942258886
 10
141.5333574764
 20
111.2398255109
 10
141.624435775
 20
111.376318726
 10
141.7228699409
 20
111.5025872751
 10
141.8287201672
 20
111.6185467344
 10
141.9419262608
 20
111.7242815277
 10
142.0615613075
 20
111.8189266687
 10
142.1876777912
 20
111.9023911063
 10
142.320223228
 20
111.9747658916
 10
142.4581132524
 20
112.0354591907
 10
142.6013917994
 20
112.0843753507
 10
142.750014934
 20
112.1216100244
 10
142.9027664854
 20
112.1468583367
 10
143.0596805775
 20
112.1600219276
 10
143.2207230863
 20
112.1611991571
 10
143.3845754687
 20
112.1503802297
 10
143.5512607562
 20
112.1274665993
 10
143.7207559173
 20
112.092556812
 10
143.8916733146
 20
112.0459367116
 10
144.0640244802
 20
111.9875102191
 10
144.2377978821
 20
111.9173734135
 10
144.4115712862
 20
111.8361003749
 10
144.5853446977
 20
111.7435997433
 10
144.7591181114
 20
111.6399628788
 10
144.9314692781
 20
111.5260379416
 10
145.0762434128
 20
111.421489851
  0
LWPOLYLINE
  5
259
100
AcDbEntity
  8
ASSI
100
AcDbPolyline
 62
7
  6
CONTINUOUS
 90
35
 70
0
 10
141.0881673931
 20
109.4274829237
 10
141.0928238232
 20
109.6391229189
 10
141.1064606978
 20
109.8445351769
 10
141.1290780169
 20
110.0437196978
 10
141.1607865171
 20
110.237188276
 10
141.2014754619
 20
110.424429117
 10
141.2508126415
 20
110.6039068372
 10
141.3088693303
 20
110.775557404
 10
141.3755742541
 20
110.9394448499
 10
141.4503813802
 20
111.0942258886
 10
141.5333574764
 20
111.2398255109
 10
141.624435775
 20
111.376318726
 10
141.7228699409
 20
111.5025872751
 10
141.8287201672
 20
111.6185467344
 10
141.9419262608
 20
111.7242815277
 10
142.0615613075
 20
111.8189266687
 10
142.1876777912
 20
111.9023911063
 10
142.320223228
 20
111.9747658916
 10
142.4581132524
 20
112.0354591907
 10
142.6013917994
 20
112.0843753507
 10
142.750014934
 20
112.1216100244
 10
142.9027664854
 20
112.1468583367
 10
143.0596805775
 20
112.1600219276
 10
143.2207230863
 20
112.1611991571
 10
143.3845754687
 20
112.1503802297
 10
143.5512607562
 20
112.1274665993
 10
143.7207559173
 20
112.092556812
 10
143.8916733146
 20
112.0459367116
 10
144.0640244802
 20
111.9875102191
 10
144.2377978821
 20
111.9173734135
 10
144.4115712862
 20
111.8361003749
 10
144.5853446977
 20
111.7435997433
 10
144.7591181114
 20
111.6399628788
 10
144.9314692781
 20
111.5260379416
 10
145.0762434128
 20
111.421489851
  0
LWPOLYLINE
  5
25A
100
AcDbEntity
  8
0
100
AcDbPolyline
 62
7
  6
CONTINUOUS
 90
17
 70
0
 10
142.785223668
 20
109.4274829237
 10
142.7894094325
 20
109.6016042156
 10
142.8019531699
 20
109.7709567721
 10
142.8228133476
 20
109.934967151
 10
142.8519204863
 20
110.0930808022
 10
142.8891768922
 20
110.2447611091
 10
142.9344564998
 20
110.3894916039
 10
142.9876064177
 20
110.5267819022
 10
143.0484472998
 20
110.6561673024
 10
143.1167728133
 20
110.7772081235
 10
143.1923517683
 20
110.8894944468
 10
143.2749286268
 20
110.9926463005
 10
143.3642233555
 20
111.0863137497
 10
143.4599335757
 20
111.1701797232
 10
143.5617355168
 20
111.2439606248
 10
143.6692843642
 20
111.3074066701
 10
143.6948498179
 20
111.3205412251
  0
LWPOLYLINE
  5
25B
100
AcDbEntity
  8
ASSI
100
AcDbPolyline
 62
7
  6
CONTINUOUS
 90
17
 70
0
 10
142.785223668
 20
109.4274829237
 10
142.7894094325
 20
109.6016042156
 10
142.8019531699
 20
109.7709567721
 10
142.8228133476
 20
109.934967151
 10
142.8519204863
 20
110.0930808022
 10
142.8891768922
 20
110.2447611091
 10
142.9344564998
 20
110.3894916039
 10
142.9876064177
 20
110.5267819022
 10
143.0484472998
 20
110.6561673024
 10
143.1167728133
 20
110.7772081235
 10
143.1923517683
 20
110.8894944468
 10
143.2749286268
 20
110.9926463005
 10
143.3642233555
 20
111.0863137497
 10
143.4599335757
 20
111.1701797232
 10
143.5617355168
 20
111.2439606248
 10
143.6692843642
 20
111.3074066701
 10
143.6948498179
 20
111.3205412251
  0
LWPOLYLINE
  5
25C
100
AcDbEntity
  8
0
100
AcDbPolyline
 62
7
  6
CONTINUOUS
 90
12
 70
0
 10
143.7884640046
 20
111.2984233098
 10
143.6991744249
 20
111.2047574119
 10
143.616602225
 20
111.1016079388
 10
143.5410272369
 20
110.9893245189
 10
143.4727050143
 20
110.8682870172
 10
143.4118667752
 20
110.7389052542
 10
143.358718776
 20
110.6016185024
 10
143.3134404767
 20
110.4568914047
 10
143.2761848331
 20
110.3052141344
 10
143.247077916
 20
110.1471024065
 10
143.2262176031
 20
109.9830924443
 10
143.213673628
 20
109.8137388534
  0
LWPOLYLINE
  5
25D
100
AcDbEntity
  8
ASSI
100
AcDbPolyline
 62
7
  6
CONTINUOUS
 90
12
 70
0
 10
143.7884640046
 20
111.2984233098
 10
143.6991744249
 20
111.2047574119
 10
143.616602225
 20
111.1016079388
 10
143.5410272369
 20
110.9893245189
 10
143.4727050143
 20
110.8682870172
 10
143.4118667752
 20
110.7389052542
 10
143.358718776
 20
110.6016185024
 10
143.3134404767
 20
110.4568914047
 10
143.2761848331
 20
110.3052141344
 10
143.247077916
 20
110.1471024065
 10
143.2262176031
 20
109.9830924443
 10
143.213673628
 20
109.8137388534
  0
LWPOLYLINE
  5
25E
100
AcDbEntity
  8
0
100
AcDbPolyline
 62
7
  6
CONTINUOUS
 90
3
 70
0
 10
143.9184725721
 20
111.4071518972
 10
143.8841685382
 20
111.3822885254
 10
143.7884640046
 20
111.2984233098
  0
LWPOLYLINE
  5
25F
100
AcDbEntity
  8
ASSI
100
AcDbPolyline
 62
7
  6
CONTINUOUS
 90
3
 70
0
 10
143.9184725721
 20
111.4071518972
 10
143.8841685382
 20
111.3822885254
 10
143.7884640046
 20
111.2984233098
  0
LWPOLYLINE
  5
260
100
AcDbEntity
  8
0
100
AcDbPolyline
 62
7
  6
CONTINUOUS
 90
15
 70
0
 10
145.189386724
 20
102.2157153682
 10
145.2545890601
 20
102.1679260797
 10
145.397035763
 20
102.0711470447
 10
145.5404547801
 20
101.9840694287
 10
145.6843607614
 20
101.9069879173
 10
145.8282667389
 20
101.8401633479
 10
145.97168575
 20
101.7838218467
 10
146.1141324523
 20
101.7381540749
 10
146.2551249009
 20
101.7033145445
 10
146.3941859074
 20
101.6794211725
 10
146.5308446436
 20
101.6665548194
 10
146.6646386572
 20
101.6647589525
 10
146.7951152557
 20
101.6740395744
 10
146.921832791
 20
101.6943651782
 10
147.0259914223
 20
101.7209737513
  0
LWPOLYLINE
  5
261
100
AcDbEntity
  8
ASSI
100
AcDbPolyline
 62
7
  6
CONTINUOUS
 90
15
 70
0
 10
145.189386724
 20
102.2157153682
 10
145.2545890601
 20
102.1679260797
 10
145.397035763
 20
102.0711470447
 10
145.5404547801
 20
101.9840694287
 10
145.6843607614
 20
101.9069879173
 10
145.8282667389
 20
101.8401633479
 10
145.97168575
 20
101.7838218467
 10
146.1141324523
 20
101.7381540749
 10
146.2551249009
 20
101.7033145445
 10
146.3941859074
 20
101.6794211725
 10
146.5308446436
 20
101.6665548194
 10
146.6646386572
 20
101.6647589525
 10
146.7951152557
 20
101.6740395744
 10
146.921832791
 20
101.6943651782
 10
147.0259914223
 20
101.7209737513
  0
LWPOLYLINE
  5
262
100
AcDbEntity
  8
0
100
AcDbPolyline
 62
7
  6
CONTINUOUS
 90
23
 70
0
 10
143.2140356737
 20
106.1273368332
 10
143.2272816198
 20
105.9352627316
 10
143.249225575
 20
105.7407123941
 10
143.2799999924
 20
105.543011462
 10
143.3194724189
 20
105.3428342941
 10
143.3672454954
 20
105.1422039672
 10
143.4234036517
 20
104.9411160465
 10
143.487862458
 20
104.7395749667
 10
143.5599712655
 20
104.5396171092
 10
143.6398076923
 20
104.3412588067
 10
143.7272941203
 20
104.1444837266
 10
143.8215470466
 20
103.9512792518
 10
143.9226348106
 20
103.761682036
 10
144.0304890729
 20
103.5756554255
 10
144.1440213128
 20
103.3950768425
 10
144.2632889761
 20
103.2200014335
 10
144.388234617
 20
103.050374052
 10
144.5175973777
 20
102.8879066814
 10
144.6514221598
 20
102.7326716118
 10
144.7896640616
 20
102.5845965531
 10
144.9309275214
 20
102.4451766182
 10
145.0752432115
 20
102.3144994777
 10
145.1914757599
 20
102.2182378048
  0
LWPOLYLINE
  5
263
100
AcDbEntity
  8
ASSI
100
AcDbPolyline
 62
7
  6
CONTINUOUS
 90
23
 70
0
 10
143.2140356737
 20
106.1273368332
 10
143.2272816198
 20
105.9352627316
 10
143.249225575
 20
105.7407123941
 10
143.2799999924
 20
105.543011462
 10
143.3194724189
 20
105.3428342941
 10
143.3672454954
 20
105.1422039672
 10
143.4234036517
 20
104.9411160465
 10
143.487862458
 20
104.7395749667
 10
143.5599712655
 20
104.5396171092
 10
143.6398076923
 20
104.3412588067
 10
143.7272941203
 20
104.1444837266
 10
143.8215470466
 20
103.9512792518
 10
143.9226348106
 20
103.761682036
 10
144.0304890729
 20
103.5756554255
 10
144.1440213128
 20
103.3950768425
 10
144.2632889761
 20
103.2200014335
 10
144.388234617
 20
103.050374052
 10
144.5175973777
 20
102.8879066814
 10
144.6514221598
 20
102.7326716118
 10
144.7896640616
 20
102.5845965531
 10
144.9309275214
 20
102.4451766182
 10
145.0752432115
 20
102.3144994777
 10
145.1914757599
 20
102.2182378048
  0
LINE
  5
264
100
AcDbEntity
  8
0
100
AcDbLine
 62
7
  6
CONTINUOUS
 10
143.2128780995
 20
106.1755946685
 11
143.2140356737
 21
106.1273368332
  0
LINE
  5
265
100
AcDbEntity
  8
ASSI
100
AcDbLine
 62
7
  6
CONTINUOUS
 10
143.2128780995
 20
106.1755946685
 11
143.2140356737
 21
106.1273368332
  0
LWPOLYLINE
  5
266
100
AcDbEntity
  8
0
100
AcDbPolyline
 62
7
  6
CONTINUOUS
 90
25
 70
0
 10
143.2094877367
 20
106.1755133429
 10
143.213673596
 20
105.9972042453
 10
143.2262174834
 20
105.8153073041
 10
143.2470776658
 20
105.6304375783
 10
143.2761844218
 20
105.4432194011
 10
143.3134398872
 20
105.2542868628
 10
143.3587180063
 20
105.0642817342
 10
143.4118658414
 20
104.8738471265
 10
143.4727039428
 20
104.6836271549
 10
143.5410260539
 20
104.4942673829
 10
143.6166009687
 20
104.3064088414
 10
143.6991731379
 20
104.1206869616
 10
143.7884627062
 20
103.9377312677
 10
143.884167244
 20
103.7581613011
 10
143.9859631042
 20
103.5825841881
 10
144.0935060398
 20
103.4115936642
 10
144.2064321377
 20
103.2457683626
 10
144.3243593082
 20
103.0856693799
 10
144.446888852
 20
102.931838066
 10
144.5736063589
 20
102.7847948391
 10
144.7040829222
 20
102.6450375397
 10
144.8378769065
 20
102.5130393083
 10
144.9745356241
 20
102.3892468312
 10
145.1135966184
 20
102.2740790986
 10
145.189386724
 20
102.2157153682
  0
LWPOLYLINE
  5
267
100
AcDbEntity
  8
ASSI
100
AcDbPolyline
 62
7
  6
CONTINUOUS
 90
25
 70
0
 10
143.2094877367
 20
106.1755133429
 10
143.213673596
 20
105.9972042453
 10
143.2262174834
 20
105.8153073041
 10
143.2470776658
 20
105.6304375783
 10
143.2761844218
 20
105.4432194011
 10
143.3134398872
 20
105.2542868628
 10
143.3587180063
 20
105.0642817342
 10
143.4118658414
 20
104.8738471265
 10
143.4727039428
 20
104.6836271549
 10
143.5410260539
 20
104.4942673829
 10
143.6166009687
 20
104.3064088414
 10
143.6991731379
 20
104.1206869616
 10
143.7884627062
 20
103.9377312677
 10
143.884167244
 20
103.7581613011
 10
143.9859631042
 20
103.5825841881
 10
144.0935060398
 20
103.4115936642
 10
144.2064321377
 20
103.2457683626
 10
144.3243593082
 20
103.0856693799
 10
144.446888852
 20
102.931838066
 10
144.5736063589
 20
102.7847948391
 10
144.7040829222
 20
102.6450375397
 10
144.8378769065
 20
102.5130393083
 10
144.9745356241
 20
102.3892468312
 10
145.1135966184
 20
102.2740790986
 10
145.189386724
 20
102.2157153682
  0
LINE
  5
268
100
AcDbEntity
  8
0
100
AcDbLine
 62
7
  6
CONTINUOUS
 10
143.2094877367
 20
109.639614958
 11
143.2094877367
 21
106.1755133429
  0
LINE
  5
269
100
AcDbEntity
  8
ASSI
100
AcDbLine
 62
7
  6
CONTINUOUS
 10
143.2094877367
 20
109.639614958
 11
143.2094877367
 21
106.1755133429
  0
LINE
  5
26A
100
AcDbEntity
  8
0
100
AcDbLine
 62
7
  6
CONTINUOUS
 10
143.213673628
 20
109.8137388534
 11
143.2094877367
 21
109.639614958
  0
LINE
  5
26B
100
AcDbEntity
  8
ASSI
100
AcDbLine
 62
7
  6
CONTINUOUS
 10
143.213673628
 20
109.8137388534
 11
143.2094877367
 21
109.639614958
  0
LINE
  5
26C
100
AcDbEntity
  8
0
100
AcDbLine
 62
250
  6
CONTINUOUS
 10
143.2094877367
 20
109.639614958
 11
142.785223668
 21
109.4274829237
  0
LINE
  5
26D
100
AcDbEntity
  8
ASSI
100
AcDbLine
 62
250
  6
CONTINUOUS
 10
143.2094877367
 20
109.639614958
 11
142.785223668
 21
109.4274829237
  0
LWPOLYLINE
  5
26E
100
AcDbEntity
  8
0
100
AcDbPolyline
 62
7
  6
CONTINUOUS
 90
11
 70
0
 10
143.6948498179
 20
111.3205412251
 10
143.78221609
 20
111.360303278
 10
143.9001484807
 20
111.4024715823
 10
144.0226821129
 20
111.4337689589
 10
144.1494023931
 20
111.4540897226
 10
144.2798803112
 20
111.4633652807
 10
144.4136735468
 20
111.4615644961
 10
144.5503292939
 20
111.4486938492
 10
144.6893850306
 20
111.4247972792
 10
144.83036931
 20
111.3899562749
 10
144.9728039016
 20
111.3442897023
  0
LWPOLYLINE
  5
26F
100
AcDbEntity
  8
ASSI
100
AcDbPolyline
 62
7
  6
CONTINUOUS
 90
11
 70
0
 10
143.6948498179
 20
111.3205412251
 10
143.78221609
 20
111.360303278
 10
143.9001484807
 20
111.4024715823
 10
144.0226821129
 20
111.4337689589
 10
144.1494023931
 20
111.4540897226
 10
144.2798803112
 20
111.4633652807
 10
144.4136735468
 20
111.4615644961
 10
144.5503292939
 20
111.4486938492
 10
144.6893850306
 20
111.4247972792
 10
144.83036931
 20
111.3899562749
 10
144.9728039016
 20
111.3442897023
  0
LINE
  5
270
100
AcDbEntity
  8
0
100
AcDbLine
 62
7
  6
CONTINUOUS
 10
147.7349711363
 20
106.1040810521
 11
147.7349711363
 21
102.6399794369
  0
LINE
  5
271
100
AcDbEntity
  8
ASSI
100
AcDbLine
 62
7
  6
CONTINUOUS
 10
147.7349711363
 20
106.1040810521
 11
147.7349711363
 21
102.6399794369
  0
LWPOLYLINE
  5
272
100
AcDbEntity
  8
0
100
AcDbPolyline
 62
7
  6
CONTINUOUS
 90
61
 70
0
 10
147.7349711363
 20
102.6399794369
 10
147.7303147062
 20
102.4283394417
 10
147.7166778316
 20
102.2229271837
 10
147.6940605125
 20
102.0237426628
 10
147.6623520123
 20
101.8302740846
 10
147.6216630676
 20
101.6430332436
 10
147.572325888
 20
101.4635555234
 10
147.5142691991
 20
101.2919049566
 10
147.4475642754
 20
101.1280175107
 10
147.3727571492
 20
100.973236472
 10
147.289781053
 20
100.8276368497
 10
147.1987027544
 20
100.6911436346
 10
147.1002685885
 20
100.5648750855
 10
146.9944183622
 20
100.4489156262
 10
146.8812122686
 20
100.3431808329
 10
146.7615772219
 20
100.2485356919
 10
146.6354607382
 20
100.1650712542
 10
146.5029153015
 20
100.092696469
 10
146.3650252771
 20
100.0320031699
 10
146.22174673
 20
99.9830870099
 10
146.0731235954
 20
99.9458523362
 10
145.9203720441
 20
99.9206040239
 10
145.763457952
 20
99.907440433
 10
145.6024154432
 20
99.9062632035
 10
145.4385630607
 20
99.9170821309
 10
145.2718777733
 20
99.9399957613
 10
145.1023826122
 20
99.9749055486
 10
144.9314652149
 20
100.021525649
 10
144.7591140492
 20
100.0799521415
 10
144.5853406473
 20
100.1500889471
 10
144.4115672432
 20
100.2313619857
 10
144.2377938318
 20
100.3238626173
 10
144.0640204181
 20
100.4274994818
 10
143.8916692514
 20
100.541424419
 10
143.7207518594
 20
100.6657219846
 10
143.5512567145
 20
100.8003076229
 10
143.3845714824
 20
100.9440795063
 10
143.2207192133
 20
101.0971131341
 10
143.0596768572
 20
101.2593330069
 10
142.9027629298
 20
101.4294107998
 10
142.7500115623
 20
101.6074107285
 10
142.6013886237
 20
101.7932685772
 10
142.4581102369
 20
101.9854633733
 10
142.3202203122
 20
102.1840468619
 10
142.1876749394
 20
102.3889672979
 10
142.0615585105
 20
102.5985484734
 10
141.9419234973
 20
102.8128289974
 10
141.8287174279
 20
103.0317702609
 10
141.7228672785
 20
103.2535802287
 10
141.6244332682
 20
103.4782831042
 10
141.5333551778
 20
103.7058546841
 10
141.4503793258
 20
103.9344303221
 10
141.3755724899
 20
104.1640182398
 10
141.3088678924
 20
104.3946102158
 10
141.2508115189
 20
104.6243169398
 10
141.2014746446
 20
104.8531311253
 10
141.1607859943
 20
105.0810600588
 10
141.1290777281
 20
105.306236289
 10
141.1064605658
 20
105.5280373321
 10
141.0928237875
 20
105.747085672
 10
141.0881673931
 20
105.9633813085
  0
LWPOLYLINE
  5
273
100
AcDbEntity
  8
ASSI
100
AcDbPolyline
 62
7
  6
CONTINUOUS
 90
61
 70
0
 10
147.7349711363
 20
102.6399794369
 10
147.7303147062
 20
102.4283394417
 10
147.7166778316
 20
102.2229271837
 10
147.6940605125
 20
102.0237426628
 10
147.6623520123
 20
101.8302740846
 10
147.6216630676
 20
101.6430332436
 10
147.572325888
 20
101.4635555234
 10
147.5142691991
 20
101.2919049566
 10
147.4475642754
 20
101.1280175107
 10
147.3727571492
 20
100.973236472
 10
147.289781053
 20
100.8276368497
 10
147.1987027544
 20
100.6911436346
 10
147.1002685885
 20
100.5648750855
 10
146.9944183622
 20
100.4489156262
 10
146.8812122686
 20
100.3431808329
 10
146.7615772219
 20
100.2485356919
 10
146.6354607382
 20
100.1650712542
 10
146.5029153015
 20
100.092696469
 10
146.3650252771
 20
100.0320031699
 10
146.22174673
 20
99.9830870099
 10
146.0731235954
 20
99.9458523362
 10
145.9203720441
 20
99.9206040239
 10
145.763457952
 20
99.907440433
 10
145.6024154432
 20
99.9062632035
 10
145.4385630607
 20
99.9170821309
 10
145.2718777733
 20
99.9399957613
 10
145.1023826122
 20
99.9749055486
 10
144.9314652149
 20
100.021525649
 10
144.7591140492
 20
100.0799521415
 10
144.5853406473
 20
100.1500889471
 10
144.4115672432
 20
100.2313619857
 10
144.2377938318
 20
100.3238626173
 10
144.0640204181
 20
100.4274994818
 10
143.8916692514
 20
100.541424419
 10
143.7207518594
 20
100.6657219846
 10
143.5512567145
 20
100.8003076229
 10
143.3845714824
 20
100.9440795063
 10
143.2207192133
 20
101.0971131341
 10
143.0596768572
 20
101.2593330069
 10
142.9027629298
 20
101.4294107998
 10
142.7500115623
 20
101.6074107285
 10
142.6013886237
 20
101.7932685772
 10
142.4581102369
 20
101.9854633733
 10
142.3202203122
 20
102.1840468619
 10
142.1876749394
 20
102.3889672979
 10
142.0615585105
 20
102.5985484734
 10
141.9419234973
 20
102.8128289974
 10
141.8287174279
 20
103.0317702609
 10
141.7228672785
 20
103.2535802287
 10
141.6244332682
 20
103.4782831042
 10
141.5333551778
 20
103.7058546841
 10
141.4503793258
 20
103.9344303221
 10
141.3755724899
 20
104.1640182398
 10
141.3088678924
 20
104.3946102158
 10
141.2508115189
 20
104.6243169398
 10
141.2014746446
 20
104.8531311253
 10
141.1607859943
 20
105.0810600588
 10
141.1290777281
 20
105.306236289
 10
141.1064605658
 20
105.5280373321
 10
141.0928237875
 20
105.747085672
 10
141.0881673931
 20
105.9633813085
  0
LWPOLYLINE
  5
274
100
AcDbEntity
  8
0
100
AcDbPolyline
 62
7
  6
CONTINUOUS
 90
17
 70
0
 10
147.7349711363
 20
103.4885075744
 10
147.7307853718
 20
103.3143862824
 10
147.7182416344
 20
103.145033726
 10
147.6973814566
 20
102.981023347
 10
147.668274318
 20
102.8229096958
 10
147.6310179121
 20
102.671229389
 10
147.5857383045
 20
102.5264988942
 10
147.5325883866
 20
102.3892085958
 10
147.4717475045
 20
102.2598231956
 10
147.403421991
 20
102.1387823746
 10
147.327843036
 20
102.0264960512
 10
147.2452661775
 20
101.9233441975
 10
147.1559714488
 20
101.8296767483
 10
147.0602612286
 20
101.7458107748
 10
146.9584592875
 20
101.6720298732
 10
146.8509104401
 20
101.6085838279
 10
146.8253449864
 20
101.5954492729
  0
LWPOLYLINE
  5
275
100
AcDbEntity
  8
ASSI
100
AcDbPolyline
 62
7
  6
CONTINUOUS
 90
17
 70
0
 10
147.7349711363
 20
103.4885075744
 10
147.7307853718
 20
103.3143862824
 10
147.7182416344
 20
103.145033726
 10
147.6973814566
 20
102.981023347
 10
147.668274318
 20
102.8229096958
 10
147.6310179121
 20
102.671229389
 10
147.5857383045
 20
102.5264988942
 10
147.5325883866
 20
102.3892085958
 10
147.4717475045
 20
102.2598231956
 10
147.403421991
 20
102.1387823746
 10
147.327843036
 20
102.0264960512
 10
147.2452661775
 20
101.9233441975
 10
147.1559714488
 20
101.8296767483
 10
147.0602612286
 20
101.7458107748
 10
146.9584592875
 20
101.6720298732
 10
146.8509104401
 20
101.6085838279
 10
146.8253449864
 20
101.5954492729
  0
LINE
  5
276
100
AcDbEntity
  8
0
100
AcDbLine
 62
250
  6
CONTINUOUS
 10
143.2094877367
 20
106.1755133429
 11
142.785223668
 21
105.9633813085
  0
LINE
  5
277
100
AcDbEntity
  8
ASSI
100
AcDbLine
 62
250
  6
CONTINUOUS
 10
143.2094877367
 20
106.1755133429
 11
142.785223668
 21
105.9633813085
  0
LINE
  5
278
100
AcDbEntity
  8
0
100
AcDbLine
 62
250
  6
CONTINUOUS
 10
141.0881673931
 20
105.9633813085
 11
142.785223668
 21
105.9633813085
  0
LINE
  5
279
100
AcDbEntity
  8
ASSI
100
AcDbLine
 62
250
  6
CONTINUOUS
 10
141.0881673931
 20
105.9633813085
 11
142.785223668
 21
105.9633813085
  0
LWPOLYLINE
  5
27A
100
AcDbEntity
  8
0
100
AcDbPolyline
 62
7
  6
CONTINUOUS
 90
5
 70
0
 10
147.6623525351
 20
106.9864023018
 10
147.6940608014
 20
106.7612260716
 10
147.7166779637
 20
106.5394250285
 10
147.730314742
 20
106.3203766886
 10
147.7349711363
 20
106.1040810521
  0
LWPOLYLINE
  5
27B
100
AcDbEntity
  8
ASSI
100
AcDbPolyline
 62
7
  6
CONTINUOUS
 90
5
 70
0
 10
147.6623525351
 20
106.9864023018
 10
147.6940608014
 20
106.7612260716
 10
147.7166779637
 20
106.5394250285
 10
147.730314742
 20
106.3203766886
 10
147.7349711363
 20
106.1040810521
  0
LINE
  5
27C
100
AcDbEntity
  8
0
100
AcDbLine
 62
250
  6
CONTINUOUS
 10
141.0881673931
 20
109.4274829237
 11
142.785223668
 21
109.4274829237
  0
LINE
  5
27D
100
AcDbEntity
  8
ASSI
100
AcDbLine
 62
250
  6
CONTINUOUS
 10
141.0881673931
 20
109.4274829237
 11
142.785223668
 21
109.4274829237
  0
LWPOLYLINE
  5
27E
100
AcDbEntity
  8
0
100
AcDbPolyline
 62
7
  6
CONTINUOUS
 90
5
 70
0
 10
144.9728039016
 20
111.3442897023
 10
145.1162079364
 20
111.2879524106
 10
145.2600987227
 20
111.2211343095
 10
145.4039894084
 20
111.1440614934
 10
145.4395307653
 20
111.1224827672
  0
LWPOLYLINE
  5
27F
100
AcDbEntity
  8
ASSI
100
AcDbPolyline
 62
7
  6
CONTINUOUS
 90
5
 70
0
 10
144.9728039016
 20
111.3442897023
 10
145.1162079364
 20
111.2879524106
 10
145.2600987227
 20
111.2211343095
 10
145.4039894084
 20
111.1440614934
 10
145.4395307653
 20
111.1224827672
  0
LWPOLYLINE
  5
280
100
AcDbEntity
  8
0
100
AcDbPolyline
 62
7
  6
CONTINUOUS
 90
24
 70
0
 10
145.0762434128
 20
111.421489851
 10
145.10238667
 20
111.401740376
 10
145.271881815
 20
111.2671547377
 10
145.438567047
 20
111.1233828543
 10
145.6024193161
 20
110.9703492265
 10
145.7634616723
 20
110.8081293537
 10
145.9203755996
 20
110.6380515608
 10
146.0731269671
 20
110.4600516321
 10
146.2217499058
 20
110.2741937834
 10
146.3650282926
 20
110.0819989873
 10
146.5029182172
 20
109.8834154987
 10
146.63546359
 20
109.6784950627
 10
146.761580019
 20
109.4689138872
 10
146.8812150322
 20
109.2546333632
 10
146.9944211015
 20
109.0356920997
 10
147.100271251
 20
108.8138821319
 10
147.1987052613
 20
108.5891792563
 10
147.2897833517
 20
108.3616076765
 10
147.3727592037
 20
108.1330320385
 10
147.4475660396
 20
107.9034441208
 10
147.5142706371
 20
107.6728521448
 10
147.5723270106
 20
107.4431454208
 10
147.6216638848
 20
107.2143312353
 10
147.6623525351
 20
106.9864023018
  0
LWPOLYLINE
  5
281
100
AcDbEntity
  8
ASSI
100
AcDbPolyline
 62
7
  6
CONTINUOUS
 90
24
 70
0
 10
145.0762434128
 20
111.421489851
 10
145.10238667
 20
111.401740376
 10
145.271881815
 20
111.2671547377
 10
145.438567047
 20
111.1233828543
 10
145.6024193161
 20
110.9703492265
 10
145.7634616723
 20
110.8081293537
 10
145.9203755996
 20
110.6380515608
 10
146.0731269671
 20
110.4600516321
 10
146.2217499058
 20
110.2741937834
 10
146.3650282926
 20
110.0819989873
 10
146.5029182172
 20
109.8834154987
 10
146.63546359
 20
109.6784950627
 10
146.761580019
 20
109.4689138872
 10
146.8812150322
 20
109.2546333632
 10
146.9944211015
 20
109.0356920997
 10
147.100271251
 20
108.8138821319
 10
147.1987052613
 20
108.5891792563
 10
147.2897833517
 20
108.3616076765
 10
147.3727592037
 20
108.1330320385
 10
147.4475660396
 20
107.9034441208
 10
147.5142706371
 20
107.6728521448
 10
147.5723270106
 20
107.4431454208
 10
147.6216638848
 20
107.2143312353
 10
147.6623525351
 20
106.9864023018
  0
LWPOLYLINE
  5
282
100
AcDbEntity
  8
0
100
AcDbPolyline
 62
7
  6
CONTINUOUS
 90
40
 70
0
 10
146.8253449864
 20
101.5954492729
 10
146.7379787143
 20
101.55568722
 10
146.6200463236
 20
101.5135189157
 10
146.4975126913
 20
101.4822215392
 10
146.3707924112
 20
101.4619007754
 10
146.2403144931
 20
101.4526252173
 10
146.1065212575
 20
101.4544260019
 10
145.9698655104
 20
101.4672966489
 10
145.8308097737
 20
101.4911932188
 10
145.6898254943
 20
101.5260342231
 10
145.5473909027
 20
101.5717007957
 10
145.4039868679
 20
101.6280380875
 10
145.2600960816
 20
101.6948561885
 10
145.1162053959
 20
101.7719290046
 10
144.9728015797
 20
101.8589957896
 10
144.8303671999
 20
101.955763826
 10
144.6893830822
 20
102.0619071301
 10
144.5503274985
 20
102.1770663131
 10
144.4136719
 20
102.3008514147
 10
144.2798788128
 20
102.432843849
 10
144.1494010367
 20
102.5725972969
 10
144.0226808816
 20
102.7196383147
 10
143.9001473588
 20
102.8734693018
 10
143.7822150618
 20
103.0335699837
 10
143.6692834039
 20
103.1993983328
 10
143.5617345933
 20
103.3703932874
 10
143.4599326709
 20
103.5459762282
 10
143.364222469
 20
103.7255525323
 10
143.2749277566
 20
103.9085148396
 10
143.1923509181
 20
104.0942436934
 10
143.116772007
 20
104.2821090772
 10
143.048446558
 20
104.4714754779
 10
142.9876057569
 20
104.661701787
 10
142.9344559436
 20
104.8521419462
 10
142.8891764568
 20
105.0421518979
 10
142.8519201745
 20
105.231088379
 10
142.8228131535
 20
105.4183088476
 10
142.8019530754
 20
105.603178995
 10
142.7894094069
 20
105.7850748036
 10
142.785223668
 20
105.9633813085
  0
LWPOLYLINE
  5
283
100
AcDbEntity
  8
ASSI
100
AcDbPolyline
 62
7
  6
CONTINUOUS
 90
40
 70
0
 10
146.8253449864
 20
101.5954492729
 10
146.7379787143
 20
101.55568722
 10
146.6200463236
 20
101.5135189157
 10
146.4975126913
 20
101.4822215392
 10
146.3707924112
 20
101.4619007754
 10
146.2403144931
 20
101.4526252173
 10
146.1065212575
 20
101.4544260019
 10
145.9698655104
 20
101.4672966489
 10
145.8308097737
 20
101.4911932188
 10
145.6898254943
 20
101.5260342231
 10
145.5473909027
 20
101.5717007957
 10
145.4039868679
 20
101.6280380875
 10
145.2600960816
 20
101.6948561885
 10
145.1162053959
 20
101.7719290046
 10
144.9728015797
 20
101.8589957896
 10
144.8303671999
 20
101.955763826
 10
144.6893830822
 20
102.0619071301
 10
144.5503274985
 20
102.1770663131
 10
144.4136719
 20
102.3008514147
 10
144.2798788128
 20
102.432843849
 10
144.1494010367
 20
102.5725972969
 10
144.0226808816
 20
102.7196383147
 10
143.9001473588
 20
102.8734693018
 10
143.7822150618
 20
103.0335699837
 10
143.6692834039
 20
103.1993983328
 10
143.5617345933
 20
103.3703932874
 10
143.4599326709
 20
103.5459762282
 10
143.364222469
 20
103.7255525323
 10
143.2749277566
 20
103.9085148396
 10
143.1923509181
 20
104.0942436934
 10
143.116772007
 20
104.2821090772
 10
143.048446558
 20
104.4714754779
 10
142.9876057569
 20
104.661701787
 10
142.9344559436
 20
104.8521419462
 10
142.8891764568
 20
105.0421518979
 10
142.8519201745
 20
105.231088379
 10
142.8228131535
 20
105.4183088476
 10
142.8019530754
 20
105.603178995
 10
142.7894094069
 20
105.7850748036
 10
142.785223668
 20
105.9633813085
  0
LINE
  5
284
100
AcDbEntity
  8
0
100
AcDbLine
 62
7
  6
CONTINUOUS
 10
159.1225284022
 20
64.0485827689
 11
159.1228908324
 21
64.0455679128
  0
LINE
  5
285
100
AcDbEntity
  8
ASSI
100
AcDbLine
 62
7
  6
CONTINUOUS
 10
159.1225284022
 20
64.0485827689
 11
159.1228908324
 21
64.0455679128
  0
LINE
  5
286
100
AcDbEntity
  8
0
100
AcDbLine
 62
7
  6
CONTINUOUS
 10
158.3919676189
 20
64.9422770878
 11
158.3919676189
 21
133.1447869186
  0
LINE
  5
287
100
AcDbEntity
  8
ASSI
100
AcDbLine
 62
7
  6
CONTINUOUS
 10
158.3919676189
 20
64.9422770878
 11
158.3919676189
 21
133.1447869186
  0
LINE
  5
288
100
AcDbEntity
  8
0
100
AcDbLine
 62
7
  6
CONTINUOUS
 10
159.1228908324
 20
134.7239249418
 11
159.1225284022
 21
134.7001464715
  0
LINE
  5
289
100
AcDbEntity
  8
ASSI
100
AcDbLine
 62
7
  6
CONTINUOUS
 10
159.1228908324
 20
134.7239249418
 11
159.1225284022
 21
134.7001464715
  0
LWPOLYLINE
  5
28A
100
AcDbEntity
  8
CURVE
100
AcDbPolyline
 62
250
  6
CONTINUOUS
 90
73
 70
0
 10
161.630794262
 20
75.4384170479
 10
161.6299101726
 20
75.4438738504
 10
161.6285549911
 20
75.4489217114
 10
161.6267810099
 20
75.4536012709
 10
161.6246405213
 20
75.4579531685
 10
161.6221858177
 20
75.4620180442
 10
161.6194691916
 20
75.4658365376
 10
161.6165429354
 20
75.4694492886
 10
161.6134593414
 20
75.472896937
 10
161.6102707021
 20
75.4762201225
 10
161.6070293098
 20
75.479459485
 10
161.5988355392
 20
75.4874027442
 10
161.5905970433
 20
75.4950356516
 10
161.5822720174
 20
75.5023217176
 10
161.573818657
 20
75.5092244524
 10
161.5651951573
 20
75.5157073666
 10
161.5563597135
 20
75.5217339703
 10
161.5472705212
 20
75.5272677741
 10
161.5378857755
 20
75.5322722881
 10
161.5273833311
 20
75.5370495042
 10
161.5165161985
 20
75.5411734724
 10
161.5053132082
 20
75.5446509104
 10
161.4938031905
 20
75.5474885358
 10
161.4820149759
 20
75.5496930661
 10
161.4699773946
 20
75.551271219
 10
161.4577192772
 20
75.5522297122
 10
161.4452694539
 20
75.5525752632
 10
161.4326567552
 20
75.5523145896
 10
161.4199100115
 20
75.5514544091
 10
161.4070661371
 20
75.5500036709
 10
161.3941246489
 20
75.5479718402
 10
161.381092958
 20
75.5453695443
 10
161.3679784753
 20
75.5422074102
 10
161.3547886118
 20
75.5384960651
 10
161.3415307785
 20
75.5342461362
 10
161.3263021065
 20
75.5287423229
 10
161.3110136271
 20
75.5225694196
 10
161.2956846771
 20
75.5157483211
 10
161.2803345932
 20
75.5082999218
 10
161.264982712
 20
75.5002451164
 10
161.2496483703
 20
75.4916047996
 10
161.2347318648
 20
75.4826310162
 10
161.2198685355
 20
75.4731090397
 10
161.205076499
 20
75.463027481
 10
161.1903738717
 20
75.4523749511
 10
161.1757787702
 20
75.4411400608
 10
161.1627663003
 20
75.4305365702
 10
161.1498711671
 20
75.4194572661
 10
161.1371091839
 20
75.4079061032
 10
161.1244961643
 20
75.3958870364
 10
161.112047922
 20
75.3834040205
 10
161.0987026972
 20
75.3692956152
 10
161.0855936888
 20
75.3546689143
 10
161.0727430978
 20
75.3395507546
 10
161.0601731252
 20
75.323967973
 10
161.0479059718
 20
75.3079474062
 10
161.0359638386
 20
75.2915158912
 10
161.0243689267
 20
75.2747002648
 10
161.0131434368
 20
75.257527364
 10
161.0028987172
 20
75.2410037096
 10
160.993011378
 20
75.2242053249
 10
160.9834894602
 20
75.2071522396
 10
160.9743410051
 20
75.1898644835
 10
160.9655740535
 20
75.1723620863
 10
160.9571966467
 20
75.1546650779
 10
160.9492168256
 20
75.1367934879
 10
160.9436599838
 20
75.123669431
 10
160.9383491049
 20
75.1104779095
 10
160.9333146416
 20
75.0972335725
 10
160.9285870467
 20
75.083951069
 10
160.9241967729
 20
75.070645048
 10
160.9201742728
 20
75.0573301587
 10
160.9165499992
 20
75.0440210499
  0
LWPOLYLINE
  5
28B
100
AcDbEntity
  8
CURVE
100
AcDbPolyline
 62
250
  6
CONTINUOUS
 90
22
 70
0
 10
161.1260460968
 20
74.604674546
 10
161.1243230036
 20
74.6164361278
 10
161.1226779473
 20
74.6282520782
 10
161.1211241103
 20
74.640131181
 10
161.1196746747
 20
74.65208222
 10
161.1183428229
 20
74.6641139789
 10
161.1171417372
 20
74.6762352415
 10
161.1160045521
 20
74.6894259047
 10
161.1150351101
 20
74.7027267999
 10
161.1142334657
 20
74.7161336618
 10
161.1135996737
 20
74.7296422253
 10
161.1131337886
 20
74.7432482249
 10
161.1128358648
 20
74.7569473955
 10
161.1127059571
 20
74.7707354718
 10
161.1127441199
 20
74.7846081886
 10
161.1129504078
 20
74.7985612805
 10
161.1133248754
 20
74.8125904823
 10
161.1138675773
 20
74.8266915288
 10
161.114578568
 20
74.8408601546
 10
161.1154579021
 20
74.8550920946
 10
161.1165056342
 20
74.8693830835
 10
161.1177218188
 20
74.8837288559
  0
LINE
  5
28C
100
AcDbEntity
  8
0
100
AcDbLine
 62
7
  6
CONTINUOUS
 10
159.8304281017
 20
64.5583519201
 11
159.8304281017
 21
133.5036036652
  0
LINE
  5
28D
100
AcDbEntity
  8
ASSI
100
AcDbLine
 62
7
  6
CONTINUOUS
 10
159.8304281017
 20
64.5583519201
 11
159.8304281017
 21
133.5036036652
  0
LINE
  5
28E
100
AcDbEntity
  8
CURVE
100
AcDbLine
 62
250
  6
CONTINUOUS
 10
160.8850550379
 20
70.5977480887
 11
160.8850550379
 21
70.2362309801
  0
LINE
  5
28F
100
AcDbEntity
  8
CURVE
100
AcDbLine
 62
250
  6
CONTINUOUS
 10
160.8851398907
 20
68.6777714917
 11
160.8851398907
 21
69.0704906297
  0
LINE
  5
290
100
AcDbEntity
  8
CURVE
100
AcDbLine
 62
250
  6
CONTINUOUS
 10
160.8851398907
 20
69.7408419236
 11
160.8851398907
 21
70.102113081
  0
LINE
  5
291
100
AcDbEntity
  8
CURVE
100
AcDbLine
 62
250
  6
CONTINUOUS
 10
160.8851398907
 20
70.9487888792
 11
160.8851398907
 21
71.3100072091
  0
LINE
  5
292
100
AcDbEntity
  8
CURVE
100
AcDbLine
 62
250
  6
CONTINUOUS
 10
160.8851398907
 20
72.0292239865
 11
160.8851398907
 21
72.3869106648
  0
LINE
  5
293
100
AcDbEntity
  8
CURVE
100
AcDbLine
 62
250
  6
CONTINUOUS
 10
160.8851398907
 20
73.1488692599
 11
160.8851398907
 21
73.4985937006
  0
LINE
  5
294
100
AcDbEntity
  8
CURVE
100
AcDbLine
 62
250
  6
CONTINUOUS
 10
161.5142437655
 20
75.0053770979
 11
161.5142437655
 21
74.7987733803
  0
LINE
  5
295
100
AcDbEntity
  8
CURVE
100
AcDbLine
 62
250
  6
CONTINUOUS
 10
161.7458389655
 20
74.9265583597
 11
161.7458389655
 21
75.1203954533
  0
LINE
  5
296
100
AcDbEntity
  8
CURVE
100
AcDbLine
 62
250
  6
CONTINUOUS
 10
161.7984885068
 20
73.5936080058
 11
161.7984885068
 21
73.939734977
  0
LINE
  5
297
100
AcDbEntity
  8
CURVE
100
AcDbLine
 62
250
  6
CONTINUOUS
 10
162.0169342976
 20
74.1212069077
 11
162.0169342976
 21
73.6288801259
  0
LINE
  5
298
100
AcDbEntity
  8
CURVE
100
AcDbLine
 62
250
  6
CONTINUOUS
 10
162.2992389018
 20
74.7370363939
 11
162.2992389018
 21
74.356012063
  0
LINE
  5
299
100
AcDbEntity
  8
CURVE
100
AcDbLine
 62
250
  6
CONTINUOUS
 10
162.2992389018
 20
73.6702766938
 11
162.2992389018
 21
73.3126809482
  0
LINE
  5
29A
100
AcDbEntity
  8
CURVE
100
AcDbLine
 62
250
  6
CONTINUOUS
 10
162.2992389018
 20
73.255912983
 11
162.2992389018
 21
72.9022533228
  0
LINE
  5
29B
100
AcDbEntity
  8
CURVE
100
AcDbLine
 62
250
  6
CONTINUOUS
 10
162.2992389018
 20
72.3981330071
 11
162.2992389018
 21
72.3474306838
  0
LINE
  5
29C
100
AcDbEntity
  8
CURVE
100
AcDbLine
 62
250
  6
CONTINUOUS
 10
162.2992389018
 20
71.8453108867
 11
162.2992389018
 21
71.4994567135
  0
LINE
  5
29D
100
AcDbEntity
  8
CURVE
100
AcDbLine
 62
250
  6
CONTINUOUS
 10
162.2992389018
 20
70.2524572083
 11
162.2992389018
 21
69.933869845
  0
LINE
  5
29E
100
AcDbEntity
  8
CURVE
100
AcDbLine
 62
250
  6
CONTINUOUS
 10
162.2992389018
 20
70.943322912
 11
162.2992389018
 21
71.3048400207
  0
LINE
  5
29F
100
AcDbEntity
  8
CURVE
100
AcDbLine
 62
250
  6
CONTINUOUS
 10
162.2992390894
 20
74.8431954679
 11
162.2992390894
 21
75.2032584216
  0
LINE
  5
2A0
100
AcDbEntity
  8
CURVE
100
AcDbLine
 62
250
  6
CONTINUOUS
 10
162.2992390894
 20
75.7568727459
 11
162.2992390894
 21
76.1046106476
  0
LWPOLYLINE
  5
2A1
100
AcDbEntity
  8
CURVE
100
AcDbPolyline
 62
250
  6
CONTINUOUS
 90
48
 70
0
 10
161.7458389655
 20
75.1203954533
 10
161.7458966696
 20
75.1259906241
 10
161.7460704114
 20
75.1316536969
 10
161.7463611349
 20
75.1373794148
 10
161.7467697844
 20
75.1431625209
 10
161.7472973039
 20
75.1489977585
 10
161.7479446376
 20
75.1548798706
 10
161.7487127296
 20
75.1608036005
 10
161.7496025242
 20
75.1667636914
 10
161.7506149653
 20
75.1727548863
 10
161.7517509972
 20
75.1787719284
 10
161.753011564
 20
75.1848095609
 10
161.7543976098
 20
75.190862527
 10
161.7559100788
 20
75.1969255698
 10
161.757549915
 20
75.2029934325
 10
161.7593180628
 20
75.2090608582
 10
161.7612154661
 20
75.2151225901
 10
161.7632430691
 20
75.2211733714
 10
161.7654576541
 20
75.2273618209
 10
161.7678058716
 20
75.2335298844
 10
161.7702834426
 20
75.2396742195
 10
161.772886088
 20
75.2457914841
 10
161.7756095288
 20
75.2518783359
 10
161.7784494862
 20
75.2579314327
 10
161.781401681
 20
75.2639474323
 10
161.7844618343
 20
75.2699229925
 10
161.7876256672
 20
75.275854771
 10
161.7908889005
 20
75.2817394255
 10
161.7942472554
 20
75.2875736139
 10
161.7976964528
 20
75.293353994
 10
161.8012322137
 20
75.2990772234
 10
161.8048502593
 20
75.3047399601
 10
161.8085463103
 20
75.3103388616
 10
161.812316088
 20
75.3158705859
 10
161.8161553133
 20
75.3213317907
 10
161.8200597071
 20
75.3267191338
 10
161.8240249906
 20
75.3320292728
 10
161.8280468846
 20
75.3372588657
 10
161.8321211103
 20
75.3424045701
 10
161.8362433887
 20
75.3474630439
 10
161.8404094406
 20
75.3524309448
 10
161.8446149873
 20
75.3573049306
 10
161.8488557496
 20
75.362081659
 10
161.8531274486
 20
75.3667577879
 10
161.8574258052
 20
75.3713299749
 10
161.8617465406
 20
75.3757948779
 10
161.8660853757
 20
75.3801491547
 10
161.8704380315
 20
75.384389463
  0
LINE
  5
2A2
100
AcDbEntity
  8
0
100
AcDbLine
 62
7
  6
CONTINUOUS
 10
163.8923610864
 20
66.2843957729
 11
163.8923610864
 21
135.5653735995
  0
LINE
  5
2A3
100
AcDbEntity
  8
ASSI
100
AcDbLine
 62
7
  6
CONTINUOUS
 10
163.8923610864
 20
66.2843957729
 11
163.8923610864
 21
135.5653735995
  0
LWPOLYLINE
  5
2A4
100
AcDbEntity
  8
CURVE
100
AcDbPolyline
 62
250
  6
CONTINUOUS
 90
49
 70
0
 10
161.1177218188
 20
74.8837288559
 10
161.1184229069
 20
74.8907051267
 10
161.1192702288
 20
74.8977549661
 10
161.1202633733
 20
74.9048708707
 10
161.1214019293
 20
74.9120453371
 10
161.1226854859
 20
74.919270862
 10
161.1241136317
 20
74.9265399419
 10
161.1256859559
 20
74.9338450735
 10
161.1274020472
 20
74.9411787534
 10
161.1292614945
 20
74.9485334782
 10
161.1312638868
 20
74.9559017445
 10
161.133408813
 20
74.9632760489
 10
161.135695862
 20
74.970648888
 10
161.1381246226
 20
74.9780127586
 10
161.1406946838
 20
74.9853601571
 10
161.1434056344
 20
74.9926835801
 10
161.1462570635
 20
74.9999755244
 10
161.1492485598
 20
75.0072284865
 10
161.1523797123
 20
75.014434963
 10
161.1556501099
 20
75.0215874505
 10
161.1590593415
 20
75.0286784457
 10
161.162606996
 20
75.0357004452
 10
161.1662926622
 20
75.0426459455
 10
161.1701159292
 20
75.0495074434
 10
161.1740763857
 20
75.0562774353
 10
161.1781501747
 20
75.0629130913
 10
161.182352881
 20
75.0694455103
 10
161.1866781137
 20
75.0758694004
 10
161.191119482
 20
75.0821794694
 10
161.1956705951
 20
75.0883704254
 10
161.2003250621
 20
75.0944369762
 10
161.2050764921
 20
75.1003738299
 10
161.2099184944
 20
75.1061756945
 10
161.2148446781
 20
75.1118372778
 10
161.2198486523
 20
75.1173532878
 10
161.2249240263
 20
75.1227184326
 10
161.2300644091
 20
75.12792742
 10
161.2352634099
 20
75.1329749581
 10
161.240514638
 20
75.1378557548
 10
161.2458117024
 20
75.142564518
 10
161.2511482124
 20
75.1470959557
 10
161.256517777
 20
75.1514447759
 10
161.2619140054
 20
75.1556056866
 10
161.2673305069
 20
75.1595733956
 10
161.2727608905
 20
75.163342611
 10
161.2781987655
 20
75.1669080408
 10
161.2836377409
 20
75.1702643928
 10
161.289071426
 20
75.1734063751
 10
161.2944934298
 20
75.1763286956
  0
LWPOLYLINE
  5
2A5
100
AcDbEntity
  8
CURVE
100
AcDbPolyline
 62
250
  6
CONTINUOUS
 90
32
 70
0
 10
160.9165499992
 20
75.0440210499
 10
160.9106693293
 20
75.0201538621
 10
160.9052942829
 20
74.9963385716
 10
160.9004003321
 20
74.9725806594
 10
160.8959629493
 20
74.9488856063
 10
160.8919576067
 20
74.9252588931
 10
160.8883597765
 20
74.9017060007
 10
160.885144931
 20
74.87823241
 10
160.8822885423
 20
74.8548436017
 10
160.8797660828
 20
74.8315450567
 10
160.8775530247
 20
74.8083422559
 10
160.8756248401
 20
74.7852406801
 10
160.8739570015
 20
74.7622458101
 10
160.8718952137
 20
74.7278702917
 10
160.8703455002
 20
74.6937414364
 10
160.8692865131
 20
74.6598521406
 10
160.8686969046
 20
74.6261953003
 10
160.868555327
 20
74.5927638119
 10
160.8688404326
 20
74.5595505715
 10
160.8695308735
 20
74.5265484753
 10
160.870605302
 20
74.4937504196
 10
160.8720423703
 20
74.4611493005
 10
160.8738207307
 20
74.4287380142
 10
160.8759190354
 20
74.3965094571
 10
160.8783159367
 20
74.3644565252
 10
160.8809900867
 20
74.3325721148
 10
160.8839201377
 20
74.3008491221
 10
160.887084742
 20
74.2692804433
 10
160.8904625518
 20
74.2378589746
 10
160.8940322193
 20
74.2065776123
 10
160.8977723967
 20
74.1754292525
 10
160.9016617363
 20
74.1444067914
  0
LINE
  5
2A6
100
AcDbEntity
  8
0
100
AcDbLine
 62
7
  6
CONTINUOUS
 10
158.3919676189
 20
133.1447869186
 11
159.8089267498
 21
133.5162844417
  0
LINE
  5
2A7
100
AcDbEntity
  8
ASSI
100
AcDbLine
 62
7
  6
CONTINUOUS
 10
158.3919676189
 20
133.1447869186
 11
159.8089267498
 21
133.5162844417
  0
LINE
  5
2A8
100
AcDbEntity
  8
0
100
AcDbLine
 62
7
  6
CONTINUOUS
 10
158.3919676189
 20
133.1447869186
 11
158.1129916848
 21
133.6259492302
  0
LINE
  5
2A9
100
AcDbEntity
  8
ASSI
100
AcDbLine
 62
7
  6
CONTINUOUS
 10
158.3919676189
 20
133.1447869186
 11
158.1129916848
 21
133.6259492302
  0
LINE
  5
2AA
100
AcDbEntity
  8
0
100
AcDbLine
 62
7
  6
CONTINUOUS
 10
159.8089267498
 20
133.5162844417
 11
159.1225284022
 21
134.7001464715
  0
LINE
  5
2AB
100
AcDbEntity
  8
ASSI
100
AcDbLine
 62
7
  6
CONTINUOUS
 10
159.8089267498
 20
133.5162844417
 11
159.1225284022
 21
134.7001464715
  0
LINE
  5
2AC
100
AcDbEntity
  8
0
100
AcDbLine
 62
7
  6
CONTINUOUS
 10
158.1129916848
 20
133.6259492302
 11
130.7101468447
 21
147.3273716503
  0
LINE
  5
2AD
100
AcDbEntity
  8
ASSI
100
AcDbLine
 62
7
  6
CONTINUOUS
 10
158.1129916848
 20
133.6259492302
 11
130.7101468447
 21
147.3273716503
  0
LINE
  5
2AE
100
AcDbEntity
  8
0
100
AcDbLine
 62
7
  6
CONTINUOUS
 10
159.1228908324
 20
134.7239249418
 11
131.1135997587
 21
148.7285704786
  0
LINE
  5
2AF
100
AcDbEntity
  8
ASSI
100
AcDbLine
 62
7
  6
CONTINUOUS
 10
159.1228908324
 20
134.7239249418
 11
131.1135997587
 21
148.7285704786
  0
LINE
  5
2B0
100
AcDbEntity
  8
0
100
AcDbLine
 62
7
  6
CONTINUOUS
 10
159.8089267498
 20
133.5162844417
 11
159.8304281017
 21
133.5036036652
  0
LINE
  5
2B1
100
AcDbEntity
  8
ASSI
100
AcDbLine
 62
7
  6
CONTINUOUS
 10
159.8089267498
 20
133.5162844417
 11
159.8304281017
 21
133.5036036652
  0
LINE
  5
2B2
100
AcDbEntity
  8
0
100
AcDbLine
 62
7
  6
CONTINUOUS
 10
163.1848238171
 20
136.785694876
 11
163.8923610864
 21
135.5653735995
  0
LINE
  5
2B3
100
AcDbEntity
  8
ASSI
100
AcDbLine
 62
7
  6
CONTINUOUS
 10
163.1848238171
 20
136.785694876
 11
163.8923610864
 21
135.5653735995
  0
LINE
  5
2B4
100
AcDbEntity
  8
CURVE
100
AcDbLine
 62
7
  6
CONTINUOUS
 10
160.9064677531
 20
74.9994207745
 11
161.4588553613
 21
75.5518083827
  0
LINE
  5
2B5
100
AcDbEntity
  8
CURVE
100
AcDbLine
 62
7
  6
CONTINUOUS
 10
160.8692627415
 20
74.5421943349
 11
161.1129154115
 21
74.7858470049
  0
LINE
  5
2B6
100
AcDbEntity
  8
CURVE
100
AcDbLine
 62
7
  6
CONTINUOUS
 10
161.4827624333
 20
75.1556940266
 11
162.2992390894
 21
75.9721706827
  0
LINE
  5
2B7
100
AcDbEntity
  8
CURVE
100
AcDbLine
 62
7
  6
CONTINUOUS
 10
160.9005779952
 20
74.1534881605
 11
161.7458389655
 21
74.9987491309
  0
LINE
  5
2B8
100
AcDbEntity
  8
CURVE
100
AcDbLine
 62
7
  6
CONTINUOUS
 10
161.7213743718
 20
74.5542631092
 11
162.2992390894
 21
75.1321278267
  0
LINE
  5
2B9
100
AcDbEntity
  8
CURVE
100
AcDbLine
 62
7
  6
CONTINUOUS
 10
160.8851398907
 20
73.2980072
 11
162.2992389018
 21
74.7121062111
  0
LINE
  5
2BA
100
AcDbEntity
  8
CURVE
100
AcDbLine
 62
7
  6
CONTINUOUS
 10
161.1915143259
 20
73.1843602072
 11
161.5639387913
 21
73.5567846726
  0
LINE
  5
2BB
100
AcDbEntity
  8
CURVE
100
AcDbLine
 62
7
  6
CONTINUOUS
 10
161.7984885068
 20
73.791334388
 11
162.0169342976
 21
74.0097801789
  0
LINE
  5
2BC
100
AcDbEntity
  8
CURVE
100
AcDbLine
 62
7
  6
CONTINUOUS
 10
161.66656664
 20
73.2393910933
 11
162.0627781162
 21
73.6356025694
  0
LWPOLYLINE
  5
2BD
100
AcDbEntity
  8
CURVE
100
AcDbPolyline
 62
250
  6
CONTINUOUS
 90
7
 70
0
 10
161.8704380315
 20
75.384389463
 10
161.8900072273
 20
75.4029612665
 10
161.9096772015
 20
75.4212252768
 10
161.9294368162
 20
75.4392148707
 10
161.9492749335
 20
75.4569634252
 10
161.9691804154
 20
75.4745043172
 10
161.9891421239
 20
75.4918709235
  0
LINE
  5
2BE
100
AcDbEntity
  8
CURVE
100
AcDbLine
 62
250
  6
CONTINUOUS
 10
161.9891421239
 20
75.4918709235
 11
162.0291896692
 21
75.5262147865
  0
LINE
  5
2BF
100
AcDbEntity
  8
CURVE
100
AcDbLine
 62
250
  6
CONTINUOUS
 10
162.1094694098
 20
75.5942796677
 11
162.2992390894
 21
75.7568727459
  0
LWPOLYLINE
  5
2C0
100
AcDbEntity
  8
CURVE
100
AcDbPolyline
 62
250
  6
CONTINUOUS
 90
44
 70
0
 10
161.8727141694
 20
75.7531221891
 10
161.8617543745
 20
75.7437854116
 10
161.8507439842
 20
75.7342405672
 10
161.8396602396
 20
75.7244243773
 10
161.8335690574
 20
75.7189277087
 10
161.8274553483
 20
75.7133327098
 10
161.8213252567
 20
75.7076408721
 10
161.8151849274
 20
75.7018536869
 10
161.8090405048
 20
75.6959726457
 10
161.8028981335
 20
75.6899992398
 10
161.7967639582
 20
75.6839349607
 10
161.7906441234
 20
75.6777812998
 10
161.7845447736
 20
75.6715397484
 10
161.7784720535
 20
75.665211798
 10
161.7724321077
 20
75.65879894
 10
161.7664310806
 20
75.6523026657
 10
161.760475117
 20
75.6457244667
 10
161.7545703613
 20
75.6390658342
 10
161.7487229582
 20
75.6323282597
 10
161.7429390522
 20
75.6255132345
 10
161.7372247879
 20
75.6186222502
 10
161.7315863099
 20
75.611656798
 10
161.7260297628
 20
75.6046183695
 10
161.7205612911
 20
75.5975084559
 10
161.7151870394
 20
75.5903285487
 10
161.7099131524
 20
75.5830801393
 10
161.7047457745
 20
75.5757647192
 10
161.6996910504
 20
75.5683837796
 10
161.6947551246
 20
75.560938812
 10
161.6899441418
 20
75.5534313079
 10
161.6852642464
 20
75.5458627586
 10
161.6807215831
 20
75.5382346554
 10
161.6763222965
 20
75.5305484899
 10
161.6720725311
 20
75.5228057534
 10
161.6679784316
 20
75.5150079374
 10
161.6640461424
 20
75.5071565331
 10
161.6602818082
 20
75.4992530321
 10
161.6566915735
 20
75.4912989257
 10
161.653281583
 20
75.4832957054
 10
161.6500579812
 20
75.4752448625
 10
161.6470269126
 20
75.4671478884
 10
161.644194522
 20
75.4590062745
 10
161.6415669537
 20
75.4508215123
 10
161.6391503525
 20
75.4425950932
  0
LINE
  5
2C1
100
AcDbEntity
  8
CURVE
100
AcDbLine
 62
250
  6
CONTINUOUS
 10
162.0291896692
 20
75.5262147865
 11
162.1094694098
 21
75.5942796677
  0
LINE
  5
2C2
100
AcDbEntity
  8
CURVE
100
AcDbLine
 62
250
  6
CONTINUOUS
 10
161.894573008
 20
75.7714246562
 11
161.8727141694
 21
75.7531221891
  0
LINE
  5
2C3
100
AcDbEntity
  8
CURVE
100
AcDbLine
 62
250
  6
CONTINUOUS
 10
162.0187132817
 20
75.8742802919
 11
161.894573008
 21
75.7714246562
  0
LINE
  5
2C4
100
AcDbEntity
  8
CURVE
100
AcDbLine
 62
250
  6
CONTINUOUS
 10
162.2992390894
 20
76.1046106476
 11
162.2487532012
 21
76.0628736872
  0
LINE
  5
2C5
100
AcDbEntity
  8
CURVE
100
AcDbLine
 62
250
  6
CONTINUOUS
 10
162.2487532012
 20
76.0628736872
 11
162.0187132817
 21
75.8742802919
  0
LINE
  5
2C6
100
AcDbEntity
  8
0
100
AcDbLine
 62
7
  6
CONTINUOUS
 10
163.1848238171
 20
136.785694876
 11
134.9014135459
 21
150.9274000117
  0
LINE
  5
2C7
100
AcDbEntity
  8
ASSI
100
AcDbLine
 62
7
  6
CONTINUOUS
 10
163.1848238171
 20
136.785694876
 11
134.9014135459
 21
150.9274000117
  0
LINE
  5
2C8
100
AcDbEntity
  8
CURVE
100
AcDbLine
 62
7
  6
CONTINUOUS
 10
160.8851398907
 20
72.0379429159
 11
161.7904378956
 21
72.9432409208
  0
LINE
  5
2C9
100
AcDbEntity
  8
CURVE
100
AcDbLine
 62
7
  6
CONTINUOUS
 10
162.1416189542
 20
73.2944219794
 11
162.2992389018
 21
73.452041927
  0
LINE
  5
2CA
100
AcDbEntity
  8
CURVE
100
AcDbLine
 62
7
  6
CONTINUOUS
 10
161.3133722705
 20
72.0461538677
 11
161.6440312036
 21
72.3768128008
  0
LINE
  5
2CB
100
AcDbEntity
  8
CURVE
100
AcDbLine
 62
7
  6
CONTINUOUS
 10
161.9896971717
 20
72.7224787689
 11
162.2992389018
 21
73.032020499
  0
LINE
  5
2CC
100
AcDbEntity
  8
CURVE
100
AcDbLine
 62
7
  6
CONTINUOUS
 10
160.8851398907
 20
71.1979000599
 11
162.0781796551
 21
72.3909398243
  0
LINE
  5
2CD
100
AcDbEntity
  8
CURVE
100
AcDbLine
 62
7
  6
CONTINUOUS
 10
161.1650510386
 20
71.0577897797
 11
161.7061275777
 21
71.5988663189
  0
LINE
  5
2CE
100
AcDbEntity
  8
CURVE
100
AcDbLine
 62
7
  6
CONTINUOUS
 10
160.8850550379
 20
70.357772351
 11
161.3650065133
 21
70.8377238264
  0
LINE
  5
2CF
100
AcDbEntity
  8
CURVE
100
AcDbLine
 62
7
  6
CONTINUOUS
 10
161.8529482352
 20
71.3256655483
 11
162.2992389018
 21
71.7719562149
  0
LINE
  5
2D0
100
AcDbEntity
  8
CURVE
100
AcDbLine
 62
7
  6
CONTINUOUS
 10
160.8851398907
 20
69.9378357758
 11
161.0689606441
 21
70.1216565292
  0
LINE
  5
2D1
100
AcDbEntity
  8
CURVE
100
AcDbLine
 62
7
  6
CONTINUOUS
 10
161.482015152
 20
70.5347110371
 11
162.2050493693
 21
71.2577452544
  0
LINE
  5
2D2
100
AcDbEntity
  8
CURVE
100
AcDbLine
 62
7
  6
CONTINUOUS
 10
161.1476718014
 20
69.7803462584
 11
161.538950429
 21
70.1716248861
  0
LINE
  5
2D3
100
AcDbEntity
  8
CURVE
100
AcDbLine
 62
7
  6
CONTINUOUS
 10
161.6420906086
 20
69.8547436376
 11
162.0089402139
 21
70.221593243
  0
LINE
  5
2D4
100
AcDbEntity
  8
CURVE
100
AcDbLine
 62
7
  6
CONTINUOUS
 10
160.8851398907
 20
68.6777714917
 11
162.2992389018
 21
70.0918705028
  0
LINE
  5
2D5
100
AcDbEntity
  8
CURVE
100
AcDbLine
 62
250
  6
CONTINUOUS
 10
162.2992389018
 20
72.3474306838
 11
161.3758585618
 21
71.4616357492
  0
LINE
  5
2D6
100
AcDbEntity
  8
CURVE
100
AcDbLine
 62
250
  6
CONTINUOUS
 10
160.8851398907
 20
71.3100072091
 11
161.6702518636
 21
72.0602628642
  0
LINE
  5
2D7
100
AcDbEntity
  8
CURVE
100
AcDbLine
 62
250
  6
CONTINUOUS
 10
160.8851398907
 20
73.4985937006
 11
162.2992389018
 21
74.7370363939
  0
LINE
  5
2D8
100
AcDbEntity
  8
CURVE
100
AcDbLine
 62
250
  6
CONTINUOUS
 10
162.2992389018
 20
74.356012063
 11
162.0169342976
 21
74.1212069077
  0
LINE
  5
2D9
100
AcDbEntity
  8
CURVE
100
AcDbLine
 62
250
  6
CONTINUOUS
 10
161.7984885068
 20
73.939734977
 11
161.2736986025
 21
73.5112181659
  0
LINE
  5
2DA
100
AcDbEntity
  8
CURVE
100
AcDbLine
 62
250
  6
CONTINUOUS
 10
160.8851398907
 20
72.3869106648
 11
162.2992389018
 21
73.255912983
  0
LINE
  5
2DB
100
AcDbEntity
  8
CURVE
100
AcDbLine
 62
250
  6
CONTINUOUS
 10
162.2992389018
 20
72.9022533228
 11
161.3797087583
 21
72.3682118502
  0
LWPOLYLINE
  5
2DC
100
AcDbEntity
  8
CURVE
100
AcDbPolyline
 62
250
  6
CONTINUOUS
 90
59
 70
0
 10
161.2944934298
 20
75.1763286956
 10
161.3006332236
 20
75.1794184656
 10
161.3068204961
 20
75.1823406068
 10
161.3130467733
 20
75.1850907975
 10
161.319303581
 20
75.187664716
 10
161.3255824452
 20
75.1900580404
 10
161.3318748917
 20
75.1922664491
 10
161.3381724465
 20
75.1942856204
 10
161.3444666355
 20
75.1961112324
 10
161.3507489845
 20
75.1977389635
 10
161.3570110196
 20
75.1991644919
 10
161.3632442665
 20
75.2003834959
 10
161.3694402512
 20
75.2013916537
 10
161.3755904997
 20
75.2021846436
 10
161.3816865377
 20
75.2027581439
 10
161.3877198913
 20
75.2031078329
 10
161.3936820863
 20
75.2032293887
 10
161.3995646487
 20
75.2031184897
 10
161.4053591042
 20
75.202770814
 10
161.4110569789
 20
75.2021820401
 10
161.4166497987
 20
75.2013478461
 10
161.4221290894
 20
75.2002639104
 10
161.427486377
 20
75.198925911
 10
161.4327131873
 20
75.1973295265
 10
161.4378010464
 20
75.1954704349
 10
161.44274148
 20
75.1933443145
 10
161.4475260141
 20
75.1909468437
 10
161.4521461745
 20
75.1882737007
 10
161.4565934873
 20
75.1853205637
 10
161.4608594783
 20
75.182083111
 10
161.4649356734
 20
75.1785570209
 10
161.4687648493
 20
75.1747938002
 10
161.4724051661
 20
75.1707563847
 10
161.4758607386
 20
75.1664557133
 10
161.4791356814
 20
75.1619027249
 10
161.4822341093
 20
75.1571083584
 10
161.4851601371
 20
75.1520835528
 10
161.4879178795
 20
75.1468392469
 10
161.4905114513
 20
75.1413863797
 10
161.4929449672
 20
75.1357358901
 10
161.495222542
 20
75.1298987171
 10
161.4973482904
 20
75.1238857995
 10
161.4993263271
 20
75.1177080763
 10
161.5011607669
 20
75.1113764863
 10
161.5028557246
 20
75.1049019686
 10
161.5044153149
 20
75.098295462
 10
161.5058436525
 20
75.0915679055
 10
161.5071448522
 20
75.0847302379
 10
161.5083230288
 20
75.0777933982
 10
161.509382297
 20
75.0707683253
 10
161.5103267715
 20
75.0636659582
 10
161.5111605671
 20
75.0564972357
 10
161.5118877985
 20
75.0492730968
 10
161.5125125805
 20
75.0420044804
 10
161.5130390278
 20
75.0347023254
 10
161.5134712553
 20
75.0273775707
 10
161.5138133775
 20
75.0200411553
 10
161.5140695093
 20
75.012704018
 10
161.5142437655
 20
75.0053770979
  0
LINE
  5
2DD
100
AcDbEntity
  8
CURVE
100
AcDbLine
 62
250
  6
CONTINUOUS
 10
161.6391503525
 20
75.4425950932
 11
161.630794262
 21
75.4384170479
  0
LINE
  5
2DE
100
AcDbEntity
  8
CURVE
100
AcDbLine
 62
250
  6
CONTINUOUS
 10
162.2992390894
 20
75.2032584216
 11
161.7458389655
 21
74.9265583597
  0
LINE
  5
2DF
100
AcDbEntity
  8
CURVE
100
AcDbLine
 62
250
  6
CONTINUOUS
 10
161.5142437655
 20
74.7987733803
 11
161.1260460968
 21
74.604674546
  0
LINE
  5
2E0
100
AcDbEntity
  8
CURVE
100
AcDbLine
 62
250
  6
CONTINUOUS
 10
160.9016617363
 20
74.1444067914
 11
162.2992390894
 21
74.8431954679
  0
LINE
  5
2E1
100
AcDbEntity
  8
CURVE
100
AcDbLine
 62
250
  6
CONTINUOUS
 10
162.2992389018
 20
69.933869845
 11
160.8851398907
 21
68.6777714917
  0
LINE
  5
2E2
100
AcDbEntity
  8
CURVE
100
AcDbLine
 62
250
  6
CONTINUOUS
 10
160.8851398907
 20
69.0704906297
 11
161.8585084375
 21
69.8873089831
  0
LINE
  5
2E3
100
AcDbEntity
  8
CURVE
100
AcDbLine
 62
250
  6
CONTINUOUS
 10
162.2992389018
 20
71.3048400207
 11
160.8850550379
 21
70.5977480887
  0
LINE
  5
2E4
100
AcDbEntity
  8
CURVE
100
AcDbLine
 62
250
  6
CONTINUOUS
 10
160.8850550379
 20
70.2362309801
 11
162.2992389018
 21
70.943322912
  0
LINE
  5
2E5
100
AcDbEntity
  8
CURVE
100
AcDbLine
 62
250
  6
CONTINUOUS
 10
161.3758585618
 20
71.4616357492
 11
162.2992389018
 21
71.8453108867
  0
LINE
  5
2E6
100
AcDbEntity
  8
CURVE
100
AcDbLine
 62
250
  6
CONTINUOUS
 10
162.2992389018
 20
71.4994567135
 11
160.8851398907
 21
70.9487888792
  0
LINE
  5
2E7
100
AcDbEntity
  8
0
100
AcDbLine
 62
7
  6
CONTINUOUS
 10
158.1129916848
 20
64.7400907103
 11
158.3919676189
 21
64.9422770878
  0
LINE
  5
2E8
100
AcDbEntity
  8
ASSI
100
AcDbLine
 62
7
  6
CONTINUOUS
 10
158.1129916848
 20
64.7400907103
 11
158.3919676189
 21
64.9422770878
  0
LINE
  5
2E9
100
AcDbEntity
  8
0
100
AcDbLine
 62
7
  6
CONTINUOUS
 10
159.1225284022
 20
64.0485827689
 11
159.8089267498
 21
64.5460464511
  0
LINE
  5
2EA
100
AcDbEntity
  8
ASSI
100
AcDbLine
 62
7
  6
CONTINUOUS
 10
159.1225284022
 20
64.0485827689
 11
159.8089267498
 21
64.5460464511
  0
LINE
  5
2EB
100
AcDbEntity
  8
0
100
AcDbLine
 62
7
  6
CONTINUOUS
 10
163.8923610864
 20
66.2843957729
 11
163.1848238171
 21
65.7716117657
  0
LINE
  5
2EC
100
AcDbEntity
  8
ASSI
100
AcDbLine
 62
7
  6
CONTINUOUS
 10
163.8923610864
 20
66.2843957729
 11
163.1848238171
 21
65.7716117657
  0
LINE
  5
2ED
100
AcDbEntity
  8
0
100
AcDbLine
 62
7
  6
CONTINUOUS
 10
159.8304281017
 20
64.5583519201
 11
159.8089267498
 21
64.5460464511
  0
LINE
  5
2EE
100
AcDbEntity
  8
ASSI
100
AcDbLine
 62
7
  6
CONTINUOUS
 10
159.8304281017
 20
64.5583519201
 11
159.8089267498
 21
64.5460464511
  0
LINE
  5
2EF
100
AcDbEntity
  8
0
100
AcDbLine
 62
7
  6
CONTINUOUS
 10
159.8304281017
 20
64.5583519201
 11
163.8923610864
 21
66.2843957729
  0
LINE
  5
2F0
100
AcDbEntity
  8
ASSI
100
AcDbLine
 62
7
  6
CONTINUOUS
 10
159.8304281017
 20
64.5583519201
 11
163.8923610864
 21
66.2843957729
  0
LINE
  5
2F1
100
AcDbEntity
  8
0
100
AcDbLine
 62
7
  6
CONTINUOUS
 10
159.1228908324
 20
64.0455679128
 11
163.1848238171
 21
65.7716117657
  0
LINE
  5
2F2
100
AcDbEntity
  8
ASSI
100
AcDbLine
 62
7
  6
CONTINUOUS
 10
159.1228908324
 20
64.0455679128
 11
163.1848238171
 21
65.7716117657
  0
ENDSEC
  0
SECTION
  2
OBJECTS
  0
DICTIONARY
  5
C
100
AcDbDictionary
280
0
281
1
  3
ACAD_GROUP
350
D
  3
ACAD_MLINESTYLE
350
17
  3
ACAD_LAYOUT
350
1A
  3
ACAD_PLOTSETTINGS
350
19
  3
ACAD_PLOTSTYLENAME
350
E
  0
DICTIONARY
  5
D
102
{ACAD_REACTORS
330
C
102
}
100
AcDbDictionary
280
0
281
1
  0
ACDBDICTIONARYWDFLT
  5
E
102
{ACAD_REACTORS
330
C
102
}
100
AcDbDictionary
281
1
  3
Normal
350
F
100
AcDbDictionaryWithDefault
340
F
  0
DICTIONARY
  5
17
102
{ACAD_REACTORS
330
C
102
}
100
AcDbDictionary
280
0
281
1
  3
Standard
350
18
  0
DICTIONARY
  5
19
102
{ACAD_REACTORS
330
C
102
}
100
AcDbDictionary
281
1
  0
DICTIONARY
  5
1A
102
{ACAD_REACTORS
330
C
102
}
100
AcDbDictionary
281
1
  3
Model
350
2F3
  3
Layout1
350
2F4
  0
ACDBPLACEHOLDER
  5
F
102
{ACAD_REACTORS
330
E
102
}
  0
MLINESTYLE
  5
18
102
{ACAD_REACTORS
330
17
102
}
100
AcDbMlineStyle
  2
STANDARD
 70
0
  3

 62
256
 51
90.0
 52
90.0
 71
2
 49
0.5
 62
256
  6
BYLAYER
 49
-0.5
 62
256
  6
BYLAYER
  0
LAYOUT
  5
2F3
102
{ACAD_REACTORS
330
1A
102
}
100
AcDbPlotSettings
  1

  2
none_device
  4
ISO_A4_(297.00_x_210.00_MM)
  6

 40
0.0
 41
0.0
 42
0.0
 43
0.0
 44
297.0
 45
210.0
 46
0.0
 47
0.0
 48
0.0
 49
0.0
140
0.0
141
0.0
142
1.0
143
1.0
 70
1024
 72
1
 73
0
 74
0
  7

 75
0
147
1.0
148
0.0
149
0.0
100
AcDbLayout
  1
Model
 70
0
 71
0
 10
0.0
 20
0.0
 11
297.0
 21
210.0
 12
0.0
 22
0.0
 32
0.0
 14
0.0
 24
0.0
 34
0.0
 15
0.0
 25
0.0
 35
0.0
146
0.0
 13
0.0
 23
0.0
 33
0.0
 16
1.0
 26
0.0
 36
0.0
 17
0.0
 27
1.0
 37
0.0
 76
0
330
21C
345
0
346
0
  0
LAYOUT
  5
2F4
102
{ACAD_REACTORS
330
1A
102
}
100
AcDbPlotSettings
  1

  2
none_device
  4
ISO_A4_(297.00_x_210.00_MM)
  6

 40
0.0
 41
0.0
 42
0.0
 43
0.0
 44
297.0
 45
210.0
 46
0.0
 47
0.0
 48
0.0
 49
0.0
140
0.0
141
0.0
142
1.0
143
1.0
 70
0
 72
1
 73
0
 74
0
  7

 75
0
147
1.0
148
0.0
149
0.0
100
AcDbLayout
  1
Layout1
 70
0
 71
1
 10
0.0
 20
0.0
 11
297.0
 21
210.0
 12
0.0
 22
0.0
 32
0.0
 14
0.0
 24
0.0
 34
0.0
 15
0.0
 25
0.0
 35
0.0
146
0.0
 13
0.0
 23
0.0
 33
0.0
 16
1.0
 26
0.0
 36
0.0
 17
0.0
 27
1.0
 37
0.0
 76
0
330
21D
345
0
346
0
  0
ENDSEC
  0
EOF
