  0
SECTION
  2
HEADER
  9
$ACADVER
  1
AC1024
  9
$DWGCODEPAGE
  3
ANSI_1252
  9
$EXTMAX
 10
297.0
 20
210.0
 30
0.0
  9
$EXTMIN
 10
0.0
 20
0.0
 30
0.0
  9
$LIMMIN
 10
0.0
 20
0.0
  9
$LIMMAX
 10
297.0
 20
210.0
  9
$VIEWCTR
 10
148.5
 20
105.0
  9
$VIEWSIZE
 40
210.0
  9
$CLAYER
  8
0
  9
$LTSCALE
 40
16.335
  9
$CELTYPE
  6
BYLAYER
  9
$DIMSCALE
 40
1.0
  9
$DIMASZ
 40
3.0
  9
$DIMEXO
 40
0.5
  9
$DIMDLI
 40
11.286
  9
$DIMEXE
 40
1.5
  9
$DIMCEN
 40
2.673
  9
$DIMLFAC
 40
1.0
  9
$DIMBLK
  1
_FILLED
  9
$DIMALT
 70
0
  9
$DIMALTF
 40
0.0393700787
  9
$DIMTXT
 40
3.0
  9
$DIMTOL
 70
1
  9
$DIMLIM
 70
0
  9
$DIMTFAC
 40
1.0
  9
$DIMTP
 40
0.01
  9
$DIMTM
 40
0.01
  9
$DIMGAP
 40
0.625
  9
$DIMDSEP
 70
44
  9
$AUNITS
 70
0
  9
$PDMODE
 70
3
  9
$PDSIZE
 40
3.0
  9
$HANDSEED
  5
33B
  9
$TILEMODE
 70
1
  9
$MEASUREMENT
 70
1
  9
$INSUNITS
 70
4
  0
ENDSEC
  0
SECTION
  2
CLASSES
  0
CLASS
  1
ACDBDICTIONARYWDFLT
  2
AcDbDictionaryWithDefault
  3
AutoCAD 2000
 90
0
 91
1
280
0
281
0
  0
CLASS
  1
ACDBPLACEHOLDER
  2
AcDbPlaceHolder
  3
AutoCAD 2000
 90
0
 91
1
280
0
281
0
  0
CLASS
  1
LAYOUT
  2
AcDbLayout
  3
AutoCAD 2000
 90
0
 91
0
280
0
281
0
  0
ENDSEC
  0
SECTION
  2
TABLES
  0
TABLE
  2
VPORT
  5
8
100
AcDbSymbolTable
 70
2
  0
VPORT
  5
1F4
100
AcDbSymbolTableRecord
100
AcDbViewportTableRecord
  2
*ACTIVE
 70
0
 10
0.0
 20
0.0
 11
1.0
 21
1.0
 12
148.5
 22
105.0
 13
0.0
 23
0.0
 14
1.0
 24
1.0
 15
0.0
 25
0.0
 16
0.0
 26
0.0
 36
1.0
 17
0.0
 27
0.0
 37
0.0
 40
210.0
 41
1.4142857143
 42
50.0
 43
0.0
 44
0.0
 50
0.0
 51
0.0
 71
0
 72
100
 73
1
 74
1
 75
0
 76
0
 77
0
 78
0
  0
ENDTAB
  0
TABLE
  2
LTYPE
  5
5
100
AcDbSymbolTable
 70
6
  0
LTYPE
  5
14
100
AcDbSymbolTableRecord
100
AcDbLinetypeTableRecord
  2
BYBLOCK
 70
0
  3

 72
65
 73
0
 40
0.0
  0
LTYPE
  5
15
100
AcDbSymbolTableRecord
100
AcDbLinetypeTableRecord
  2
BYLAYER
 70
0
  3

 72
65
 73
0
 40
0.0
  0
LTYPE
  5
16
100
AcDbSymbolTableRecord
100
AcDbLinetypeTableRecord
  2
CONTINUOUS
 70
64
  3
Solid line
 72
65
 73
0
 40
0.0
  0
LTYPE
  5
1F5
100
AcDbSymbolTableRecord
100
AcDbLinetypeTableRecord
  2
CENTER
 70
64
  3
____ _ ____ _ ____ _ ____ _ ____ _ ____ _ ____
 72
65
 73
4
 40
0.6
 49
0.375
 74
0
 49
-0.075
 74
0
 49
0.075
 74
0
 49
-0.075
 74
0
  0
LTYPE
  5
1F6
100
AcDbSymbolTableRecord
100
AcDbLinetypeTableRecord
  2
HIDDEN
 70
64
  3
- - - - - - - - - - - - - - - - - - - -
 72
65
 73
2
 40
0.2
 49
0.1
 74
0
 49
-0.1
 74
0
  0
LTYPE
  5
1F7
100
AcDbSymbolTableRecord
100
AcDbLinetypeTableRecord
  2
PHANTOM
 70
64
  3
_____ _ _ _____ _ _ _____ _ _ _____
 72
65
 73
6
 40
0.8
 49
0.45
 74
0
 49
-0.05
 74
0
 49
0.1
 74
0
 49
-0.05
 74
0
 49
0.1
 74
0
 49
-0.05
 74
0
  0
LTYPE
  5
1F8
100
AcDbSymbolTableRecord
100
AcDbLinetypeTableRecord
  2
DOT
 70
64
  3
. . . . . . . . . . . . . . . . . . . .
 72
65
 73
2
 40
0.2
 49
0.1
 74
0
 49
-0.1
 74
0
  0
LTYPE
  5
1F9
100
AcDbSymbolTableRecord
100
AcDbLinetypeTableRecord
  2
DASHED
 70
64
  3
- - - - - - - - - - - - - - - - - - - -
 72
65
 73
2
 40
0.2
 49
0.1
 74
0
 49
-0.1
 74
0
  0
ENDTAB
  0
TABLE
  2
LAYER
  5
2
100
AcDbSymbolTable
 70
36
  0
LAYER
  5
10
100
AcDbSymbolTableRecord
100
AcDbLayerTableRecord
  2
0
 70
0
 62
7
  6
CONTINUOUS
370
-3
390
F
  0
LAYER
  5
1FA
100
AcDbSymbolTableRecord
100
AcDbLayerTableRecord
  2
DEFAULT_1
 70
0
 62
7
  6
CENTER
370
-3
390
F
  0
LAYER
  5
1FB
100
AcDbSymbolTableRecord
100
AcDbLayerTableRecord
  2
DEFAULT_2
 70
0
 62
7
  6
HIDDEN
370
-3
390
F
  0
LAYER
  5
1FC
100
AcDbSymbolTableRecord
100
AcDbLayerTableRecord
  2
DEFAULT_3
 70
0
 62
7
  6
PHANTOM
370
-3
390
F
  0
LAYER
  5
1FD
100
AcDbSymbolTableRecord
100
AcDbLayerTableRecord
  2
ASSI
 70
0
 62
7
  6
CONTINUOUS
370
-3
390
F
  0
LAYER
  5
1FE
100
AcDbSymbolTableRecord
100
AcDbLayerTableRecord
  2
COORDINATE
 70
0
 62
7
  6
CONTINUOUS
370
-3
390
F
  0
LAYER
  5
1FF
100
AcDbSymbolTableRecord
100
AcDbLayerTableRecord
  2
COORD_ORIGINE
 70
0
 62
7
  6
CONTINUOUS
370
-3
390
F
  0
LAYER
  5
200
100
AcDbSymbolTableRecord
100
AcDbLayerTableRecord
  2
COPY_PUBLISH
 70
0
 62
7
  6
CONTINUOUS
370
-3
390
F
  0
LAYER
  5
201
100
AcDbSymbolTableRecord
100
AcDbLayerTableRecord
  2
COSMETIC
 70
0
 62
7
  6
CONTINUOUS
370
-3
390
F
  0
LAYER
  5
202
100
AcDbSymbolTableRecord
100
AcDbLayerTableRecord
  2
COSMETICI
 70
0
 62
7
  6
CONTINUOUS
370
-3
390
F
  0
LAYER
  5
203
100
AcDbSymbolTableRecord
100
AcDbLayerTableRecord
  2
CURVE
 70
0
 62
7
  6
CONTINUOUS
370
-3
390
F
  0
LAYER
  5
204
100
AcDbSymbolTableRecord
100
AcDbLayerTableRecord
  2
CURVE_TASSELLI
 70
0
 62
7
  6
CONTINUOUS
370
-3
390
F
  0
LAYER
  5
205
100
AcDbSymbolTableRecord
100
AcDbLayerTableRecord
  2
DRAFT
 70
0
 62
7
  6
CONTINUOUS
370
-3
390
F
  0
LAYER
  5
206
100
AcDbSymbolTableRecord
100
AcDbLayerTableRecord
  2
IMPORT_IGES
 70
0
 62
7
  6
CONTINUOUS
370
-3
390
F
  0
LAYER
  5
207
100
AcDbSymbolTableRecord
100
AcDbLayerTableRecord
  2
INTFCLR_2
 70
0
 62
7
  6
CONTINUOUS
370
-3
390
F
  0
LAYER
  5
208
100
AcDbSymbolTableRecord
100
AcDbLayerTableRecord
  2
INTF_1
 70
0
 62
7
  6
CONTINUOUS
370
-3
390
F
  0
LAYER
  5
209
100
AcDbSymbolTableRecord
100
AcDbLayerTableRecord
  2
INTF_21
 70
0
 62
7
  6
CONTINUOUS
370
-3
390
F
  0
LAYER
  5
20A
100
AcDbSymbolTableRecord
100
AcDbLayerTableRecord
  2
INTF_6
 70
0
 62
7
  6
CONTINUOUS
370
-3
390
F
  0
LAYER
  5
20B
100
AcDbSymbolTableRecord
100
AcDbLayerTableRecord
  2
INTF_7
 70
0
 62
7
  6
CONTINUOUS
370
-3
390
F
  0
LAYER
  5
20C
100
AcDbSymbolTableRecord
100
AcDbLayerTableRecord
  2
INTF_CYAN
 70
0
 62
7
  6
CONTINUOUS
370
-3
390
F
  0
LAYER
  5
20D
100
AcDbSymbolTableRecord
100
AcDbLayerTableRecord
  2
LIVELLO_1
 70
0
 62
7
  6
CONTINUOUS
370
-3
390
F
  0
LAYER
  5
20E
100
AcDbSymbolTableRecord
100
AcDbLayerTableRecord
  2
NOTE
 70
0
 62
7
  6
CONTINUOUS
370
-3
390
F
  0
LAYER
  5
20F
100
AcDbSymbolTableRecord
100
AcDbLayerTableRecord
  2
PIANI
 70
0
 62
7
  6
CONTINUOUS
370
-3
390
F
  0
LAYER
  5
210
100
AcDbSymbolTableRecord
100
AcDbLayerTableRecord
  2
PIANI_ORIGINE
 70
0
 62
7
  6
CONTINUOUS
370
-3
390
F
  0
LAYER
  5
211
100
AcDbSymbolTableRecord
100
AcDbLayerTableRecord
  2
PIANI_RIFERIMENTO
 70
0
 62
7
  6
CONTINUOUS
370
-3
390
F
  0
LAYER
  5
212
100
AcDbSymbolTableRecord
100
AcDbLayerTableRecord
  2
PUNTI
 70
0
 62
7
  6
CONTINUOUS
370
-3
390
F
  0
LAYER
  5
213
100
AcDbSymbolTableRecord
100
AcDbLayerTableRecord
  2
RACCORDO
 70
0
 62
7
  6
CONTINUOUS
370
-3
390
F
  0
LAYER
  5
214
100
AcDbSymbolTableRecord
100
AcDbLayerTableRecord
  2
RGB__255__255__255__
 70
0
 62
7
  6
CONTINUOUS
370
-3
390
F
  0
LAYER
  5
215
100
AcDbSymbolTableRecord
100
AcDbLayerTableRecord
  2
RGB____0____0____0__
 70
0
 62
7
  6
CONTINUOUS
370
-3
390
F
  0
LAYER
  5
216
100
AcDbSymbolTableRecord
100
AcDbLayerTableRecord
  2
SIMBOLI
 70
0
 62
7
  6
CONTINUOUS
370
-3
390
F
  0
LAYER
  5
217
100
AcDbSymbolTableRecord
100
AcDbLayerTableRecord
  2
SMUSSO
 70
0
 62
7
  6
CONTINUOUS
370
-3
390
F
  0
LAYER
  5
218
100
AcDbSymbolTableRecord
100
AcDbLayerTableRecord
  2
SUPERFICI
 70
0
 62
7
  6
CONTINUOUS
370
-3
390
F
  0
LAYER
  5
219
100
AcDbSymbolTableRecord
100
AcDbLayerTableRecord
  2
TRASH
 70
0
 62
7
  6
CONTINUOUS
370
-3
390
F
  0
LAYER
  5
21A
100
AcDbSymbolTableRecord
100
AcDbLayerTableRecord
  2
WHITE
 70
0
 62
7
  6
CONTINUOUS
370
-3
390
F
  0
LAYER
  5
21B
100
AcDbSymbolTableRecord
100
AcDbLayerTableRecord
  2
XSEC_DATUMS
 70
0
 62
7
  6
CONTINUOUS
370
-3
390
F
  0
ENDTAB
  0
TABLE
  2
STYLE
  5
3
100
AcDbSymbolTable
 70
1
  0
STYLE
  5
11
100
AcDbSymbolTableRecord
100
AcDbTextStyleTableRecord
  2
STANDARD
 70
0
 40
0.0
 41
0.8
 50
0.0
 71
0
 42
0.2
  3
txt
  4

  0
STYLE
  5
21C
100
AcDbSymbolTableRecord
100
AcDbTextStyleTableRecord
  2
TEXTSTYLE_1
 70
0
 40
0.0
 41
0.8
 50
0.0
 71
0
 42
0.2
  3
gdt
  4

  0
ENDTAB
  0
TABLE
  2
VIEW
  5
6
100
AcDbSymbolTable
 70
0
  0
ENDTAB
  0
TABLE
  2
UCS
  5
7
100
AcDbSymbolTable
 70
0
  0
ENDTAB
  0
TABLE
  2
APPID
  5
9
100
AcDbSymbolTable
 70
1
  0
APPID
  5
21D
100
AcDbSymbolTableRecord
100
AcDbRegAppTableRecord
  2
ACAD
 70
0
  0
ENDTAB
  0
TABLE
  2
BLOCK_RECORD
  5
1
100
AcDbSymbolTable
 70
0
  0
BLOCK_RECORD
  5
21E
100
AcDbSymbolTableRecord
100
AcDbBlockTableRecord
  2
*Model_Space
  0
BLOCK_RECORD
  5
21F
100
AcDbSymbolTableRecord
100
AcDbBlockTableRecord
  2
*Paper_Space
  0
BLOCK_RECORD
  5
220
100
AcDbSymbolTableRecord
100
AcDbBlockTableRecord
  2
_FILLED
  0
ENDTAB
  0
TABLE
  2
DIMSTYLE
  5
A
100
AcDbSymbolTable
 70
1
100
AcDbDimStyleTable
 71
0
  0
DIMSTYLE
105
221
100
AcDbSymbolTableRecord
100
AcDbDimStyleTableRecord
  2
STANDARD
 70
0
  3

  4

 40
1.0
 41
3.0
 42
0.5
 43
0.38
 44
1.5
 45
0.0
 46
0.0
 47
0.01
 48
0.01
140
3.0
141
0.09
142
0.0
143
25.4
144
1.0
145
0.0
146
1.0
147
0.625
 71
1
 72
0
 73
0
 74
0
 75
0
 76
0
 77
1
 78
8
 79
2
170
0
171
1
172
0
173
0
174
0
175
0
176
0
177
0
178
0
270
2
179
2
271
2
272
2
273
2
274
2
275
0
280
0
281
0
282
0
283
1
284
8
285
0
286
0
287
3
288
0
340
11
278
44
341
220
342
220
343
220
344
220
  0
ENDTAB
  0
ENDSEC
  0
SECTION
  2
BLOCKS
  0
BLOCK
  5
20
100
AcDbEntity
  8
0
100
AcDbBlockBegin
  2
*Model_Space
 70
0
 10
0.0
 20
0.0
 30
0.0
  3
*Model_Space
  1

  0
ENDBLK
  5
21
100
AcDbEntity
  8
0
100
AcDbBlockEnd
  0
BLOCK
  5
1C
100
AcDbEntity
  8
0
100
AcDbBlockBegin
  2
*Paper_Space
 70
0
 10
0.0
 20
0.0
 30
0.0
  3
*Paper_Space
  1

  0
ENDBLK
  5
1D
100
AcDbEntity
  8
0
100
AcDbBlockEnd
  0
BLOCK
  5
222
100
AcDbEntity
  8
0
100
AcDbBlockBegin
  2
_FILLED
 70
64
 10
0.0
 20
0.0
  3
_FILLED
  1

  0
SOLID
  5
223
100
AcDbEntity
  8
0
  6
BYBLOCK
 62
0
100
AcDbTrace
 10
0.0
 20
0.0
 11
-1.0
 21
0.3166666667
 12
-1.0
 22
-0.3166666667
 13
-1.0
 23
-0.3166666667
  0
ENDBLK
  5
224
100
AcDbEntity
  8
0
  6
BYBLOCK
 62
0
100
AcDbBlockEnd
  0
ENDSEC
  0
SECTION
  2
ENTITIES
  0
LINE
  5
225
100
AcDbEntity
  8
0
100
AcDbLine
 62
7
  6
CONTINUOUS
 10
-33.713712047
 20
52.8073741756
 11
-29.9258982598
 21
55.3109410669
  0
LINE
  5
226
100
AcDbEntity
  8
ASSI
100
AcDbLine
 62
7
  6
CONTINUOUS
 10
-33.713712047
 20
52.8073741756
 11
-29.9258982598
 21
55.3109410669
  0
LINE
  5
227
100
AcDbEntity
  8
0
100
AcDbLine
 62
7
  6
CONTINUOUS
 10
-33.0061747777
 20
53.2158183695
 11
-29.2183609905
 21
55.7193852608
  0
LINE
  5
228
100
AcDbEntity
  8
ASSI
100
AcDbLine
 62
7
  6
CONTINUOUS
 10
-33.0061747777
 20
53.2158183695
 11
-29.2183609905
 21
55.7193852608
  0
LINE
  5
229
100
AcDbEntity
  8
0
100
AcDbLine
 62
7
  6
CONTINUOUS
 10
-33.0269383918
 20
53.2029790185
 11
-33.0061747777
 21
53.2158183695
  0
LINE
  5
22A
100
AcDbEntity
  8
ASSI
100
AcDbLine
 62
7
  6
CONTINUOUS
 10
-33.0269383918
 20
53.2029790185
 11
-33.0061747777
 21
53.2158183695
  0
LINE
  5
22B
100
AcDbEntity
  8
0
100
AcDbLine
 62
7
  6
CONTINUOUS
 10
-29.9258982598
 20
55.3109410669
 11
-29.2183609905
 21
55.7193852608
  0
LINE
  5
22C
100
AcDbEntity
  8
ASSI
100
AcDbLine
 62
7
  6
CONTINUOUS
 10
-29.9258982598
 20
55.3109410669
 11
-29.2183609905
 21
55.7193852608
  0
LINE
  5
22D
100
AcDbEntity
  8
0
100
AcDbLine
 62
7
  6
CONTINUOUS
 10
-33.0269383918
 20
53.2029790185
 11
-33.7133367395
 21
52.8067378141
  0
LINE
  5
22E
100
AcDbEntity
  8
ASSI
100
AcDbLine
 62
7
  6
CONTINUOUS
 10
-33.0269383918
 20
53.2029790185
 11
-33.7133367395
 21
52.8067378141
  0
LINE
  5
22F
100
AcDbEntity
  8
0
100
AcDbLine
 62
7
  6
CONTINUOUS
 10
-33.4096276917
 20
51.7877505801
 11
-33.6886036258
 21
51.6267045045
  0
LINE
  5
230
100
AcDbEntity
  8
ASSI
100
AcDbLine
 62
7
  6
CONTINUOUS
 10
-33.4096276917
 20
51.7877505801
 11
-33.6886036258
 21
51.6267045045
  0
LINE
  5
231
100
AcDbEntity
  8
CURVE
100
AcDbLine
 62
250
  6
CONTINUOUS
 10
32.0411322287
 20
-48.8463758992
 11
30.7827314074
 21
-49.1229986991
  0
LINE
  5
232
100
AcDbEntity
  8
CURVE
100
AcDbLine
 62
250
  6
CONTINUOUS
 10
30.7827314074
 20
-48.6972617039
 11
32.6109225841
 21
-48.3689685114
  0
LINE
  5
233
100
AcDbEntity
  8
CURVE
100
AcDbLine
 62
250
  6
CONTINUOUS
 10
31.2850719363
 20
-44.6382971314
 11
31.9635370636
 21
-44.4851225515
  0
LINE
  5
234
100
AcDbEntity
  8
CURVE
100
AcDbLine
 62
250
  6
CONTINUOUS
 10
32.2459507582
 20
-44.4202106124
 11
32.6109225841
 21
-44.3412594007
  0
LINE
  5
235
100
AcDbEntity
  8
CURVE
100
AcDbLine
 62
250
  6
CONTINUOUS
 10
32.6109225841
 20
-44.7626650212
 11
30.7827314074
 21
-45.1068295793
  0
LINE
  5
236
100
AcDbEntity
  8
CURVE
100
AcDbLine
 62
250
  6
CONTINUOUS
 10
31.7977486871
 20
-46.3057887178
 11
30.7827314074
 21
-46.4262684078
  0
LINE
  5
237
100
AcDbEntity
  8
CURVE
100
AcDbLine
 62
250
  6
CONTINUOUS
 10
31.4221246946
 20
-45.9739366547
 11
32.6109225841
 21
-45.8404082359
  0
LINE
  5
238
100
AcDbEntity
  8
0
100
AcDbLine
 62
7
  6
CONTINUOUS
 10
-33.4096276917
 20
51.7877505801
 11
-33.0269383918
 21
53.2029790185
  0
LINE
  5
239
100
AcDbEntity
  8
ASSI
100
AcDbLine
 62
7
  6
CONTINUOUS
 10
-33.4096276917
 20
51.7877505801
 11
-33.0269383918
 21
53.2029790185
  0
LINE
  5
23A
100
AcDbEntity
  8
0
100
AcDbLine
 62
7
  6
CONTINUOUS
 10
28.2133185794
 20
-54.9463231628
 11
29.6302777103
 21
-55.3225026187
  0
LINE
  5
23B
100
AcDbEntity
  8
ASSI
100
AcDbLine
 62
7
  6
CONTINUOUS
 10
28.2133185794
 20
-54.9463231628
 11
29.6302777103
 21
-55.3225026187
  0
LINE
  5
23C
100
AcDbEntity
  8
0
100
AcDbLine
 62
7
  6
CONTINUOUS
 10
-33.6886036258
 20
-19.2049290948
 11
-33.4096276917
 21
-19.6881295863
  0
LINE
  5
23D
100
AcDbEntity
  8
ASSI
100
AcDbLine
 62
7
  6
CONTINUOUS
 10
-33.6886036258
 20
-19.2049290948
 11
-33.4096276917
 21
-19.6881295863
  0
LINE
  5
23E
100
AcDbEntity
  8
0
100
AcDbLine
 62
7
  6
CONTINUOUS
 10
-33.6886036258
 20
-19.2049290948
 11
-33.7133367395
 21
-18.7486935173
  0
LINE
  5
23F
100
AcDbEntity
  8
ASSI
100
AcDbLine
 62
7
  6
CONTINUOUS
 10
-33.6886036258
 20
-19.2049290948
 11
-33.7133367395
 21
-18.7486935173
  0
LINE
  5
240
100
AcDbEntity
  8
0
100
AcDbLine
 62
7
  6
CONTINUOUS
 10
-33.4096276917
 20
-19.6881295863
 11
-33.0269383918
 21
-19.9375703284
  0
LINE
  5
241
100
AcDbEntity
  8
ASSI
100
AcDbLine
 62
7
  6
CONTINUOUS
 10
-33.4096276917
 20
-19.6881295863
 11
-33.0269383918
 21
-19.9375703284
  0
LINE
  5
242
100
AcDbEntity
  8
0
100
AcDbLine
 62
7
  6
CONTINUOUS
 10
-33.6886036258
 20
51.6267045045
 11
-33.7133367395
 21
52.8067378141
  0
LINE
  5
243
100
AcDbEntity
  8
ASSI
100
AcDbLine
 62
7
  6
CONTINUOUS
 10
-33.6886036258
 20
51.6267045045
 11
-33.7133367395
 21
52.8067378141
  0
LINE
  5
244
100
AcDbEntity
  8
0
100
AcDbLine
 62
7
  6
CONTINUOUS
 10
-33.7133367395
 20
-18.7486935173
 11
-33.713712047
 21
-18.7245006566
  0
LINE
  5
245
100
AcDbEntity
  8
ASSI
100
AcDbLine
 62
7
  6
CONTINUOUS
 10
-33.7133367395
 20
-18.7486935173
 11
-33.713712047
 21
-18.7245006566
  0
LINE
  5
246
100
AcDbEntity
  8
0
100
AcDbLine
 62
7
  6
CONTINUOUS
 10
-33.713712047
 20
52.8073741756
 11
-33.713712047
 21
-18.7245006566
  0
LINE
  5
247
100
AcDbEntity
  8
ASSI
100
AcDbLine
 62
7
  6
CONTINUOUS
 10
-33.713712047
 20
52.8073741756
 11
-33.713712047
 21
-18.7245006566
  0
LINE
  5
248
100
AcDbEntity
  8
0
100
AcDbLine
 62
7
  6
CONTINUOUS
 10
-33.6886036258
 20
51.6267045045
 11
-33.6886036258
 21
-19.2049290948
  0
LINE
  5
249
100
AcDbEntity
  8
ASSI
100
AcDbLine
 62
7
  6
CONTINUOUS
 10
-33.6886036258
 20
51.6267045045
 11
-33.6886036258
 21
-19.2049290948
  0
LINE
  5
24A
100
AcDbEntity
  8
0
100
AcDbLine
 62
7
  6
CONTINUOUS
 10
-33.0061747777
 20
-19.949991154
 11
28.9442417929
 21
-55.7193852608
  0
LINE
  5
24B
100
AcDbEntity
  8
ASSI
100
AcDbLine
 62
7
  6
CONTINUOUS
 10
-33.0061747777
 20
-19.949991154
 11
28.9442417929
 21
-55.7193852608
  0
LINE
  5
24C
100
AcDbEntity
  8
0
100
AcDbLine
 62
7
  6
CONTINUOUS
 10
-33.4096276917
 20
-19.6881295863
 11
27.9343426453
 21
-55.1073692384
  0
LINE
  5
24D
100
AcDbEntity
  8
ASSI
100
AcDbLine
 62
7
  6
CONTINUOUS
 10
-33.4096276917
 20
-19.6881295863
 11
27.9343426453
 21
-55.1073692384
  0
LINE
  5
24E
100
AcDbEntity
  8
0
100
AcDbLine
 62
7
  6
CONTINUOUS
 10
-33.0061747777
 20
-19.949991154
 11
-33.0269383918
 21
-19.9375703284
  0
LINE
  5
24F
100
AcDbEntity
  8
ASSI
100
AcDbLine
 62
7
  6
CONTINUOUS
 10
-33.0061747777
 20
-19.949991154
 11
-33.0269383918
 21
-19.9375703284
  0
LINE
  5
250
100
AcDbEntity
  8
0
100
AcDbLine
 62
7
  6
CONTINUOUS
 10
27.9343426453
 20
-55.1073692384
 11
28.9438793627
 21
-55.7187438231
  0
LINE
  5
251
100
AcDbEntity
  8
ASSI
100
AcDbLine
 62
7
  6
CONTINUOUS
 10
27.9343426453
 20
-55.1073692384
 11
28.9438793627
 21
-55.7187438231
  0
LINE
  5
252
100
AcDbEntity
  8
0
100
AcDbLine
 62
7
  6
CONTINUOUS
 10
-14.0159956831
 20
3.2192298808
 11
-14.0159956831
 21
6.485110988
  0
LINE
  5
253
100
AcDbEntity
  8
ASSI
100
AcDbLine
 62
7
  6
CONTINUOUS
 10
-14.0159956831
 20
3.2192298808
 11
-14.0159956831
 21
6.485110988
  0
LINE
  5
254
100
AcDbEntity
  8
0
100
AcDbLine
 62
7
  6
CONTINUOUS
 10
-12.3189394083
 20
3.2192298808
 11
-12.3189394083
 21
6.485110988
  0
LINE
  5
255
100
AcDbEntity
  8
ASSI
100
AcDbLine
 62
7
  6
CONTINUOUS
 10
-12.3189394083
 20
3.2192298808
 11
-12.3189394083
 21
6.485110988
  0
LINE
  5
256
100
AcDbEntity
  8
0
100
AcDbLine
 62
7
  6
CONTINUOUS
 10
-11.9653860177
 20
6.6892482847
 11
-11.9653860177
 21
3.4233671775
  0
LINE
  5
257
100
AcDbEntity
  8
ASSI
100
AcDbLine
 62
7
  6
CONTINUOUS
 10
-11.8239646615
 20
6.7709032033
 11
-11.8239646615
 21
3.5050220962
  0
LINE
  5
258
100
AcDbEntity
  8
0
100
AcDbLine
 62
250
  6
CONTINUOUS
 10
-11.9653860177
 20
6.6892482847
 11
-12.3189394083
 21
6.485110988
  0
LINE
  5
259
100
AcDbEntity
  8
ASSI
100
AcDbLine
 62
250
  6
CONTINUOUS
 10
-11.8239646615
 20
6.7709032033
 11
-12.3189394083
 21
6.485110988
  0
LINE
  5
25A
100
AcDbEntity
  8
0
100
AcDbLine
 62
250
  6
CONTINUOUS
 10
-11.9653860177
 20
3.4233671775
 11
-12.3189394083
 21
3.2192298808
  0
LINE
  5
25B
100
AcDbEntity
  8
ASSI
100
AcDbLine
 62
250
  6
CONTINUOUS
 10
-11.8239646615
 20
3.5050220962
 11
-12.3189394083
 21
3.2192298808
  0
LINE
  5
25C
100
AcDbEntity
  8
0
100
AcDbLine
 62
7
  6
CONTINUOUS
 10
-7.36919194
 20
2.6473298107
 11
-7.36919194
 21
-0.6185512964
  0
LINE
  5
25D
100
AcDbEntity
  8
ASSI
100
AcDbLine
 62
7
  6
CONTINUOUS
 10
-7.36919194
 20
2.6473298107
 11
-7.36919194
 21
-0.6185512964
  0
LINE
  5
25E
100
AcDbEntity
  8
0
100
AcDbLine
 62
250
  6
CONTINUOUS
 10
1.8939068936
 20
-5.966948469
 11
3.5909631684
 21
-5.966948469
  0
LINE
  5
25F
100
AcDbEntity
  8
ASSI
100
AcDbLine
 62
250
  6
CONTINUOUS
 10
1.8939068936
 20
-5.966948469
 11
3.5909631684
 21
-5.966948469
  0
LINE
  5
260
100
AcDbEntity
  8
0
100
AcDbLine
 62
7
  6
CONTINUOUS
 10
28.9442417929
 20
17.4464242627
 11
33.0061747777
 21
19.7917181648
  0
LINE
  5
261
100
AcDbEntity
  8
ASSI
100
AcDbLine
 62
7
  6
CONTINUOUS
 10
28.9442417929
 20
17.4464242627
 11
33.0061747777
 21
19.7917181648
  0
LINE
  5
262
100
AcDbEntity
  8
0
100
AcDbLine
 62
250
  6
CONTINUOUS
 10
1.8939068936
 20
-2.7010673619
 11
3.5909631684
 21
-2.7010673619
  0
LINE
  5
263
100
AcDbEntity
  8
ASSI
100
AcDbLine
 62
250
  6
CONTINUOUS
 10
1.8939068936
 20
-2.7010673619
 11
3.5909631684
 21
-2.7010673619
  0
LINE
  5
264
100
AcDbEntity
  8
0
100
AcDbLine
 62
7
  6
CONTINUOUS
 10
-33.713712047
 20
52.8073741756
 11
-33.7133367395
 21
52.8067378141
  0
LINE
  5
265
100
AcDbEntity
  8
ASSI
100
AcDbLine
 62
7
  6
CONTINUOUS
 10
-33.713712047
 20
52.8073741756
 11
-33.7133367395
 21
52.8067378141
  0
LINE
  5
266
100
AcDbEntity
  8
0
100
AcDbLine
 62
7
  6
CONTINUOUS
 10
28.9438793627
 20
-55.7187438231
 11
28.9442417929
 21
-55.7193852608
  0
LINE
  5
267
100
AcDbEntity
  8
ASSI
100
AcDbLine
 62
7
  6
CONTINUOUS
 10
28.9438793627
 20
-55.7187438231
 11
28.9442417929
 21
-55.7193852608
  0
LINE
  5
268
100
AcDbEntity
  8
0
100
AcDbLine
 62
7
  6
CONTINUOUS
 10
1.8939068936
 20
-5.966948469
 11
1.8939068936
 21
-2.7010673619
  0
LINE
  5
269
100
AcDbEntity
  8
ASSI
100
AcDbLine
 62
7
  6
CONTINUOUS
 10
1.8939068936
 20
-5.966948469
 11
1.8939068936
 21
-2.7010673619
  0
LINE
  5
26A
100
AcDbEntity
  8
0
100
AcDbLine
 62
7
  6
CONTINUOUS
 10
3.5909631684
 20
-5.966948469
 11
3.5909631684
 21
-2.7010673619
  0
LINE
  5
26B
100
AcDbEntity
  8
ASSI
100
AcDbLine
 62
7
  6
CONTINUOUS
 10
3.5909631684
 20
-5.966948469
 11
3.5909631684
 21
-2.7010673619
  0
LINE
  5
26C
100
AcDbEntity
  8
0
100
AcDbLine
 62
7
  6
CONTINUOUS
 10
3.944516559
 20
-2.4969300652
 11
3.944516559
 21
-5.7628111724
  0
LINE
  5
26D
100
AcDbEntity
  8
ASSI
100
AcDbLine
 62
7
  6
CONTINUOUS
 10
4.0859379152
 20
-2.4152751465
 11
4.0859379152
 21
-5.6811562537
  0
LINE
  5
26E
100
AcDbEntity
  8
0
100
AcDbLine
 62
7
  6
CONTINUOUS
 10
29.6517790622
 20
16.2209337653
 11
33.713712047
 21
18.5662276674
  0
LINE
  5
26F
100
AcDbEntity
  8
ASSI
100
AcDbLine
 62
7
  6
CONTINUOUS
 10
29.6517790622
 20
16.2209337653
 11
33.713712047
 21
18.5662276674
  0
LINE
  5
270
100
AcDbEntity
  8
0
100
AcDbLine
 62
250
  6
CONTINUOUS
 10
3.944516559
 20
-2.4969300652
 11
3.5909631684
 21
-2.7010673619
  0
LINE
  5
271
100
AcDbEntity
  8
ASSI
100
AcDbLine
 62
250
  6
CONTINUOUS
 10
4.0859379152
 20
-2.4152751465
 11
3.5909631684
 21
-2.7010673619
  0
LINE
  5
272
100
AcDbEntity
  8
0
100
AcDbLine
 62
250
  6
CONTINUOUS
 10
-14.0159956831
 20
3.2192298808
 11
-12.3189394083
 21
3.2192298808
  0
LINE
  5
273
100
AcDbEntity
  8
ASSI
100
AcDbLine
 62
250
  6
CONTINUOUS
 10
-14.0159956831
 20
3.2192298808
 11
-12.3189394083
 21
3.2192298808
  0
LINE
  5
274
100
AcDbEntity
  8
0
100
AcDbLine
 62
7
  6
CONTINUOUS
 10
8.5407106367
 20
-6.5388485391
 11
8.5407106367
 21
-9.8047296463
  0
LINE
  5
275
100
AcDbEntity
  8
ASSI
100
AcDbLine
 62
7
  6
CONTINUOUS
 10
8.5407106367
 20
-6.5388485391
 11
8.5407106367
 21
-9.8047296463
  0
LINE
  5
276
100
AcDbEntity
  8
0
100
AcDbLine
 62
7
  6
CONTINUOUS
 10
27.9343426453
 20
16.368510928
 11
28.9438793627
 21
17.4218055238
  0
LINE
  5
277
100
AcDbEntity
  8
ASSI
100
AcDbLine
 62
7
  6
CONTINUOUS
 10
27.9343426453
 20
16.368510928
 11
28.9438793627
 21
17.4218055238
  0
LINE
  5
278
100
AcDbEntity
  8
0
100
AcDbLine
 62
250
  6
CONTINUOUS
 10
3.944516559
 20
-5.7628111724
 11
3.5909631684
 21
-5.966948469
  0
LINE
  5
279
100
AcDbEntity
  8
ASSI
100
AcDbLine
 62
250
  6
CONTINUOUS
 10
4.0859379152
 20
-5.6811562537
 11
3.5909631684
 21
-5.966948469
  0
LINE
  5
27A
100
AcDbEntity
  8
0
100
AcDbLine
 62
7
  6
CONTINUOUS
 10
28.2133185794
 20
15.8853104365
 11
29.6302777103
 21
16.2329287127
  0
LINE
  5
27B
100
AcDbEntity
  8
ASSI
100
AcDbLine
 62
7
  6
CONTINUOUS
 10
28.2133185794
 20
15.8853104365
 11
29.6302777103
 21
16.2329287127
  0
LINE
  5
27C
100
AcDbEntity
  8
0
100
AcDbLine
 62
250
  6
CONTINUOUS
 10
-14.0159956831
 20
6.485110988
 11
-12.3189394083
 21
6.485110988
  0
LINE
  5
27D
100
AcDbEntity
  8
ASSI
100
AcDbLine
 62
250
  6
CONTINUOUS
 10
-14.0159956831
 20
6.485110988
 11
-12.3189394083
 21
6.485110988
  0
LINE
  5
27E
100
AcDbEntity
  8
0
100
AcDbLine
 62
7
  6
CONTINUOUS
 10
28.2133185794
 20
-54.9463231628
 11
28.2133185794
 21
15.8853104365
  0
LINE
  5
27F
100
AcDbEntity
  8
ASSI
100
AcDbLine
 62
7
  6
CONTINUOUS
 10
28.2133185794
 20
-54.9463231628
 11
28.2133185794
 21
15.8853104365
  0
LINE
  5
280
100
AcDbEntity
  8
0
100
AcDbLine
 62
7
  6
CONTINUOUS
 10
29.6517790622
 20
-55.3109410669
 11
29.6517790622
 21
16.2209337653
  0
LINE
  5
281
100
AcDbEntity
  8
ASSI
100
AcDbLine
 62
7
  6
CONTINUOUS
 10
29.6517790622
 20
-55.3109410669
 11
29.6517790622
 21
16.2209337653
  0
LINE
  5
282
100
AcDbEntity
  8
CURVE
100
AcDbLine
 62
250
  6
CONTINUOUS
 10
30.7826224357
 20
-48.1131914136
 11
30.7826224357
 21
-48.5392198888
  0
LINE
  5
283
100
AcDbEntity
  8
CURVE
100
AcDbLine
 62
250
  6
CONTINUOUS
 10
30.7827314074
 20
-50.3757694636
 11
30.7827314074
 21
-49.9129712496
  0
LINE
  5
284
100
AcDbEntity
  8
CURVE
100
AcDbLine
 62
250
  6
CONTINUOUS
 10
30.7827314074
 20
-49.1229986991
 11
30.7827314074
 21
-48.6972617039
  0
LINE
  5
285
100
AcDbEntity
  8
CURVE
100
AcDbLine
 62
250
  6
CONTINUOUS
 10
30.7827314074
 20
-47.6995015504
 11
30.7827314074
 21
-47.2738257904
  0
LINE
  5
286
100
AcDbEntity
  8
CURVE
100
AcDbLine
 62
250
  6
CONTINUOUS
 10
30.7827314074
 20
-46.4262684078
 11
30.7827314074
 21
-46.0047550133
  0
LINE
  5
287
100
AcDbEntity
  8
CURVE
100
AcDbLine
 62
250
  6
CONTINUOUS
 10
30.7827314074
 20
-45.1068295793
 11
30.7827314074
 21
-44.6946982448
  0
LINE
  5
288
100
AcDbEntity
  8
0
100
AcDbLine
 62
7
  6
CONTINUOUS
 10
28.9442417929
 20
17.4464242627
 11
28.9438793627
 21
17.4218055238
  0
LINE
  5
289
100
AcDbEntity
  8
ASSI
100
AcDbLine
 62
7
  6
CONTINUOUS
 10
28.9442417929
 20
17.4464242627
 11
28.9438793627
 21
17.4218055238
  0
LINE
  5
28A
100
AcDbEntity
  8
0
100
AcDbLine
 62
7
  6
CONTINUOUS
 10
29.6302777103
 20
16.2329287127
 11
29.6517790622
 21
16.2209337653
  0
LINE
  5
28B
100
AcDbEntity
  8
ASSI
100
AcDbLine
 62
7
  6
CONTINUOUS
 10
29.6302777103
 20
16.2329287127
 11
29.6517790622
 21
16.2209337653
  0
LINE
  5
28C
100
AcDbEntity
  8
0
100
AcDbLine
 62
7
  6
CONTINUOUS
 10
27.9343426453
 20
16.368510928
 11
-33.4096276917
 21
51.7877505801
  0
LINE
  5
28D
100
AcDbEntity
  8
ASSI
100
AcDbLine
 62
7
  6
CONTINUOUS
 10
27.9343426453
 20
16.368510928
 11
-33.4096276917
 21
51.7877505801
  0
LINE
  5
28E
100
AcDbEntity
  8
0
100
AcDbLine
 62
7
  6
CONTINUOUS
 10
28.9442417929
 20
17.4464242627
 11
-33.0061747777
 21
53.2158183695
  0
LINE
  5
28F
100
AcDbEntity
  8
ASSI
100
AcDbLine
 62
7
  6
CONTINUOUS
 10
28.9442417929
 20
17.4464242627
 11
-33.0061747777
 21
53.2158183695
  0
LINE
  5
290
100
AcDbEntity
  8
CURVE
100
AcDbLine
 62
250
  6
CONTINUOUS
 10
31.5960561922
 20
-42.8518072462
 11
31.5960561922
 21
-43.0952782374
  0
LINE
  5
291
100
AcDbEntity
  8
CURVE
100
AcDbLine
 62
250
  6
CONTINUOUS
 10
31.89546968
 20
-42.9199408118
 11
31.89546968
 21
-42.691514577
  0
LINE
  5
292
100
AcDbEntity
  8
CURVE
100
AcDbLine
 62
250
  6
CONTINUOUS
 10
31.9635370636
 20
-44.4851225515
 11
31.9635370636
 21
-44.0772303306
  0
LINE
  5
293
100
AcDbEntity
  8
CURVE
100
AcDbLine
 62
250
  6
CONTINUOUS
 10
32.2459507582
 20
-43.840030916
 11
32.2459507582
 21
-44.4202106124
  0
LINE
  5
294
100
AcDbEntity
  8
CURVE
100
AcDbLine
 62
250
  6
CONTINUOUS
 10
32.6109225841
 20
-47.554821909
 11
32.6109225841
 21
-47.1287934339
  0
LINE
  5
295
100
AcDbEntity
  8
CURVE
100
AcDbLine
 62
250
  6
CONTINUOUS
 10
32.6109225961
 20
-42.9590390136
 11
32.6109225961
 21
-42.5347248472
  0
LINE
  5
296
100
AcDbEntity
  8
CURVE
100
AcDbLine
 62
250
  6
CONTINUOUS
 10
32.6109225961
 20
-41.8823211546
 11
32.6109225961
 21
-41.4725313766
  0
LINE
  5
297
100
AcDbEntity
  8
CURVE
100
AcDbLine
 62
250
  6
CONTINUOUS
 10
32.6109225841
 20
-43.0841417485
 11
32.6109225841
 21
-43.5331579443
  0
LINE
  5
298
100
AcDbEntity
  8
CURVE
100
AcDbLine
 62
250
  6
CONTINUOUS
 10
32.6109225841
 20
-44.3412594007
 11
32.6109225841
 21
-44.7626650212
  0
LINE
  5
299
100
AcDbEntity
  8
CURVE
100
AcDbLine
 62
250
  6
CONTINUOUS
 10
32.6109225841
 20
-44.8295633298
 11
32.6109225841
 21
-45.2463322155
  0
LINE
  5
29A
100
AcDbEntity
  8
CURVE
100
AcDbLine
 62
250
  6
CONTINUOUS
 10
32.6109225841
 20
-45.8404082359
 11
32.6109225841
 21
-45.9001591637
  0
LINE
  5
29B
100
AcDbEntity
  8
CURVE
100
AcDbLine
 62
250
  6
CONTINUOUS
 10
32.6109225841
 20
-46.491878851
 11
32.6109225841
 21
-46.8994493826
  0
LINE
  5
29C
100
AcDbEntity
  8
CURVE
100
AcDbLine
 62
250
  6
CONTINUOUS
 10
32.6109225841
 20
-48.3689685114
 11
32.6109225841
 21
-48.7444060388
  0
LINE
  5
29D
100
AcDbEntity
  8
0
100
AcDbLine
 62
7
  6
CONTINUOUS
 10
33.713712047
 20
-53.2821625527
 11
33.713712047
 21
18.5662276674
  0
LINE
  5
29E
100
AcDbEntity
  8
ASSI
100
AcDbLine
 62
7
  6
CONTINUOUS
 10
33.713712047
 20
-53.2821625527
 11
33.713712047
 21
18.5662276674
  0
LINE
  5
29F
100
AcDbEntity
  8
0
100
AcDbLine
 62
7
  6
CONTINUOUS
 10
33.0061747777
 20
19.7917181648
 11
-29.2183609905
 21
55.7193852608
  0
LINE
  5
2A0
100
AcDbEntity
  8
ASSI
100
AcDbLine
 62
7
  6
CONTINUOUS
 10
33.0061747777
 20
19.7917181648
 11
-29.2183609905
 21
55.7193852608
  0
LINE
  5
2A1
100
AcDbEntity
  8
0
100
AcDbLine
 62
7
  6
CONTINUOUS
 10
28.2133185794
 20
15.8853104365
 11
27.9343426453
 21
16.368510928
  0
LINE
  5
2A2
100
AcDbEntity
  8
ASSI
100
AcDbLine
 62
7
  6
CONTINUOUS
 10
28.2133185794
 20
15.8853104365
 11
27.9343426453
 21
16.368510928
  0
LINE
  5
2A3
100
AcDbEntity
  8
0
100
AcDbLine
 62
7
  6
CONTINUOUS
 10
29.6302777103
 20
16.2329287127
 11
28.9438793627
 21
17.4218055238
  0
LINE
  5
2A4
100
AcDbEntity
  8
ASSI
100
AcDbLine
 62
7
  6
CONTINUOUS
 10
29.6302777103
 20
16.2329287127
 11
28.9438793627
 21
17.4218055238
  0
LINE
  5
2A5
100
AcDbEntity
  8
0
100
AcDbLine
 62
7
  6
CONTINUOUS
 10
33.0061747777
 20
19.7917181648
 11
33.713712047
 21
18.5662276674
  0
LINE
  5
2A6
100
AcDbEntity
  8
ASSI
100
AcDbLine
 62
7
  6
CONTINUOUS
 10
33.0061747777
 20
19.7917181648
 11
33.713712047
 21
18.5662276674
  0
LINE
  5
2A7
100
AcDbEntity
  8
CURVE
100
AcDbLine
 62
7
  6
CONTINUOUS
 10
30.8607841149
 20
-42.7687319902
 11
31.3874815558
 21
-42.2420345492
  0
LINE
  5
2A8
100
AcDbEntity
  8
CURVE
100
AcDbLine
 62
7
  6
CONTINUOUS
 10
30.7850901359
 20
-43.0544366832
 11
31.6145461076
 21
-42.2249807115
  0
LINE
  5
2A9
100
AcDbEntity
  8
CURVE
100
AcDbLine
 62
7
  6
CONTINUOUS
 10
30.7644702576
 20
-43.2850672755
 11
31.1022828543
 21
-42.9472546788
  0
LINE
  5
2AA
100
AcDbEntity
  8
CURVE
100
AcDbLine
 62
7
  6
CONTINUOUS
 10
31.4141373894
 20
-42.6354001437
 11
31.7399997296
 21
-42.3095378034
  0
LINE
  5
2AB
100
AcDbEntity
  8
CURVE
100
AcDbLine
 62
7
  6
CONTINUOUS
 10
31.776322567
 20
-42.2732149661
 11
32.4092988075
 21
-41.6402387256
  0
LINE
  5
2AC
100
AcDbEntity
  8
CURVE
100
AcDbLine
 62
7
  6
CONTINUOUS
 10
30.7634180911
 20
-43.496130156
 11
31.0771187586
 21
-43.1824294885
  0
LINE
  5
2AD
100
AcDbEntity
  8
CURVE
100
AcDbLine
 62
7
  6
CONTINUOUS
 10
31.565148036
 20
-42.6944002111
 11
32.6109225961
 21
-41.648625651
  0
LINE
  5
2AE
100
AcDbEntity
  8
CURVE
100
AcDbLine
 62
7
  6
CONTINUOUS
 10
30.7757016827
 20
-43.6938572784
 11
31.1155832925
 21
-43.3539756686
  0
LINE
  5
2AF
100
AcDbEntity
  8
CURVE
100
AcDbLine
 62
7
  6
CONTINUOUS
 10
31.5960561922
 20
-42.8735027689
 11
31.9322946391
 21
-42.537264322
  0
LINE
  5
2B0
100
AcDbEntity
  8
CURVE
100
AcDbLine
 62
7
  6
CONTINUOUS
 10
32.4369571594
 20
-42.0326018017
 11
32.6109225961
 21
-41.858636365
  0
LINE
  5
2B1
100
AcDbEntity
  8
CURVE
100
AcDbLine
 62
250
  6
CONTINUOUS
 10
31.7575393183
 20
-42.3232217351
 11
31.7467363042
 21
-42.3290383212
  0
LINE
  5
2B2
100
AcDbEntity
  8
CURVE
100
AcDbLine
 62
7
  6
CONTINUOUS
 10
30.7974989661
 20
-43.882070709
 11
31.5705680453
 21
-43.1090016298
  0
LINE
  5
2B3
100
AcDbEntity
  8
CURVE
100
AcDbLine
 62
7
  6
CONTINUOUS
 10
31.5960561922
 20
-43.0835134829
 11
31.89546968
 21
-42.7840999951
  0
LINE
  5
2B4
100
AcDbEntity
  8
CURVE
100
AcDbLine
 62
7
  6
CONTINUOUS
 10
31.1368878882
 20
-43.7526925009
 11
32.0561575409
 21
-42.8334228482
  0
LINE
  5
2B5
100
AcDbEntity
  8
CURVE
100
AcDbLine
 62
7
  6
CONTINUOUS
 10
31.591872641
 20
-43.5077184621
 11
32.5111422937
 21
-42.5884488094
  0
LINE
  5
2B6
100
AcDbEntity
  8
CURVE
100
AcDbLine
 62
7
  6
CONTINUOUS
 10
32.0468573938
 20
-43.2627444233
 11
32.6109225961
 21
-42.698679221
  0
LINE
  5
2B7
100
AcDbEntity
  8
CURVE
100
AcDbLine
 62
7
  6
CONTINUOUS
 10
30.7827314074
 20
-44.7368811238
 11
31.1370791935
 21
-44.3825333377
  0
LINE
  5
2B8
100
AcDbEntity
  8
CURVE
100
AcDbLine
 62
7
  6
CONTINUOUS
 10
32.5018421466
 20
-43.0177703845
 11
32.6109225961
 21
-42.908689935
  0
LINE
  5
2B9
100
AcDbEntity
  8
CURVE
100
AcDbLine
 62
7
  6
CONTINUOUS
 10
30.7827314074
 20
-44.9468918378
 11
32.6109225841
 21
-43.1187006611
  0
LINE
  5
2BA
100
AcDbEntity
  8
CURVE
100
AcDbLine
 62
7
  6
CONTINUOUS
 10
30.844416936
 20
-45.0952170232
 11
31.3060796657
 21
-44.6335542935
  0
LINE
  5
2BB
100
AcDbEntity
  8
CURVE
100
AcDbLine
 62
7
  6
CONTINUOUS
 10
31.3790695426
 20
-44.5605644166
 11
32.6109225841
 21
-43.3287113751
  0
LINE
  5
2BC
100
AcDbEntity
  8
CURVE
100
AcDbLine
 62
7
  6
CONTINUOUS
 10
31.103131793
 20
-45.0465128802
 11
31.5773294464
 21
-44.5723152268
  0
LINE
  5
2BD
100
AcDbEntity
  8
CURVE
100
AcDbLine
 62
7
  6
CONTINUOUS
 10
31.9635370636
 20
-44.1861076096
 11
32.2459507582
 21
-43.903693915
  0
LINE
  5
2BE
100
AcDbEntity
  8
CURVE
100
AcDbLine
 62
7
  6
CONTINUOUS
 10
31.36184665
 20
-44.9978087373
 11
31.8485792272
 21
-44.51107616
  0
LINE
  5
2BF
100
AcDbEntity
  8
CURVE
100
AcDbLine
 62
7
  6
CONTINUOUS
 10
31.9635370636
 20
-44.3961183236
 11
32.2459507582
 21
-44.113704629
  0
LINE
  5
2C0
100
AcDbEntity
  8
CURVE
100
AcDbLine
 62
7
  6
CONTINUOUS
 10
31.6205615069
 20
-44.9491045943
 11
32.2459507582
 21
-44.323715343
  0
LINE
  5
2C1
100
AcDbEntity
  8
CURVE
100
AcDbLine
 62
7
  6
CONTINUOUS
 10
31.8792763639
 20
-44.9004004513
 11
32.3908002447
 21
-44.3888765705
  0
LINE
  5
2C2
100
AcDbEntity
  8
CURVE
100
AcDbLine
 62
7
  6
CONTINUOUS
 10
30.7827314074
 20
-46.2069561219
 11
31.3488302887
 21
-45.6408572405
  0
LINE
  5
2C3
100
AcDbEntity
  8
CURVE
100
AcDbLine
 62
7
  6
CONTINUOUS
 10
32.1379912209
 20
-44.8516963083
 11
32.6109225841
 21
-44.3787649452
  0
LINE
  5
2C4
100
AcDbEntity
  8
CURVE
100
AcDbLine
 62
7
  6
CONTINUOUS
 10
30.7827314074
 20
-46.4169668359
 11
31.9367935849
 21
-45.2629046584
  0
LINE
  5
2C5
100
AcDbEntity
  8
CURVE
100
AcDbLine
 62
7
  6
CONTINUOUS
 10
32.3967060779
 20
-44.8029921654
 11
32.6109225841
 21
-44.5887756592
  0
LINE
  5
2C6
100
AcDbEntity
  8
CURVE
100
AcDbLine
 62
7
  6
CONTINUOUS
 10
31.0104728123
 20
-46.399236145
 11
31.4374992013
 21
-45.972209756
  0
LINE
  5
2C7
100
AcDbEntity
  8
CURVE
100
AcDbLine
 62
7
  6
CONTINUOUS
 10
31.457303528
 20
-45.9524054293
 11
32.524756881
 21
-44.8849520763
  0
LINE
  5
2C8
100
AcDbEntity
  8
CURVE
100
AcDbLine
 62
7
  6
CONTINUOUS
 10
31.2487685598
 20
-46.3709511114
 11
31.6740836003
 21
-45.9456360709
  0
LINE
  5
2C9
100
AcDbEntity
  8
CURVE
100
AcDbLine
 62
7
  6
CONTINUOUS
 10
31.9986388254
 20
-45.6210808458
 11
32.6109225841
 21
-45.0087970872
  0
LINE
  5
2CA
100
AcDbEntity
  8
CURVE
100
AcDbLine
 62
7
  6
CONTINUOUS
 10
31.4870643074
 20
-46.3426660779
 11
31.9106679994
 21
-45.9190623859
  0
LINE
  5
2CB
100
AcDbEntity
  8
CURVE
100
AcDbLine
 62
7
  6
CONTINUOUS
 10
32.5399741229
 20
-45.2897562624
 11
32.6109225841
 21
-45.2188078012
  0
LINE
  5
2CC
100
AcDbEntity
  8
CURVE
100
AcDbLine
 62
7
  6
CONTINUOUS
 10
31.725360055
 20
-46.3143810443
 11
32.1472523985
 21
-45.8924887008
  0
LINE
  5
2CD
100
AcDbEntity
  8
CURVE
100
AcDbLine
 62
7
  6
CONTINUOUS
 10
30.7827314074
 20
-47.4670204059
 11
32.3838367976
 21
-45.8659150158
  0
LINE
  5
2CE
100
AcDbEntity
  8
CURVE
100
AcDbLine
 62
7
  6
CONTINUOUS
 10
30.7827314074
 20
-47.67703112
 11
32.6109225841
 21
-45.8488399433
  0
LINE
  5
2CF
100
AcDbEntity
  8
CURVE
100
AcDbLine
 62
7
  6
CONTINUOUS
 10
31.1162072203
 20
-47.5535660211
 11
31.806920996
 21
-46.8628522453
  0
LINE
  5
2D0
100
AcDbEntity
  8
CURVE
100
AcDbLine
 62
7
  6
CONTINUOUS
 10
31.4896389557
 20
-47.3901449997
 11
32.1968469871
 21
-46.6829369683
  0
LINE
  5
2D1
100
AcDbEntity
  8
CURVE
100
AcDbLine
 62
7
  6
CONTINUOUS
 10
30.7826224357
 20
-48.3071722337
 11
31.2028786872
 21
-47.8869159821
  0
LINE
  5
2D2
100
AcDbEntity
  8
CURVE
100
AcDbLine
 62
7
  6
CONTINUOUS
 10
31.8630706912
 20
-47.2267239782
 11
32.5867729781
 21
-46.5030216913
  0
LINE
  5
2D3
100
AcDbEntity
  8
CURVE
100
AcDbLine
 62
7
  6
CONTINUOUS
 10
30.7826224357
 20
-48.5171829477
 11
31.65786344
 21
-47.6419419433
  0
LINE
  5
2D4
100
AcDbEntity
  8
CURVE
100
AcDbLine
 62
7
  6
CONTINUOUS
 10
32.2365024266
 20
-47.0633029568
 11
32.6109225841
 21
-46.6888827993
  0
LINE
  5
2D5
100
AcDbEntity
  8
CURVE
100
AcDbLine
 62
7
  6
CONTINUOUS
 10
30.7827314074
 20
-48.72708469
 11
30.8190819597
 21
-48.6907341377
  0
LINE
  5
2D6
100
AcDbEntity
  8
CURVE
100
AcDbLine
 62
7
  6
CONTINUOUS
 10
31.1898645186
 20
-48.3199515788
 11
32.1128481928
 21
-47.3969679045
  0
LINE
  5
2D7
100
AcDbEntity
  8
CURVE
100
AcDbLine
 62
7
  6
CONTINUOUS
 10
32.6099341621
 20
-46.8998819353
 11
32.6109225841
 21
-46.8988935133
  0
LINE
  5
2D8
100
AcDbEntity
  8
CURVE
100
AcDbLine
 62
7
  6
CONTINUOUS
 10
30.7827314074
 20
-48.937095404
 11
31.0750591917
 21
-48.6447676197
  0
LINE
  5
2D9
100
AcDbEntity
  8
CURVE
100
AcDbLine
 62
7
  6
CONTINUOUS
 10
31.6448492714
 20
-48.07497754
 11
32.5678329457
 21
-47.1519938658
  0
LINE
  5
2DA
100
AcDbEntity
  8
CURVE
100
AcDbLine
 62
7
  6
CONTINUOUS
 10
30.8136312596
 20
-49.1162062659
 11
31.3310364238
 21
-48.5988011017
  0
LINE
  5
2DB
100
AcDbEntity
  8
CURVE
100
AcDbLine
 62
7
  6
CONTINUOUS
 10
32.0998340242
 20
-47.8300035012
 11
32.6109225841
 21
-47.3189149414
  0
LINE
  5
2DC
100
AcDbEntity
  8
CURVE
100
AcDbLine
 62
7
  6
CONTINUOUS
 10
31.0828139559
 20
-49.0570342835
 11
31.5870136558
 21
-48.5528345836
  0
LINE
  5
2DD
100
AcDbEntity
  8
CURVE
100
AcDbLine
 62
7
  6
CONTINUOUS
 10
32.554818777
 20
-47.5850294624
 11
32.6109225841
 21
-47.5289256554
  0
LINE
  5
2DE
100
AcDbEntity
  8
CURVE
100
AcDbLine
 62
7
  6
CONTINUOUS
 10
31.3519966523
 20
-48.9978623012
 11
31.8429908879
 21
-48.5068680656
  0
LINE
  5
2DF
100
AcDbEntity
  8
CURVE
100
AcDbLine
 62
7
  6
CONTINUOUS
 10
31.6211793486
 20
-48.9386903188
 11
32.0989681199
 21
-48.4609015475
  0
LINE
  5
2E0
100
AcDbEntity
  8
CURVE
100
AcDbLine
 62
250
  6
CONTINUOUS
 10
32.6109225841
 20
-45.9001591637
 11
31.417148564
 21
-47.0426966689
  0
LINE
  5
2E1
100
AcDbEntity
  8
CURVE
100
AcDbLine
 62
250
  6
CONTINUOUS
 10
30.7827314074
 20
-47.2738257904
 11
31.7977486871
 21
-46.3057887178
  0
LINE
  5
2E2
100
AcDbEntity
  8
CURVE
100
AcDbLine
 62
250
  6
CONTINUOUS
 10
30.7827314074
 20
-44.6946982448
 11
32.6109225841
 21
-43.0841417485
  0
LINE
  5
2E3
100
AcDbEntity
  8
CURVE
100
AcDbLine
 62
250
  6
CONTINUOUS
 10
32.6109225841
 20
-43.5331579443
 11
32.2459507582
 21
-43.840030916
  0
LINE
  5
2E4
100
AcDbEntity
  8
CURVE
100
AcDbLine
 62
250
  6
CONTINUOUS
 10
31.9635370636
 20
-44.0772303306
 11
31.2850719363
 21
-44.6382971314
  0
LINE
  5
2E5
100
AcDbEntity
  8
CURVE
100
AcDbLine
 62
250
  6
CONTINUOUS
 10
30.7827314074
 20
-46.0047550133
 11
32.6109225841
 21
-44.8295633298
  0
LINE
  5
2E6
100
AcDbEntity
  8
CURVE
100
AcDbLine
 62
250
  6
CONTINUOUS
 10
32.6109225841
 20
-45.2463322155
 11
31.4221246946
 21
-45.9739366547
  0
LINE
  5
2E7
100
AcDbEntity
  8
CURVE
100
AcDbLine
 62
250
  6
CONTINUOUS
 10
32.6109225961
 20
-42.5347248472
 11
31.89546968
 21
-42.9199408118
  0
LINE
  5
2E8
100
AcDbEntity
  8
CURVE
100
AcDbLine
 62
250
  6
CONTINUOUS
 10
31.5960561922
 20
-43.0952782374
 11
31.0941821556
 21
-43.3654985228
  0
LINE
  5
2E9
100
AcDbEntity
  8
CURVE
100
AcDbLine
 62
250
  6
CONTINUOUS
 10
30.8040910657
 20
-43.9318778059
 11
32.6109225961
 21
-42.9590390136
  0
LINE
  5
2EA
100
AcDbEntity
  8
CURVE
100
AcDbLine
 62
250
  6
CONTINUOUS
 10
32.6109225841
 20
-47.1287934339
 11
30.7826224357
 21
-48.1131914136
  0
LINE
  5
2EB
100
AcDbEntity
  8
CURVE
100
AcDbLine
 62
250
  6
CONTINUOUS
 10
31.417148564
 20
-47.0426966689
 11
32.6109225841
 21
-46.491878851
  0
LINE
  5
2EC
100
AcDbEntity
  8
CURVE
100
AcDbLine
 62
250
  6
CONTINUOUS
 10
32.6109225841
 20
-46.8994493826
 11
30.7827314074
 21
-47.6995015504
  0
LINE
  5
2ED
100
AcDbEntity
  8
CURVE
100
AcDbLine
 62
7
  6
CONTINUOUS
 10
30.7827314074
 20
-49.9871489741
 11
31.2693979713
 21
-49.5004824102
  0
LINE
  5
2EE
100
AcDbEntity
  8
CURVE
100
AcDbLine
 62
7
  6
CONTINUOUS
 10
31.890362045
 20
-48.8795183365
 11
32.354945352
 21
-48.4149350295
  0
LINE
  5
2EF
100
AcDbEntity
  8
CURVE
100
AcDbLine
 62
7
  6
CONTINUOUS
 10
30.7827314074
 20
-50.1971596881
 11
32.6109225841
 21
-48.3689685114
  0
LINE
  5
2F0
100
AcDbEntity
  8
CURVE
100
AcDbLine
 62
7
  6
CONTINUOUS
 10
31.0743921012
 20
-50.1155097083
 11
32.6109225841
 21
-48.5789792254
  0
LINE
  5
2F1
100
AcDbEntity
  8
CURVE
100
AcDbLine
 62
250
  6
CONTINUOUS
 10
32.6109225841
 20
-48.7444060388
 11
30.7827314074
 21
-50.3757694636
  0
LINE
  5
2F2
100
AcDbEntity
  8
CURVE
100
AcDbLine
 62
250
  6
CONTINUOUS
 10
30.7827314074
 20
-49.9129712496
 11
32.0411322287
 21
-48.8463758992
  0
LINE
  5
2F3
100
AcDbEntity
  8
0
100
AcDbLine
 62
7
  6
CONTINUOUS
 10
27.9343426453
 20
-55.1073692384
 11
28.2133185794
 21
-54.9463231628
  0
LINE
  5
2F4
100
AcDbEntity
  8
ASSI
100
AcDbLine
 62
7
  6
CONTINUOUS
 10
27.9343426453
 20
-55.1073692384
 11
28.2133185794
 21
-54.9463231628
  0
LINE
  5
2F5
100
AcDbEntity
  8
0
100
AcDbLine
 62
7
  6
CONTINUOUS
 10
28.9438793627
 20
-55.7187438231
 11
29.6302777103
 21
-55.3225026187
  0
LINE
  5
2F6
100
AcDbEntity
  8
ASSI
100
AcDbLine
 62
7
  6
CONTINUOUS
 10
28.9438793627
 20
-55.7187438231
 11
29.6302777103
 21
-55.3225026187
  0
LINE
  5
2F7
100
AcDbEntity
  8
0
100
AcDbLine
 62
7
  6
CONTINUOUS
 10
33.713712047
 20
-53.2821625527
 11
33.0061747777
 21
-53.6906067465
  0
LINE
  5
2F8
100
AcDbEntity
  8
ASSI
100
AcDbLine
 62
7
  6
CONTINUOUS
 10
33.713712047
 20
-53.2821625527
 11
33.0061747777
 21
-53.6906067465
  0
LINE
  5
2F9
100
AcDbEntity
  8
CURVE
100
AcDbLine
 62
250
  6
CONTINUOUS
 10
30.7826224357
 20
-48.5392198888
 11
32.6109225841
 21
-47.554821909
  0
LINE
  5
2FA
100
AcDbEntity
  8
0
100
AcDbLine
 62
7
  6
CONTINUOUS
 10
29.6517790622
 20
-55.3109410669
 11
29.6302777103
 21
-55.3225026187
  0
LINE
  5
2FB
100
AcDbEntity
  8
ASSI
100
AcDbLine
 62
7
  6
CONTINUOUS
 10
29.6517790622
 20
-55.3109410669
 11
29.6302777103
 21
-55.3225026187
  0
LINE
  5
2FC
100
AcDbEntity
  8
0
100
AcDbLine
 62
7
  6
CONTINUOUS
 10
29.6517790622
 20
-55.3109410669
 11
33.713712047
 21
-53.2821625527
  0
LINE
  5
2FD
100
AcDbEntity
  8
ASSI
100
AcDbLine
 62
7
  6
CONTINUOUS
 10
29.6517790622
 20
-55.3109410669
 11
33.713712047
 21
-53.2821625527
  0
LINE
  5
2FE
100
AcDbEntity
  8
0
100
AcDbLine
 62
7
  6
CONTINUOUS
 10
28.9442417929
 20
-55.7193852608
 11
33.0061747777
 21
-53.6906067465
  0
LINE
  5
2FF
100
AcDbEntity
  8
ASSI
100
AcDbLine
 62
7
  6
CONTINUOUS
 10
28.9442417929
 20
-55.7193852608
 11
33.0061747777
 21
-53.6906067465
  0
ARC
  5
300
100
AcDbEntity
  8
0
100
AcDbCircle
 62
7
  6
CONTINUOUS
 10
-10.5597160875
 20
7.1770038719
 40
1.309670638
100
AcDbArc
 50
138.6918224195
 51
140.2140337998
  0
ARC
  5
301
100
AcDbEntity
  8
0
100
AcDbCircle
 62
7
  6
CONTINUOUS
 10
5.3501864892
 20
-2.009174478
 40
1.309670638
100
AcDbArc
 50
138.6918224195
 51
140.2140337998
  0
ARC
  5
302
100
AcDbEntity
  8
0
100
AcDbCircle
 62
7
  6
CONTINUOUS
 10
-8.3616466195
 20
0.0914693653
 40
1.2906741324
100
AcDbArc
 50
279.7714797647
 51
284.6227424291
  0
ARC
  5
303
100
AcDbEntity
  8
0
100
AcDbCircle
 62
7
  6
CONTINUOUS
 10
7.5482559572
 20
-9.0947089845
 40
1.2906741324
100
AcDbArc
 50
279.7714797647
 51
284.6227424291
  0
ARC
  5
304
100
AcDbEntity
  8
0
100
AcDbCircle
 62
7
  6
CONTINUOUS
 10
-8.3466269681
 20
0.0318303124
 40
1.2291751941
100
AcDbArc
 50
284.6471180658
 51
290.0035969235
  0
ARC
  5
305
100
AcDbEntity
  8
0
100
AcDbCircle
 62
7
  6
CONTINUOUS
 10
7.5632756086
 20
-9.1543480374
 40
1.2291751941
100
AcDbArc
 50
284.6471180658
 51
290.0035969235
  0
SPLINE
  5
306
100
AcDbEntity
  8
0
100
AcDbSpline
 62
7
  6
CONTINUOUS
 70
0
 71
3
 72
11
 73
7
 74
0
 42
0.0000001
 43
0.0000001
 44
0.0000000001
 40
0.0
 40
0.0
 40
0.0
 40
0.0
 40
0.280800634
 40
0.5399589272
 40
0.7785828121
 40
1.0
 40
1.0
 40
1.0
 40
1.0
 10
-9.4902731046
 20
-0.8633779535
 30
0.0
 10
-9.3759453099
 20
-0.929376605
 30
0.0
 10
-9.1481705119
 20
-1.0433816395
 30
0.0
 10
-8.7992921396
 20
-1.1589011234
 30
0.0
 10
-8.4631711179
 20
-1.2095693451
 30
0.0
 10
-8.2451737767
 20
-1.1981675207
 30
0.0
 10
-8.1425947356
 20
-1.1804803146
 30
0.0
  0
SPLINE
  5
307
100
AcDbEntity
  8
0
100
AcDbSpline
 62
7
  6
CONTINUOUS
 70
0
 71
3
 72
11
 73
7
 74
0
 42
0.0000001
 43
0.0000001
 44
0.0000000001
 40
0.0
 40
0.0
 40
0.0
 40
0.0
 40
0.280800634
 40
0.5399589272
 40
0.7785828121
 40
1.0
 40
1.0
 40
1.0
 40
1.0
 10
6.4196294721
 20
-10.0495563034
 30
0.0
 10
6.5339572668
 20
-10.1155549549
 30
0.0
 10
6.7617320648
 20
-10.2295599894
 30
0.0
 10
7.1106104371
 20
-10.3450794733
 30
0.0
 10
7.4467314588
 20
-10.3957476949
 30
0.0
 10
7.6647288
 20
-10.3843458706
 30
0.0
 10
7.7673078411
 20
-10.3666586645
 30
0.0
  0
SPLINE
  5
308
100
AcDbEntity
  8
0
100
AcDbSpline
 62
7
  6
CONTINUOUS
 70
0
 71
3
 72
15
 73
11
 74
0
 42
0.0000001
 43
0.0000001
 44
0.0000000001
 40
0.0
 40
0.0
 40
0.0
 40
0.0
 40
0.1141524098
 40
0.237323445
 40
0.3669741506
 40
0.4999998222
 40
0.6330255182
 40
0.7626766281
 40
0.885843748
 40
1.0
 40
1.0
 40
1.0
 40
1.0
 10
-10.6929149943
 20
8.4038110952
 30
0.0
 10
-10.4653876431
 20
8.2724650201
 30
0.0
 10
-10.0159732232
 20
7.9574654536
 30
0.0
 10
-9.3975978585
 20
7.3789743545
 30
0.0
 10
-8.8277270881
 20
6.6951348973
 30
0.0
 10
-8.3278201765
 20
5.9316109219
 30
0.0
 10
-7.9164895676
 20
5.1169413546
 30
0.0
 10
-7.6091743346
 20
4.2815183507
 30
0.0
 10
-7.4173143271
 20
3.4567579358
 30
0.0
 10
-7.3691919387
 20
2.9100561576
 30
0.0
 10
-7.36919194
 20
2.6473298107
 30
0.0
  0
SPLINE
  5
309
100
AcDbEntity
  8
0
100
AcDbSpline
 62
7
  6
CONTINUOUS
 70
0
 71
3
 72
11
 73
7
 74
0
 42
0.0000001
 43
0.0000001
 44
0.0000000001
 40
0.0
 40
0.0
 40
0.0
 40
0.0
 40
0.2268065693
 40
0.4640947479
 40
0.7201480503
 40
1.0
 40
1.0
 40
1.0
 40
1.0
 10
-11.5941502345
 20
8.0871900019
 30
0.0
 10
-11.502537507
 20
8.140086275
 30
0.0
 10
-11.299102175
 20
8.2226922626
 30
0.0
 10
-10.9625244051
 20
8.2643245421
 30
0.0
 10
-10.6012979793
 20
8.2262472102
 30
0.0
 10
-10.3608481746
 20
8.1528003988
 30
0.0
 10
-10.2392654481
 20
8.1053100728
 30
0.0
  0
SPLINE
  5
30A
100
AcDbEntity
  8
0
100
AcDbSpline
 62
7
  6
CONTINUOUS
 70
0
 71
3
 72
9
 73
5
 74
0
 42
0.0000001
 43
0.0000001
 44
0.0000000001
 40
0.0
 40
0.0
 40
0.0
 40
0.0
 40
0.2478226825
 40
1.0
 40
1.0
 40
1.0
 40
1.0
 10
-11.408453336
 20
8.1737192471
 30
0.0
 10
-11.4204226017
 20
8.1636841375
 30
0.0
 10
-11.4679299859
 20
8.1222554224
 30
0.0
 10
-11.5122058725
 20
8.0771386718
 30
0.0
 10
-11.5435012846
 20
8.0415290976
 30
0.0
  0
SPLINE
  5
30B
100
AcDbEntity
  8
0
100
AcDbSpline
 62
7
  6
CONTINUOUS
 70
0
 71
3
 72
11
 73
7
 74
0
 42
0.0000001
 43
0.0000001
 44
0.0000000001
 40
0.0
 40
0.0
 40
0.0
 40
0.0
 40
0.2214162569
 40
0.4600316358
 40
0.71920318
 40
1.0
 40
1.0
 40
1.0
 40
1.0
 10
-11.5661197677
 20
8.015090271
 30
0.0
 10
-11.6327427314
 20
7.935093659
 30
0.0
 10
-11.7516357899
 20
7.7519863757
 30
0.0
 10
-11.8758465268
 20
7.4355238673
 30
0.0
 10
-11.9502358147
 20
7.0755737376
 30
0.0
 10
-11.9653860188
 20
6.8212740827
 30
0.0
 10
-11.9653860177
 20
6.6892482847
 30
0.0
  0
SPLINE
  5
30C
100
AcDbEntity
  8
0
100
AcDbSpline
 62
7
  6
CONTINUOUS
 70
0
 71
3
 72
15
 73
11
 74
0
 42
0.0000001
 43
0.0000001
 44
0.0000000001
 40
0.0
 40
0.0
 40
0.0
 40
0.0
 40
0.1141524098
 40
0.237323445
 40
0.3669741506
 40
0.4999998222
 40
0.6330255182
 40
0.7626766281
 40
0.885843748
 40
1.0
 40
1.0
 40
1.0
 40
1.0
 10
5.2169875824
 20
-0.7823672547
 30
0.0
 10
5.4445149336
 20
-0.9137133298
 30
0.0
 10
5.8939293535
 20
-1.2287128962
 30
0.0
 10
6.5123047182
 20
-1.8072039954
 30
0.0
 10
7.0821754886
 20
-2.4910434526
 30
0.0
 10
7.5820824002
 20
-3.254567428
 30
0.0
 10
7.9934130091
 20
-4.0692369952
 30
0.0
 10
8.3007282421
 20
-4.9046599992
 30
0.0
 10
8.4925882496
 20
-5.729420414
 30
0.0
 10
8.540710638
 20
-6.2761221923
 30
0.0
 10
8.5407106367
 20
-6.5388485391
 30
0.0
  0
SPLINE
  5
30D
100
AcDbEntity
  8
0
100
AcDbSpline
 62
7
  6
CONTINUOUS
 70
0
 71
3
 72
11
 73
7
 74
0
 42
0.0000001
 43
0.0000001
 44
0.0000000001
 40
0.0
 40
0.0
 40
0.0
 40
0.0
 40
0.2268065693
 40
0.4640947479
 40
0.7201480503
 40
1.0
 40
1.0
 40
1.0
 40
1.0
 10
4.3157523422
 20
-1.098988348
 30
0.0
 10
4.4073650697
 20
-1.0460920749
 30
0.0
 10
4.6108004017
 20
-0.9634860873
 30
0.0
 10
4.9473781716
 20
-0.9218538078
 30
0.0
 10
5.3086045974
 20
-0.9599311396
 30
0.0
 10
5.5490544021
 20
-1.0333779511
 30
0.0
 10
5.6706371286
 20
-1.0808682771
 30
0.0
  0
SPLINE
  5
30E
100
AcDbEntity
  8
0
100
AcDbSpline
 62
7
  6
CONTINUOUS
 70
0
 71
3
 72
9
 73
5
 74
0
 42
0.0000001
 43
0.0000001
 44
0.0000000001
 40
0.0
 40
0.0
 40
0.0
 40
0.0
 40
0.2478226825
 40
1.0
 40
1.0
 40
1.0
 40
1.0
 10
4.5014492407
 20
-1.0124591028
 30
0.0
 10
4.489479975
 20
-1.0224942123
 30
0.0
 10
4.4419725908
 20
-1.0639229275
 30
0.0
 10
4.3976967042
 20
-1.1090396781
 30
0.0
 10
4.3664012921
 20
-1.1446492522
 30
0.0
  0
SPLINE
  5
30F
100
AcDbEntity
  8
0
100
AcDbSpline
 62
7
  6
CONTINUOUS
 70
0
 71
3
 72
11
 73
7
 74
0
 42
0.0000001
 43
0.0000001
 44
0.0000000001
 40
0.0
 40
0.0
 40
0.0
 40
0.0
 40
0.2214162569
 40
0.4600316358
 40
0.71920318
 40
1.0
 40
1.0
 40
1.0
 40
1.0
 10
4.343782809
 20
-1.1710880789
 30
0.0
 10
4.2771598453
 20
-1.2510846909
 30
0.0
 10
4.1582667868
 20
-1.4341919742
 30
0.0
 10
4.0340560499
 20
-1.7506544826
 30
0.0
 10
3.959666762
 20
-2.1106046123
 30
0.0
 10
3.9445165579
 20
-2.3649042672
 30
0.0
 10
3.944516559
 20
-2.4969300652
 30
0.0
  0
SPLINE
  5
310
100
AcDbEntity
  8
0
100
AcDbSpline
 62
7
  6
CONTINUOUS
 70
0
 71
3
 72
12
 73
8
 74
0
 42
0.0000001
 43
0.0000001
 44
0.0000000001
 40
0.0
 40
0.0
 40
0.0
 40
0.0
 40
0.2895896319
 40
0.548629694
 40
0.7816355646
 40
0.8918367821
 40
1.0
 40
1.0
 40
1.0
 40
1.0
 10
-7.36919194
 20
0.3613077275
 30
0.0
 10
-7.3691919393
 20
0.1839220648
 30
0.0
 10
-7.3960611936
 20
-0.1533420902
 30
0.0
 10
-7.53244365
 20
-0.6164505044
 30
0.0
 10
-7.7283888162
 20
-0.9359911343
 30
0.0
 10
-7.9262954817
 20
-1.1306363225
 30
0.0
 10
-8.0366040573
 20
-1.2076423475
 30
0.0
 10
-8.0939811137
 20
-1.2407712863
 30
0.0
  0
SPLINE
  5
311
100
AcDbEntity
  8
0
100
AcDbSpline
 62
7
  6
CONTINUOUS
 70
0
 71
3
 72
12
 73
8
 74
0
 42
0.0000001
 43
0.0000001
 44
0.0000000001
 40
0.0
 40
0.0
 40
0.0
 40
0.0
 40
0.2895896319
 40
0.548629694
 40
0.7816355646
 40
0.8918367821
 40
1.0
 40
1.0
 40
1.0
 40
1.0
 10
8.5407106367
 20
-8.8248706223
 30
0.0
 10
8.5407106374
 20
-9.002256285
 30
0.0
 10
8.5138413831
 20
-9.3395204401
 30
0.0
 10
8.3774589267
 20
-9.8026288542
 30
0.0
 10
8.1815137605
 20
-10.1221694842
 30
0.0
 10
7.9836070949
 20
-10.3168146724
 30
0.0
 10
7.8732985194
 20
-10.3938206973
 30
0.0
 10
7.815921463
 20
-10.4269496362
 30
0.0
  0
SPLINE
  5
312
100
AcDbEntity
  8
0
100
AcDbSpline
 62
7
  6
CONTINUOUS
 70
0
 71
3
 72
19
 73
15
 74
0
 42
0.0000001
 43
0.0000001
 44
0.0000000001
 40
0.0
 40
0.0
 40
0.0
 40
0.0
 40
0.0428400166
 40
0.0874489431
 40
0.1352611942
 40
0.1872028299
 40
0.243685093
 40
0.3046814048
 40
0.3698210654
 40
0.4384731775
 40
0.5827574576
 40
0.7298489975
 40
0.8713783969
 40
1.0
 40
1.0
 40
1.0
 40
1.0
 10
7.815921463
 20
-10.4269496362
 30
0.0
 10
7.7296353281
 20
-10.4767703879
 30
0.0
 10
7.5394289698
 20
-10.5558310173
 30
0.0
 10
7.2254473606
 20
-10.6018483029
 30
0.0
 10
6.8882786606
 20
-10.5770268369
 30
0.0
 10
6.5354080792
 20
-10.4832687379
 30
0.0
 10
6.1737628631
 20
-10.323434602
 30
0.0
 10
5.8105510812
 20
-10.1012184589
 30
0.0
 10
5.4531133636
 20
-9.8213996732
 30
0.0
 10
4.9866734381
 20
-9.3720766991
 30
0.0
 10
4.4683764462
 20
-8.7083570713
 30
0.0
 10
3.9870258218
 20
-7.8187662535
 30
0.0
 10
3.674662631
 20
-6.8951110995
 30
0.0
 10
3.5909631699
 20
-6.2660937415
 30
0.0
 10
3.5909631684
 20
-5.966948469
 30
0.0
  0
SPLINE
  5
313
100
AcDbEntity
  8
0
100
AcDbSpline
 62
7
  6
CONTINUOUS
 70
0
 71
3
 72
19
 73
15
 74
0
 42
0.0000001
 43
0.0000001
 44
0.0000000001
 40
0.0
 40
0.0
 40
0.0
 40
0.0
 40
0.1447049974
 40
0.2741459566
 40
0.3338721486
 40
0.3908849634
 40
0.4459516638
 40
0.4999996991
 40
0.5540477464
 40
0.6091148629
 40
0.6661274366
 40
0.7258524195
 40
0.8552990214
 40
1.0
 40
1.0
 40
1.0
 40
1.0
 10
1.8939068936
 20
-2.7010673619
 30
0.0
 10
1.8939068927
 20
-2.4628643276
 30
0.0
 10
1.9297667595
 20
-2.0102232009
 30
0.0
 10
2.0870758283
 20
-1.4777466713
 30
0.0
 10
2.2779328396
 20
-1.1188555639
 30
0.0
 10
2.4462616808
 20
-0.8902132086
 30
0.0
 10
2.6420562862
 20
-0.6975488161
 30
0.0
 10
2.8633693322
 20
-0.5430791419
 30
0.0
 10
3.1077918461
 20
-0.4286267931
 30
0.0
 10
3.3725434288
 20
-0.3554025163
 30
0.0
 10
3.6547117084
 20
-0.3239183232
 30
0.0
 10
4.0609583242
 20
-0.3380460541
 30
0.0
 10
4.6007556399
 20
-0.4680389286
 30
0.0
 10
5.0106967971
 20
-0.663280539
 30
0.0
 10
5.2169875824
 20
-0.7823672547
 30
0.0
  0
SPLINE
  5
314
100
AcDbEntity
  8
0
100
AcDbSpline
 62
7
  6
CONTINUOUS
 70
0
 71
3
 72
27
 73
23
 74
0
 42
0.0000001
 43
0.0000001
 44
0.0000000001
 40
0.0
 40
0.0
 40
0.0
 40
0.0
 40
0.0603448655
 40
0.1143239375
 40
0.139230684
 40
0.1630059117
 40
0.1859696504
 40
0.2085087351
 40
0.2310480373
 40
0.2540125672
 40
0.2777886633
 40
0.3026961501
 40
0.3566805789
 40
0.4170269374
 40
0.4835768947
 40
0.555383568
 40
0.6309668356
 40
0.7085168928
 40
0.7860664736
 40
0.8616485439
 40
0.9334506763
 40
1.0
 40
1.0
 40
1.0
 40
1.0
 10
8.5407106367
 20
-9.8047296463
 30
0.0
 10
8.5407106376
 20
-10.0429465077
 30
0.0
 10
8.5048468118
 20
-10.4956125796
 30
0.0
 10
8.3475184799
 20
-11.028115306
 30
0.0
 10
8.1566383185
 20
-11.3870170436
 30
0.0
 10
7.9882894906
 20
-11.6156620103
 30
0.0
 10
7.7924720215
 20
-11.8083236843
 30
0.0
 10
7.5711338547
 20
-11.9627850083
 30
0.0
 10
7.3266844515
 20
-12.077223136
 30
0.0
 10
7.0619057691
 20
-12.1504280261
 30
0.0
 10
6.7797073251
 20
-12.1818854035
 30
0.0
 10
6.3734336143
 20
-12.1677250867
 30
0.0
 10
5.8334849978
 20
-12.0375895392
 30
0.0
 10
5.1853893283
 20
-11.7289829721
 30
0.0
 10
4.540542672
 20
-11.2769516447
 30
0.0
 10
3.9220585259
 20
-10.698331777
 30
0.0
 10
3.3522890268
 20
-10.0145365637
 30
0.0
 10
2.8524213227
 20
-9.2510310975
 30
0.0
 10
2.4411400708
 20
-8.4364055906
 30
0.0
 10
2.1338597739
 20
-7.6010317043
 30
0.0
 10
1.9420231392
 20
-6.776323869
 30
0.0
 10
1.8939068923
 20
-6.2296579954
 30
0.0
 10
1.8939068936
 20
-5.966948469
 30
0.0
  0
SPLINE
  5
315
100
AcDbEntity
  8
0
100
AcDbSpline
 62
7
  6
CONTINUOUS
 70
0
 71
3
 72
15
 73
11
 74
0
 42
0.0000001
 43
0.0000001
 44
0.0000000001
 40
0.0
 40
0.0
 40
0.0
 40
0.0
 40
0.1141564305
 40
0.2373230463
 40
0.3669745543
 40
0.5000000203
 40
0.6330256097
 40
0.7626760274
 40
0.8858472153
 40
1.0
 40
1.0
 40
1.0
 40
1.0
 10
-11.9653860177
 20
3.4233671775
 30
0.0
 10
-11.9653860197
 20
3.2277195314
 30
0.0
 10
-11.9295512505
 20
2.8206014621
 30
0.0
 10
-11.7866738155
 20
2.2064184307
 30
0.0
 10
-11.5578218996
 20
1.5842956216
 30
0.0
 10
-11.2515157487
 20
0.977624453
 30
0.0
 10
-10.8792443593
 20
0.4090435576
 30
0.0
 10
-10.4548682227
 20
-0.1001947388
 30
0.0
 10
-9.9943774194
 20
-0.5309877146
 30
0.0
 10
-9.6597089999
 20
-0.7655667375
 30
0.0
 10
-9.4902731046
 20
-0.8633779535
 30
0.0
  0
SPLINE
  5
316
100
AcDbEntity
  8
0
100
AcDbSpline
 62
7
  6
CONTINUOUS
 70
0
 71
3
 72
12
 73
8
 74
0
 42
0.0000001
 43
0.0000001
 44
0.0000000001
 40
0.0
 40
0.0
 40
0.0
 40
0.0
 40
0.2895896318
 40
0.548629694
 40
0.7816355646
 40
0.8918367821
 40
1.0
 40
1.0
 40
1.0
 40
1.0
 10
-12.3189394083
 20
6.485110988
 30
0.0
 10
-12.3189394076
 20
6.6624966507
 30
0.0
 10
-12.2920701554
 20
6.9997608058
 30
0.0
 10
-12.155687698
 20
7.4628692199
 30
0.0
 10
-11.9597425321
 20
7.7824098499
 30
0.0
 10
-11.7618358665
 20
7.9770550381
 30
0.0
 10
-11.651527291
 20
8.054061063
 30
0.0
 10
-11.5941502345
 20
8.0871900019
 30
0.0
  0
SPLINE
  5
317
100
AcDbEntity
  8
0
100
AcDbSpline
 62
7
  6
CONTINUOUS
 70
0
 71
3
 72
19
 73
15
 74
0
 42
0.0000001
 43
0.0000001
 44
0.0000000001
 40
0.0
 40
0.0
 40
0.0
 40
0.0
 40
0.1447049974
 40
0.2741459566
 40
0.3338721486
 40
0.3908849634
 40
0.4459516638
 40
0.4999996991
 40
0.5540477464
 40
0.6091148629
 40
0.6661274366
 40
0.7258524195
 40
0.8552990214
 40
1.0
 40
1.0
 40
1.0
 40
1.0
 10
-14.0159956831
 20
6.485110988
 30
0.0
 10
-14.015995684
 20
6.7233140223
 30
0.0
 10
-13.9801358172
 20
7.1759551489
 30
0.0
 10
-13.8228267484
 20
7.7084316786
 30
0.0
 10
-13.6319697371
 20
8.067322786
 30
0.0
 10
-13.4636408959
 20
8.2959651413
 30
0.0
 10
-13.2678462905
 20
8.4886295337
 30
0.0
 10
-13.0465332445
 20
8.643099208
 30
0.0
 10
-12.8021107306
 20
8.7575515568
 30
0.0
 10
-12.5373591479
 20
8.8307758336
 30
0.0
 10
-12.2551908683
 20
8.8622600266
 30
0.0
 10
-11.8489442525
 20
8.8481322958
 30
0.0
 10
-11.3091469368
 20
8.7181394213
 30
0.0
 10
-10.8992057796
 20
8.5228978109
 30
0.0
 10
-10.6929149943
 20
8.4038110952
 30
0.0
  0
SPLINE
  5
318
100
AcDbEntity
  8
0
100
AcDbSpline
 62
7
  6
CONTINUOUS
 70
0
 71
3
 72
15
 73
11
 74
0
 42
0.0000001
 43
0.0000001
 44
0.0000000001
 40
0.0
 40
0.0
 40
0.0
 40
0.0
 40
0.1141564305
 40
0.2373230463
 40
0.3669745543
 40
0.5000000203
 40
0.6330256097
 40
0.7626760274
 40
0.8858472153
 40
1.0
 40
1.0
 40
1.0
 40
1.0
 10
3.944516559
 20
-5.7628111724
 30
0.0
 10
3.944516557
 20
-5.9584588185
 30
0.0
 10
3.9803513262
 20
-6.3655768878
 30
0.0
 10
4.1232287612
 20
-6.9797599192
 30
0.0
 10
4.3520806771
 20
-7.6018827282
 30
0.0
 10
4.658386828
 20
-8.2085538969
 30
0.0
 10
5.0306582174
 20
-8.7771347923
 30
0.0
 10
5.455034354
 20
-9.2863730887
 30
0.0
 10
5.9155251573
 20
-9.7171660644
 30
0.0
 10
6.2501935768
 20
-9.9517450874
 30
0.0
 10
6.4196294721
 20
-10.0495563034
 30
0.0
  0
SPLINE
  5
319
100
AcDbEntity
  8
0
100
AcDbSpline
 62
7
  6
CONTINUOUS
 70
0
 71
3
 72
12
 73
8
 74
0
 42
0.0000001
 43
0.0000001
 44
0.0000000001
 40
0.0
 40
0.0
 40
0.0
 40
0.0
 40
0.2895896318
 40
0.548629694
 40
0.7816355646
 40
0.8918367821
 40
1.0
 40
1.0
 40
1.0
 40
1.0
 10
3.5909631684
 20
-2.7010673619
 30
0.0
 10
3.5909631691
 20
-2.5236816992
 30
0.0
 10
3.6178324213
 20
-2.1864175441
 30
0.0
 10
3.7542148787
 20
-1.72330913
 30
0.0
 10
3.9501600446
 20
-1.4037685
 30
0.0
 10
4.1480667102
 20
-1.2091233118
 30
0.0
 10
4.2583752857
 20
-1.1321172869
 30
0.0
 10
4.3157523422
 20
-1.098988348
 30
0.0
  0
SPLINE
  5
31A
100
AcDbEntity
  8
0
100
AcDbSpline
 62
7
  6
CONTINUOUS
 70
0
 71
3
 72
19
 73
15
 74
0
 42
0.0000001
 43
0.0000001
 44
0.0000000001
 40
0.0
 40
0.0
 40
0.0
 40
0.0
 40
0.0428400166
 40
0.0874489431
 40
0.1352611942
 40
0.1872028299
 40
0.243685093
 40
0.3046814048
 40
0.3698210654
 40
0.4384731775
 40
0.5827574576
 40
0.7298489975
 40
0.8713783969
 40
1.0
 40
1.0
 40
1.0
 40
1.0
 10
-8.0939811137
 20
-1.2407712863
 30
0.0
 10
-8.1802672486
 20
-1.2905920381
 30
0.0
 10
-8.3704736069
 20
-1.3696526674
 30
0.0
 10
-8.6844552161
 20
-1.415669953
 30
0.0
 10
-9.0216239161
 20
-1.390848487
 30
0.0
 10
-9.3744944975
 20
-1.2970903881
 30
0.0
 10
-9.7361397136
 20
-1.1372562521
 30
0.0
 10
-10.0993514955
 20
-0.9150401091
 30
0.0
 10
-10.4567892131
 20
-0.6352213233
 30
0.0
 10
-10.9232291386
 20
-0.1858983493
 30
0.0
 10
-11.4415261305
 20
0.4778212786
 30
0.0
 10
-11.9228767549
 20
1.3674120964
 30
0.0
 10
-12.2352399457
 20
2.2910672503
 30
0.0
 10
-12.3189394068
 20
2.9200846084
 30
0.0
 10
-12.3189394083
 20
3.2192298808
 30
0.0
  0
SPLINE
  5
31B
100
AcDbEntity
  8
0
100
AcDbSpline
 62
7
  6
CONTINUOUS
 70
0
 71
3
 72
27
 73
23
 74
0
 42
0.0000001
 43
0.0000001
 44
0.0000000001
 40
0.0
 40
0.0
 40
0.0
 40
0.0
 40
0.0603448655
 40
0.1143239375
 40
0.139230684
 40
0.1630059117
 40
0.1859696504
 40
0.2085087351
 40
0.2310480373
 40
0.2540125672
 40
0.2777886633
 40
0.3026961501
 40
0.3566805789
 40
0.4170269374
 40
0.4835768947
 40
0.555383568
 40
0.6309668356
 40
0.7085168928
 40
0.7860664736
 40
0.8616485439
 40
0.9334506763
 40
1.0
 40
1.0
 40
1.0
 40
1.0
 10
-7.36919194
 20
-0.6185512964
 30
0.0
 10
-7.3691919391
 20
-0.8567681579
 30
0.0
 10
-7.4050557649
 20
-1.3094342297
 30
0.0
 10
-7.5623840968
 20
-1.8419369562
 30
0.0
 10
-7.7532642582
 20
-2.2008386938
 30
0.0
 10
-7.9216130861
 20
-2.4294836605
 30
0.0
 10
-8.1174305552
 20
-2.6221453344
 30
0.0
 10
-8.338768722
 20
-2.7766066584
 30
0.0
 10
-8.5832181252
 20
-2.8910447861
 30
0.0
 10
-8.8479968076
 20
-2.9642496762
 30
0.0
 10
-9.1301952516
 20
-2.9957070537
 30
0.0
 10
-9.5364689624
 20
-2.9815467368
 30
0.0
 10
-10.0764175789
 20
-2.8514111893
 30
0.0
 10
-10.7245132484
 20
-2.5428046222
 30
0.0
 10
-11.3693599047
 20
-2.0907732948
 30
0.0
 10
-11.9878440508
 20
-1.5121534271
 30
0.0
 10
-12.5576135499
 20
-0.8283582138
 30
0.0
 10
-13.057481254
 20
-0.0648527476
 30
0.0
 10
-13.4687625059
 20
0.7497727593
 30
0.0
 10
-13.7760428028
 20
1.5851466456
 30
0.0
 10
-13.9678794375
 20
2.4098544809
 30
0.0
 10
-14.0159956844
 20
2.9565203545
 30
0.0
 10
-14.0159956831
 20
3.2192298808
 30
0.0
  0
SPLINE
  5
31C
100
AcDbEntity
  8
ASSI
100
AcDbSpline
 62
7
  6
CONTINUOUS
 70
0
 71
3
 72
18
 73
14
 74
0
 42
0.0000001
 43
0.0000001
 44
0.0000000001
 40
0.0
 40
0.0
 40
0.0
 40
0.0
 40
0.1256570285
 40
0.2635643903
 40
0.4074973884
 40
0.5502425223
 40
0.6847733189
 40
0.7471952409
 40
0.8056532728
 40
0.8599087779
 40
0.9100243227
 40
0.9564347527
 40
1.0
 40
1.0
 40
1.0
 40
1.0
 10
4.0859379152
 20
-5.6811562537
 30
0.0
 10
4.0859379152
 20
-5.9613598407
 30
0.0
 10
4.1594488316
 20
-6.5497598403
 30
0.0
 10
4.4370972775
 20
-7.4190856867
 30
0.0
 10
4.8684885829
 20
-8.2665231196
 30
0.0
 10
5.4222002158
 20
-9.0298287416
 30
0.0
 10
5.9661185028
 20
-9.5638843167
 30
0.0
 10
6.4293561084
 20
-9.8969216654
 30
0.0
 10
6.7710976741
 20
-10.0879555383
 30
0.0
 10
7.1094976487
 20
-10.2228058118
 30
0.0
 10
7.4386782719
 20
-10.2986085285
 30
0.0
 10
7.7525628373
 20
-10.3133107536
 30
0.0
 10
7.9524842908
 20
-10.2805344509
 30
0.0
 10
8.0458182639
 20
-10.2535861871
 30
0.0
  0
SPLINE
  5
31D
100
AcDbEntity
  8
ASSI
100
AcDbSpline
 62
7
  6
CONTINUOUS
 70
0
 71
3
 72
18
 73
14
 74
0
 42
0.0000001
 43
0.0000001
 44
0.0000000001
 40
0.0
 40
0.0
 40
0.0
 40
0.0
 40
0.1256570285
 40
0.2635643903
 40
0.4074973884
 40
0.5502425223
 40
0.6847733189
 40
0.7471952409
 40
0.8056532728
 40
0.8599087779
 40
0.9100243227
 40
0.9564347527
 40
1.0
 40
1.0
 40
1.0
 40
1.0
 10
-11.8239646615
 20
3.5050220962
 30
0.0
 10
-11.8239646615
 20
3.2248185091
 30
0.0
 10
-11.7504537451
 20
2.6364185096
 30
0.0
 10
-11.4728052992
 20
1.7670926632
 30
0.0
 10
-11.0414139938
 20
0.9196552303
 30
0.0
 10
-10.4877023609
 20
0.1563496082
 30
0.0
 10
-9.9437840739
 20
-0.3777059669
 30
0.0
 10
-9.4805464683
 20
-0.7107433155
 30
0.0
 10
-9.1388049026
 20
-0.9017771884
 30
0.0
 10
-8.800404928
 20
-1.0366274619
 30
0.0
 10
-8.4712243048
 20
-1.1124301787
 30
0.0
 10
-8.1573397394
 20
-1.1271324037
 30
0.0
 10
-7.9574182859
 20
-1.094356101
 30
0.0
 10
-7.8640843128
 20
-1.0674078372
 30
0.0
  0
SPLINE
  5
31E
100
AcDbEntity
  8
ASSI
100
AcDbSpline
 62
7
  6
CONTINUOUS
 70
0
 71
3
 72
15
 73
11
 74
0
 42
0.0000001
 43
0.0000001
 44
0.0000000001
 40
0.0
 40
0.0
 40
0.0
 40
0.0
 40
0.1141524098
 40
0.237323445
 40
0.3669741506
 40
0.4999998222
 40
0.6330255182
 40
0.7626766281
 40
0.885843748
 40
1.0
 40
1.0
 40
1.0
 40
1.0
 10
-10.6929149943
 20
8.4038110952
 30
0.0
 10
-10.4653876431
 20
8.2724650201
 30
0.0
 10
-10.0159732232
 20
7.9574654536
 30
0.0
 10
-9.3975978585
 20
7.3789743545
 30
0.0
 10
-8.8277270881
 20
6.6951348973
 30
0.0
 10
-8.3278201765
 20
5.9316109219
 30
0.0
 10
-7.9164895676
 20
5.1169413546
 30
0.0
 10
-7.6091743346
 20
4.2815183507
 30
0.0
 10
-7.4173143271
 20
3.4567579358
 30
0.0
 10
-7.3691919387
 20
2.9100561576
 30
0.0
 10
-7.36919194
 20
2.6473298107
 30
0.0
  0
SPLINE
  5
31F
100
AcDbEntity
  8
ASSI
100
AcDbSpline
 62
7
  6
CONTINUOUS
 70
0
 71
3
 72
11
 73
7
 74
0
 42
0.0000001
 43
0.0000001
 44
0.0000000001
 40
0.0
 40
0.0
 40
0.0
 40
0.0
 40
0.2268065693
 40
0.4640947479
 40
0.7201480503
 40
1.0
 40
1.0
 40
1.0
 40
1.0
 10
-11.5941502345
 20
8.0871900019
 30
0.0
 10
-11.502537507
 20
8.140086275
 30
0.0
 10
-11.299102175
 20
8.2226922626
 30
0.0
 10
-10.9625244051
 20
8.2643245421
 30
0.0
 10
-10.6012979793
 20
8.2262472102
 30
0.0
 10
-10.3608481746
 20
8.1528003988
 30
0.0
 10
-10.2392654481
 20
8.1053100728
 30
0.0
  0
SPLINE
  5
320
100
AcDbEntity
  8
ASSI
100
AcDbSpline
 62
7
  6
CONTINUOUS
 70
0
 71
3
 72
9
 73
5
 74
0
 42
0.0000001
 43
0.0000001
 44
0.0000000001
 40
0.0
 40
0.0
 40
0.0
 40
0.0
 40
0.2462411041
 40
1.0
 40
1.0
 40
1.0
 40
1.0
 10
-11.3291616236
 20
8.1995323667
 30
0.0
 10
-11.3440558952
 20
8.1851972051
 30
0.0
 10
-11.4030777712
 20
8.1254709348
 30
0.0
 10
-11.4561173123
 20
8.0598925885
 30
0.0
 10
-11.4925028971
 20
8.0081212829
 30
0.0
  0
SPLINE
  5
321
100
AcDbEntity
  8
ASSI
100
AcDbSpline
 62
7
  6
CONTINUOUS
 70
0
 71
3
 72
10
 73
6
 74
0
 42
0.0000001
 43
0.0000001
 44
0.0000000001
 40
0.0
 40
0.0
 40
0.0
 40
0.0
 40
0.4623246511
 40
0.7214542418
 40
1.0
 40
1.0
 40
1.0
 40
1.0
 10
-11.4925028971
 20
8.0081212829
 30
0.0
 10
-11.6074450659
 20
7.8445755777
 30
0.0
 10
-11.7324654985
 20
7.5497292791
 30
0.0
 10
-11.8111913044
 20
7.1243162131
 30
0.0
 10
-11.8239646615
 20
6.8913391859
 30
0.0
 10
-11.8239646615
 20
6.7709032033
 30
0.0
  0
SPLINE
  5
322
100
AcDbEntity
  8
ASSI
100
AcDbSpline
 62
7
  6
CONTINUOUS
 70
0
 71
3
 72
15
 73
11
 74
0
 42
0.0000001
 43
0.0000001
 44
0.0000000001
 40
0.0
 40
0.0
 40
0.0
 40
0.0
 40
0.1141524098
 40
0.237323445
 40
0.3669741506
 40
0.4999998222
 40
0.6330255182
 40
0.7626766281
 40
0.885843748
 40
1.0
 40
1.0
 40
1.0
 40
1.0
 10
5.2169875824
 20
-0.7823672547
 30
0.0
 10
5.4445149336
 20
-0.9137133298
 30
0.0
 10
5.8939293535
 20
-1.2287128962
 30
0.0
 10
6.5123047182
 20
-1.8072039954
 30
0.0
 10
7.0821754886
 20
-2.4910434526
 30
0.0
 10
7.5820824002
 20
-3.254567428
 30
0.0
 10
7.9934130091
 20
-4.0692369952
 30
0.0
 10
8.3007282421
 20
-4.9046599992
 30
0.0
 10
8.4925882496
 20
-5.729420414
 30
0.0
 10
8.540710638
 20
-6.2761221923
 30
0.0
 10
8.5407106367
 20
-6.5388485391
 30
0.0
  0
SPLINE
  5
323
100
AcDbEntity
  8
ASSI
100
AcDbSpline
 62
7
  6
CONTINUOUS
 70
0
 71
3
 72
11
 73
7
 74
0
 42
0.0000001
 43
0.0000001
 44
0.0000000001
 40
0.0
 40
0.0
 40
0.0
 40
0.0
 40
0.2268065693
 40
0.4640947479
 40
0.7201480503
 40
1.0
 40
1.0
 40
1.0
 40
1.0
 10
4.3157523422
 20
-1.098988348
 30
0.0
 10
4.4073650697
 20
-1.0460920749
 30
0.0
 10
4.6108004017
 20
-0.9634860873
 30
0.0
 10
4.9473781716
 20
-0.9218538078
 30
0.0
 10
5.3086045974
 20
-0.9599311396
 30
0.0
 10
5.5490544021
 20
-1.0333779511
 30
0.0
 10
5.6706371286
 20
-1.0808682771
 30
0.0
  0
SPLINE
  5
324
100
AcDbEntity
  8
ASSI
100
AcDbSpline
 62
7
  6
CONTINUOUS
 70
0
 71
3
 72
9
 73
5
 74
0
 42
0.0000001
 43
0.0000001
 44
0.0000000001
 40
0.0
 40
0.0
 40
0.0
 40
0.0
 40
0.2462411041
 40
1.0
 40
1.0
 40
1.0
 40
1.0
 10
4.5807409531
 20
-0.9866459832
 30
0.0
 10
4.5658466815
 20
-1.0009811448
 30
0.0
 10
4.5068248055
 20
-1.0607074151
 30
0.0
 10
4.4537852644
 20
-1.1262857614
 30
0.0
 10
4.4173996796
 20
-1.1780570669
 30
0.0
  0
SPLINE
  5
325
100
AcDbEntity
  8
ASSI
100
AcDbSpline
 62
7
  6
CONTINUOUS
 70
0
 71
3
 72
10
 73
6
 74
0
 42
0.0000001
 43
0.0000001
 44
0.0000000001
 40
0.0
 40
0.0
 40
0.0
 40
0.0
 40
0.4623246511
 40
0.7214542418
 40
1.0
 40
1.0
 40
1.0
 40
1.0
 10
4.4173996796
 20
-1.1780570669
 30
0.0
 10
4.3024575108
 20
-1.3416027722
 30
0.0
 10
4.1774370782
 20
-1.6364490708
 30
0.0
 10
4.0987112723
 20
-2.0618621368
 30
0.0
 10
4.0859379152
 20
-2.2948391639
 30
0.0
 10
4.0859379152
 20
-2.4152751465
 30
0.0
  0
SPLINE
  5
326
100
AcDbEntity
  8
ASSI
100
AcDbSpline
 62
7
  6
CONTINUOUS
 70
0
 71
3
 72
12
 73
8
 74
0
 42
0.0000001
 43
0.0000001
 44
0.0000000001
 40
0.0
 40
0.0
 40
0.0
 40
0.0
 40
0.2895896319
 40
0.548629694
 40
0.7816355646
 40
0.8918367821
 40
1.0
 40
1.0
 40
1.0
 40
1.0
 10
-7.36919194
 20
0.3613077275
 30
0.0
 10
-7.3691919393
 20
0.1839220648
 30
0.0
 10
-7.3960611936
 20
-0.1533420902
 30
0.0
 10
-7.53244365
 20
-0.6164505044
 30
0.0
 10
-7.7283888162
 20
-0.9359911343
 30
0.0
 10
-7.9262954817
 20
-1.1306363225
 30
0.0
 10
-8.0366040573
 20
-1.2076423475
 30
0.0
 10
-8.0939811137
 20
-1.2407712863
 30
0.0
  0
SPLINE
  5
327
100
AcDbEntity
  8
ASSI
100
AcDbSpline
 62
7
  6
CONTINUOUS
 70
0
 71
3
 72
12
 73
8
 74
0
 42
0.0000001
 43
0.0000001
 44
0.0000000001
 40
0.0
 40
0.0
 40
0.0
 40
0.0
 40
0.2895896319
 40
0.548629694
 40
0.7816355646
 40
0.8918367821
 40
1.0
 40
1.0
 40
1.0
 40
1.0
 10
8.5407106367
 20
-8.8248706223
 30
0.0
 10
8.5407106374
 20
-9.002256285
 30
0.0
 10
8.5138413831
 20
-9.3395204401
 30
0.0
 10
8.3774589267
 20
-9.8026288542
 30
0.0
 10
8.1815137605
 20
-10.1221694842
 30
0.0
 10
7.9836070949
 20
-10.3168146724
 30
0.0
 10
7.8732985194
 20
-10.3938206973
 30
0.0
 10
7.815921463
 20
-10.4269496362
 30
0.0
  0
SPLINE
  5
328
100
AcDbEntity
  8
ASSI
100
AcDbSpline
 62
7
  6
CONTINUOUS
 70
0
 71
3
 72
19
 73
15
 74
0
 42
0.0000001
 43
0.0000001
 44
0.0000000001
 40
0.0
 40
0.0
 40
0.0
 40
0.0
 40
0.0428400166
 40
0.0874489431
 40
0.1352611942
 40
0.1872028299
 40
0.243685093
 40
0.3046814048
 40
0.3698210654
 40
0.4384731775
 40
0.5827574576
 40
0.7298489975
 40
0.8713783969
 40
1.0
 40
1.0
 40
1.0
 40
1.0
 10
-8.0939811137
 20
-1.2407712863
 30
0.0
 10
-8.1802672486
 20
-1.2905920381
 30
0.0
 10
-8.3704736069
 20
-1.3696526674
 30
0.0
 10
-8.6844552161
 20
-1.415669953
 30
0.0
 10
-9.0216239161
 20
-1.390848487
 30
0.0
 10
-9.3744944975
 20
-1.2970903881
 30
0.0
 10
-9.7361397136
 20
-1.1372562521
 30
0.0
 10
-10.0993514955
 20
-0.9150401091
 30
0.0
 10
-10.4567892131
 20
-0.6352213233
 30
0.0
 10
-10.9232291386
 20
-0.1858983493
 30
0.0
 10
-11.4415261305
 20
0.4778212786
 30
0.0
 10
-11.9228767549
 20
1.3674120964
 30
0.0
 10
-12.2352399457
 20
2.2910672503
 30
0.0
 10
-12.3189394068
 20
2.9200846084
 30
0.0
 10
-12.3189394083
 20
3.2192298808
 30
0.0
  0
SPLINE
  5
329
100
AcDbEntity
  8
ASSI
100
AcDbSpline
 62
7
  6
CONTINUOUS
 70
0
 71
3
 72
19
 73
15
 74
0
 42
0.0000001
 43
0.0000001
 44
0.0000000001
 40
0.0
 40
0.0
 40
0.0
 40
0.0
 40
0.0428400166
 40
0.0874489431
 40
0.1352611942
 40
0.1872028299
 40
0.243685093
 40
0.3046814048
 40
0.3698210654
 40
0.4384731775
 40
0.5827574576
 40
0.7298489975
 40
0.8713783969
 40
1.0
 40
1.0
 40
1.0
 40
1.0
 10
7.815921463
 20
-10.4269496362
 30
0.0
 10
7.7296353281
 20
-10.4767703879
 30
0.0
 10
7.5394289698
 20
-10.5558310173
 30
0.0
 10
7.2254473606
 20
-10.6018483029
 30
0.0
 10
6.8882786606
 20
-10.5770268369
 30
0.0
 10
6.5354080792
 20
-10.4832687379
 30
0.0
 10
6.1737628631
 20
-10.323434602
 30
0.0
 10
5.8105510812
 20
-10.1012184589
 30
0.0
 10
5.4531133636
 20
-9.8213996732
 30
0.0
 10
4.9866734381
 20
-9.3720766991
 30
0.0
 10
4.4683764462
 20
-8.7083570713
 30
0.0
 10
3.9870258218
 20
-7.8187662535
 30
0.0
 10
3.674662631
 20
-6.8951110995
 30
0.0
 10
3.5909631699
 20
-6.2660937415
 30
0.0
 10
3.5909631684
 20
-5.966948469
 30
0.0
  0
SPLINE
  5
32A
100
AcDbEntity
  8
ASSI
100
AcDbSpline
 62
7
  6
CONTINUOUS
 70
0
 71
3
 72
27
 73
23
 74
0
 42
0.0000001
 43
0.0000001
 44
0.0000000001
 40
0.0
 40
0.0
 40
0.0
 40
0.0
 40
0.0603448655
 40
0.1143239375
 40
0.139230684
 40
0.1630059117
 40
0.1859696504
 40
0.2085087351
 40
0.2310480373
 40
0.2540125672
 40
0.2777886633
 40
0.3026961501
 40
0.3566805789
 40
0.4170269374
 40
0.4835768947
 40
0.555383568
 40
0.6309668356
 40
0.7085168928
 40
0.7860664736
 40
0.8616485439
 40
0.9334506763
 40
1.0
 40
1.0
 40
1.0
 40
1.0
 10
8.5407106367
 20
-9.8047296463
 30
0.0
 10
8.5407106376
 20
-10.0429465077
 30
0.0
 10
8.5048468118
 20
-10.4956125796
 30
0.0
 10
8.3475184799
 20
-11.028115306
 30
0.0
 10
8.1566383185
 20
-11.3870170436
 30
0.0
 10
7.9882894906
 20
-11.6156620103
 30
0.0
 10
7.7924720215
 20
-11.8083236843
 30
0.0
 10
7.5711338547
 20
-11.9627850083
 30
0.0
 10
7.3266844515
 20
-12.077223136
 30
0.0
 10
7.0619057691
 20
-12.1504280261
 30
0.0
 10
6.7797073251
 20
-12.1818854035
 30
0.0
 10
6.3734336143
 20
-12.1677250867
 30
0.0
 10
5.8334849978
 20
-12.0375895392
 30
0.0
 10
5.1853893283
 20
-11.7289829721
 30
0.0
 10
4.540542672
 20
-11.2769516447
 30
0.0
 10
3.9220585259
 20
-10.698331777
 30
0.0
 10
3.3522890268
 20
-10.0145365637
 30
0.0
 10
2.8524213227
 20
-9.2510310975
 30
0.0
 10
2.4411400708
 20
-8.4364055906
 30
0.0
 10
2.1338597739
 20
-7.6010317043
 30
0.0
 10
1.9420231392
 20
-6.776323869
 30
0.0
 10
1.8939068923
 20
-6.2296579954
 30
0.0
 10
1.8939068936
 20
-5.966948469
 30
0.0
  0
SPLINE
  5
32B
100
AcDbEntity
  8
ASSI
100
AcDbSpline
 62
7
  6
CONTINUOUS
 70
0
 71
3
 72
19
 73
15
 74
0
 42
0.0000001
 43
0.0000001
 44
0.0000000001
 40
0.0
 40
0.0
 40
0.0
 40
0.0
 40
0.1447049974
 40
0.2741459566
 40
0.3338721486
 40
0.3908849634
 40
0.4459516638
 40
0.4999996991
 40
0.5540477464
 40
0.6091148629
 40
0.6661274366
 40
0.7258524195
 40
0.8552990214
 40
1.0
 40
1.0
 40
1.0
 40
1.0
 10
-14.0159956831
 20
6.485110988
 30
0.0
 10
-14.015995684
 20
6.7233140223
 30
0.0
 10
-13.9801358172
 20
7.1759551489
 30
0.0
 10
-13.8228267484
 20
7.7084316786
 30
0.0
 10
-13.6319697371
 20
8.067322786
 30
0.0
 10
-13.4636408959
 20
8.2959651413
 30
0.0
 10
-13.2678462905
 20
8.4886295337
 30
0.0
 10
-13.0465332445
 20
8.643099208
 30
0.0
 10
-12.8021107306
 20
8.7575515568
 30
0.0
 10
-12.5373591479
 20
8.8307758336
 30
0.0
 10
-12.2551908683
 20
8.8622600266
 30
0.0
 10
-11.8489442525
 20
8.8481322958
 30
0.0
 10
-11.3091469368
 20
8.7181394213
 30
0.0
 10
-10.8992057796
 20
8.5228978109
 30
0.0
 10
-10.6929149943
 20
8.4038110952
 30
0.0
  0
SPLINE
  5
32C
100
AcDbEntity
  8
ASSI
100
AcDbSpline
 62
7
  6
CONTINUOUS
 70
0
 71
3
 72
27
 73
23
 74
0
 42
0.0000001
 43
0.0000001
 44
0.0000000001
 40
0.0
 40
0.0
 40
0.0
 40
0.0
 40
0.0603448655
 40
0.1143239375
 40
0.139230684
 40
0.1630059117
 40
0.1859696504
 40
0.2085087351
 40
0.2310480373
 40
0.2540125672
 40
0.2777886633
 40
0.3026961501
 40
0.3566805789
 40
0.4170269374
 40
0.4835768947
 40
0.555383568
 40
0.6309668356
 40
0.7085168928
 40
0.7860664736
 40
0.8616485439
 40
0.9334506763
 40
1.0
 40
1.0
 40
1.0
 40
1.0
 10
-7.36919194
 20
-0.6185512964
 30
0.0
 10
-7.3691919391
 20
-0.8567681579
 30
0.0
 10
-7.4050557649
 20
-1.3094342297
 30
0.0
 10
-7.5623840968
 20
-1.8419369562
 30
0.0
 10
-7.7532642582
 20
-2.2008386938
 30
0.0
 10
-7.9216130861
 20
-2.4294836605
 30
0.0
 10
-8.1174305552
 20
-2.6221453344
 30
0.0
 10
-8.338768722
 20
-2.7766066584
 30
0.0
 10
-8.5832181252
 20
-2.8910447861
 30
0.0
 10
-8.8479968076
 20
-2.9642496762
 30
0.0
 10
-9.1301952516
 20
-2.9957070537
 30
0.0
 10
-9.5364689624
 20
-2.9815467368
 30
0.0
 10
-10.0764175789
 20
-2.8514111893
 30
0.0
 10
-10.7245132484
 20
-2.5428046222
 30
0.0
 10
-11.3693599047
 20
-2.0907732948
 30
0.0
 10
-11.9878440508
 20
-1.5121534271
 30
0.0
 10
-12.5576135499
 20
-0.8283582138
 30
0.0
 10
-13.057481254
 20
-0.0648527476
 30
0.0
 10
-13.4687625059
 20
0.7497727593
 30
0.0
 10
-13.7760428028
 20
1.5851466456
 30
0.0
 10
-13.9678794375
 20
2.4098544809
 30
0.0
 10
-14.0159956844
 20
2.9565203545
 30
0.0
 10
-14.0159956831
 20
3.2192298808
 30
0.0
  0
SPLINE
  5
32D
100
AcDbEntity
  8
ASSI
100
AcDbSpline
 62
7
  6
CONTINUOUS
 70
0
 71
3
 72
12
 73
8
 74
0
 42
0.0000001
 43
0.0000001
 44
0.0000000001
 40
0.0
 40
0.0
 40
0.0
 40
0.0
 40
0.2895896318
 40
0.548629694
 40
0.7816355646
 40
0.8918367821
 40
1.0
 40
1.0
 40
1.0
 40
1.0
 10
3.5909631684
 20
-2.7010673619
 30
0.0
 10
3.5909631691
 20
-2.5236816992
 30
0.0
 10
3.6178324213
 20
-2.1864175441
 30
0.0
 10
3.7542148787
 20
-1.72330913
 30
0.0
 10
3.9501600446
 20
-1.4037685
 30
0.0
 10
4.1480667102
 20
-1.2091233118
 30
0.0
 10
4.2583752857
 20
-1.1321172869
 30
0.0
 10
4.3157523422
 20
-1.098988348
 30
0.0
  0
SPLINE
  5
32E
100
AcDbEntity
  8
ASSI
100
AcDbSpline
 62
7
  6
CONTINUOUS
 70
0
 71
3
 72
12
 73
8
 74
0
 42
0.0000001
 43
0.0000001
 44
0.0000000001
 40
0.0
 40
0.0
 40
0.0
 40
0.0
 40
0.2895896318
 40
0.548629694
 40
0.7816355646
 40
0.8918367821
 40
1.0
 40
1.0
 40
1.0
 40
1.0
 10
-12.3189394083
 20
6.485110988
 30
0.0
 10
-12.3189394076
 20
6.6624966507
 30
0.0
 10
-12.2920701554
 20
6.9997608058
 30
0.0
 10
-12.155687698
 20
7.4628692199
 30
0.0
 10
-11.9597425321
 20
7.7824098499
 30
0.0
 10
-11.7618358665
 20
7.9770550381
 30
0.0
 10
-11.651527291
 20
8.054061063
 30
0.0
 10
-11.5941502345
 20
8.0871900019
 30
0.0
  0
SPLINE
  5
32F
100
AcDbEntity
  8
ASSI
100
AcDbSpline
 62
7
  6
CONTINUOUS
 70
0
 71
3
 72
19
 73
15
 74
0
 42
0.0000001
 43
0.0000001
 44
0.0000000001
 40
0.0
 40
0.0
 40
0.0
 40
0.0
 40
0.1447049974
 40
0.2741459566
 40
0.3338721486
 40
0.3908849634
 40
0.4459516638
 40
0.4999996991
 40
0.5540477464
 40
0.6091148629
 40
0.6661274366
 40
0.7258524195
 40
0.8552990214
 40
1.0
 40
1.0
 40
1.0
 40
1.0
 10
1.8939068936
 20
-2.7010673619
 30
0.0
 10
1.8939068927
 20
-2.4628643276
 30
0.0
 10
1.9297667595
 20
-2.0102232009
 30
0.0
 10
2.0870758283
 20
-1.4777466713
 30
0.0
 10
2.2779328396
 20
-1.1188555639
 30
0.0
 10
2.4462616808
 20
-0.8902132086
 30
0.0
 10
2.6420562862
 20
-0.6975488161
 30
0.0
 10
2.8633693322
 20
-0.5430791419
 30
0.0
 10
3.1077918461
 20
-0.4286267931
 30
0.0
 10
3.3725434288
 20
-0.3554025163
 30
0.0
 10
3.6547117084
 20
-0.3239183232
 30
0.0
 10
4.0609583242
 20
-0.3380460541
 30
0.0
 10
4.6007556399
 20
-0.4680389286
 30
0.0
 10
5.0106967971
 20
-0.663280539
 30
0.0
 10
5.2169875824
 20
-0.7823672547
 30
0.0
  0
SPLINE
  5
330
100
AcDbEntity
  8
CURVE
100
AcDbSpline
 62
250
  6
CONTINUOUS
 70
0
 71
3
 72
9
 73
5
 74
0
 42
0.0000001
 43
0.0000001
 44
0.0000000001
 40
0.0
 40
0.0
 40
0.0
 40
0.0
 40
0.5206208722
 40
1.0
 40
1.0
 40
1.0
 40
1.0
 10
31.311956114
 20
-42.673834402
 30
0.0
 10
31.3909898517
 20
-42.6299194129
 30
0.0
 10
31.5636382742
 20
-42.5992931402
 30
0.0
 10
31.5944309669
 20
-42.7714504488
 30
0.0
 10
31.5960561922
 20
-42.8518072462
 30
0.0
  0
SPLINE
  5
331
100
AcDbEntity
  8
CURVE
100
AcDbSpline
 62
250
  6
CONTINUOUS
 70
0
 71
3
 72
9
 73
5
 74
0
 42
0.0000001
 43
0.0000001
 44
0.0000000001
 40
0.0
 40
0.0
 40
0.0
 40
0.0
 40
0.5013510385
 40
1.0
 40
1.0
 40
1.0
 40
1.0
 10
31.0834202697
 20
-43.0375381302
 30
0.0
 10
31.0899137386
 20
-42.9716025595
 30
0.0
 10
31.1391682954
 20
-42.818791936
 30
0.0
 10
31.2559606702
 20
-42.7049613334
 30
0.0
 10
31.311956114
 20
-42.673834402
 30
0.0
  0
SPLINE
  5
332
100
AcDbEntity
  8
CURVE
100
AcDbSpline
 62
250
  6
CONTINUOUS
 70
0
 71
3
 72
9
 73
5
 74
0
 42
0.0000001
 43
0.0000001
 44
0.0000000001
 40
0.0
 40
0.0
 40
0.0
 40
0.0
 40
0.2703953699
 40
1.0
 40
1.0
 40
1.0
 40
1.0
 10
31.0941821556
 20
-43.3654985228
 30
0.0
 10
31.0896372916
 20
-43.3382106368
 30
0.0
 10
31.0746895961
 20
-43.2359463649
 30
0.0
 10
31.0750140937
 20
-43.1229144926
 30
0.0
 10
31.0834202697
 20
-43.0375381302
 30
0.0
  0
SPLINE
  5
333
100
AcDbEntity
  8
CURVE
100
AcDbSpline
 62
250
  6
CONTINUOUS
 70
0
 71
3
 72
9
 73
5
 74
0
 42
0.0000001
 43
0.0000001
 44
0.0000000001
 40
0.0
 40
0.0
 40
0.0
 40
0.0
 40
0.2957417834
 40
1.0
 40
1.0
 40
1.0
 40
1.0
 10
30.8233390757
 20
-42.8701413661
 30
0.0
 10
30.791578571
 20
-42.9853850522
 30
0.0
 10
30.7398070553
 20
-43.3660250887
 30
0.0
 10
30.7716930226
 20
-43.7034724693
 30
0.0
 10
30.8040910657
 20
-43.9318778059
 30
0.0
  0
SPLINE
  5
334
100
AcDbEntity
  8
CURVE
100
AcDbSpline
 62
250
  6
CONTINUOUS
 70
0
 71
3
 72
17
 73
13
 74
0
 42
0.0000001
 43
0.0000001
 44
0.0000000001
 40
0.0
 40
0.0
 40
0.0
 40
0.0
 40
0.0559780952
 40
0.1687540387
 40
0.321006234
 40
0.4122750837
 40
0.516613223
 40
0.6013931059
 40
0.6776022439
 40
0.8103422694
 40
0.9200404832
 40
1.0
 40
1.0
 40
1.0
 40
1.0
 10
31.7467363042
 20
-42.3290383212
 30
0.0
 10
31.7440165647
 20
-42.3069716071
 30
0.0
 10
31.7018199754
 20
-42.2698782308
 30
0.0
 10
31.6213815043
 20
-42.2139952678
 30
0.0
 10
31.4975589668
 20
-42.2076265337
 30
0.0
 10
31.3683840331
 20
-42.2446406605
 30
0.0
 10
31.2611715346
 20
-42.2993095393
 30
0.0
 10
31.1610359307
 20
-42.3693341917
 30
0.0
 10
31.05463404
 20
-42.4656669913
 30
0.0
 10
30.9503578674
 20
-42.5951435492
 30
0.0
 10
30.8688111613
 20
-42.7425890946
 30
0.0
 10
30.8336408138
 20
-42.8327150808
 30
0.0
 10
30.8233390757
 20
-42.8701413661
 30
0.0
  0
SPLINE
  5
335
100
AcDbEntity
  8
CURVE
100
AcDbSpline
 62
250
  6
CONTINUOUS
 70
0
 71
3
 72
9
 73
5
 74
0
 42
0.0000001
 43
0.0000001
 44
0.0000000001
 40
0.0
 40
0.0
 40
0.0
 40
0.0
 40
0.2426586216
 40
1.0
 40
1.0
 40
1.0
 40
1.0
 10
32.116108905
 20
-41.8845920253
 30
0.0
 10
32.0828876024
 20
-41.9125829217
 30
0.0
 10
31.9487318869
 20
-42.0234103325
 30
0.0
 10
31.7973424778
 20
-42.1903537264
 30
0.0
 10
31.7575393183
 20
-42.3232217351
 30
0.0
  0
SPLINE
  5
336
100
AcDbEntity
  8
CURVE
100
AcDbSpline
 62
250
  6
CONTINUOUS
 70
0
 71
3
 72
9
 73
5
 74
0
 42
0.0000001
 43
0.0000001
 44
0.0000000001
 40
0.0
 40
0.0
 40
0.0
 40
0.0
 40
0.1980141723
 40
1.0
 40
1.0
 40
1.0
 40
1.0
 10
32.6109225961
 20
-41.4725313766
 30
0.0
 10
32.578327284
 20
-41.4999645292
 30
0.0
 10
32.4133462758
 20
-41.6371673779
 30
0.0
 10
32.2480962628
 20
-41.773382783
 30
0.0
 10
32.116108905
 20
-41.8845920253
 30
0.0
  0
SPLINE
  5
337
100
AcDbEntity
  8
CURVE
100
AcDbSpline
 62
250
  6
CONTINUOUS
 70
0
 71
3
 72
9
 73
5
 74
0
 42
0.0000001
 43
0.0000001
 44
0.0000000001
 40
0.0
 40
0.0
 40
0.0
 40
0.0
 40
0.5586214172
 40
1.0
 40
1.0
 40
1.0
 40
1.0
 10
32.0565552332
 20
-42.3670967632
 30
0.0
 10
32.1574741181
 20
-42.2704334397
 30
0.0
 10
32.3443474061
 20
-42.1141537748
 30
0.0
 10
32.5290591845
 20
-41.952673498
 30
0.0
 10
32.6109225961
 20
-41.8823211546
 30
0.0
  0
SPLINE
  5
338
100
AcDbEntity
  8
CURVE
100
AcDbSpline
 62
250
  6
CONTINUOUS
 70
0
 71
3
 72
9
 73
5
 74
0
 42
0.0000001
 43
0.0000001
 44
0.0000000001
 40
0.0
 40
0.0
 40
0.0
 40
0.0
 40
0.3559141631
 40
1.0
 40
1.0
 40
1.0
 40
1.0
 10
31.89546968
 20
-42.691514577
 30
0.0
 10
31.89546968
 20
-42.6543892781
 30
0.0
 10
31.9156066418
 20
-42.5367475552
 30
0.0
 10
32.0002118442
 20
-42.4210392042
 30
0.0
 10
32.0565552332
 20
-42.3670967632
 30
0.0
  0
ENDSEC
  0
SECTION
  2
OBJECTS
  0
DICTIONARY
  5
C
100
AcDbDictionary
280
0
281
1
  3
ACAD_GROUP
350
D
  3
ACAD_MLINESTYLE
350
17
  3
ACAD_LAYOUT
350
1A
  3
ACAD_PLOTSETTINGS
350
19
  3
ACAD_PLOTSTYLENAME
350
E
  0
DICTIONARY
  5
D
102
{ACAD_REACTORS
330
C
102
}
100
AcDbDictionary
280
0
281
1
  0
ACDBDICTIONARYWDFLT
  5
E
102
{ACAD_REACTORS
330
C
102
}
100
AcDbDictionary
281
1
  3
Normal
350
F
100
AcDbDictionaryWithDefault
340
F
  0
DICTIONARY
  5
17
102
{ACAD_REACTORS
330
C
102
}
100
AcDbDictionary
280
0
281
1
  3
Standard
350
18
  0
DICTIONARY
  5
19
102
{ACAD_REACTORS
330
C
102
}
100
AcDbDictionary
281
1
  0
DICTIONARY
  5
1A
102
{ACAD_REACTORS
330
C
102
}
100
AcDbDictionary
281
1
  3
Model
350
339
  3
Layout1
350
33A
  0
ACDBPLACEHOLDER
  5
F
102
{ACAD_REACTORS
330
E
102
}
  0
MLINESTYLE
  5
18
102
{ACAD_REACTORS
330
17
102
}
100
AcDbMlineStyle
  2
STANDARD
 70
0
  3

 62
256
 51
90.0
 52
90.0
 71
2
 49
0.5
 62
256
  6
BYLAYER
 49
-0.5
 62
256
  6
BYLAYER
  0
LAYOUT
  5
339
102
{ACAD_REACTORS
330
1A
102
}
100
AcDbPlotSettings
  1

  2
none_device
  4
ISO_A4_(297.00_x_210.00_MM)
  6

 40
0.0
 41
0.0
 42
0.0
 43
0.0
 44
297.0
 45
210.0
 46
0.0
 47
0.0
 48
0.0
 49
0.0
140
0.0
141
0.0
142
1.0
143
1.0
 70
1024
 72
1
 73
0
 74
0
  7

 75
0
147
1.0
148
0.0
149
0.0
100
AcDbLayout
  1
Model
 70
0
 71
0
 10
0.0
 20
0.0
 11
297.0
 21
210.0
 12
0.0
 22
0.0
 32
0.0
 14
0.0
 24
0.0
 34
0.0
 15
0.0
 25
0.0
 35
0.0
146
0.0
 13
0.0
 23
0.0
 33
0.0
 16
1.0
 26
0.0
 36
0.0
 17
0.0
 27
1.0
 37
0.0
 76
0
330
21E
345
0
346
0
  0
LAYOUT
  5
33A
102
{ACAD_REACTORS
330
1A
102
}
100
AcDbPlotSettings
  1

  2
none_device
  4
ISO_A4_(297.00_x_210.00_MM)
  6

 40
0.0
 41
0.0
 42
0.0
 43
0.0
 44
297.0
 45
210.0
 46
0.0
 47
0.0
 48
0.0
 49
0.0
140
0.0
141
0.0
142
1.0
143
1.0
 70
0
 72
1
 73
0
 74
0
  7

 75
0
147
1.0
148
0.0
149
0.0
100
AcDbLayout
  1
Layout1
 70
0
 71
1
 10
0.0
 20
0.0
 11
297.0
 21
210.0
 12
0.0
 22
0.0
 32
0.0
 14
0.0
 24
0.0
 34
0.0
 15
0.0
 25
0.0
 35
0.0
146
0.0
 13
0.0
 23
0.0
 33
0.0
 16
1.0
 26
0.0
 36
0.0
 17
0.0
 27
1.0
 37
0.0
 76
0
330
21F
345
0
346
0
  0
ENDSEC
  0
EOF
