  0
SECTION
  2
HEADER
  9
$ACADVER
  1
AC1024
  9
$DWGCODEPAGE
  3
ANSI_1252
  9
$EXTMAX
 10
297.0
 20
210.0
 30
0.0
  9
$EXTMIN
 10
0.0
 20
0.0
 30
0.0
  9
$LIMMIN
 10
0.0
 20
0.0
  9
$LIMMAX
 10
297.0
 20
210.0
  9
$VIEWCTR
 10
148.5
 20
105.0
  9
$VIEWSIZE
 40
210.0
  9
$CLAYER
  8
0
  9
$LTSCALE
 40
16.335
  9
$CELTYPE
  6
BYLAYER
  9
$DIMSCALE
 40
1.0
  9
$DIMASZ
 40
3.0
  9
$DIMEXO
 40
0.5
  9
$DIMDLI
 40
11.286
  9
$DIMEXE
 40
1.5
  9
$DIMCEN
 40
2.673
  9
$DIMLFAC
 40
1.0
  9
$DIMBLK
  1
_FILLED
  9
$DIMALT
 70
0
  9
$DIMALTF
 40
0.0393700787
  9
$DIMTXT
 40
3.0
  9
$DIMTOL
 70
1
  9
$DIMLIM
 70
0
  9
$DIMTFAC
 40
1.0
  9
$DIMTP
 40
0.01
  9
$DIMTM
 40
0.01
  9
$DIMGAP
 40
0.625
  9
$DIMDSEP
 70
44
  9
$AUNITS
 70
0
  9
$PDMODE
 70
3
  9
$PDSIZE
 40
3.0
  9
$HANDSEED
  5
265
  9
$TILEMODE
 70
1
  9
$MEASUREMENT
 70
1
  9
$INSUNITS
 70
4
  0
ENDSEC
  0
SECTION
  2
CLASSES
  0
CLASS
  1
ACDBDICTIONARYWDFLT
  2
AcDbDictionaryWithDefault
  3
AutoCAD 2000
 90
0
 91
1
280
0
281
0
  0
CLASS
  1
ACDBPLACEHOLDER
  2
AcDbPlaceHolder
  3
AutoCAD 2000
 90
0
 91
1
280
0
281
0
  0
CLASS
  1
LAYOUT
  2
AcDbLayout
  3
AutoCAD 2000
 90
0
 91
0
280
0
281
0
  0
ENDSEC
  0
SECTION
  2
TABLES
  0
TABLE
  2
VPORT
  5
8
100
AcDbSymbolTable
 70
2
  0
VPORT
  5
1F4
100
AcDbSymbolTableRecord
100
AcDbViewportTableRecord
  2
*ACTIVE
 70
0
 10
0.0
 20
0.0
 11
1.0
 21
1.0
 12
148.5
 22
105.0
 13
0.0
 23
0.0
 14
1.0
 24
1.0
 15
0.0
 25
0.0
 16
0.0
 26
0.0
 36
1.0
 17
0.0
 27
0.0
 37
0.0
 40
210.0
 41
1.4142857143
 42
50.0
 43
0.0
 44
0.0
 50
0.0
 51
0.0
 71
0
 72
100
 73
1
 74
1
 75
0
 76
0
 77
0
 78
0
  0
ENDTAB
  0
TABLE
  2
LTYPE
  5
5
100
AcDbSymbolTable
 70
6
  0
LTYPE
  5
14
100
AcDbSymbolTableRecord
100
AcDbLinetypeTableRecord
  2
BYBLOCK
 70
0
  3

 72
65
 73
0
 40
0.0
  0
LTYPE
  5
15
100
AcDbSymbolTableRecord
100
AcDbLinetypeTableRecord
  2
BYLAYER
 70
0
  3

 72
65
 73
0
 40
0.0
  0
LTYPE
  5
16
100
AcDbSymbolTableRecord
100
AcDbLinetypeTableRecord
  2
CONTINUOUS
 70
64
  3
Solid line
 72
65
 73
0
 40
0.0
  0
LTYPE
  5
1F5
100
AcDbSymbolTableRecord
100
AcDbLinetypeTableRecord
  2
CENTER
 70
64
  3
____ _ ____ _ ____ _ ____ _ ____ _ ____ _ ____
 72
65
 73
4
 40
0.6
 49
0.375
 74
0
 49
-0.075
 74
0
 49
0.075
 74
0
 49
-0.075
 74
0
  0
LTYPE
  5
1F6
100
AcDbSymbolTableRecord
100
AcDbLinetypeTableRecord
  2
HIDDEN
 70
64
  3
- - - - - - - - - - - - - - - - - - - -
 72
65
 73
2
 40
0.2
 49
0.1
 74
0
 49
-0.1
 74
0
  0
LTYPE
  5
1F7
100
AcDbSymbolTableRecord
100
AcDbLinetypeTableRecord
  2
PHANTOM
 70
64
  3
_____ _ _ _____ _ _ _____ _ _ _____
 72
65
 73
6
 40
0.8
 49
0.45
 74
0
 49
-0.05
 74
0
 49
0.1
 74
0
 49
-0.05
 74
0
 49
0.1
 74
0
 49
-0.05
 74
0
  0
LTYPE
  5
1F8
100
AcDbSymbolTableRecord
100
AcDbLinetypeTableRecord
  2
DOT
 70
64
  3
. . . . . . . . . . . . . . . . . . . .
 72
65
 73
2
 40
0.2
 49
0.1
 74
0
 49
-0.1
 74
0
  0
LTYPE
  5
1F9
100
AcDbSymbolTableRecord
100
AcDbLinetypeTableRecord
  2
DASHED
 70
64
  3
- - - - - - - - - - - - - - - - - - - -
 72
65
 73
2
 40
0.2
 49
0.1
 74
0
 49
-0.1
 74
0
  0
ENDTAB
  0
TABLE
  2
LAYER
  5
2
100
AcDbSymbolTable
 70
36
  0
LAYER
  5
10
100
AcDbSymbolTableRecord
100
AcDbLayerTableRecord
  2
0
 70
0
 62
7
  6
CONTINUOUS
370
-3
390
F
  0
LAYER
  5
1FA
100
AcDbSymbolTableRecord
100
AcDbLayerTableRecord
  2
DEFAULT_1
 70
0
 62
7
  6
CENTER
370
-3
390
F
  0
LAYER
  5
1FB
100
AcDbSymbolTableRecord
100
AcDbLayerTableRecord
  2
DEFAULT_2
 70
0
 62
7
  6
HIDDEN
370
-3
390
F
  0
LAYER
  5
1FC
100
AcDbSymbolTableRecord
100
AcDbLayerTableRecord
  2
DEFAULT_3
 70
0
 62
7
  6
PHANTOM
370
-3
390
F
  0
LAYER
  5
1FD
100
AcDbSymbolTableRecord
100
AcDbLayerTableRecord
  2
ASSI
 70
0
 62
7
  6
CONTINUOUS
370
-3
390
F
  0
LAYER
  5
1FE
100
AcDbSymbolTableRecord
100
AcDbLayerTableRecord
  2
COORDINATE
 70
0
 62
7
  6
CONTINUOUS
370
-3
390
F
  0
LAYER
  5
1FF
100
AcDbSymbolTableRecord
100
AcDbLayerTableRecord
  2
COORD_ORIGINE
 70
0
 62
7
  6
CONTINUOUS
370
-3
390
F
  0
LAYER
  5
200
100
AcDbSymbolTableRecord
100
AcDbLayerTableRecord
  2
COPY_PUBLISH
 70
0
 62
7
  6
CONTINUOUS
370
-3
390
F
  0
LAYER
  5
201
100
AcDbSymbolTableRecord
100
AcDbLayerTableRecord
  2
COSMETIC
 70
0
 62
7
  6
CONTINUOUS
370
-3
390
F
  0
LAYER
  5
202
100
AcDbSymbolTableRecord
100
AcDbLayerTableRecord
  2
COSMETICI
 70
0
 62
7
  6
CONTINUOUS
370
-3
390
F
  0
LAYER
  5
203
100
AcDbSymbolTableRecord
100
AcDbLayerTableRecord
  2
CURVE
 70
0
 62
7
  6
CONTINUOUS
370
-3
390
F
  0
LAYER
  5
204
100
AcDbSymbolTableRecord
100
AcDbLayerTableRecord
  2
CURVE_TASSELLI
 70
0
 62
7
  6
CONTINUOUS
370
-3
390
F
  0
LAYER
  5
205
100
AcDbSymbolTableRecord
100
AcDbLayerTableRecord
  2
DRAFT
 70
0
 62
7
  6
CONTINUOUS
370
-3
390
F
  0
LAYER
  5
206
100
AcDbSymbolTableRecord
100
AcDbLayerTableRecord
  2
IMPORT_IGES
 70
0
 62
7
  6
CONTINUOUS
370
-3
390
F
  0
LAYER
  5
207
100
AcDbSymbolTableRecord
100
AcDbLayerTableRecord
  2
INTFCLR_2
 70
0
 62
7
  6
CONTINUOUS
370
-3
390
F
  0
LAYER
  5
208
100
AcDbSymbolTableRecord
100
AcDbLayerTableRecord
  2
INTF_1
 70
0
 62
7
  6
CONTINUOUS
370
-3
390
F
  0
LAYER
  5
209
100
AcDbSymbolTableRecord
100
AcDbLayerTableRecord
  2
INTF_21
 70
0
 62
7
  6
CONTINUOUS
370
-3
390
F
  0
LAYER
  5
20A
100
AcDbSymbolTableRecord
100
AcDbLayerTableRecord
  2
INTF_7
 70
0
 62
7
  6
CONTINUOUS
370
-3
390
F
  0
LAYER
  5
20B
100
AcDbSymbolTableRecord
100
AcDbLayerTableRecord
  2
INTF_CYAN
 70
0
 62
7
  6
CONTINUOUS
370
-3
390
F
  0
LAYER
  5
20C
100
AcDbSymbolTableRecord
100
AcDbLayerTableRecord
  2
NOTE
 70
0
 62
7
  6
CONTINUOUS
370
-3
390
F
  0
LAYER
  5
20D
100
AcDbSymbolTableRecord
100
AcDbLayerTableRecord
  2
PIANI
 70
0
 62
7
  6
CONTINUOUS
370
-3
390
F
  0
LAYER
  5
20E
100
AcDbSymbolTableRecord
100
AcDbLayerTableRecord
  2
PIANI_ORIGINE
 70
0
 62
7
  6
CONTINUOUS
370
-3
390
F
  0
LAYER
  5
20F
100
AcDbSymbolTableRecord
100
AcDbLayerTableRecord
  2
PIANI_RIFERIMENTO
 70
0
 62
7
  6
CONTINUOUS
370
-3
390
F
  0
LAYER
  5
210
100
AcDbSymbolTableRecord
100
AcDbLayerTableRecord
  2
PUNTI
 70
0
 62
7
  6
CONTINUOUS
370
-3
390
F
  0
LAYER
  5
211
100
AcDbSymbolTableRecord
100
AcDbLayerTableRecord
  2
RACCORDO
 70
0
 62
7
  6
CONTINUOUS
370
-3
390
F
  0
LAYER
  5
212
100
AcDbSymbolTableRecord
100
AcDbLayerTableRecord
  2
RGB__255__255__255__
 70
0
 62
7
  6
CONTINUOUS
370
-3
390
F
  0
LAYER
  5
213
100
AcDbSymbolTableRecord
100
AcDbLayerTableRecord
  2
RGB____0____0____0__
 70
0
 62
7
  6
CONTINUOUS
370
-3
390
F
  0
LAYER
  5
214
100
AcDbSymbolTableRecord
100
AcDbLayerTableRecord
  2
SIMBOLI
 70
0
 62
7
  6
CONTINUOUS
370
-3
390
F
  0
LAYER
  5
215
100
AcDbSymbolTableRecord
100
AcDbLayerTableRecord
  2
SMUSSO
 70
0
 62
7
  6
CONTINUOUS
370
-3
390
F
  0
LAYER
  5
216
100
AcDbSymbolTableRecord
100
AcDbLayerTableRecord
  2
SUPERFICI
 70
0
 62
7
  6
CONTINUOUS
370
-3
390
F
  0
LAYER
  5
217
100
AcDbSymbolTableRecord
100
AcDbLayerTableRecord
  2
TRASH
 70
0
 62
7
  6
CONTINUOUS
370
-3
390
F
  0
LAYER
  5
218
100
AcDbSymbolTableRecord
100
AcDbLayerTableRecord
  2
XSEC_DATUMS
 70
0
 62
7
  6
CONTINUOUS
370
-3
390
F
  0
ENDTAB
  0
TABLE
  2
STYLE
  5
3
100
AcDbSymbolTable
 70
1
  0
STYLE
  5
11
100
AcDbSymbolTableRecord
100
AcDbTextStyleTableRecord
  2
STANDARD
 70
0
 40
0.0
 41
0.8
 50
0.0
 71
0
 42
0.2
  3
txt
  4

  0
STYLE
  5
219
100
AcDbSymbolTableRecord
100
AcDbTextStyleTableRecord
  2
TEXTSTYLE_1
 70
0
 40
0.0
 41
0.8
 50
0.0
 71
0
 42
0.2
  3
gdt
  4

  0
ENDTAB
  0
TABLE
  2
VIEW
  5
6
100
AcDbSymbolTable
 70
0
  0
ENDTAB
  0
TABLE
  2
UCS
  5
7
100
AcDbSymbolTable
 70
0
  0
ENDTAB
  0
TABLE
  2
APPID
  5
9
100
AcDbSymbolTable
 70
1
  0
APPID
  5
21A
100
AcDbSymbolTableRecord
100
AcDbRegAppTableRecord
  2
ACAD
 70
0
  0
ENDTAB
  0
TABLE
  2
BLOCK_RECORD
  5
1
100
AcDbSymbolTable
 70
0
  0
BLOCK_RECORD
  5
21B
100
AcDbSymbolTableRecord
100
AcDbBlockTableRecord
  2
*Model_Space
  0
BLOCK_RECORD
  5
21C
100
AcDbSymbolTableRecord
100
AcDbBlockTableRecord
  2
*Paper_Space
  0
BLOCK_RECORD
  5
21D
100
AcDbSymbolTableRecord
100
AcDbBlockTableRecord
  2
_FILLED
  0
ENDTAB
  0
TABLE
  2
DIMSTYLE
  5
A
100
AcDbSymbolTable
 70
1
100
AcDbDimStyleTable
 71
0
  0
DIMSTYLE
105
21E
100
AcDbSymbolTableRecord
100
AcDbDimStyleTableRecord
  2
STANDARD
 70
0
  3

  4

 40
1.0
 41
3.0
 42
0.5
 43
0.38
 44
1.5
 45
0.0
 46
0.0
 47
0.01
 48
0.01
140
3.0
141
0.09
142
0.0
143
25.4
144
1.0
145
0.0
146
1.0
147
0.625
 71
1.0
 72
0.0
 73
0
 74
0
 75
0
 76
0
 77
1
 78
8
 79
2
170
0
171
1
172
0
173
0
174
0
175
0
176
0
177
0
178
0
270
2
179
2
271
2
272
2
273
2
274
2
275
0
280
0
281
0
282
0
283
1
284
8
285
0
286
0
287
3
288
0
340
11
278
44
341
21D
342
21D
343
21D
344
21D
  0
ENDTAB
  0
ENDSEC
  0
SECTION
  2
BLOCKS
  0
BLOCK
  5
20
100
AcDbEntity
  8
0
100
AcDbBlockBegin
  2
*Model_Space
 70
0
 10
0.0
 20
0.0
 30
0.0
  3
*Model_Space
  1

  0
ENDBLK
  5
21
100
AcDbEntity
  8
0
100
AcDbBlockEnd
  0
BLOCK
  5
1C
100
AcDbEntity
  8
0
100
AcDbBlockBegin
  2
*Paper_Space
 70
0
 10
0.0
 20
0.0
 30
0.0
  3
*Paper_Space
  1

  0
ENDBLK
  5
1D
100
AcDbEntity
  8
0
100
AcDbBlockEnd
  0
BLOCK
  5
21F
100
AcDbEntity
  8
0
100
AcDbBlockBegin
  2
_FILLED
 70
64
 10
0.0
 20
0.0
  3
_FILLED
  1

  0
SOLID
  5
220
100
AcDbEntity
  8
0
  6
BYBLOCK
 62
0
100
AcDbTrace
 10
0.0
 20
0.0
 11
-1.0
 21
0.3166666667
 12
-1.0
 22
-0.3166666667
 13
-1.0
 23
-0.3166666667
  0
ENDBLK
  5
221
100
AcDbEntity
  8
0
  6
BYBLOCK
 62
0
100
AcDbBlockEnd
  0
ENDSEC
  0
SECTION
  2
ENTITIES
  0
LINE
  5
222
100
AcDbEntity
  8
0
100
AcDbLine
 62
7
  6
CONTINUOUS
 10
117.918709828
 20
156.4884597019
 11
121.7065236152
 21
158.9920265933
  0
LINE
  5
223
100
AcDbEntity
  8
0
100
AcDbLine
 62
7
  6
CONTINUOUS
 10
118.6262470973
 20
156.8969038958
 11
122.4140608845
 21
159.4004707871
  0
LINE
  5
224
100
AcDbEntity
  8
0
100
AcDbLine
 62
7
  6
CONTINUOUS
 10
118.6054834832
 20
156.8840645448
 11
118.6262470973
 21
156.8969038958
  0
LINE
  5
225
100
AcDbEntity
  8
0
100
AcDbLine
 62
7
  6
CONTINUOUS
 10
121.7065236152
 20
158.9920265933
 11
122.4140608845
 21
159.4004707871
  0
LINE
  5
226
100
AcDbEntity
  8
0
100
AcDbLine
 62
7
  6
CONTINUOUS
 10
118.6054834832
 20
156.8840645448
 11
117.9190851355
 21
156.4878233404
  0
LINE
  5
227
100
AcDbEntity
  8
0
100
AcDbLine
 62
7
  6
CONTINUOUS
 10
118.2227941833
 20
155.4688361064
 11
117.9438182492
 21
155.3077900309
  0
LINE
  5
228
100
AcDbEntity
  8
0
100
AcDbLine
 62
7
  6
CONTINUOUS
 10
118.2227941833
 20
155.4688361064
 11
118.6054834832
 21
156.8840645448
  0
LINE
  5
229
100
AcDbEntity
  8
0
100
AcDbLine
 62
7
  6
CONTINUOUS
 10
179.8457404544
 20
48.7347623635
 11
181.2626995853
 21
48.3585829076
  0
LINE
  5
22A
100
AcDbEntity
  8
0
100
AcDbLine
 62
7
  6
CONTINUOUS
 10
117.9438182492
 20
84.4761564315
 11
118.2227941833
 21
83.99295594
  0
LINE
  5
22B
100
AcDbEntity
  8
0
100
AcDbLine
 62
7
  6
CONTINUOUS
 10
117.9438182492
 20
84.4761564315
 11
117.9190851355
 21
84.932392009
  0
LINE
  5
22C
100
AcDbEntity
  8
0
100
AcDbLine
 62
7
  6
CONTINUOUS
 10
118.2227941833
 20
83.99295594
 11
118.6054834832
 21
83.7435151979
  0
LINE
  5
22D
100
AcDbEntity
  8
0
100
AcDbLine
 62
7
  6
CONTINUOUS
 10
117.9438182492
 20
155.3077900309
 11
117.9190851355
 21
156.4878233404
  0
LINE
  5
22E
100
AcDbEntity
  8
0
100
AcDbLine
 62
7
  6
CONTINUOUS
 10
117.9190851355
 20
84.932392009
 11
117.918709828
 21
84.9565848697
  0
LINE
  5
22F
100
AcDbEntity
  8
0
100
AcDbLine
 62
7
  6
CONTINUOUS
 10
117.918709828
 20
156.4884597019
 11
117.918709828
 21
84.9565848697
  0
LINE
  5
230
100
AcDbEntity
  8
0
100
AcDbLine
 62
7
  6
CONTINUOUS
 10
117.9438182492
 20
155.3077900309
 11
117.9438182492
 21
84.4761564315
  0
LINE
  5
231
100
AcDbEntity
  8
0
100
AcDbLine
 62
7
  6
CONTINUOUS
 10
118.6262470973
 20
83.7310943723
 11
180.5766636679
 21
47.9617002655
  0
LINE
  5
232
100
AcDbEntity
  8
0
100
AcDbLine
 62
7
  6
CONTINUOUS
 10
118.2227941833
 20
83.99295594
 11
179.5667645203
 21
48.5737162879
  0
LINE
  5
233
100
AcDbEntity
  8
0
100
AcDbLine
 62
7
  6
CONTINUOUS
 10
118.6262470973
 20
83.7310943723
 11
118.6054834832
 21
83.7435151979
  0
LINE
  5
234
100
AcDbEntity
  8
0
100
AcDbLine
 62
7
  6
CONTINUOUS
 10
179.5667645203
 20
48.5737162879
 11
180.5763012377
 21
47.9623417032
  0
LWPOLYLINE
  5
235
100
AcDbEntity
  8
0
100
AcDbPolyline
 62
7
  6
CONTINUOUS
 90
29
 70
0
 10
147.6256530149
 20
102.5137501238
 10
147.6363886664
 20
102.3500347856
 10
147.6541941001
 20
102.1835273515
 10
147.6791565389
 20
102.0137565164
 10
147.7111887599
 20
101.8411935854
 10
147.7500290943
 20
101.6672524744
 10
147.7957336524
 20
101.4919218779
 10
147.8482463239
 20
101.3152131012
 10
147.9071371086
 20
101.1385739764
 10
147.9724584944
 20
100.9620051914
 10
148.0441579935
 20
100.7855060583
 10
148.1216481428
 20
100.6105223449
 10
148.2049762326
 20
100.4370670698
 10
148.2940949727
 20
100.2651272146
 10
148.3882750287
 20
100.0961094919
 10
148.4875578513
 20
99.9300378677
 10
148.5919019898
 20
99.766888376
 10
148.7004537578
 20
99.6079958317
 10
148.8132478524
 20
99.4533948876
 10
148.9302495765
 20
99.3030508909
 10
149.050501153
 20
99.1581946987
 10
149.1740293063
 20
99.0188713469
 10
149.300807312
 20
98.8850357997
 10
149.4297972197
 20
98.7577838065
 10
149.5610171127
 20
98.6371695009
 10
149.6944489076
 20
98.5231387494
 10
149.8290004036
 20
98.4166249006
 10
149.9646807668
 20
98.3176896603
 10
150.0992160431
 20
98.2277847954
  0
LWPOLYLINE
  5
236
100
AcDbEntity
  8
0
100
AcDbPolyline
 62
7
  6
CONTINUOUS
 90
31
 70
0
 10
147.6219871457
 20
102.5113635289
 10
147.6253783463
 20
102.3598594857
 10
147.6355428917
 20
102.2048518268
 10
147.6524532794
 20
102.0467651936
 10
147.6760635919
 20
101.8860322461
 10
147.7063094293
 20
101.7230938376
 10
147.7431078972
 20
101.5583978647
 10
147.7863583099
 20
101.3923957047
 10
147.8359422899
 20
101.2255423458
 10
147.8917235903
 20
101.0582965578
 10
147.9535492625
 20
100.8911169182
 10
148.0212498937
 20
100.7244615272
 10
148.0946394706
 20
100.5587881726
 10
148.1735164837
 20
100.394551461
 10
148.257664866
 20
100.2322010135
 10
148.3468542061
 20
100.0721812362
 10
148.4408399923
 20
99.9149307509
 10
148.5393646075
 20
99.7608805175
 10
148.6421584102
 20
99.6104521424
 10
148.7489398633
 20
99.4640577155
 10
148.8594161366
 20
99.3220987847
 10
148.9732843235
 20
99.1849646217
 10
149.0902323555
 20
99.0530310909
 10
149.2099396634
 20
98.9266598713
 10
149.3320779225
 20
98.8061975707
 10
149.4563122728
 20
98.6919744304
 10
149.5823022636
 20
98.5843034429
 10
149.7097025696
 20
98.4834797085
 10
149.8381639702
 20
98.3897795827
 10
149.967334376
 20
98.303459866
 10
150.0971000588
 20
98.2246183979
  0
LINE
  5
237
100
AcDbEntity
  8
0
100
AcDbLine
 62
7
  6
CONTINUOUS
 10
145.5713774802
 20
102.3072262322
 11
145.5713774802
 21
105.5731073394
  0
LINE
  5
238
100
AcDbEntity
  8
0
100
AcDbLine
 62
7
  6
CONTINUOUS
 10
147.2684337551
 20
102.3072262322
 11
147.2684337551
 21
105.5731073394
  0
LINE
  5
239
100
AcDbEntity
  8
0
100
AcDbLine
 62
7
  6
CONTINUOUS
 10
147.6219871457
 20
105.7772446361
 11
147.6219871457
 21
102.5113635289
  0
LWPOLYLINE
  5
23A
100
AcDbEntity
  8
0
100
AcDbPolyline
 62
7
  6
CONTINUOUS
 90
33
 70
0
 10
145.5713774802
 20
105.5731073394
 10
145.5755925198
 20
105.7627206987
 10
145.5879638491
 20
105.9462086236
 10
145.608491468
 20
106.1235711142
 10
145.6372666086
 20
106.2952186937
 10
145.6741980388
 20
106.4607408389
 10
145.7190120627
 20
106.6189059798
 10
145.7717675689
 20
106.7696590257
 10
145.8324056687
 20
106.9130550674
 10
145.9004760004
 20
107.0480278067
 10
145.9760339965
 20
107.1745142851
 10
146.0590242244
 20
107.292577461
 10
146.1488300254
 20
107.4013399121
 10
146.2455020487
 20
107.5007321855
 10
146.3489896451
 20
107.5908237341
 10
146.4585242077
 20
107.6709454933
 10
146.5741506949
 20
107.7410232598
 10
146.6958241485
 20
107.801131237
 10
146.822641087
 20
107.8508229705
 10
146.95463989
 20
107.8900209673
 10
147.0917821781
 20
107.9188027203
 10
147.2330493317
 20
107.9369542542
 10
147.3784721278
 20
107.9443963901
 10
147.5280197895
 20
107.9412083069
 10
147.6805813669
 20
107.9274135654
 10
147.8361792913
 20
107.902933152
 10
147.9947911314
 20
107.8678460803
 10
148.1552386438
 20
107.8224129522
 10
148.3175354786
 20
107.7665567193
 10
148.4816679856
 20
107.7003544301
 10
148.6464169712
 20
107.6242978325
 10
148.8117870239
 20
107.5383135441
 10
148.8944581724
 20
107.4917675096
  0
LWPOLYLINE
  5
23B
100
AcDbEntity
  8
0
100
AcDbPolyline
 62
7
  6
CONTINUOUS
 90
16
 70
0
 10
147.2684337551
 20
105.5731073394
 10
147.2718246874
 20
105.7206895502
 10
147.2819885322
 20
105.8639551197
 10
147.2988979453
 20
106.0025110994
 10
147.3225071979
 20
106.1359779156
 10
147.3527520322
 20
106.2639888185
 10
147.3895495732
 20
106.3861911116
 10
147.4327991591
 20
106.5022494616
 10
147.482382541
 20
106.6118456658
 10
147.5381635899
 20
106.7146782626
 10
147.599989439
 20
106.8104651772
 10
147.6676907626
 20
106.8989438351
 10
147.7410816929
 20
106.9798711989
 10
147.8199609622
 20
107.0530253441
 10
147.9041124404
 20
107.1182058376
 10
147.9932229287
 20
107.1751863534
  0
LWPOLYLINE
  5
23C
100
AcDbEntity
  8
0
100
AcDbPolyline
 62
7
  6
CONTINUOUS
 90
12
 70
0
 10
148.0212511777
 20
107.1030895659
 10
147.9535504902
 20
107.0146133718
 10
147.8917247218
 20
106.9188286329
 10
147.8359432861
 20
106.8159977898
 10
147.7863591502
 20
106.7064028023
 10
147.7431085697
 20
106.5903450942
 10
147.7063099304
 20
106.4681429382
 10
147.6760639313
 20
106.340131442
 10
147.6524534804
 20
106.2066627929
 10
147.6355429858
 20
106.0681034817
 10
147.625378371
 20
105.9248331356
 10
147.6219871457
 20
105.7772446361
  0
LINE
  5
23D
100
AcDbEntity
  8
0
100
AcDbLine
 62
7
  6
CONTINUOUS
 10
148.0946407983
 20
107.1840142784
 11
148.0212511777
 21
107.1030895659
  0
LWPOLYLINE
  5
23E
100
AcDbEntity
  8
0
100
AcDbPolyline
 62
7
  6
CONTINUOUS
 90
3
 70
0
 10
148.1790793315
 20
107.2614732984
 10
148.1735178482
 20
107.2571656067
 10
148.0946407983
 20
107.1840142784
  0
LINE
  5
23F
100
AcDbEntity
  8
0
100
AcDbLine
 62
250
  6
CONTINUOUS
 10
147.6219871457
 20
105.7772446361
 11
147.2684337551
 21
105.5731073394
  0
LWPOLYLINE
  5
240
100
AcDbEntity
  8
0
100
AcDbPolyline
 62
7
  6
CONTINUOUS
 90
13
 70
0
 10
147.9932229287
 20
107.1751863534
 10
148.0872951232
 20
107.2239533147
 10
148.1858241665
 20
107.264230484
 10
148.288622228
 20
107.2959550215
 10
148.3954075671
 20
107.3190400404
 10
148.5058873803
 20
107.3334223007
 10
148.6197584287
 20
107.3390624379
 10
148.7367085449
 20
107.3359451394
 10
148.8564171002
 20
107.3240790972
 10
148.9785554772
 20
107.3034970756
 10
149.1027888081
 20
107.2742557398
 10
149.2287765556
 20
107.2364354747
 10
149.3481397106
 20
107.1930595739
  0
LINE
  5
241
100
AcDbEntity
  8
0
100
AcDbLine
 62
7
  6
CONTINUOUS
 10
151.4447801376
 20
97.9075120092
 11
151.5515616833
 21
97.9305977581
  0
LWPOLYLINE
  5
242
100
AcDbEntity
  8
0
100
AcDbPolyline
 62
7
  6
CONTINUOUS
 90
12
 70
0
 10
150.0971000588
 20
98.2246183979
 10
150.2263852374
 20
98.1538870154
 10
150.3555556467
 20
98.0910438531
 10
150.4840170549
 20
98.0363998386
 10
150.61141737
 20
97.9901047565
 10
150.7374073739
 20
97.9522855212
 10
150.8616417491
 20
97.9230458038
 10
150.9837800451
 20
97.9024657572
 10
151.1034874009
 20
97.8906018299
 10
151.220435496
 20
97.8874865566
 10
151.3343037673
 20
97.8931284473
 10
151.4447801376
 20
97.9075120092
  0
LINE
  5
243
100
AcDbEntity
  8
0
100
AcDbLine
 62
250
  6
CONTINUOUS
 10
147.6219871457
 20
102.5113635289
 11
147.2684337551
 21
102.3072262322
  0
LINE
  5
244
100
AcDbEntity
  8
0
100
AcDbLine
 62
7
  6
CONTINUOUS
 10
180.5766636679
 20
121.127509789
 11
184.6385966527
 21
123.4728036912
  0
LINE
  5
245
100
AcDbEntity
  8
0
100
AcDbLine
 62
250
  6
CONTINUOUS
 10
145.5713774802
 20
102.3072262322
 11
147.2684337551
 21
102.3072262322
  0
LINE
  5
246
100
AcDbEntity
  8
0
100
AcDbLine
 62
7
  6
CONTINUOUS
 10
117.918709828
 20
156.4884597019
 11
117.9190851355
 21
156.4878233404
  0
LINE
  5
247
100
AcDbEntity
  8
0
100
AcDbLine
 62
7
  6
CONTINUOUS
 10
180.5763012377
 20
47.9623417032
 11
180.5766636679
 21
47.9617002655
  0
LINE
  5
248
100
AcDbEntity
  8
0
100
AcDbLine
 62
7
  6
CONTINUOUS
 10
152.2181812234
 20
101.7353261621
 11
152.2181812234
 21
98.4694450549
  0
LWPOLYLINE
  5
249
100
AcDbEntity
  8
0
100
AcDbPolyline
 62
7
  6
CONTINUOUS
 90
64
 70
0
 10
152.2181812234
 20
98.4694450549
 10
152.2139661838
 20
98.2798316956
 10
152.2015948545
 20
98.0963437707
 10
152.1810672356
 20
97.9189812801
 10
152.152292095
 20
97.7473337006
 10
152.1153606648
 20
97.5818115554
 10
152.0705466409
 20
97.4236464146
 10
152.0177911347
 20
97.2728933686
 10
151.9571530349
 20
97.1294973269
 10
151.8890827032
 20
96.9945245876
 10
151.8135247071
 20
96.8680381093
 10
151.7305344792
 20
96.7499749333
 10
151.6407286782
 20
96.6412124823
 10
151.5440566549
 20
96.5418202088
 10
151.4405690585
 20
96.4517286603
 10
151.3310344959
 20
96.3716069011
 10
151.2154080087
 20
96.3015291345
 10
151.0937345551
 20
96.2414211573
 10
150.9669176165
 20
96.1917294238
 10
150.8349188136
 20
96.1525314271
 10
150.6977765255
 20
96.123749674
 10
150.5565093719
 20
96.1055981401
 10
150.4110865758
 20
96.0981560042
 10
150.2615389141
 20
96.1013440874
 10
150.1089773367
 20
96.1151388289
 10
149.9533794123
 20
96.1396192423
 10
149.7947675722
 20
96.1747063141
 10
149.6343200598
 20
96.2201394421
 10
149.472023225
 20
96.275995675
 10
149.307890718
 20
96.3421979642
 10
149.1431417324
 20
96.4182545619
 10
148.9777716797
 20
96.5042388502
 10
148.8117851485
 20
96.600077447
 10
148.6464150973
 20
96.7050584577
 10
148.4816661143
 20
96.8192499663
 10
148.3175336114
 20
96.9425838889
 10
148.1552367829
 20
97.0741440793
 10
147.9947892767
 20
97.2139918263
 10
147.8361774448
 20
97.3620658412
 10
147.6805795384
 20
97.5172661113
 10
147.5280179896
 20
97.6796457483
 10
147.3784703662
 20
97.8491516405
 10
147.2330476227
 20
98.0245244407
 10
147.0917805472
 20
98.2058077692
 10
146.9546383515
 20
98.3929580057
 10
146.8226396253
 20
98.5845849421
 10
146.6958227364
 20
98.7807217629
 10
146.574149317
 20
98.9813352836
 10
146.4585228534
 20
99.1849357419
 10
146.3489882943
 20
99.3915454502
 10
146.245500691
 20
99.6011420961
 10
146.1488286843
 20
99.8121689804
 10
146.0590229336
 20
100.024637063
 10
145.9760327794
 20
100.2385353841
 10
145.9004748842
 20
100.4522743639
 10
145.8324046908
 20
100.6658529286
 10
145.7717667564
 20
100.879272152
 10
145.7190114148
 20
101.0909456764
 10
145.6741975551
 20
101.3008605748
 10
145.6372662883
 20
101.5090297742
 10
145.6084912808
 20
101.7139056973
 10
145.5879637546
 20
101.9149724852
 10
145.5755924878
 20
102.1127459968
 10
145.5713774802
 20
102.3072262322
  0
LWPOLYLINE
  5
24A
100
AcDbEntity
  8
0
100
AcDbPolyline
 62
7
  6
CONTINUOUS
 90
16
 70
0
 10
152.2181812234
 20
99.4493040789
 10
152.2147902911
 20
99.3017218682
 10
152.2046264462
 20
99.1584562986
 10
152.1877170331
 20
99.0199003189
 10
152.1641077805
 20
98.8864335027
 10
152.1338629463
 20
98.7584225998
 10
152.0970654053
 20
98.6362203067
 10
152.0538158193
 20
98.5201619567
 10
152.0042324374
 20
98.4105657525
 10
151.9484513885
 20
98.3077331558
 10
151.8866255395
 20
98.2119462412
 10
151.8189242159
 20
98.1234675833
 10
151.7455332856
 20
98.0425402194
 10
151.6666540162
 20
97.9693860742
 10
151.582502538
 20
97.9042055807
 10
151.4933920497
 20
97.8472250649
  0
LINE
  5
24B
100
AcDbEntity
  8
0
100
AcDbLine
 62
7
  6
CONTINUOUS
 10
181.2842009372
 20
119.9020192916
 11
185.346133922
 21
122.2473131938
  0
LINE
  5
24C
100
AcDbEntity
  8
0
100
AcDbLine
 62
250
  6
CONTINUOUS
 10
145.5713774802
 20
105.5731073394
 11
147.2684337551
 21
105.5731073394
  0
LWPOLYLINE
  5
24D
100
AcDbEntity
  8
0
100
AcDbPolyline
 62
7
  6
CONTINUOUS
 90
33
 70
0
 10
148.8944581724
 20
107.4917675096
 10
148.9777735551
 20
107.4424749474
 10
149.1431436063
 20
107.3374939366
 10
149.3078925893
 20
107.223302428
 10
149.4720250922
 20
107.0999685054
 10
149.6343219207
 20
106.968408315
 10
149.7947694269
 20
106.828560568
 10
149.9533812588
 20
106.6804865531
 10
150.1089791652
 20
106.525286283
 10
150.261540714
 20
106.3629066461
 10
150.4110883373
 20
106.1934007539
 10
150.5565110809
 20
106.0180279536
 10
150.6977781564
 20
105.8367446251
 10
150.8349203521
 20
105.6495943886
 10
150.9669190783
 20
105.4579674523
 10
151.0937359672
 20
105.2618306314
 10
151.2154093866
 20
105.0612171108
 10
151.3310358502
 20
104.8576166525
 10
151.4405704093
 20
104.6510069442
 10
151.5440580126
 20
104.4414102982
 10
151.6407300193
 20
104.230383414
 10
151.73053577
 20
104.0179153313
 10
151.8135259242
 20
103.8040170103
 10
151.8890838194
 20
103.5902780305
 10
151.9571540128
 20
103.3766994658
 10
152.0177919472
 20
103.1632802423
 10
152.0705472888
 20
102.9516067179
 10
152.1153611485
 20
102.7416918195
 10
152.1522924153
 20
102.5335226201
 10
152.1810674228
 20
102.328646697
 10
152.201594949
 20
102.1275799092
 10
152.2139662158
 20
101.9298063975
 10
152.2181812234
 20
101.7353261621
  0
LINE
  5
24E
100
AcDbEntity
  8
0
100
AcDbLine
 62
7
  6
CONTINUOUS
 10
179.5667645203
 20
120.0495964543
 11
180.5763012377
 21
121.1028910501
  0
LWPOLYLINE
  5
24F
100
AcDbEntity
  8
0
100
AcDbPolyline
 62
7
  6
CONTINUOUS
 90
46
 70
0
 10
151.4933920497
 20
97.8472250649
 10
151.3993198553
 20
97.7984581037
 10
151.300790812
 20
97.7581809343
 10
151.1979927505
 20
97.7264563968
 10
151.0912074113
 20
97.7033713779
 10
150.9807275982
 20
97.6889891176
 10
150.8668565498
 20
97.6833489804
 10
150.7499064335
 20
97.6864662789
 10
150.6301978783
 20
97.6983323212
 10
150.5080595013
 20
97.7189143427
 10
150.3838261704
 20
97.7481556785
 10
150.2578384229
 20
97.7859759437
 10
150.130441997
 20
97.83227109
 10
150.0019867486
 20
97.8869136284
 10
149.8728241324
 20
97.9497537061
 10
149.743306595
 20
98.0206197031
 10
149.613789121
 20
98.0993173796
 10
149.4846266419
 20
98.1856310627
 10
149.3561715248
 20
98.2793254231
 10
149.2287751967
 20
98.3801444867
 10
149.1027875404
 20
98.4878117205
 10
148.9785542971
 20
98.6020319211
 10
148.8564160048
 20
98.7224922297
 10
148.7367075299
 20
98.8488626164
 10
148.6197574906
 20
98.9807963663
 10
148.5058865178
 20
99.1179319153
 10
148.3954067763
 20
99.2598934712
 10
148.2886214992
 20
99.4062915057
 10
148.1858234913
 20
99.5567246568
 10
148.0872944934
 20
99.710780693
 10
147.9933047322
 20
99.8680371554
 10
147.904111856
 20
100.028063009
 10
147.8199603829
 20
100.1904195938
 10
147.7410811202
 20
100.3546616223
 10
147.667690197
 20
100.5203390842
 10
147.5999888844
 20
100.6869976307
 10
147.5381630632
 20
100.8541795546
 10
147.4823820567
 20
101.0214267465
 10
147.4327987284
 20
101.1882806058
 10
147.3895492113
 20
101.3542824442
 10
147.3527517493
 20
101.5189775028
 10
147.3225069956
 20
101.6819142156
 10
147.2988978194
 20
101.8426441791
 10
147.2819884711
 20
102.0007264421
 10
147.2718246708
 20
102.1557286327
 10
147.2684337551
 20
102.3072262322
  0
LWPOLYLINE
  5
250
100
AcDbEntity
  8
0
100
AcDbPolyline
 62
7
  6
CONTINUOUS
 90
3
 70
0
 10
151.5515616833
 20
97.9305977581
 10
151.6543555752
 20
97.9623222983
 10
151.6610869716
 20
97.9650740559
  0
LINE
  5
251
100
AcDbEntity
  8
0
100
AcDbLine
 62
7
  6
CONTINUOUS
 10
179.8457404544
 20
119.5663959628
 11
181.2626995853
 21
119.914014239
  0
LINE
  5
252
100
AcDbEntity
  8
0
100
AcDbLine
 62
7
  6
CONTINUOUS
 10
179.8457404544
 20
48.7347623635
 11
179.8457404544
 21
119.5663959628
  0
LINE
  5
253
100
AcDbEntity
  8
0
100
AcDbLine
 62
7
  6
CONTINUOUS
 10
181.2842009372
 20
48.3701444594
 11
181.2842009372
 21
119.9020192916
  0
LINE
  5
254
100
AcDbEntity
  8
0
100
AcDbLine
 62
7
  6
CONTINUOUS
 10
180.5766636679
 20
121.127509789
 11
180.5763012377
 21
121.1028910501
  0
LINE
  5
255
100
AcDbEntity
  8
0
100
AcDbLine
 62
7
  6
CONTINUOUS
 10
181.2626995853
 20
119.914014239
 11
181.2842009372
 21
119.9020192916
  0
LINE
  5
256
100
AcDbEntity
  8
0
100
AcDbLine
 62
7
  6
CONTINUOUS
 10
179.5667645203
 20
120.0495964543
 11
118.2227941833
 21
155.4688361064
  0
LINE
  5
257
100
AcDbEntity
  8
0
100
AcDbLine
 62
7
  6
CONTINUOUS
 10
180.5766636679
 20
121.127509789
 11
118.6262470973
 21
156.8969038958
  0
LINE
  5
258
100
AcDbEntity
  8
0
100
AcDbLine
 62
7
  6
CONTINUOUS
 10
185.346133922
 20
50.3989229737
 11
185.346133922
 21
122.2473131938
  0
LINE
  5
259
100
AcDbEntity
  8
0
100
AcDbLine
 62
7
  6
CONTINUOUS
 10
184.6385966527
 20
123.4728036912
 11
122.4140608845
 21
159.4004707871
  0
LINE
  5
25A
100
AcDbEntity
  8
0
100
AcDbLine
 62
7
  6
CONTINUOUS
 10
179.8457404544
 20
119.5663959628
 11
179.5667645203
 21
120.0495964543
  0
LINE
  5
25B
100
AcDbEntity
  8
0
100
AcDbLine
 62
7
  6
CONTINUOUS
 10
181.2626995853
 20
119.914014239
 11
180.5763012377
 21
121.1028910501
  0
LINE
  5
25C
100
AcDbEntity
  8
0
100
AcDbLine
 62
7
  6
CONTINUOUS
 10
184.6385966527
 20
123.4728036912
 11
185.346133922
 21
122.2473131938
  0
LINE
  5
25D
100
AcDbEntity
  8
0
100
AcDbLine
 62
7
  6
CONTINUOUS
 10
179.5667645203
 20
48.5737162879
 11
179.8457404544
 21
48.7347623635
  0
LINE
  5
25E
100
AcDbEntity
  8
0
100
AcDbLine
 62
7
  6
CONTINUOUS
 10
180.5763012377
 20
47.9623417032
 11
181.2626995853
 21
48.3585829076
  0
LINE
  5
25F
100
AcDbEntity
  8
0
100
AcDbLine
 62
7
  6
CONTINUOUS
 10
185.346133922
 20
50.3989229737
 11
184.6385966527
 21
49.9904787798
  0
LINE
  5
260
100
AcDbEntity
  8
0
100
AcDbLine
 62
7
  6
CONTINUOUS
 10
181.2842009372
 20
48.3701444594
 11
181.2626995853
 21
48.3585829076
  0
LINE
  5
261
100
AcDbEntity
  8
0
100
AcDbLine
 62
7
  6
CONTINUOUS
 10
181.2842009372
 20
48.3701444594
 11
185.346133922
 21
50.3989229737
  0
LINE
  5
262
100
AcDbEntity
  8
0
100
AcDbLine
 62
7
  6
CONTINUOUS
 10
180.5766636679
 20
47.9617002655
 11
184.6385966527
 21
49.9904787798
  0
ENDSEC
  0
SECTION
  2
OBJECTS
  0
DICTIONARY
  5
C
100
AcDbDictionary
280
0
281
1
  3
ACAD_GROUP
350
D
  3
ACAD_MLINESTYLE
350
17
  3
ACAD_LAYOUT
350
1A
  3
ACAD_PLOTSETTINGS
350
19
  3
ACAD_PLOTSTYLENAME
350
E
  0
DICTIONARY
  5
D
102
{ACAD_REACTORS
330
C
102
}
100
AcDbDictionary
280
0
281
1
  0
ACDBDICTIONARYWDFLT
  5
E
102
{ACAD_REACTORS
330
C
102
}
100
AcDbDictionary
281
1
  3
Normal
350
F
100
AcDbDictionaryWithDefault
340
F
  0
DICTIONARY
  5
17
102
{ACAD_REACTORS
330
C
102
}
100
AcDbDictionary
280
0
281
1
  3
Standard
350
18
  0
DICTIONARY
  5
19
102
{ACAD_REACTORS
330
C
102
}
100
AcDbDictionary
281
1
  0
DICTIONARY
  5
1A
102
{ACAD_REACTORS
330
C
102
}
100
AcDbDictionary
281
1
  3
Model
350
263
  3
Layout1
350
264
  0
ACDBPLACEHOLDER
  5
F
102
{ACAD_REACTORS
330
E
102
}
  0
MLINESTYLE
  5
18
102
{ACAD_REACTORS
330
17
102
}
100
AcDbMlineStyle
  2
STANDARD
 70
0
  3

 62
256
 51
90.0
 52
90.0
 71
2
 49
0.5
 62
256
  6
BYLAYER
 49
-0.5
 62
256
  6
BYLAYER
  0
LAYOUT
  5
263
102
{ACAD_REACTORS
330
1A
102
}
100
AcDbPlotSettings
  1

  2
none_device
  4
ISO_A4_(297.00_x_210.00_MM)
  6

 40
0.0
 41
0.0
 42
0.0
 43
0.0
 44
297.0
 45
210.0
 46
0.0
 47
0.0
 48
0.0
 49
0.0
140
0.0
141
0.0
142
1.0
143
1.0
 70
1024
 72
1
 73
0
 74
0
  7

 75
0
147
1.0
148
0.0
149
0.0
100
AcDbLayout
  1
Model
 70
0
 71
0
 10
0.0
 20
0.0
 11
297.0
 21
210.0
 12
0.0
 22
0.0
 32
0.0
 14
0.0
 24
0.0
 34
0.0
 15
0.0
 25
0.0
 35
0.0
146
0.0
 13
0.0
 23
0.0
 33
0.0
 16
1.0
 26
0.0
 36
0.0
 17
0.0
 27
1.0
 37
0.0
 76
0
330
21B
345
0
346
0
  0
LAYOUT
  5
264
102
{ACAD_REACTORS
330
1A
102
}
100
AcDbPlotSettings
  1

  2
none_device
  4
ISO_A4_(297.00_x_210.00_MM)
  6

 40
0.0
 41
0.0
 42
0.0
 43
0.0
 44
297.0
 45
210.0
 46
0.0
 47
0.0
 48
0.0
 49
0.0
140
0.0
141
0.0
142
1.0
143
1.0
 70
0
 72
1
 73
0
 74
0
  7

 75
0
147
1.0
148
0.0
149
0.0
100
AcDbLayout
  1
Layout1
 70
0
 71
1
 10
0.0
 20
0.0
 11
297.0
 21
210.0
 12
0.0
 22
0.0
 32
0.0
 14
0.0
 24
0.0
 34
0.0
 15
0.0
 25
0.0
 35
0.0
146
0.0
 13
0.0
 23
0.0
 33
0.0
 16
1.0
 26
0.0
 36
0.0
 17
0.0
 27
1.0
 37
0.0
 76
0
330
21C
345
0
346
0
  0
ENDSEC
  0
EOF
