  0
SECTION
  2
HEADER
  9
$ACADVER
  1
AC1024
  9
$DWGCODEPAGE
  3
ANSI_1252
  9
$EXTMAX
 10
297.0
 20
210.0
 30
0.0
  9
$EXTMIN
 10
0.0
 20
0.0
 30
0.0
  9
$LIMMIN
 10
0.0
 20
0.0
  9
$LIMMAX
 10
297.0
 20
210.0
  9
$VIEWCTR
 10
148.5
 20
105.0
  9
$VIEWSIZE
 40
210.0
  9
$CLAYER
  8
0
  9
$LTSCALE
 40
16.335
  9
$CELTYPE
  6
BYLAYER
  9
$DIMSCALE
 40
1.0
  9
$DIMASZ
 40
3.0
  9
$DIMEXO
 40
0.5
  9
$DIMDLI
 40
11.286
  9
$DIMEXE
 40
1.5
  9
$DIMCEN
 40
2.673
  9
$DIMLFAC
 40
1.0
  9
$DIMBLK
  1
_FILLED
  9
$DIMALT
 70
0
  9
$DIMALTF
 40
0.0393700787
  9
$DIMTXT
 40
3.0
  9
$DIMTOL
 70
1
  9
$DIMLIM
 70
0
  9
$DIMTFAC
 40
1.0
  9
$DIMTP
 40
0.01
  9
$DIMTM
 40
0.01
  9
$DIMGAP
 40
0.625
  9
$DIMDSEP
 70
44
  9
$AUNITS
 70
0
  9
$PDMODE
 70
3
  9
$PDSIZE
 40
3.0
  9
$HANDSEED
  5
27C
  9
$TILEMODE
 70
1
  9
$MEASUREMENT
 70
1
  9
$INSUNITS
 70
4
  0
ENDSEC
  0
SECTION
  2
CLASSES
  0
CLASS
  1
ACDBDICTIONARYWDFLT
  2
AcDbDictionaryWithDefault
  3
AutoCAD 2000
 90
0
 91
1
280
0
281
0
  0
CLASS
  1
ACDBPLACEHOLDER
  2
AcDbPlaceHolder
  3
AutoCAD 2000
 90
0
 91
1
280
0
281
0
  0
CLASS
  1
LAYOUT
  2
AcDbLayout
  3
AutoCAD 2000
 90
0
 91
0
280
0
281
0
  0
ENDSEC
  0
SECTION
  2
TABLES
  0
TABLE
  2
VPORT
  5
8
100
AcDbSymbolTable
 70
2
  0
VPORT
  5
1F4
100
AcDbSymbolTableRecord
100
AcDbViewportTableRecord
  2
*ACTIVE
 70
0
 10
0.0
 20
0.0
 11
1.0
 21
1.0
 12
148.5
 22
105.0
 13
0.0
 23
0.0
 14
1.0
 24
1.0
 15
0.0
 25
0.0
 16
0.0
 26
0.0
 36
1.0
 17
0.0
 27
0.0
 37
0.0
 40
210.0
 41
1.4142857143
 42
50.0
 43
0.0
 44
0.0
 50
0.0
 51
0.0
 71
0
 72
100
 73
1
 74
1
 75
0
 76
0
 77
0
 78
0
  0
ENDTAB
  0
TABLE
  2
LTYPE
  5
5
100
AcDbSymbolTable
 70
6
  0
LTYPE
  5
14
100
AcDbSymbolTableRecord
100
AcDbLinetypeTableRecord
  2
BYBLOCK
 70
0
  3

 72
65
 73
0
 40
0.0
  0
LTYPE
  5
15
100
AcDbSymbolTableRecord
100
AcDbLinetypeTableRecord
  2
BYLAYER
 70
0
  3

 72
65
 73
0
 40
0.0
  0
LTYPE
  5
16
100
AcDbSymbolTableRecord
100
AcDbLinetypeTableRecord
  2
CONTINUOUS
 70
64
  3
Solid line
 72
65
 73
0
 40
0.0
  0
LTYPE
  5
1F5
100
AcDbSymbolTableRecord
100
AcDbLinetypeTableRecord
  2
CENTER
 70
64
  3
____ _ ____ _ ____ _ ____ _ ____ _ ____ _ ____
 72
65
 73
4
 40
0.6
 49
0.375
 74
0
 49
-0.075
 74
0
 49
0.075
 74
0
 49
-0.075
 74
0
  0
LTYPE
  5
1F6
100
AcDbSymbolTableRecord
100
AcDbLinetypeTableRecord
  2
HIDDEN
 70
64
  3
- - - - - - - - - - - - - - - - - - - -
 72
65
 73
2
 40
0.2
 49
0.1
 74
0
 49
-0.1
 74
0
  0
LTYPE
  5
1F7
100
AcDbSymbolTableRecord
100
AcDbLinetypeTableRecord
  2
PHANTOM
 70
64
  3
_____ _ _ _____ _ _ _____ _ _ _____
 72
65
 73
6
 40
0.8
 49
0.45
 74
0
 49
-0.05
 74
0
 49
0.1
 74
0
 49
-0.05
 74
0
 49
0.1
 74
0
 49
-0.05
 74
0
  0
LTYPE
  5
1F8
100
AcDbSymbolTableRecord
100
AcDbLinetypeTableRecord
  2
DOT
 70
64
  3
. . . . . . . . . . . . . . . . . . . .
 72
65
 73
2
 40
0.2
 49
0.1
 74
0
 49
-0.1
 74
0
  0
LTYPE
  5
1F9
100
AcDbSymbolTableRecord
100
AcDbLinetypeTableRecord
  2
DASHED
 70
64
  3
- - - - - - - - - - - - - - - - - - - -
 72
65
 73
2
 40
0.2
 49
0.1
 74
0
 49
-0.1
 74
0
  0
ENDTAB
  0
TABLE
  2
LAYER
  5
2
100
AcDbSymbolTable
 70
36
  0
LAYER
  5
10
100
AcDbSymbolTableRecord
100
AcDbLayerTableRecord
  2
0
 70
0
 62
7
  6
CONTINUOUS
370
-3
390
F
  0
LAYER
  5
1FA
100
AcDbSymbolTableRecord
100
AcDbLayerTableRecord
  2
DEFAULT_1
 70
0
 62
7
  6
CENTER
370
-3
390
F
  0
LAYER
  5
1FB
100
AcDbSymbolTableRecord
100
AcDbLayerTableRecord
  2
DEFAULT_2
 70
0
 62
7
  6
HIDDEN
370
-3
390
F
  0
LAYER
  5
1FC
100
AcDbSymbolTableRecord
100
AcDbLayerTableRecord
  2
DEFAULT_3
 70
0
 62
7
  6
PHANTOM
370
-3
390
F
  0
LAYER
  5
1FD
100
AcDbSymbolTableRecord
100
AcDbLayerTableRecord
  2
ASSI
 70
0
 62
7
  6
CONTINUOUS
370
-3
390
F
  0
LAYER
  5
1FE
100
AcDbSymbolTableRecord
100
AcDbLayerTableRecord
  2
COORDINATE
 70
0
 62
7
  6
CONTINUOUS
370
-3
390
F
  0
LAYER
  5
1FF
100
AcDbSymbolTableRecord
100
AcDbLayerTableRecord
  2
COORD_ORIGINE
 70
0
 62
7
  6
CONTINUOUS
370
-3
390
F
  0
LAYER
  5
200
100
AcDbSymbolTableRecord
100
AcDbLayerTableRecord
  2
COPY_PUBLISH
 70
0
 62
7
  6
CONTINUOUS
370
-3
390
F
  0
LAYER
  5
201
100
AcDbSymbolTableRecord
100
AcDbLayerTableRecord
  2
COSMETIC
 70
0
 62
7
  6
CONTINUOUS
370
-3
390
F
  0
LAYER
  5
202
100
AcDbSymbolTableRecord
100
AcDbLayerTableRecord
  2
COSMETICI
 70
0
 62
7
  6
CONTINUOUS
370
-3
390
F
  0
LAYER
  5
203
100
AcDbSymbolTableRecord
100
AcDbLayerTableRecord
  2
CURVE
 70
0
 62
7
  6
CONTINUOUS
370
-3
390
F
  0
LAYER
  5
204
100
AcDbSymbolTableRecord
100
AcDbLayerTableRecord
  2
CURVE_TASSELLI
 70
0
 62
7
  6
CONTINUOUS
370
-3
390
F
  0
LAYER
  5
205
100
AcDbSymbolTableRecord
100
AcDbLayerTableRecord
  2
DRAFT
 70
0
 62
7
  6
CONTINUOUS
370
-3
390
F
  0
LAYER
  5
206
100
AcDbSymbolTableRecord
100
AcDbLayerTableRecord
  2
IMPORT_IGES
 70
0
 62
7
  6
CONTINUOUS
370
-3
390
F
  0
LAYER
  5
207
100
AcDbSymbolTableRecord
100
AcDbLayerTableRecord
  2
INTFCLR_2
 70
0
 62
7
  6
CONTINUOUS
370
-3
390
F
  0
LAYER
  5
208
100
AcDbSymbolTableRecord
100
AcDbLayerTableRecord
  2
INTF_1
 70
0
 62
7
  6
CONTINUOUS
370
-3
390
F
  0
LAYER
  5
209
100
AcDbSymbolTableRecord
100
AcDbLayerTableRecord
  2
INTF_21
 70
0
 62
7
  6
CONTINUOUS
370
-3
390
F
  0
LAYER
  5
20A
100
AcDbSymbolTableRecord
100
AcDbLayerTableRecord
  2
INTF_7
 70
0
 62
7
  6
CONTINUOUS
370
-3
390
F
  0
LAYER
  5
20B
100
AcDbSymbolTableRecord
100
AcDbLayerTableRecord
  2
INTF_CYAN
 70
0
 62
7
  6
CONTINUOUS
370
-3
390
F
  0
LAYER
  5
20C
100
AcDbSymbolTableRecord
100
AcDbLayerTableRecord
  2
NOTE
 70
0
 62
7
  6
CONTINUOUS
370
-3
390
F
  0
LAYER
  5
20D
100
AcDbSymbolTableRecord
100
AcDbLayerTableRecord
  2
PIANI
 70
0
 62
7
  6
CONTINUOUS
370
-3
390
F
  0
LAYER
  5
20E
100
AcDbSymbolTableRecord
100
AcDbLayerTableRecord
  2
PIANI_ORIGINE
 70
0
 62
7
  6
CONTINUOUS
370
-3
390
F
  0
LAYER
  5
20F
100
AcDbSymbolTableRecord
100
AcDbLayerTableRecord
  2
PIANI_RIFERIMENTO
 70
0
 62
7
  6
CONTINUOUS
370
-3
390
F
  0
LAYER
  5
210
100
AcDbSymbolTableRecord
100
AcDbLayerTableRecord
  2
PUNTI
 70
0
 62
7
  6
CONTINUOUS
370
-3
390
F
  0
LAYER
  5
211
100
AcDbSymbolTableRecord
100
AcDbLayerTableRecord
  2
RACCORDO
 70
0
 62
7
  6
CONTINUOUS
370
-3
390
F
  0
LAYER
  5
212
100
AcDbSymbolTableRecord
100
AcDbLayerTableRecord
  2
RGB__255__255__255__
 70
0
 62
7
  6
CONTINUOUS
370
-3
390
F
  0
LAYER
  5
213
100
AcDbSymbolTableRecord
100
AcDbLayerTableRecord
  2
RGB____0____0____0__
 70
0
 62
7
  6
CONTINUOUS
370
-3
390
F
  0
LAYER
  5
214
100
AcDbSymbolTableRecord
100
AcDbLayerTableRecord
  2
SIMBOLI
 70
0
 62
7
  6
CONTINUOUS
370
-3
390
F
  0
LAYER
  5
215
100
AcDbSymbolTableRecord
100
AcDbLayerTableRecord
  2
SMUSSO
 70
0
 62
7
  6
CONTINUOUS
370
-3
390
F
  0
LAYER
  5
216
100
AcDbSymbolTableRecord
100
AcDbLayerTableRecord
  2
SUPERFICI
 70
0
 62
7
  6
CONTINUOUS
370
-3
390
F
  0
LAYER
  5
217
100
AcDbSymbolTableRecord
100
AcDbLayerTableRecord
  2
TRASH
 70
0
 62
7
  6
CONTINUOUS
370
-3
390
F
  0
LAYER
  5
218
100
AcDbSymbolTableRecord
100
AcDbLayerTableRecord
  2
XSEC_DATUMS
 70
0
 62
7
  6
CONTINUOUS
370
-3
390
F
  0
ENDTAB
  0
TABLE
  2
STYLE
  5
3
100
AcDbSymbolTable
 70
1
  0
STYLE
  5
11
100
AcDbSymbolTableRecord
100
AcDbTextStyleTableRecord
  2
STANDARD
 70
0
 40
0.0
 41
0.8
 50
0.0
 71
0
 42
0.2
  3
txt
  4

  0
STYLE
  5
219
100
AcDbSymbolTableRecord
100
AcDbTextStyleTableRecord
  2
TEXTSTYLE_1
 70
0
 40
0.0
 41
0.8
 50
0.0
 71
0
 42
0.2
  3
gdt
  4

  0
ENDTAB
  0
TABLE
  2
VIEW
  5
6
100
AcDbSymbolTable
 70
0
  0
ENDTAB
  0
TABLE
  2
UCS
  5
7
100
AcDbSymbolTable
 70
0
  0
ENDTAB
  0
TABLE
  2
APPID
  5
9
100
AcDbSymbolTable
 70
1
  0
APPID
  5
21A
100
AcDbSymbolTableRecord
100
AcDbRegAppTableRecord
  2
ACAD
 70
0
  0
ENDTAB
  0
TABLE
  2
BLOCK_RECORD
  5
1
100
AcDbSymbolTable
 70
0
  0
BLOCK_RECORD
  5
21B
100
AcDbSymbolTableRecord
100
AcDbBlockTableRecord
  2
*Model_Space
  0
BLOCK_RECORD
  5
21C
100
AcDbSymbolTableRecord
100
AcDbBlockTableRecord
  2
*Paper_Space
  0
BLOCK_RECORD
  5
21D
100
AcDbSymbolTableRecord
100
AcDbBlockTableRecord
  2
_FILLED
  0
ENDTAB
  0
TABLE
  2
DIMSTYLE
  5
A
100
AcDbSymbolTable
 70
1
100
AcDbDimStyleTable
 71
0
  0
DIMSTYLE
105
21E
100
AcDbSymbolTableRecord
100
AcDbDimStyleTableRecord
  2
STANDARD
 70
0
  3

  4

 40
1.0
 41
3.0
 42
0.5
 43
0.38
 44
1.5
 45
0.0
 46
0.0
 47
0.01
 48
0.01
140
3.0
141
0.09
142
0.0
143
25.4
144
1.0
145
0.0
146
1.0
147
0.625
 71
1.0
 72
0.0
 73
0
 74
0
 75
0
 76
0
 77
1
 78
8
 79
2
170
0
171
1
172
0
173
0
174
0
175
0
176
0
177
0
178
0
270
2
179
2
271
2
272
2
273
2
274
2
275
0
280
0
281
0
282
0
283
1
284
8
285
0
286
0
287
3
288
0
340
11
278
44
341
21D
342
21D
343
21D
344
21D
  0
ENDTAB
  0
ENDSEC
  0
SECTION
  2
BLOCKS
  0
BLOCK
  5
20
100
AcDbEntity
  8
0
100
AcDbBlockBegin
  2
*Model_Space
 70
0
 10
0.0
 20
0.0
 30
0.0
  3
*Model_Space
  1

  0
ENDBLK
  5
21
100
AcDbEntity
  8
0
100
AcDbBlockEnd
  0
BLOCK
  5
1C
100
AcDbEntity
  8
0
100
AcDbBlockBegin
  2
*Paper_Space
 70
0
 10
0.0
 20
0.0
 30
0.0
  3
*Paper_Space
  1

  0
ENDBLK
  5
1D
100
AcDbEntity
  8
0
100
AcDbBlockEnd
  0
BLOCK
  5
21F
100
AcDbEntity
  8
0
100
AcDbBlockBegin
  2
_FILLED
 70
64
 10
0.0
 20
0.0
  3
_FILLED
  1

  0
SOLID
  5
220
100
AcDbEntity
  8
0
  6
BYBLOCK
 62
0
100
AcDbTrace
 10
0.0
 20
0.0
 11
-1.0
 21
0.3166666667
 12
-1.0
 22
-0.3166666667
 13
-1.0
 23
-0.3166666667
  0
ENDBLK
  5
221
100
AcDbEntity
  8
0
  6
BYBLOCK
 62
0
100
AcDbBlockEnd
  0
ENDSEC
  0
SECTION
  2
ENTITIES
  0
LINE
  5
222
100
AcDbEntity
  8
0
100
AcDbLine
 62
7
  6
CONTINUOUS
 10
114.9511522622
 20
156.4884597019
 11
118.7389660494
 21
158.9920265933
  0
LINE
  5
223
100
AcDbEntity
  8
0
100
AcDbLine
 62
7
  6
CONTINUOUS
 10
115.6586895315
 20
156.8969038958
 11
119.4465033187
 21
159.4004707871
  0
LINE
  5
224
100
AcDbEntity
  8
0
100
AcDbLine
 62
7
  6
CONTINUOUS
 10
115.6379259174
 20
156.8840645448
 11
115.6586895315
 21
156.8969038958
  0
LINE
  5
225
100
AcDbEntity
  8
0
100
AcDbLine
 62
7
  6
CONTINUOUS
 10
118.7389660494
 20
158.9920265933
 11
119.4465033187
 21
159.4004707871
  0
LINE
  5
226
100
AcDbEntity
  8
0
100
AcDbLine
 62
7
  6
CONTINUOUS
 10
115.6379259174
 20
156.8840645448
 11
114.9515275697
 21
156.4878233404
  0
LINE
  5
227
100
AcDbEntity
  8
0
100
AcDbLine
 62
7
  6
CONTINUOUS
 10
115.2552366175
 20
155.4688361064
 11
114.9762606834
 21
155.3077900309
  0
LINE
  5
228
100
AcDbEntity
  8
0
100
AcDbLine
 62
7
  6
CONTINUOUS
 10
115.2552366175
 20
155.4688361064
 11
115.6379259174
 21
156.8840645448
  0
LINE
  5
229
100
AcDbEntity
  8
0
100
AcDbLine
 62
7
  6
CONTINUOUS
 10
176.8781828886
 20
48.7347623635
 11
178.2951420196
 21
48.3585829076
  0
LINE
  5
22A
100
AcDbEntity
  8
0
100
AcDbLine
 62
7
  6
CONTINUOUS
 10
114.9762606834
 20
84.4761564315
 11
115.2552366175
 21
83.99295594
  0
LINE
  5
22B
100
AcDbEntity
  8
0
100
AcDbLine
 62
7
  6
CONTINUOUS
 10
114.9762606834
 20
84.4761564315
 11
114.9515275697
 21
84.932392009
  0
LINE
  5
22C
100
AcDbEntity
  8
0
100
AcDbLine
 62
7
  6
CONTINUOUS
 10
115.2552366175
 20
83.99295594
 11
115.6379259174
 21
83.7435151979
  0
LINE
  5
22D
100
AcDbEntity
  8
0
100
AcDbLine
 62
7
  6
CONTINUOUS
 10
114.9762606834
 20
155.3077900309
 11
114.9515275697
 21
156.4878233404
  0
LINE
  5
22E
100
AcDbEntity
  8
0
100
AcDbLine
 62
7
  6
CONTINUOUS
 10
114.9515275697
 20
84.932392009
 11
114.9511522622
 21
84.9565848697
  0
LINE
  5
22F
100
AcDbEntity
  8
0
100
AcDbLine
 62
7
  6
CONTINUOUS
 10
114.9511522622
 20
156.4884597019
 11
114.9511522622
 21
84.9565848697
  0
LINE
  5
230
100
AcDbEntity
  8
0
100
AcDbLine
 62
7
  6
CONTINUOUS
 10
114.9762606834
 20
155.3077900309
 11
114.9762606834
 21
84.4761564315
  0
LINE
  5
231
100
AcDbEntity
  8
0
100
AcDbLine
 62
7
  6
CONTINUOUS
 10
115.6586895315
 20
83.7310943723
 11
177.6091061022
 21
47.9617002655
  0
LINE
  5
232
100
AcDbEntity
  8
0
100
AcDbLine
 62
7
  6
CONTINUOUS
 10
115.2552366175
 20
83.99295594
 11
176.5992069545
 21
48.5737162879
  0
LINE
  5
233
100
AcDbEntity
  8
0
100
AcDbLine
 62
7
  6
CONTINUOUS
 10
115.6586895315
 20
83.7310943723
 11
115.6379259174
 21
83.7435151979
  0
LINE
  5
234
100
AcDbEntity
  8
0
100
AcDbLine
 62
7
  6
CONTINUOUS
 10
176.5992069545
 20
48.5737162879
 11
177.6087436719
 21
47.9623417032
  0
LINE
  5
235
100
AcDbEntity
  8
0
100
AcDbLine
 62
7
  6
CONTINUOUS
 10
134.6488686261
 20
106.9003154072
 11
134.6488686261
 21
110.1661965143
  0
LWPOLYLINE
  5
236
100
AcDbEntity
  8
0
100
AcDbPolyline
 62
7
  6
CONTINUOUS
 90
33
 70
0
 10
134.6488686261
 20
110.1661965143
 10
134.6530836657
 20
110.3558098736
 10
134.6654549949
 20
110.5392977985
 10
134.6859826139
 20
110.7166602891
 10
134.7147577545
 20
110.8883078686
 10
134.7516891847
 20
111.0538300138
 10
134.7965032086
 20
111.2119951547
 10
134.8492587148
 20
111.3627482007
 10
134.9098968146
 20
111.5061442424
 10
134.9779671463
 20
111.6411169817
 10
135.0535251423
 20
111.76760346
 10
135.1365153703
 20
111.885666636
 10
135.2263211713
 20
111.994429087
 10
135.3229931946
 20
112.0938213604
 10
135.4264807909
 20
112.183912909
 10
135.5360153536
 20
112.2640346682
 10
135.6516418408
 20
112.3341124347
 10
135.7733152943
 20
112.3942204119
 10
135.9001322329
 20
112.4439121454
 10
136.0321310359
 20
112.4831101422
 10
136.1692733239
 20
112.5118918952
 10
136.3105404776
 20
112.5300434291
 10
136.4559632736
 20
112.5374855651
 10
136.6055109353
 20
112.5342974819
 10
136.7580725127
 20
112.5205027404
 10
136.9136704371
 20
112.4960223269
 10
137.0722822773
 20
112.4609352552
 10
137.2327297897
 20
112.4155021272
 10
137.3950266244
 20
112.3596458943
 10
137.5591591314
 20
112.293443605
 10
137.7239081171
 20
112.2173870074
 10
137.8892781697
 20
112.1314027191
 10
137.9719493182
 20
112.0848566845
  0
LWPOLYLINE
  5
237
100
AcDbEntity
  8
0
100
AcDbPolyline
 62
7
  6
CONTINUOUS
 90
16
 70
0
 10
136.3459249009
 20
110.1661965143
 10
136.3493158332
 20
110.3137787251
 10
136.3594796781
 20
110.4570442947
 10
136.3763890912
 20
110.5956002744
 10
136.3999983438
 20
110.7290670905
 10
136.430243178
 20
110.8570779934
 10
136.467040719
 20
110.9792802866
 10
136.510290305
 20
111.0953386365
 10
136.5598736869
 20
111.2049348407
 10
136.6156547358
 20
111.3077674375
 10
136.6774805848
 20
111.4035543521
 10
136.7451819084
 20
111.49203301
 10
136.8185728387
 20
111.5729603738
 10
136.8974521081
 20
111.6461145191
 10
136.9816035863
 20
111.7112950125
 10
137.0707140746
 20
111.7682755283
  0
LWPOLYLINE
  5
238
100
AcDbEntity
  8
0
100
AcDbPolyline
 62
7
  6
CONTINUOUS
 90
12
 70
0
 10
137.0987423236
 20
111.6961787408
 10
137.0310416361
 20
111.6077025467
 10
136.9692158677
 20
111.5119178078
 10
136.9134344319
 20
111.4090869647
 10
136.8638502961
 20
111.2994919772
 10
136.8205997156
 20
111.1834342691
 10
136.7838010763
 20
111.0612321132
 10
136.7535550771
 20
110.933220617
 10
136.7299446262
 20
110.7997519678
 10
136.7130341317
 20
110.6611926567
 10
136.7028695169
 20
110.5179223105
 10
136.6994782915
 20
110.370333811
  0
LINE
  5
239
100
AcDbEntity
  8
0
100
AcDbLine
 62
7
  6
CONTINUOUS
 10
137.1721319442
 20
111.7771034533
 11
137.0987423236
 21
111.6961787408
  0
LWPOLYLINE
  5
23A
100
AcDbEntity
  8
0
100
AcDbPolyline
 62
7
  6
CONTINUOUS
 90
3
 70
0
 10
137.2565704774
 20
111.8545624733
 10
137.2510089941
 20
111.8502547816
 10
137.1721319442
 20
111.7771034533
  0
LWPOLYLINE
  5
23B
100
AcDbEntity
  8
0
100
AcDbPolyline
 62
7
  6
CONTINUOUS
 90
13
 70
0
 10
137.0707140746
 20
111.7682755283
 10
137.164786269
 20
111.8170424896
 10
137.2633153123
 20
111.8573196589
 10
137.3661133738
 20
111.8890441964
 10
137.472898713
 20
111.9121292153
 10
137.5833785261
 20
111.9265114757
 10
137.6972495745
 20
111.9321516128
 10
137.8141996908
 20
111.9290343143
 10
137.933908246
 20
111.9171682721
 10
138.056046623
 20
111.8965862506
 10
138.1802799539
 20
111.8673449148
 10
138.3062677014
 20
111.8295246496
 10
138.4256308564
 20
111.7861487489
  0
LWPOLYLINE
  5
23C
100
AcDbEntity
  8
0
100
AcDbPolyline
 62
7
  6
CONTINUOUS
 90
29
 70
0
 10
136.7031441608
 20
107.1068392987
 10
136.7138798122
 20
106.9431239605
 10
136.7316852459
 20
106.7766165264
 10
136.7566476847
 20
106.6068456913
 10
136.7886799058
 20
106.4342827604
 10
136.8275202402
 20
106.2603416493
 10
136.8732247983
 20
106.0850110528
 10
136.9257374697
 20
105.9083022762
 10
136.9846282545
 20
105.7316631514
 10
137.0499496403
 20
105.5550943664
 10
137.1216491394
 20
105.3785952332
 10
137.1991392886
 20
105.2036115198
 10
137.2824673785
 20
105.0301562448
 10
137.3715861186
 20
104.8582163895
 10
137.4657661745
 20
104.6891986668
 10
137.5650489971
 20
104.5231270426
 10
137.6693931356
 20
104.3599775509
 10
137.7779449037
 20
104.2010850067
 10
137.8907389983
 20
104.0464840625
 10
138.0077407224
 20
103.8961400658
 10
138.1279922989
 20
103.7512838736
 10
138.2515204522
 20
103.6119605219
 10
138.3782984579
 20
103.4781249746
 10
138.5072883655
 20
103.3508729814
 10
138.6385082585
 20
103.2302586759
 10
138.7719400535
 20
103.1162279243
 10
138.9064915495
 20
103.0097140756
 10
139.0421719127
 20
102.9107788352
 10
139.176707189
 20
102.8208739703
  0
LWPOLYLINE
  5
23D
100
AcDbEntity
  8
0
100
AcDbPolyline
 62
7
  6
CONTINUOUS
 90
31
 70
0
 10
136.6994782915
 20
107.1044527038
 10
136.7028694922
 20
106.9529486607
 10
136.7130340376
 20
106.7979410018
 10
136.7299444253
 20
106.6398543686
 10
136.7535547377
 20
106.479121421
 10
136.7838005751
 20
106.3161830125
 10
136.820599043
 20
106.1514870396
 10
136.8638494558
 20
105.9854848797
 10
136.9134334358
 20
105.8186315207
 10
136.9692147362
 20
105.6513857328
 10
137.0310404083
 20
105.4842060931
 10
137.0987410396
 20
105.3175507021
 10
137.1721306165
 20
105.1518773475
 10
137.2510076296
 20
104.9876406359
 10
137.3351560118
 20
104.8252901884
 10
137.4243453519
 20
104.6652704111
 10
137.5183311382
 20
104.5080199258
 10
137.6168557534
 20
104.3539696925
 10
137.719649556
 20
104.2035413173
 10
137.8264310092
 20
104.0571468904
 10
137.9369072825
 20
103.9151879597
 10
138.0507754693
 20
103.7780537966
 10
138.1677235013
 20
103.6461202659
 10
138.2874308092
 20
103.5197490463
 10
138.4095690684
 20
103.3992867457
 10
138.5338034187
 20
103.2850636053
 10
138.6597934094
 20
103.1773926179
 10
138.7871937154
 20
103.0765688834
 10
138.9156551161
 20
102.9828687577
 10
139.0448255218
 20
102.8965490409
 10
139.1745912046
 20
102.8177075728
  0
LINE
  5
23E
100
AcDbEntity
  8
0
100
AcDbLine
 62
7
  6
CONTINUOUS
 10
136.3459249009
 20
106.9003154072
 11
136.3459249009
 21
110.1661965143
  0
LINE
  5
23F
100
AcDbEntity
  8
0
100
AcDbLine
 62
7
  6
CONTINUOUS
 10
136.6994782915
 20
110.370333811
 11
136.6994782915
 21
107.1044527038
  0
LINE
  5
240
100
AcDbEntity
  8
0
100
AcDbLine
 62
250
  6
CONTINUOUS
 10
136.6994782915
 20
110.370333811
 11
136.3459249009
 21
110.1661965143
  0
LINE
  5
241
100
AcDbEntity
  8
0
100
AcDbLine
 62
250
  6
CONTINUOUS
 10
136.6994782915
 20
107.1044527038
 11
136.3459249009
 21
106.9003154072
  0
LINE
  5
242
100
AcDbEntity
  8
0
100
AcDbLine
 62
7
  6
CONTINUOUS
 10
156.4321738602
 20
93.3144228342
 11
156.5389554058
 21
93.3375085832
  0
LINE
  5
243
100
AcDbEntity
  8
0
100
AcDbLine
 62
7
  6
CONTINUOUS
 10
141.2956723692
 20
106.328415337
 11
141.2956723692
 21
103.0625342299
  0
LWPOLYLINE
  5
244
100
AcDbEntity
  8
0
100
AcDbPolyline
 62
7
  6
CONTINUOUS
 90
64
 70
0
 10
141.2956723692
 20
103.0625342299
 10
141.2914573296
 20
102.8729208706
 10
141.2790860004
 20
102.6894329457
 10
141.2585583814
 20
102.5120704551
 10
141.2297832409
 20
102.3404228756
 10
141.1928518106
 20
102.1749007304
 10
141.1480377867
 20
102.0167355895
 10
141.0952822806
 20
101.8659825435
 10
141.0346441808
 20
101.7225865018
 10
140.966573849
 20
101.5876137625
 10
140.891015853
 20
101.4611272842
 10
140.808025625
 20
101.3430641082
 10
140.718219824
 20
101.2343016572
 10
140.6215478007
 20
101.1349093838
 10
140.5180602044
 20
101.0448178352
 10
140.4085256417
 20
100.964696076
 10
140.2928991545
 20
100.8946183095
 10
140.171225701
 20
100.8345103323
 10
140.0444087624
 20
100.7848185988
 10
139.9124099594
 20
100.745620602
 10
139.7752676714
 20
100.716838849
 10
139.6340005177
 20
100.6986873151
 10
139.4885777217
 20
100.6912451791
 10
139.33903006
 20
100.6944332623
 10
139.1864684826
 20
100.7082280038
 10
139.0308705582
 20
100.7327084173
 10
138.8722587181
 20
100.767795489
 10
138.7118112056
 20
100.813228617
 10
138.5495143709
 20
100.8690848499
 10
138.3853818639
 20
100.9352871392
 10
138.2206328782
 20
101.0113437368
 10
138.0552628256
 20
101.0973280251
 10
137.8892762943
 20
101.1931666219
 10
137.7239062431
 20
101.2981476326
 10
137.5591572602
 20
101.4123391412
 10
137.3950247573
 20
101.5356730638
 10
137.2327279288
 20
101.6672332542
 10
137.0722804225
 20
101.8070810013
 10
136.9136685907
 20
101.9551550161
 10
136.7580706842
 20
102.1103552863
 10
136.6055091355
 20
102.2727349232
 10
136.4559615121
 20
102.4422408154
 10
136.3105387686
 20
102.6176136156
 10
136.169271693
 20
102.7988969441
 10
136.0321294973
 20
102.9860471807
 10
135.9001307711
 20
103.177674117
 10
135.7733138822
 20
103.3738109378
 10
135.6516404628
 20
103.5744244585
 10
135.5360139993
 20
103.7780249168
 10
135.4264794402
 20
103.9846346251
 10
135.3229918369
 20
104.194231271
 10
135.2263198302
 20
104.4052581553
 10
135.1365140795
 20
104.617726238
 10
135.0535239253
 20
104.831624559
 10
134.9779660301
 20
105.0453635388
 10
134.9098958367
 20
105.2589421035
 10
134.8492579022
 20
105.472361327
 10
134.7965025606
 20
105.6840348514
 10
134.751688701
 20
105.8939497498
 10
134.7147574342
 20
106.1021189491
 10
134.6859824266
 20
106.3069948723
 10
134.6654549005
 20
106.5080616601
 10
134.6530836337
 20
106.7058351717
 10
134.6488686261
 20
106.9003154072
  0
LWPOLYLINE
  5
245
100
AcDbEntity
  8
0
100
AcDbPolyline
 62
7
  6
CONTINUOUS
 90
16
 70
0
 10
141.2956723692
 20
104.0423932539
 10
141.2922814369
 20
103.8948110431
 10
141.2821175921
 20
103.7515454735
 10
141.265208179
 20
103.6129894938
 10
141.2415989264
 20
103.4795226777
 10
141.2113540921
 20
103.3515117748
 10
141.1745565511
 20
103.2293094816
 10
141.1313069652
 20
103.1132511316
 10
141.0817235833
 20
103.0036549275
 10
141.0259425344
 20
102.9008223307
 10
140.9641166853
 20
102.8050354161
 10
140.8964153617
 20
102.7165567582
 10
140.8230244314
 20
102.6356293943
 10
140.7441451621
 20
102.5624752491
 10
140.6599936839
 20
102.4972947557
 10
140.5708831956
 20
102.4403142399
  0
LINE
  5
246
100
AcDbEntity
  8
0
100
AcDbLine
 62
250
  6
CONTINUOUS
 10
150.5587712028
 20
97.7141370573
 11
152.2558274776
 21
97.7141370573
  0
LWPOLYLINE
  5
247
100
AcDbEntity
  8
0
100
AcDbPolyline
 62
7
  6
CONTINUOUS
 90
12
 70
0
 10
155.0844937813
 20
93.6315292229
 10
155.21377896
 20
93.5607978404
 10
155.3429493693
 20
93.4979546782
 10
155.4714107774
 20
93.4433106637
 10
155.5988110926
 20
93.3970155816
 10
155.7248010965
 20
93.3591963463
 10
155.8490354716
 20
93.3299566289
 10
155.9711737677
 20
93.3093765823
 10
156.0908811235
 20
93.2975126549
 10
156.2078292185
 20
93.2943973817
 10
156.3216974898
 20
93.3000392724
 10
156.4321738602
 20
93.3144228342
  0
LWPOLYLINE
  5
248
100
AcDbEntity
  8
0
100
AcDbPolyline
 62
7
  6
CONTINUOUS
 90
12
 70
0
 10
139.1745912046
 20
102.8177075728
 10
139.3038763833
 20
102.7469761903
 10
139.4330467926
 20
102.6841330281
 10
139.5615082007
 20
102.6294890136
 10
139.6889085159
 20
102.5831939315
 10
139.8148985198
 20
102.5453746962
 10
139.9391328949
 20
102.5161349788
 10
140.061271191
 20
102.4955549321
 10
140.1809785468
 20
102.4836910048
 10
140.2979266418
 20
102.4805757316
 10
140.4117949131
 20
102.4862176222
 10
140.5222712835
 20
102.5006011841
  0
LINE
  5
249
100
AcDbEntity
  8
0
100
AcDbLine
 62
7
  6
CONTINUOUS
 10
177.6091061022
 20
121.127509789
 11
181.6710390869
 21
123.4728036912
  0
LWPOLYLINE
  5
24A
100
AcDbEntity
  8
0
100
AcDbPolyline
 62
7
  6
CONTINUOUS
 90
46
 70
0
 10
140.5708831956
 20
102.4403142399
 10
140.4768110011
 20
102.3915472786
 10
140.3782819578
 20
102.3512701093
 10
140.2754838963
 20
102.3195455717
 10
140.1686985572
 20
102.2964605529
 10
140.058218744
 20
102.2820782925
 10
139.9443476956
 20
102.2764381554
 10
139.8273975794
 20
102.2795554539
 10
139.7076890241
 20
102.2914214961
 10
139.5855506471
 20
102.3120035176
 10
139.4613173163
 20
102.3412448534
 10
139.3353295687
 20
102.3790651186
 10
139.2079331428
 20
102.4253602649
 10
139.0794778944
 20
102.4800028033
 10
138.9503152782
 20
102.5428428811
 10
138.8207977409
 20
102.6137088781
 10
138.6912802669
 20
102.6924065545
 10
138.5621177877
 20
102.7787202376
 10
138.4336626707
 20
102.872414598
 10
138.3062663426
 20
102.9732336617
 10
138.1802786862
 20
103.0809008954
 10
138.056045443
 20
103.195121096
 10
137.9339071506
 20
103.3155814047
 10
137.8141986758
 20
103.4419517913
 10
137.6972486365
 20
103.5738855412
 10
137.5833776637
 20
103.7110210902
 10
137.4728979222
 20
103.8529826462
 10
137.366112645
 20
103.9993806807
 10
137.2633146372
 20
104.1498138317
 10
137.1647856392
 20
104.3038698679
 10
137.0707958781
 20
104.4611263304
 10
136.9816030018
 20
104.6211521839
 10
136.8974515287
 20
104.7835087688
 10
136.818572266
 20
104.9477507972
 10
136.7451813428
 20
105.1134282592
 10
136.6774800303
 20
105.2800868056
 10
136.6156542091
 20
105.4472687296
 10
136.5598732025
 20
105.6145159214
 10
136.5102898742
 20
105.7813697808
 10
136.4670403571
 20
105.9473716192
 10
136.4302428951
 20
106.1120666778
 10
136.3999981415
 20
106.2750033906
 10
136.3763889653
 20
106.4357333541
 10
136.3594796169
 20
106.5938156171
 10
136.3493158166
 20
106.7488178077
 10
136.3459249009
 20
106.9003154072
  0
LWPOLYLINE
  5
24B
100
AcDbEntity
  8
0
100
AcDbPolyline
 62
7
  6
CONTINUOUS
 90
3
 70
0
 10
140.6290528291
 20
102.5236869331
 10
140.7318467211
 20
102.5554114733
 10
140.7385781174
 20
102.5581632308
  0
LINE
  5
24C
100
AcDbEntity
  8
0
100
AcDbLine
 62
7
  6
CONTINUOUS
 10
140.5222712835
 20
102.5006011841
 11
140.6290528291
 21
102.5236869331
  0
LINE
  5
24D
100
AcDbEntity
  8
0
100
AcDbLine
 62
250
  6
CONTINUOUS
 10
150.5587712028
 20
100.9800181645
 11
152.2558274776
 21
100.9800181645
  0
LINE
  5
24E
100
AcDbEntity
  8
0
100
AcDbLine
 62
7
  6
CONTINUOUS
 10
114.9511522622
 20
156.4884597019
 11
114.9515275697
 21
156.4878233404
  0
LINE
  5
24F
100
AcDbEntity
  8
0
100
AcDbLine
 62
7
  6
CONTINUOUS
 10
177.6087436719
 20
47.9623417032
 11
177.6091061022
 21
47.9617002655
  0
LWPOLYLINE
  5
250
100
AcDbEntity
  8
0
100
AcDbPolyline
 62
7
  6
CONTINUOUS
 90
29
 70
0
 10
152.6130467375
 20
97.9206609489
 10
152.6237823889
 20
97.7569456106
 10
152.6415878226
 20
97.5904381766
 10
152.6665502614
 20
97.4206673414
 10
152.6985824825
 20
97.2481044105
 10
152.7374228169
 20
97.0741632995
 10
152.783127375
 20
96.8988327029
 10
152.8356400464
 20
96.7221239263
 10
152.8945308312
 20
96.5454848015
 10
152.959852217
 20
96.3689160165
 10
153.031551716
 20
96.1924168833
 10
153.1090418653
 20
96.01743317
 10
153.1923699552
 20
95.8439778949
 10
153.2814886953
 20
95.6720380397
 10
153.3756687512
 20
95.503020317
 10
153.4749515738
 20
95.3369486927
 10
153.5792957123
 20
95.173799201
 10
153.6878474804
 20
95.0149066568
 10
153.800641575
 20
94.8603057126
 10
153.9176432991
 20
94.7099617159
 10
154.0378948756
 20
94.5651055238
 10
154.1614230289
 20
94.425782172
 10
154.2882010346
 20
94.2919466248
 10
154.4171909422
 20
94.1646946315
 10
154.5484108352
 20
94.044080326
 10
154.6818426302
 20
93.9300495745
 10
154.8163941262
 20
93.8235357257
 10
154.9520744894
 20
93.7246004854
 10
155.0866097657
 20
93.6346956205
  0
LWPOLYLINE
  5
251
100
AcDbEntity
  8
0
100
AcDbPolyline
 62
7
  6
CONTINUOUS
 90
31
 70
0
 10
152.6093808682
 20
97.9182743539
 10
152.6127720689
 20
97.7667703108
 10
152.6229366143
 20
97.6117626519
 10
152.639847002
 20
97.4536760187
 10
152.6634573144
 20
97.2929430712
 10
152.6937031518
 20
97.1300046627
 10
152.7305016197
 20
96.9653086898
 10
152.7737520325
 20
96.7993065298
 10
152.8233360125
 20
96.6324531709
 10
152.8791173129
 20
96.4652073829
 10
152.940942985
 20
96.2980277432
 10
153.0086436163
 20
96.1313723522
 10
153.0820331932
 20
95.9656989977
 10
153.1609102063
 20
95.801462286
 10
153.2450585885
 20
95.6391118385
 10
153.3342479286
 20
95.4790920612
 10
153.4282337149
 20
95.3218415759
 10
153.5267583301
 20
95.1677913426
 10
153.6295521327
 20
95.0173629675
 10
153.7363335859
 20
94.8709685406
 10
153.8468098592
 20
94.7290096098
 10
153.960678046
 20
94.5918754467
 10
154.077626078
 20
94.459941916
 10
154.1973333859
 20
94.3335706964
 10
154.3194716451
 20
94.2131083958
 10
154.4437059954
 20
94.0988852555
 10
154.5696959861
 20
93.991214268
 10
154.6970962921
 20
93.8903905335
 10
154.8255576928
 20
93.7966904078
 10
154.9547280985
 20
93.710370691
 10
155.0844937813
 20
93.6315292229
  0
LINE
  5
252
100
AcDbEntity
  8
0
100
AcDbLine
 62
7
  6
CONTINUOUS
 10
150.5587712028
 20
97.7141370573
 11
150.5587712028
 21
100.9800181645
  0
LINE
  5
253
100
AcDbEntity
  8
0
100
AcDbLine
 62
7
  6
CONTINUOUS
 10
152.2558274776
 20
97.7141370573
 11
152.2558274776
 21
100.9800181645
  0
LINE
  5
254
100
AcDbEntity
  8
0
100
AcDbLine
 62
7
  6
CONTINUOUS
 10
152.6093808682
 20
101.1841554611
 11
152.6093808682
 21
97.9182743539
  0
LWPOLYLINE
  5
255
100
AcDbEntity
  8
0
100
AcDbPolyline
 62
7
  6
CONTINUOUS
 90
33
 70
0
 10
150.5587712028
 20
100.9800181645
 10
150.5629862424
 20
101.1696315237
 10
150.5753575716
 20
101.3531194487
 10
150.5958851906
 20
101.5304819392
 10
150.6246603312
 20
101.7021295188
 10
150.6615917614
 20
101.8676516639
 10
150.7064057853
 20
102.0258168048
 10
150.7591612914
 20
102.1765698508
 10
150.8197993913
 20
102.3199658925
 10
150.887869723
 20
102.4549386318
 10
150.963427719
 20
102.5814251101
 10
151.046417947
 20
102.6994882861
 10
151.136223748
 20
102.8082507371
 10
151.2328957713
 20
102.9076430106
 10
151.3363833676
 20
102.9977345591
 10
151.4459179303
 20
103.0778563183
 10
151.5615444175
 20
103.1479340849
 10
151.683217871
 20
103.2080420621
 10
151.8100348096
 20
103.2577337955
 10
151.9420336126
 20
103.2969317923
 10
152.0791759006
 20
103.3257135454
 10
152.2204430543
 20
103.3438650793
 10
152.3658658503
 20
103.3513072152
 10
152.515413512
 20
103.348119132
 10
152.6679750894
 20
103.3343243905
 10
152.8235730138
 20
103.3098439771
 10
152.982184854
 20
103.2747569053
 10
153.1426323664
 20
103.2293237773
 10
153.3049292011
 20
103.1734675444
 10
153.4690617081
 20
103.1072652552
 10
153.6338106938
 20
103.0312086575
 10
153.7991807464
 20
102.9452243692
 10
153.8818518949
 20
102.8986783347
  0
LWPOLYLINE
  5
256
100
AcDbEntity
  8
0
100
AcDbPolyline
 62
7
  6
CONTINUOUS
 90
16
 70
0
 10
152.2558274776
 20
100.9800181645
 10
152.2592184099
 20
101.1276003752
 10
152.2693822548
 20
101.2708659448
 10
152.2862916679
 20
101.4094219245
 10
152.3099009205
 20
101.5428887406
 10
152.3401457547
 20
101.6708996436
 10
152.3769432957
 20
101.7931019367
 10
152.4201928817
 20
101.9091602867
 10
152.4697762636
 20
102.0187564908
 10
152.5255573125
 20
102.1215890876
 10
152.5873831615
 20
102.2173760022
 10
152.6550844851
 20
102.3058546601
 10
152.7284754154
 20
102.386782024
 10
152.8073546848
 20
102.4599361692
 10
152.891506163
 20
102.5251166627
 10
152.9806166513
 20
102.5820971785
  0
LWPOLYLINE
  5
257
100
AcDbEntity
  8
0
100
AcDbPolyline
 62
7
  6
CONTINUOUS
 90
12
 70
0
 10
153.0086449003
 20
102.510000391
 10
152.9409442128
 20
102.4215241968
 10
152.8791184444
 20
102.3257394579
 10
152.8233370086
 20
102.2229086148
 10
152.7737528728
 20
102.1133136273
 10
152.7305022923
 20
101.9972559193
 10
152.693703653
 20
101.8750537633
 10
152.6634576538
 20
101.7470422671
 10
152.6398472029
 20
101.613573618
 10
152.6229367084
 20
101.4750143068
 10
152.6127720936
 20
101.3317439606
 10
152.6093808682
 20
101.1841554611
  0
LINE
  5
258
100
AcDbEntity
  8
0
100
AcDbLine
 62
7
  6
CONTINUOUS
 10
153.0820345209
 20
102.5909251034
 11
153.0086449003
 21
102.510000391
  0
LWPOLYLINE
  5
259
100
AcDbEntity
  8
0
100
AcDbPolyline
 62
7
  6
CONTINUOUS
 90
3
 70
0
 10
153.1664730541
 20
102.6683841235
 10
153.1609115708
 20
102.6640764317
 10
153.0820345209
 20
102.5909251034
  0
LINE
  5
25A
100
AcDbEntity
  8
0
100
AcDbLine
 62
7
  6
CONTINUOUS
 10
178.3166433714
 20
119.9020192916
 11
182.3785763562
 21
122.2473131938
  0
LINE
  5
25B
100
AcDbEntity
  8
0
100
AcDbLine
 62
250
  6
CONTINUOUS
 10
152.6093808682
 20
101.1841554611
 11
152.2558274776
 21
100.9800181645
  0
LWPOLYLINE
  5
25C
100
AcDbEntity
  8
0
100
AcDbPolyline
 62
7
  6
CONTINUOUS
 90
13
 70
0
 10
152.9806166513
 20
102.5820971785
 10
153.0746888457
 20
102.6308641397
 10
153.173217889
 20
102.6711413091
 10
153.2760159505
 20
102.7028658466
 10
153.3828012897
 20
102.7259508654
 10
153.4932811028
 20
102.7403331258
 10
153.6071521512
 20
102.7459732629
 10
153.7241022675
 20
102.7428559645
 10
153.8438108227
 20
102.7309899222
 10
153.9659491997
 20
102.7104079007
 10
154.0901825306
 20
102.6811665649
 10
154.2161702781
 20
102.6433462997
 10
154.3355334331
 20
102.599970399
  0
LINE
  5
25D
100
AcDbEntity
  8
0
100
AcDbLine
 62
250
  6
CONTINUOUS
 10
134.6488686261
 20
106.9003154072
 11
136.3459249009
 21
106.9003154072
  0
LWPOLYLINE
  5
25E
100
AcDbEntity
  8
0
100
AcDbPolyline
 62
7
  6
CONTINUOUS
 90
33
 70
0
 10
137.9719493182
 20
112.0848566845
 10
138.055264701
 20
112.0355641223
 10
138.2206347522
 20
111.9305831116
 10
138.3853837352
 20
111.816391603
 10
138.5495162381
 20
111.6930576804
 10
138.7118130665
 20
111.56149749
 10
138.8722605728
 20
111.4216497429
 10
139.0308724047
 20
111.2735757281
 10
139.1864703111
 20
111.1183754579
 10
139.3390318599
 20
110.955995821
 10
139.4885794832
 20
110.7864899288
 10
139.6340022267
 20
110.6111171286
 10
139.7752693023
 20
110.4298338001
 10
139.912411498
 20
110.2426835635
 10
140.0444102242
 20
110.0510566272
 10
140.1712271131
 20
109.8549198064
 10
140.2929005325
 20
109.6543062857
 10
140.408526996
 20
109.4507058274
 10
140.5180615551
 20
109.2440961191
 10
140.6215491584
 20
109.0344994732
 10
140.7182211651
 20
108.8234725889
 10
140.8080269159
 20
108.6110045062
 10
140.89101707
 20
108.3971061852
 10
140.9665749653
 20
108.1833672054
 10
141.0346451587
 20
107.9697886407
 10
141.0952830931
 20
107.7563694172
 10
141.1480384347
 20
107.5446958928
 10
141.1928522943
 20
107.3347809944
 10
141.2297835612
 20
107.1266117951
 10
141.2585585687
 20
106.9217358719
 10
141.2790860948
 20
106.7206690841
 10
141.2914573617
 20
106.5228955725
 10
141.2956723692
 20
106.328415337
  0
LWPOLYLINE
  5
25F
100
AcDbEntity
  8
0
100
AcDbPolyline
 62
7
  6
CONTINUOUS
 90
33
 70
0
 10
153.8818518949
 20
102.8986783347
 10
153.9651672777
 20
102.8493857724
 10
154.1305373289
 20
102.7444047617
 10
154.2952863119
 20
102.6302132531
 10
154.4594188147
 20
102.5068793305
 10
154.6217156432
 20
102.3753191401
 10
154.7821631495
 20
102.2354713931
 10
154.9407749814
 20
102.0873973782
 10
155.0963728878
 20
101.9321971081
 10
155.2489344366
 20
101.7698174711
 10
155.3984820599
 20
101.6003115789
 10
155.5439048034
 20
101.4249387787
 10
155.685171879
 20
101.2436554502
 10
155.8223140747
 20
101.0565052137
 10
155.9543128009
 20
100.8648782773
 10
156.0811296898
 20
100.6687414565
 10
156.2028031092
 20
100.4681279358
 10
156.3184295727
 20
100.2645274775
 10
156.4279641318
 20
100.0579177692
 10
156.5314517351
 20
99.8483211233
 10
156.6281237418
 20
99.637294239
 10
156.7179294926
 20
99.4248261563
 10
156.8009196467
 20
99.2109278353
 10
156.876477542
 20
98.9971888555
 10
156.9445477354
 20
98.7836102908
 10
157.0051856698
 20
98.5701910674
 10
157.0579410114
 20
98.358517543
 10
157.102754871
 20
98.1486026445
 10
157.1396861378
 20
97.9404334452
 10
157.1684611454
 20
97.7355575221
 10
157.1889886715
 20
97.5344907342
 10
157.2013599384
 20
97.3367172226
 10
157.2055749459
 20
97.1422369872
  0
LINE
  5
260
100
AcDbEntity
  8
0
100
AcDbLine
 62
7
  6
CONTINUOUS
 10
157.2055749459
 20
97.1422369872
 11
157.2055749459
 21
93.87635588
  0
LWPOLYLINE
  5
261
100
AcDbEntity
  8
0
100
AcDbPolyline
 62
7
  6
CONTINUOUS
 90
64
 70
0
 10
157.2055749459
 20
93.87635588
 10
157.2013599063
 20
93.6867425207
 10
157.1889885771
 20
93.5032545958
 10
157.1684609581
 20
93.3258921052
 10
157.1396858176
 20
93.1542445257
 10
157.1027543873
 20
92.9887223805
 10
157.0579403634
 20
92.8305572396
 10
157.0051848573
 20
92.6798041937
 10
156.9445467574
 20
92.536408152
 10
156.8764764257
 20
92.4014354127
 10
156.8009184297
 20
92.2749489343
 10
156.7179282017
 20
92.1568857584
 10
156.6281224007
 20
92.0481233073
 10
156.5314503774
 20
91.9487310339
 10
156.4279627811
 20
91.8586394853
 10
156.3184282184
 20
91.7785177261
 10
156.2028017312
 20
91.7084399596
 10
156.0811282777
 20
91.6483319824
 10
155.9543113391
 20
91.5986402489
 10
155.8223125361
 20
91.5594422521
 10
155.6851702481
 20
91.5306604991
 10
155.5439030944
 20
91.5125089652
 10
155.3984802984
 20
91.5050668292
 10
155.2489326367
 20
91.5082549125
 10
155.0963710593
 20
91.5220496539
 10
154.9407731349
 20
91.5465300674
 10
154.7821612948
 20
91.5816171391
 10
154.6217137823
 20
91.6270502671
 10
154.4594169476
 20
91.6829065001
 10
154.2952844406
 20
91.7491087893
 10
154.1305354549
 20
91.8251653869
 10
153.9651654023
 20
91.9111496753
 10
153.799178871
 20
92.006988272
 10
153.6338088198
 20
92.1119692828
 10
153.4690598369
 20
92.2261607914
 10
153.304927334
 20
92.349494714
 10
153.1426305055
 20
92.4810549044
 10
152.9821829992
 20
92.6209026514
 10
152.8235711674
 20
92.7689766663
 10
152.6679732609
 20
92.9241769364
 10
152.5154117122
 20
93.0865565733
 10
152.3658640888
 20
93.2560624655
 10
152.2204413453
 20
93.4314352657
 10
152.0791742697
 20
93.6127185943
 10
151.942032074
 20
93.7998688308
 10
151.8100333478
 20
93.9914957671
 10
151.6832164589
 20
94.187632588
 10
151.5615430395
 20
94.3882461086
 10
151.445916576
 20
94.5918465669
 10
151.3363820169
 20
94.7984562752
 10
151.2328944136
 20
95.0080529212
 10
151.1362224069
 20
95.2190798054
 10
151.0464166561
 20
95.4315478881
 10
150.963426502
 20
95.6454462091
 10
150.8878686068
 20
95.8591851889
 10
150.8197984134
 20
96.0727637536
 10
150.7591604789
 20
96.2861829771
 10
150.7064051373
 20
96.4978565015
 10
150.6615912777
 20
96.7077713999
 10
150.6246600109
 20
96.9159405993
 10
150.5958850033
 20
97.1208165224
 10
150.5753574772
 20
97.3218833102
 10
150.5629862104
 20
97.5196568219
 10
150.5587712028
 20
97.7141370573
  0
LWPOLYLINE
  5
262
100
AcDbEntity
  8
0
100
AcDbPolyline
 62
7
  6
CONTINUOUS
 90
16
 70
0
 10
157.2055749459
 20
94.856214904
 10
157.2021840136
 20
94.7086326932
 10
157.1920201688
 20
94.5653671237
 10
157.1751107557
 20
94.4268111439
 10
157.1515015031
 20
94.2933443278
 10
157.1212566688
 20
94.1653334249
 10
157.0844591278
 20
94.0431311318
 10
157.0412095419
 20
93.9270727818
 10
156.99162616
 20
93.8174765776
 10
156.9358451111
 20
93.7146439808
 10
156.874019262
 20
93.6188570662
 10
156.8063179384
 20
93.5303784083
 10
156.7329270081
 20
93.4494510445
 10
156.6540477388
 20
93.3762968993
 10
156.5698962606
 20
93.3111164058
 10
156.4807857723
 20
93.25413589
  0
LINE
  5
263
100
AcDbEntity
  8
0
100
AcDbLine
 62
7
  6
CONTINUOUS
 10
176.5992069545
 20
120.0495964543
 11
177.6087436719
 21
121.1028910501
  0
LINE
  5
264
100
AcDbEntity
  8
0
100
AcDbLine
 62
250
  6
CONTINUOUS
 10
152.6093808682
 20
97.9182743539
 11
152.2558274776
 21
97.7141370573
  0
LINE
  5
265
100
AcDbEntity
  8
0
100
AcDbLine
 62
7
  6
CONTINUOUS
 10
176.8781828886
 20
119.5663959628
 11
178.2951420196
 21
119.914014239
  0
LINE
  5
266
100
AcDbEntity
  8
0
100
AcDbLine
 62
250
  6
CONTINUOUS
 10
134.6488686261
 20
110.1661965143
 11
136.3459249009
 21
110.1661965143
  0
LWPOLYLINE
  5
267
100
AcDbEntity
  8
0
100
AcDbPolyline
 62
7
  6
CONTINUOUS
 90
46
 70
0
 10
156.4807857723
 20
93.25413589
 10
156.3867135778
 20
93.2053689287
 10
156.2881845345
 20
93.1650917594
 10
156.185386473
 20
93.1333672219
 10
156.0786011339
 20
93.110282203
 10
155.9681213207
 20
93.0958999426
 10
155.8542502723
 20
93.0902598055
 10
155.7373001561
 20
93.093377104
 10
155.6175916008
 20
93.1052431462
 10
155.4954532238
 20
93.1258251678
 10
155.3712198929
 20
93.1550665036
 10
155.2452321454
 20
93.1928867687
 10
155.1178357195
 20
93.239181915
 10
154.9893804711
 20
93.2938244535
 10
154.8602178549
 20
93.3566645312
 10
154.7307003175
 20
93.4275305282
 10
154.6011828436
 20
93.5062282047
 10
154.4720203644
 20
93.5925418877
 10
154.3435652474
 20
93.6862362481
 10
154.2161689193
 20
93.7870553118
 10
154.0901812629
 20
93.8947225456
 10
153.9659480197
 20
94.0089427461
 10
153.8438097273
 20
94.1294030548
 10
153.7241012525
 20
94.2557734414
 10
153.6071512132
 20
94.3877071913
 10
153.4932802404
 20
94.5248427403
 10
153.3828004989
 20
94.6668042963
 10
153.2760152217
 20
94.8132023308
 10
153.1732172139
 20
94.9636354819
 10
153.0746882159
 20
95.117691518
 10
152.9806984548
 20
95.2749479805
 10
152.8915055785
 20
95.434973834
 10
152.8073541054
 20
95.5973304189
 10
152.7284748427
 20
95.7615724473
 10
152.6550839195
 20
95.9272499093
 10
152.587382607
 20
96.0939084557
 10
152.5255567858
 20
96.2610903797
 10
152.4697757792
 20
96.4283375715
 10
152.4201924509
 20
96.5951914309
 10
152.3769429338
 20
96.7611932693
 10
152.3401454718
 20
96.9258883279
 10
152.3099007182
 20
97.0888250407
 10
152.286291542
 20
97.2495550042
 10
152.2693821936
 20
97.4076372672
 10
152.2592183933
 20
97.5626394578
 10
152.2558274776
 20
97.7141370573
  0
LWPOLYLINE
  5
268
100
AcDbEntity
  8
0
100
AcDbPolyline
 62
7
  6
CONTINUOUS
 90
3
 70
0
 10
156.5389554058
 20
93.3375085832
 10
156.6417492978
 20
93.3692331234
 10
156.6484806941
 20
93.3719848809
  0
LINE
  5
269
100
AcDbEntity
  8
0
100
AcDbLine
 62
7
  6
CONTINUOUS
 10
176.8781828886
 20
48.7347623635
 11
176.8781828886
 21
119.5663959628
  0
LINE
  5
26A
100
AcDbEntity
  8
0
100
AcDbLine
 62
7
  6
CONTINUOUS
 10
178.3166433714
 20
48.3701444594
 11
178.3166433714
 21
119.9020192916
  0
LINE
  5
26B
100
AcDbEntity
  8
0
100
AcDbLine
 62
7
  6
CONTINUOUS
 10
177.6091061022
 20
121.127509789
 11
177.6087436719
 21
121.1028910501
  0
LINE
  5
26C
100
AcDbEntity
  8
0
100
AcDbLine
 62
7
  6
CONTINUOUS
 10
178.2951420196
 20
119.914014239
 11
178.3166433714
 21
119.9020192916
  0
LINE
  5
26D
100
AcDbEntity
  8
0
100
AcDbLine
 62
7
  6
CONTINUOUS
 10
176.5992069545
 20
120.0495964543
 11
115.2552366175
 21
155.4688361064
  0
LINE
  5
26E
100
AcDbEntity
  8
0
100
AcDbLine
 62
7
  6
CONTINUOUS
 10
177.6091061022
 20
121.127509789
 11
115.6586895315
 21
156.8969038958
  0
LINE
  5
26F
100
AcDbEntity
  8
0
100
AcDbLine
 62
7
  6
CONTINUOUS
 10
182.3785763562
 20
50.3989229737
 11
182.3785763562
 21
122.2473131938
  0
LINE
  5
270
100
AcDbEntity
  8
0
100
AcDbLine
 62
7
  6
CONTINUOUS
 10
181.6710390869
 20
123.4728036912
 11
119.4465033187
 21
159.4004707871
  0
LINE
  5
271
100
AcDbEntity
  8
0
100
AcDbLine
 62
7
  6
CONTINUOUS
 10
176.8781828886
 20
119.5663959628
 11
176.5992069545
 21
120.0495964543
  0
LINE
  5
272
100
AcDbEntity
  8
0
100
AcDbLine
 62
7
  6
CONTINUOUS
 10
178.2951420196
 20
119.914014239
 11
177.6087436719
 21
121.1028910501
  0
LINE
  5
273
100
AcDbEntity
  8
0
100
AcDbLine
 62
7
  6
CONTINUOUS
 10
181.6710390869
 20
123.4728036912
 11
182.3785763562
 21
122.2473131938
  0
LINE
  5
274
100
AcDbEntity
  8
0
100
AcDbLine
 62
7
  6
CONTINUOUS
 10
176.5992069545
 20
48.5737162879
 11
176.8781828886
 21
48.7347623635
  0
LINE
  5
275
100
AcDbEntity
  8
0
100
AcDbLine
 62
7
  6
CONTINUOUS
 10
177.6087436719
 20
47.9623417032
 11
178.2951420196
 21
48.3585829076
  0
LINE
  5
276
100
AcDbEntity
  8
0
100
AcDbLine
 62
7
  6
CONTINUOUS
 10
182.3785763562
 20
50.3989229737
 11
181.6710390869
 21
49.9904787798
  0
LINE
  5
277
100
AcDbEntity
  8
0
100
AcDbLine
 62
7
  6
CONTINUOUS
 10
178.3166433714
 20
48.3701444594
 11
178.2951420196
 21
48.3585829076
  0
LINE
  5
278
100
AcDbEntity
  8
0
100
AcDbLine
 62
7
  6
CONTINUOUS
 10
178.3166433714
 20
48.3701444594
 11
182.3785763562
 21
50.3989229737
  0
LINE
  5
279
100
AcDbEntity
  8
0
100
AcDbLine
 62
7
  6
CONTINUOUS
 10
177.6091061022
 20
47.9617002655
 11
181.6710390869
 21
49.9904787798
  0
ENDSEC
  0
SECTION
  2
OBJECTS
  0
DICTIONARY
  5
C
100
AcDbDictionary
280
0
281
1
  3
ACAD_GROUP
350
D
  3
ACAD_MLINESTYLE
350
17
  3
ACAD_LAYOUT
350
1A
  3
ACAD_PLOTSETTINGS
350
19
  3
ACAD_PLOTSTYLENAME
350
E
  0
DICTIONARY
  5
D
102
{ACAD_REACTORS
330
C
102
}
100
AcDbDictionary
280
0
281
1
  0
ACDBDICTIONARYWDFLT
  5
E
102
{ACAD_REACTORS
330
C
102
}
100
AcDbDictionary
281
1
  3
Normal
350
F
100
AcDbDictionaryWithDefault
340
F
  0
DICTIONARY
  5
17
102
{ACAD_REACTORS
330
C
102
}
100
AcDbDictionary
280
0
281
1
  3
Standard
350
18
  0
DICTIONARY
  5
19
102
{ACAD_REACTORS
330
C
102
}
100
AcDbDictionary
281
1
  0
DICTIONARY
  5
1A
102
{ACAD_REACTORS
330
C
102
}
100
AcDbDictionary
281
1
  3
Model
350
27A
  3
Layout1
350
27B
  0
ACDBPLACEHOLDER
  5
F
102
{ACAD_REACTORS
330
E
102
}
  0
MLINESTYLE
  5
18
102
{ACAD_REACTORS
330
17
102
}
100
AcDbMlineStyle
  2
STANDARD
 70
0
  3

 62
256
 51
90.0
 52
90.0
 71
2
 49
0.5
 62
256
  6
BYLAYER
 49
-0.5
 62
256
  6
BYLAYER
  0
LAYOUT
  5
27A
102
{ACAD_REACTORS
330
1A
102
}
100
AcDbPlotSettings
  1

  2
none_device
  4
ISO_A4_(297.00_x_210.00_MM)
  6

 40
0.0
 41
0.0
 42
0.0
 43
0.0
 44
297.0
 45
210.0
 46
0.0
 47
0.0
 48
0.0
 49
0.0
140
0.0
141
0.0
142
1.0
143
1.0
 70
1024
 72
1
 73
0
 74
0
  7

 75
0
147
1.0
148
0.0
149
0.0
100
AcDbLayout
  1
Model
 70
0
 71
0
 10
0.0
 20
0.0
 11
297.0
 21
210.0
 12
0.0
 22
0.0
 32
0.0
 14
0.0
 24
0.0
 34
0.0
 15
0.0
 25
0.0
 35
0.0
146
0.0
 13
0.0
 23
0.0
 33
0.0
 16
1.0
 26
0.0
 36
0.0
 17
0.0
 27
1.0
 37
0.0
 76
0
330
21B
345
0
346
0
  0
LAYOUT
  5
27B
102
{ACAD_REACTORS
330
1A
102
}
100
AcDbPlotSettings
  1

  2
none_device
  4
ISO_A4_(297.00_x_210.00_MM)
  6

 40
0.0
 41
0.0
 42
0.0
 43
0.0
 44
297.0
 45
210.0
 46
0.0
 47
0.0
 48
0.0
 49
0.0
140
0.0
141
0.0
142
1.0
143
1.0
 70
0
 72
1
 73
0
 74
0
  7

 75
0
147
1.0
148
0.0
149
0.0
100
AcDbLayout
  1
Layout1
 70
0
 71
1
 10
0.0
 20
0.0
 11
297.0
 21
210.0
 12
0.0
 22
0.0
 32
0.0
 14
0.0
 24
0.0
 34
0.0
 15
0.0
 25
0.0
 35
0.0
146
0.0
 13
0.0
 23
0.0
 33
0.0
 16
1.0
 26
0.0
 36
0.0
 17
0.0
 27
1.0
 37
0.0
 76
0
330
21C
345
0
346
0
  0
ENDSEC
  0
EOF
