  0
SECTION
  2
HEADER
  9
$ACADVER
  1
AC1024
  9
$DWGCODEPAGE
  3
ANSI_1252
  9
$EXTMAX
 10
297.0
 20
210.0
 30
0.0
  9
$EXTMIN
 10
0.0
 20
0.0
 30
0.0
  9
$LIMMIN
 10
0.0
 20
0.0
  9
$LIMMAX
 10
297.0
 20
210.0
  9
$VIEWCTR
 10
148.5
 20
105.0
  9
$VIEWSIZE
 40
210.0
  9
$CLAYER
  8
0
  9
$LTSCALE
 40
16.335
  9
$CELTYPE
  6
BYLAYER
  9
$DIMSCALE
 40
1.0
  9
$DIMASZ
 40
3.0
  9
$DIMEXO
 40
0.5
  9
$DIMDLI
 40
11.286
  9
$DIMEXE
 40
1.5
  9
$DIMCEN
 40
2.673
  9
$DIMLFAC
 40
1.0
  9
$DIMBLK
  1
_FILLED
  9
$DIMALT
 70
0
  9
$DIMALTF
 40
0.0393700787
  9
$DIMTXT
 40
3.0
  9
$DIMTOL
 70
1
  9
$DIMLIM
 70
0
  9
$DIMTFAC
 40
1.0
  9
$DIMTP
 40
0.01
  9
$DIMTM
 40
0.01
  9
$DIMGAP
 40
0.625
  9
$DIMDSEP
 70
44
  9
$AUNITS
 70
0
  9
$PDMODE
 70
3
  9
$PDSIZE
 40
3.0
  9
$HANDSEED
  5
382
  9
$TILEMODE
 70
1
  9
$MEASUREMENT
 70
1
  9
$INSUNITS
 70
4
  0
ENDSEC
  0
SECTION
  2
CLASSES
  0
CLASS
  1
ACDBDICTIONARYWDFLT
  2
AcDbDictionaryWithDefault
  3
AutoCAD 2000
 90
0
 91
1
280
0
281
0
  0
CLASS
  1
ACDBPLACEHOLDER
  2
AcDbPlaceHolder
  3
AutoCAD 2000
 90
0
 91
1
280
0
281
0
  0
CLASS
  1
LAYOUT
  2
AcDbLayout
  3
AutoCAD 2000
 90
0
 91
0
280
0
281
0
  0
ENDSEC
  0
SECTION
  2
TABLES
  0
TABLE
  2
VPORT
  5
8
100
AcDbSymbolTable
 70
2
  0
VPORT
  5
1F4
100
AcDbSymbolTableRecord
100
AcDbViewportTableRecord
  2
*ACTIVE
 70
0
 10
0.0
 20
0.0
 11
1.0
 21
1.0
 12
148.5
 22
105.0
 13
0.0
 23
0.0
 14
1.0
 24
1.0
 15
0.0
 25
0.0
 16
0.0
 26
0.0
 36
1.0
 17
0.0
 27
0.0
 37
0.0
 40
210.0
 41
1.4142857143
 42
50.0
 43
0.0
 44
0.0
 50
0.0
 51
0.0
 71
0
 72
100
 73
1
 74
1
 75
0
 76
0
 77
0
 78
0
  0
ENDTAB
  0
TABLE
  2
LTYPE
  5
5
100
AcDbSymbolTable
 70
6
  0
LTYPE
  5
14
100
AcDbSymbolTableRecord
100
AcDbLinetypeTableRecord
  2
BYBLOCK
 70
0
  3

 72
65
 73
0
 40
0.0
  0
LTYPE
  5
15
100
AcDbSymbolTableRecord
100
AcDbLinetypeTableRecord
  2
BYLAYER
 70
0
  3

 72
65
 73
0
 40
0.0
  0
LTYPE
  5
16
100
AcDbSymbolTableRecord
100
AcDbLinetypeTableRecord
  2
CONTINUOUS
 70
64
  3
Solid line
 72
65
 73
0
 40
0.0
  0
LTYPE
  5
1F5
100
AcDbSymbolTableRecord
100
AcDbLinetypeTableRecord
  2
CENTER
 70
64
  3
____ _ ____ _ ____ _ ____ _ ____ _ ____ _ ____
 72
65
 73
4
 40
0.6
 49
0.375
 74
0
 49
-0.075
 74
0
 49
0.075
 74
0
 49
-0.075
 74
0
  0
LTYPE
  5
1F6
100
AcDbSymbolTableRecord
100
AcDbLinetypeTableRecord
  2
HIDDEN
 70
64
  3
- - - - - - - - - - - - - - - - - - - -
 72
65
 73
2
 40
0.2
 49
0.1
 74
0
 49
-0.1
 74
0
  0
LTYPE
  5
1F7
100
AcDbSymbolTableRecord
100
AcDbLinetypeTableRecord
  2
PHANTOM
 70
64
  3
_____ _ _ _____ _ _ _____ _ _ _____
 72
65
 73
6
 40
0.8
 49
0.45
 74
0
 49
-0.05
 74
0
 49
0.1
 74
0
 49
-0.05
 74
0
 49
0.1
 74
0
 49
-0.05
 74
0
  0
LTYPE
  5
1F8
100
AcDbSymbolTableRecord
100
AcDbLinetypeTableRecord
  2
DOT
 70
64
  3
. . . . . . . . . . . . . . . . . . . .
 72
65
 73
2
 40
0.2
 49
0.1
 74
0
 49
-0.1
 74
0
  0
LTYPE
  5
1F9
100
AcDbSymbolTableRecord
100
AcDbLinetypeTableRecord
  2
DASHED
 70
64
  3
- - - - - - - - - - - - - - - - - - - -
 72
65
 73
2
 40
0.2
 49
0.1
 74
0
 49
-0.1
 74
0
  0
ENDTAB
  0
TABLE
  2
LAYER
  5
2
100
AcDbSymbolTable
 70
36
  0
LAYER
  5
10
100
AcDbSymbolTableRecord
100
AcDbLayerTableRecord
  2
0
 70
0
 62
7
  6
CONTINUOUS
370
-3
390
F
  0
LAYER
  5
1FA
100
AcDbSymbolTableRecord
100
AcDbLayerTableRecord
  2
DEFAULT_1
 70
0
 62
7
  6
CENTER
370
-3
390
F
  0
LAYER
  5
1FB
100
AcDbSymbolTableRecord
100
AcDbLayerTableRecord
  2
DEFAULT_2
 70
0
 62
7
  6
HIDDEN
370
-3
390
F
  0
LAYER
  5
1FC
100
AcDbSymbolTableRecord
100
AcDbLayerTableRecord
  2
DEFAULT_3
 70
0
 62
7
  6
PHANTOM
370
-3
390
F
  0
LAYER
  5
1FD
100
AcDbSymbolTableRecord
100
AcDbLayerTableRecord
  2
ASSI
 70
0
 62
7
  6
CONTINUOUS
370
-3
390
F
  0
LAYER
  5
1FE
100
AcDbSymbolTableRecord
100
AcDbLayerTableRecord
  2
COORDINATE
 70
0
 62
7
  6
CONTINUOUS
370
-3
390
F
  0
LAYER
  5
1FF
100
AcDbSymbolTableRecord
100
AcDbLayerTableRecord
  2
COORD_ORIGINE
 70
0
 62
7
  6
CONTINUOUS
370
-3
390
F
  0
LAYER
  5
200
100
AcDbSymbolTableRecord
100
AcDbLayerTableRecord
  2
COPY_PUBLISH
 70
0
 62
7
  6
CONTINUOUS
370
-3
390
F
  0
LAYER
  5
201
100
AcDbSymbolTableRecord
100
AcDbLayerTableRecord
  2
COSMETIC
 70
0
 62
7
  6
CONTINUOUS
370
-3
390
F
  0
LAYER
  5
202
100
AcDbSymbolTableRecord
100
AcDbLayerTableRecord
  2
COSMETICI
 70
0
 62
7
  6
CONTINUOUS
370
-3
390
F
  0
LAYER
  5
203
100
AcDbSymbolTableRecord
100
AcDbLayerTableRecord
  2
CURVA_TASSELLO
 70
0
 62
7
  6
CONTINUOUS
370
-3
390
F
  0
LAYER
  5
204
100
AcDbSymbolTableRecord
100
AcDbLayerTableRecord
  2
CURVE
 70
0
 62
7
  6
CONTINUOUS
370
-3
390
F
  0
LAYER
  5
205
100
AcDbSymbolTableRecord
100
AcDbLayerTableRecord
  2
DRAFT
 70
0
 62
7
  6
CONTINUOUS
370
-3
390
F
  0
LAYER
  5
206
100
AcDbSymbolTableRecord
100
AcDbLayerTableRecord
  2
IMPORT_IGES
 70
0
 62
7
  6
CONTINUOUS
370
-3
390
F
  0
LAYER
  5
207
100
AcDbSymbolTableRecord
100
AcDbLayerTableRecord
  2
INTFCLR_2
 70
0
 62
7
  6
CONTINUOUS
370
-3
390
F
  0
LAYER
  5
208
100
AcDbSymbolTableRecord
100
AcDbLayerTableRecord
  2
INTF_1
 70
0
 62
7
  6
CONTINUOUS
370
-3
390
F
  0
LAYER
  5
209
100
AcDbSymbolTableRecord
100
AcDbLayerTableRecord
  2
INTF_21
 70
0
 62
7
  6
CONTINUOUS
370
-3
390
F
  0
LAYER
  5
20A
100
AcDbSymbolTableRecord
100
AcDbLayerTableRecord
  2
INTF_6
 70
0
 62
7
  6
CONTINUOUS
370
-3
390
F
  0
LAYER
  5
20B
100
AcDbSymbolTableRecord
100
AcDbLayerTableRecord
  2
INTF_7
 70
0
 62
7
  6
CONTINUOUS
370
-3
390
F
  0
LAYER
  5
20C
100
AcDbSymbolTableRecord
100
AcDbLayerTableRecord
  2
INTF_9
 70
0
 62
7
  6
CONTINUOUS
370
-3
390
F
  0
LAYER
  5
20D
100
AcDbSymbolTableRecord
100
AcDbLayerTableRecord
  2
LIVELLO_1
 70
0
 62
7
  6
CONTINUOUS
370
-3
390
F
  0
LAYER
  5
20E
100
AcDbSymbolTableRecord
100
AcDbLayerTableRecord
  2
NOTE
 70
0
 62
7
  6
CONTINUOUS
370
-3
390
F
  0
LAYER
  5
20F
100
AcDbSymbolTableRecord
100
AcDbLayerTableRecord
  2
PIANI
 70
0
 62
7
  6
CONTINUOUS
370
-3
390
F
  0
LAYER
  5
210
100
AcDbSymbolTableRecord
100
AcDbLayerTableRecord
  2
PIANI_ORIGINE
 70
0
 62
7
  6
CONTINUOUS
370
-3
390
F
  0
LAYER
  5
211
100
AcDbSymbolTableRecord
100
AcDbLayerTableRecord
  2
PIANI_RIFERIMENTO
 70
0
 62
7
  6
CONTINUOUS
370
-3
390
F
  0
LAYER
  5
212
100
AcDbSymbolTableRecord
100
AcDbLayerTableRecord
  2
PUNTI
 70
0
 62
7
  6
CONTINUOUS
370
-3
390
F
  0
LAYER
  5
213
100
AcDbSymbolTableRecord
100
AcDbLayerTableRecord
  2
RACCORDO
 70
0
 62
7
  6
CONTINUOUS
370
-3
390
F
  0
LAYER
  5
214
100
AcDbSymbolTableRecord
100
AcDbLayerTableRecord
  2
RGB__255__255__255__
 70
0
 62
7
  6
CONTINUOUS
370
-3
390
F
  0
LAYER
  5
215
100
AcDbSymbolTableRecord
100
AcDbLayerTableRecord
  2
RGB____0____0____0__
 70
0
 62
7
  6
CONTINUOUS
370
-3
390
F
  0
LAYER
  5
216
100
AcDbSymbolTableRecord
100
AcDbLayerTableRecord
  2
SIMBOLI
 70
0
 62
7
  6
CONTINUOUS
370
-3
390
F
  0
LAYER
  5
217
100
AcDbSymbolTableRecord
100
AcDbLayerTableRecord
  2
SMUSSO
 70
0
 62
7
  6
CONTINUOUS
370
-3
390
F
  0
LAYER
  5
218
100
AcDbSymbolTableRecord
100
AcDbLayerTableRecord
  2
SNAPLINE
 70
0
 62
7
  6
CONTINUOUS
370
-3
390
F
  0
LAYER
  5
219
100
AcDbSymbolTableRecord
100
AcDbLayerTableRecord
  2
SUPERFICI
 70
0
 62
7
  6
CONTINUOUS
370
-3
390
F
  0
LAYER
  5
21A
100
AcDbSymbolTableRecord
100
AcDbLayerTableRecord
  2
TRASH
 70
0
 62
7
  6
CONTINUOUS
370
-3
390
F
  0
LAYER
  5
21B
100
AcDbSymbolTableRecord
100
AcDbLayerTableRecord
  2
WHITE
 70
0
 62
7
  6
CONTINUOUS
370
-3
390
F
  0
LAYER
  5
21C
100
AcDbSymbolTableRecord
100
AcDbLayerTableRecord
  2
XSEC_DATUMS
 70
0
 62
7
  6
CONTINUOUS
370
-3
390
F
  0
ENDTAB
  0
TABLE
  2
STYLE
  5
3
100
AcDbSymbolTable
 70
1
  0
STYLE
  5
11
100
AcDbSymbolTableRecord
100
AcDbTextStyleTableRecord
  2
STANDARD
 70
0
 40
0.0
 41
0.8
 50
0.0
 71
0
 42
0.2
  3
txt
  4

  0
STYLE
  5
21D
100
AcDbSymbolTableRecord
100
AcDbTextStyleTableRecord
  2
TEXTSTYLE_1
 70
0
 40
0.0
 41
0.8
 50
0.0
 71
0
 42
0.2
  3
gdt
  4

  0
ENDTAB
  0
TABLE
  2
VIEW
  5
6
100
AcDbSymbolTable
 70
0
  0
ENDTAB
  0
TABLE
  2
UCS
  5
7
100
AcDbSymbolTable
 70
0
  0
ENDTAB
  0
TABLE
  2
APPID
  5
9
100
AcDbSymbolTable
 70
1
  0
APPID
  5
21E
100
AcDbSymbolTableRecord
100
AcDbRegAppTableRecord
  2
ACAD
 70
0
  0
ENDTAB
  0
TABLE
  2
BLOCK_RECORD
  5
1
100
AcDbSymbolTable
 70
0
  0
BLOCK_RECORD
  5
21F
100
AcDbSymbolTableRecord
100
AcDbBlockTableRecord
  2
*Model_Space
  0
BLOCK_RECORD
  5
220
100
AcDbSymbolTableRecord
100
AcDbBlockTableRecord
  2
*Paper_Space
  0
BLOCK_RECORD
  5
221
100
AcDbSymbolTableRecord
100
AcDbBlockTableRecord
  2
_FILLED
  0
ENDTAB
  0
TABLE
  2
DIMSTYLE
  5
A
100
AcDbSymbolTable
 70
1
100
AcDbDimStyleTable
 71
0
  0
DIMSTYLE
105
222
100
AcDbSymbolTableRecord
100
AcDbDimStyleTableRecord
  2
STANDARD
 70
0
  3

  4

 40
1.0
 41
3.0
 42
0.5
 43
0.38
 44
1.5
 45
0.0
 46
0.0
 47
0.01
 48
0.01
140
3.0
141
0.09
142
0.0
143
25.4
144
1.0
145
0.0
146
1.0
147
0.625
 71
1
 72
0
 73
0
 74
0
 75
0
 76
0
 77
1
 78
8
 79
2
170
0
171
1
172
0
173
0
174
0
175
0
176
0
177
0
178
0
270
2
179
2
271
2
272
2
273
2
274
2
275
0
280
0
281
0
282
0
283
1
284
8
285
0
286
0
287
3
288
0
340
11
278
44
341
221
342
221
343
221
344
221
  0
ENDTAB
  0
ENDSEC
  0
SECTION
  2
BLOCKS
  0
BLOCK
  5
20
100
AcDbEntity
  8
0
100
AcDbBlockBegin
  2
*Model_Space
 70
0
 10
0.0
 20
0.0
 30
0.0
  3
*Model_Space
  1

  0
ENDBLK
  5
21
100
AcDbEntity
  8
0
100
AcDbBlockEnd
  0
BLOCK
  5
1C
100
AcDbEntity
  8
0
100
AcDbBlockBegin
  2
*Paper_Space
 70
0
 10
0.0
 20
0.0
 30
0.0
  3
*Paper_Space
  1

  0
ENDBLK
  5
1D
100
AcDbEntity
  8
0
100
AcDbBlockEnd
  0
BLOCK
  5
223
100
AcDbEntity
  8
0
100
AcDbBlockBegin
  2
_FILLED
 70
64
 10
0.0
 20
0.0
  3
_FILLED
  1

  0
SOLID
  5
224
100
AcDbEntity
  8
0
  6
BYBLOCK
 62
0
100
AcDbTrace
 10
0.0
 20
0.0
 11
-1.0
 21
0.3166666667
 12
-1.0
 22
-0.3166666667
 13
-1.0
 23
-0.3166666667
  0
ENDBLK
  5
225
100
AcDbEntity
  8
0
  6
BYBLOCK
 62
0
100
AcDbBlockEnd
  0
ENDSEC
  0
SECTION
  2
ENTITIES
  0
LINE
  5
226
100
AcDbEntity
  8
0
100
AcDbLine
 62
7
  6
CONTINUOUS
 10
-45.0274205459
 20
59.3397676688
 11
-41.2396067588
 21
61.8433345602
  0
LINE
  5
227
100
AcDbEntity
  8
ASSI
100
AcDbLine
 62
7
  6
CONTINUOUS
 10
-45.0274205459
 20
59.3397676688
 11
-41.2396067588
 21
61.8433345602
  0
LINE
  5
228
100
AcDbEntity
  8
0
100
AcDbLine
 62
7
  6
CONTINUOUS
 10
-44.3198832767
 20
59.7482118627
 11
-40.5320694895
 21
62.251778754
  0
LINE
  5
229
100
AcDbEntity
  8
ASSI
100
AcDbLine
 62
7
  6
CONTINUOUS
 10
-44.3198832767
 20
59.7482118627
 11
-40.5320694895
 21
62.251778754
  0
LINE
  5
22A
100
AcDbEntity
  8
0
100
AcDbLine
 62
7
  6
CONTINUOUS
 10
-44.3406468908
 20
59.7353725117
 11
-44.3198832767
 21
59.7482118627
  0
LINE
  5
22B
100
AcDbEntity
  8
ASSI
100
AcDbLine
 62
7
  6
CONTINUOUS
 10
-44.3406468908
 20
59.7353725117
 11
-44.3198832767
 21
59.7482118627
  0
LINE
  5
22C
100
AcDbEntity
  8
0
100
AcDbLine
 62
7
  6
CONTINUOUS
 10
-41.2396067588
 20
61.8433345602
 11
-40.5320694895
 21
62.251778754
  0
LINE
  5
22D
100
AcDbEntity
  8
ASSI
100
AcDbLine
 62
7
  6
CONTINUOUS
 10
-41.2396067588
 20
61.8433345602
 11
-40.5320694895
 21
62.251778754
  0
LINE
  5
22E
100
AcDbEntity
  8
0
100
AcDbLine
 62
7
  6
CONTINUOUS
 10
-44.3406468908
 20
59.7353725117
 11
-45.0270452385
 21
59.3391313073
  0
LINE
  5
22F
100
AcDbEntity
  8
ASSI
100
AcDbLine
 62
7
  6
CONTINUOUS
 10
-44.3406468908
 20
59.7353725117
 11
-45.0270452385
 21
59.3391313073
  0
LINE
  5
230
100
AcDbEntity
  8
0
100
AcDbLine
 62
7
  6
CONTINUOUS
 10
-44.7233361907
 20
58.3201440733
 11
-45.0023121248
 21
58.1590979978
  0
LINE
  5
231
100
AcDbEntity
  8
ASSI
100
AcDbLine
 62
7
  6
CONTINUOUS
 10
-44.7233361907
 20
58.3201440733
 11
-45.0023121248
 21
58.1590979978
  0
LINE
  5
232
100
AcDbEntity
  8
CURVE
100
AcDbLine
 62
250
  6
CONTINUOUS
 10
43.3548407276
 20
-55.3787693924
 11
42.0964399064
 21
-55.6553921924
  0
LINE
  5
233
100
AcDbEntity
  8
CURVE
100
AcDbLine
 62
250
  6
CONTINUOUS
 10
42.0964399064
 20
-55.2296551971
 11
43.924631083
 21
-54.9013620047
  0
LINE
  5
234
100
AcDbEntity
  8
0
100
AcDbLine
 62
7
  6
CONTINUOUS
 10
-44.7233361907
 20
58.3201440733
 11
-44.3406468908
 21
59.7353725117
  0
LINE
  5
235
100
AcDbEntity
  8
ASSI
100
AcDbLine
 62
7
  6
CONTINUOUS
 10
-44.7233361907
 20
58.3201440733
 11
-44.3406468908
 21
59.7353725117
  0
LINE
  5
236
100
AcDbEntity
  8
CURVE
100
AcDbLine
 62
250
  6
CONTINUOUS
 10
42.5987804353
 20
-51.1706906246
 11
43.2772455626
 21
-51.0175160448
  0
LINE
  5
237
100
AcDbEntity
  8
CURVE
100
AcDbLine
 62
250
  6
CONTINUOUS
 10
43.5596592572
 20
-50.9526041056
 11
43.924631083
 21
-50.873652894
  0
LINE
  5
238
100
AcDbEntity
  8
CURVE
100
AcDbLine
 62
250
  6
CONTINUOUS
 10
43.924631083
 20
-51.2950585144
 11
42.0964399064
 21
-51.6392230726
  0
LINE
  5
239
100
AcDbEntity
  8
CURVE
100
AcDbLine
 62
250
  6
CONTINUOUS
 10
43.111457186
 20
-52.838182211
 11
42.0964399064
 21
-52.9586619011
  0
LINE
  5
23A
100
AcDbEntity
  8
CURVE
100
AcDbLine
 62
250
  6
CONTINUOUS
 10
42.7358331935
 20
-52.506330148
 11
43.924631083
 21
-52.3728017292
  0
LINE
  5
23B
100
AcDbEntity
  8
0
100
AcDbLine
 62
7
  6
CONTINUOUS
 10
-45.0023121248
 20
-12.6725356016
 11
-45.0270452385
 21
-12.2163000241
  0
LINE
  5
23C
100
AcDbEntity
  8
ASSI
100
AcDbLine
 62
7
  6
CONTINUOUS
 10
-45.0023121248
 20
-12.6725356016
 11
-45.0270452385
 21
-12.2163000241
  0
LINE
  5
23D
100
AcDbEntity
  8
0
100
AcDbLine
 62
7
  6
CONTINUOUS
 10
39.5270270784
 20
-61.4787166561
 11
40.9439862093
 21
-61.8548961119
  0
LINE
  5
23E
100
AcDbEntity
  8
ASSI
100
AcDbLine
 62
7
  6
CONTINUOUS
 10
39.5270270784
 20
-61.4787166561
 11
40.9439862093
 21
-61.8548961119
  0
LINE
  5
23F
100
AcDbEntity
  8
0
100
AcDbLine
 62
7
  6
CONTINUOUS
 10
-45.0023121248
 20
58.1590979978
 11
-45.0270452385
 21
59.3391313073
  0
LINE
  5
240
100
AcDbEntity
  8
ASSI
100
AcDbLine
 62
7
  6
CONTINUOUS
 10
-45.0023121248
 20
58.1590979978
 11
-45.0270452385
 21
59.3391313073
  0
LINE
  5
241
100
AcDbEntity
  8
0
100
AcDbLine
 62
7
  6
CONTINUOUS
 10
-45.0270452385
 20
-12.2163000241
 11
-45.0274205459
 21
-12.1921071634
  0
LINE
  5
242
100
AcDbEntity
  8
ASSI
100
AcDbLine
 62
7
  6
CONTINUOUS
 10
-45.0270452385
 20
-12.2163000241
 11
-45.0274205459
 21
-12.1921071634
  0
LINE
  5
243
100
AcDbEntity
  8
0
100
AcDbLine
 62
7
  6
CONTINUOUS
 10
-45.0274205459
 20
59.3397676688
 11
-45.0274205459
 21
-12.1921071634
  0
LINE
  5
244
100
AcDbEntity
  8
ASSI
100
AcDbLine
 62
7
  6
CONTINUOUS
 10
-45.0274205459
 20
59.3397676688
 11
-45.0274205459
 21
-12.1921071634
  0
LINE
  5
245
100
AcDbEntity
  8
0
100
AcDbLine
 62
7
  6
CONTINUOUS
 10
-45.0023121248
 20
58.1590979978
 11
-45.0023121248
 21
-12.6725356016
  0
LINE
  5
246
100
AcDbEntity
  8
ASSI
100
AcDbLine
 62
7
  6
CONTINUOUS
 10
-45.0023121248
 20
58.1590979978
 11
-45.0023121248
 21
-12.6725356016
  0
LINE
  5
247
100
AcDbEntity
  8
0
100
AcDbLine
 62
7
  6
CONTINUOUS
 10
-45.0023121248
 20
-12.6725356016
 11
-44.7233361907
 21
-13.1557360931
  0
LINE
  5
248
100
AcDbEntity
  8
ASSI
100
AcDbLine
 62
7
  6
CONTINUOUS
 10
-45.0023121248
 20
-12.6725356016
 11
-44.7233361907
 21
-13.1557360931
  0
LINE
  5
249
100
AcDbEntity
  8
0
100
AcDbLine
 62
7
  6
CONTINUOUS
 10
-44.7233361907
 20
-13.1557360931
 11
-44.3406468908
 21
-13.4051768352
  0
LINE
  5
24A
100
AcDbEntity
  8
ASSI
100
AcDbLine
 62
7
  6
CONTINUOUS
 10
-44.7233361907
 20
-13.1557360931
 11
-44.3406468908
 21
-13.4051768352
  0
LINE
  5
24B
100
AcDbEntity
  8
0
100
AcDbLine
 62
7
  6
CONTINUOUS
 10
-44.3198832767
 20
-13.4175976608
 11
40.2579502919
 21
-62.251778754
  0
LINE
  5
24C
100
AcDbEntity
  8
ASSI
100
AcDbLine
 62
7
  6
CONTINUOUS
 10
-44.3198832767
 20
-13.4175976608
 11
40.2579502919
 21
-62.251778754
  0
LINE
  5
24D
100
AcDbEntity
  8
0
100
AcDbLine
 62
7
  6
CONTINUOUS
 10
-44.7233361907
 20
-13.1557360931
 11
39.2480511443
 21
-61.6397627316
  0
LINE
  5
24E
100
AcDbEntity
  8
ASSI
100
AcDbLine
 62
7
  6
CONTINUOUS
 10
-44.7233361907
 20
-13.1557360931
 11
39.2480511443
 21
-61.6397627316
  0
LINE
  5
24F
100
AcDbEntity
  8
0
100
AcDbLine
 62
7
  6
CONTINUOUS
 10
-44.3198832767
 20
-13.4175976608
 11
-44.3406468908
 21
-13.4051768352
  0
LINE
  5
250
100
AcDbEntity
  8
ASSI
100
AcDbLine
 62
7
  6
CONTINUOUS
 10
-44.3198832767
 20
-13.4175976608
 11
-44.3406468908
 21
-13.4051768352
  0
LINE
  5
251
100
AcDbEntity
  8
0
100
AcDbLine
 62
7
  6
CONTINUOUS
 10
39.2480511443
 20
-61.6397627316
 11
40.2575878617
 21
-62.2511373164
  0
LINE
  5
252
100
AcDbEntity
  8
ASSI
100
AcDbLine
 62
7
  6
CONTINUOUS
 10
39.2480511443
 20
-61.6397627316
 11
40.2575878617
 21
-62.2511373164
  0
LINE
  5
253
100
AcDbEntity
  8
0
100
AcDbLine
 62
7
  6
CONTINUOUS
 10
-21.9709469715
 20
7.8123190558
 11
-21.9709469715
 21
11.0782001629
  0
LINE
  5
254
100
AcDbEntity
  8
ASSI
100
AcDbLine
 62
7
  6
CONTINUOUS
 10
-21.9709469715
 20
7.8123190558
 11
-21.9709469715
 21
11.0782001629
  0
LINE
  5
255
100
AcDbEntity
  8
0
100
AcDbLine
 62
7
  6
CONTINUOUS
 10
-20.2738906966
 20
7.8123190558
 11
-20.2738906966
 21
11.0782001629
  0
LINE
  5
256
100
AcDbEntity
  8
ASSI
100
AcDbLine
 62
7
  6
CONTINUOUS
 10
-20.2738906966
 20
7.8123190558
 11
-20.2738906966
 21
11.0782001629
  0
LINE
  5
257
100
AcDbEntity
  8
0
100
AcDbLine
 62
7
  6
CONTINUOUS
 10
-19.920337306
 20
11.2823374596
 11
-19.920337306
 21
8.0164563524
  0
LINE
  5
258
100
AcDbEntity
  8
ASSI
100
AcDbLine
 62
7
  6
CONTINUOUS
 10
-19.920337306
 20
11.2823374596
 11
-19.920337306
 21
8.0164563524
  0
LINE
  5
259
100
AcDbEntity
  8
0
100
AcDbLine
 62
7
  6
CONTINUOUS
 10
-15.3241432283
 20
7.2404189857
 11
-15.3241432283
 21
3.9745378785
  0
LINE
  5
25A
100
AcDbEntity
  8
ASSI
100
AcDbLine
 62
7
  6
CONTINUOUS
 10
-15.3241432283
 20
7.2404189857
 11
-15.3241432283
 21
3.9745378785
  0
LINE
  5
25B
100
AcDbEntity
  8
0
100
AcDbLine
 62
250
  6
CONTINUOUS
 10
-19.920337306
 20
11.2823374596
 11
-20.2738906966
 21
11.0782001629
  0
LINE
  5
25C
100
AcDbEntity
  8
ASSI
100
AcDbLine
 62
250
  6
CONTINUOUS
 10
-19.920337306
 20
11.2823374596
 11
-20.2738906966
 21
11.0782001629
  0
LINE
  5
25D
100
AcDbEntity
  8
0
100
AcDbLine
 62
250
  6
CONTINUOUS
 10
-19.920337306
 20
8.0164563524
 11
-20.2738906966
 21
7.8123190558
  0
LINE
  5
25E
100
AcDbEntity
  8
ASSI
100
AcDbLine
 62
250
  6
CONTINUOUS
 10
-19.920337306
 20
8.0164563524
 11
-20.2738906966
 21
7.8123190558
  0
LINE
  5
25F
100
AcDbEntity
  8
0
100
AcDbLine
 62
250
  6
CONTINUOUS
 10
9.8488581819
 20
-10.560037644
 11
11.5459144568
 21
-10.560037644
  0
LINE
  5
260
100
AcDbEntity
  8
ASSI
100
AcDbLine
 62
250
  6
CONTINUOUS
 10
9.8488581819
 20
-10.560037644
 11
11.5459144568
 21
-10.560037644
  0
LINE
  5
261
100
AcDbEntity
  8
0
100
AcDbLine
 62
7
  6
CONTINUOUS
 10
-6.0610443948
 20
-1.3738592941
 11
-6.0610443948
 21
1.8920218131
  0
LINE
  5
262
100
AcDbEntity
  8
ASSI
100
AcDbLine
 62
7
  6
CONTINUOUS
 10
-6.0610443948
 20
-1.3738592941
 11
-6.0610443948
 21
1.8920218131
  0
LINE
  5
263
100
AcDbEntity
  8
0
100
AcDbLine
 62
250
  6
CONTINUOUS
 10
9.8488581819
 20
-7.2941565368
 11
11.5459144568
 21
-7.2941565368
  0
LINE
  5
264
100
AcDbEntity
  8
ASSI
100
AcDbLine
 62
250
  6
CONTINUOUS
 10
9.8488581819
 20
-7.2941565368
 11
11.5459144568
 21
-7.2941565368
  0
LINE
  5
265
100
AcDbEntity
  8
0
100
AcDbLine
 62
7
  6
CONTINUOUS
 10
-45.0274205459
 20
59.3397676688
 11
-45.0270452385
 21
59.3391313073
  0
LINE
  5
266
100
AcDbEntity
  8
ASSI
100
AcDbLine
 62
7
  6
CONTINUOUS
 10
-45.0274205459
 20
59.3397676688
 11
-45.0270452385
 21
59.3391313073
  0
LINE
  5
267
100
AcDbEntity
  8
0
100
AcDbLine
 62
7
  6
CONTINUOUS
 10
-4.3639881199
 20
-1.3738592941
 11
-4.3639881199
 21
1.8920218131
  0
LINE
  5
268
100
AcDbEntity
  8
ASSI
100
AcDbLine
 62
7
  6
CONTINUOUS
 10
-4.3639881199
 20
-1.3738592941
 11
-4.3639881199
 21
1.8920218131
  0
LINE
  5
269
100
AcDbEntity
  8
0
100
AcDbLine
 62
7
  6
CONTINUOUS
 10
-4.0104347293
 20
2.0961591097
 11
-4.0104347293
 21
-1.1697219974
  0
LINE
  5
26A
100
AcDbEntity
  8
ASSI
100
AcDbLine
 62
7
  6
CONTINUOUS
 10
-4.0104347293
 20
2.0961591097
 11
-4.0104347293
 21
-1.1697219974
  0
LINE
  5
26B
100
AcDbEntity
  8
0
100
AcDbLine
 62
7
  6
CONTINUOUS
 10
0.5857593484
 20
-1.9457593642
 11
0.5857593484
 21
-5.2116404714
  0
LINE
  5
26C
100
AcDbEntity
  8
ASSI
100
AcDbLine
 62
7
  6
CONTINUOUS
 10
0.5857593484
 20
-1.9457593642
 11
0.5857593484
 21
-5.2116404714
  0
LINE
  5
26D
100
AcDbEntity
  8
0
100
AcDbLine
 62
250
  6
CONTINUOUS
 10
-4.0104347293
 20
2.0961591097
 11
-4.3639881199
 21
1.8920218131
  0
LINE
  5
26E
100
AcDbEntity
  8
ASSI
100
AcDbLine
 62
250
  6
CONTINUOUS
 10
-4.0104347293
 20
2.0961591097
 11
-4.3639881199
 21
1.8920218131
  0
LINE
  5
26F
100
AcDbEntity
  8
0
100
AcDbLine
 62
250
  6
CONTINUOUS
 10
-4.0104347293
 20
-1.1697219974
 11
-4.3639881199
 21
-1.3738592941
  0
LINE
  5
270
100
AcDbEntity
  8
ASSI
100
AcDbLine
 62
250
  6
CONTINUOUS
 10
-4.0104347293
 20
-1.1697219974
 11
-4.3639881199
 21
-1.3738592941
  0
LINE
  5
271
100
AcDbEntity
  8
0
100
AcDbLine
 62
7
  6
CONTINUOUS
 10
39.5270270784
 20
9.3529169433
 11
40.9439862093
 21
9.7005352194
  0
LINE
  5
272
100
AcDbEntity
  8
ASSI
100
AcDbLine
 62
7
  6
CONTINUOUS
 10
39.5270270784
 20
9.3529169433
 11
40.9439862093
 21
9.7005352194
  0
LINE
  5
273
100
AcDbEntity
  8
0
100
AcDbLine
 62
250
  6
CONTINUOUS
 10
-6.0610443948
 20
-1.3738592941
 11
-4.3639881199
 21
-1.3738592941
  0
LINE
  5
274
100
AcDbEntity
  8
ASSI
100
AcDbLine
 62
250
  6
CONTINUOUS
 10
-6.0610443948
 20
-1.3738592941
 11
-4.3639881199
 21
-1.3738592941
  0
LINE
  5
275
100
AcDbEntity
  8
0
100
AcDbLine
 62
250
  6
CONTINUOUS
 10
-6.0610443948
 20
1.8920218131
 11
-4.3639881199
 21
1.8920218131
  0
LINE
  5
276
100
AcDbEntity
  8
ASSI
100
AcDbLine
 62
250
  6
CONTINUOUS
 10
-6.0610443948
 20
1.8920218131
 11
-4.3639881199
 21
1.8920218131
  0
LINE
  5
277
100
AcDbEntity
  8
0
100
AcDbLine
 62
7
  6
CONTINUOUS
 10
40.2575878617
 20
-62.2511373164
 11
40.2579502919
 21
-62.251778754
  0
LINE
  5
278
100
AcDbEntity
  8
ASSI
100
AcDbLine
 62
7
  6
CONTINUOUS
 10
40.2575878617
 20
-62.2511373164
 11
40.2579502919
 21
-62.251778754
  0
LINE
  5
279
100
AcDbEntity
  8
0
100
AcDbLine
 62
7
  6
CONTINUOUS
 10
9.8488581819
 20
-10.560037644
 11
9.8488581819
 21
-7.2941565368
  0
LINE
  5
27A
100
AcDbEntity
  8
ASSI
100
AcDbLine
 62
7
  6
CONTINUOUS
 10
9.8488581819
 20
-10.560037644
 11
9.8488581819
 21
-7.2941565368
  0
LINE
  5
27B
100
AcDbEntity
  8
0
100
AcDbLine
 62
7
  6
CONTINUOUS
 10
40.2579502919
 20
10.9140307694
 11
44.3198832767
 21
13.2593246716
  0
LINE
  5
27C
100
AcDbEntity
  8
ASSI
100
AcDbLine
 62
7
  6
CONTINUOUS
 10
40.2579502919
 20
10.9140307694
 11
44.3198832767
 21
13.2593246716
  0
LINE
  5
27D
100
AcDbEntity
  8
0
100
AcDbLine
 62
250
  6
CONTINUOUS
 10
-21.9709469715
 20
7.8123190558
 11
-20.2738906966
 21
7.8123190558
  0
LINE
  5
27E
100
AcDbEntity
  8
ASSI
100
AcDbLine
 62
250
  6
CONTINUOUS
 10
-21.9709469715
 20
7.8123190558
 11
-20.2738906966
 21
7.8123190558
  0
LINE
  5
27F
100
AcDbEntity
  8
0
100
AcDbLine
 62
7
  6
CONTINUOUS
 10
11.5459144568
 20
-10.560037644
 11
11.5459144568
 21
-7.2941565368
  0
LINE
  5
280
100
AcDbEntity
  8
ASSI
100
AcDbLine
 62
7
  6
CONTINUOUS
 10
11.5459144568
 20
-10.560037644
 11
11.5459144568
 21
-7.2941565368
  0
LINE
  5
281
100
AcDbEntity
  8
0
100
AcDbLine
 62
7
  6
CONTINUOUS
 10
11.8994678474
 20
-7.0900192401
 11
11.8994678474
 21
-10.3559003473
  0
LINE
  5
282
100
AcDbEntity
  8
ASSI
100
AcDbLine
 62
7
  6
CONTINUOUS
 10
11.8994678474
 20
-7.0900192401
 11
11.8994678474
 21
-10.3559003473
  0
LINE
  5
283
100
AcDbEntity
  8
0
100
AcDbLine
 62
250
  6
CONTINUOUS
 10
11.8994678474
 20
-7.0900192401
 11
11.5459144568
 21
-7.2941565368
  0
LINE
  5
284
100
AcDbEntity
  8
ASSI
100
AcDbLine
 62
250
  6
CONTINUOUS
 10
11.8994678474
 20
-7.0900192401
 11
11.5459144568
 21
-7.2941565368
  0
LINE
  5
285
100
AcDbEntity
  8
0
100
AcDbLine
 62
7
  6
CONTINUOUS
 10
40.9654875612
 20
9.688540272
 11
45.0274205459
 21
12.0338341742
  0
LINE
  5
286
100
AcDbEntity
  8
ASSI
100
AcDbLine
 62
7
  6
CONTINUOUS
 10
40.9654875612
 20
9.688540272
 11
45.0274205459
 21
12.0338341742
  0
LINE
  5
287
100
AcDbEntity
  8
0
100
AcDbLine
 62
250
  6
CONTINUOUS
 10
11.8994678474
 20
-10.3559003473
 11
11.5459144568
 21
-10.560037644
  0
LINE
  5
288
100
AcDbEntity
  8
ASSI
100
AcDbLine
 62
250
  6
CONTINUOUS
 10
11.8994678474
 20
-10.3559003473
 11
11.5459144568
 21
-10.560037644
  0
LINE
  5
289
100
AcDbEntity
  8
0
100
AcDbLine
 62
250
  6
CONTINUOUS
 10
-21.9709469715
 20
11.0782001629
 11
-20.2738906966
 21
11.0782001629
  0
LINE
  5
28A
100
AcDbEntity
  8
ASSI
100
AcDbLine
 62
250
  6
CONTINUOUS
 10
-21.9709469715
 20
11.0782001629
 11
-20.2738906966
 21
11.0782001629
  0
LINE
  5
28B
100
AcDbEntity
  8
0
100
AcDbLine
 62
7
  6
CONTINUOUS
 10
16.4956619251
 20
-11.1319377141
 11
16.4956619251
 21
-14.3978188213
  0
LINE
  5
28C
100
AcDbEntity
  8
ASSI
100
AcDbLine
 62
7
  6
CONTINUOUS
 10
16.4956619251
 20
-11.1319377141
 11
16.4956619251
 21
-14.3978188213
  0
LINE
  5
28D
100
AcDbEntity
  8
0
100
AcDbLine
 62
7
  6
CONTINUOUS
 10
39.2480511443
 20
9.8361174348
 11
40.2575878617
 21
10.8894120305
  0
LINE
  5
28E
100
AcDbEntity
  8
ASSI
100
AcDbLine
 62
7
  6
CONTINUOUS
 10
39.2480511443
 20
9.8361174348
 11
40.2575878617
 21
10.8894120305
  0
LINE
  5
28F
100
AcDbEntity
  8
0
100
AcDbLine
 62
7
  6
CONTINUOUS
 10
40.9439862093
 20
9.7005352194
 11
40.9654875612
 21
9.688540272
  0
LINE
  5
290
100
AcDbEntity
  8
ASSI
100
AcDbLine
 62
7
  6
CONTINUOUS
 10
40.9439862093
 20
9.7005352194
 11
40.9654875612
 21
9.688540272
  0
LINE
  5
291
100
AcDbEntity
  8
0
100
AcDbLine
 62
7
  6
CONTINUOUS
 10
39.2480511443
 20
9.8361174348
 11
-44.7233361907
 21
58.3201440733
  0
LINE
  5
292
100
AcDbEntity
  8
ASSI
100
AcDbLine
 62
7
  6
CONTINUOUS
 10
39.2480511443
 20
9.8361174348
 11
-44.7233361907
 21
58.3201440733
  0
LINE
  5
293
100
AcDbEntity
  8
0
100
AcDbLine
 62
7
  6
CONTINUOUS
 10
40.2579502919
 20
10.9140307694
 11
-44.3198832767
 21
59.7482118627
  0
LINE
  5
294
100
AcDbEntity
  8
ASSI
100
AcDbLine
 62
7
  6
CONTINUOUS
 10
40.2579502919
 20
10.9140307694
 11
-44.3198832767
 21
59.7482118627
  0
LINE
  5
295
100
AcDbEntity
  8
0
100
AcDbLine
 62
7
  6
CONTINUOUS
 10
44.3198832767
 20
13.2593246716
 11
-40.5320694895
 21
62.251778754
  0
LINE
  5
296
100
AcDbEntity
  8
ASSI
100
AcDbLine
 62
7
  6
CONTINUOUS
 10
44.3198832767
 20
13.2593246716
 11
-40.5320694895
 21
62.251778754
  0
LINE
  5
297
100
AcDbEntity
  8
0
100
AcDbLine
 62
7
  6
CONTINUOUS
 10
39.5270270784
 20
-61.4787166561
 11
39.5270270784
 21
9.3529169433
  0
LINE
  5
298
100
AcDbEntity
  8
ASSI
100
AcDbLine
 62
7
  6
CONTINUOUS
 10
39.5270270784
 20
-61.4787166561
 11
39.5270270784
 21
9.3529169433
  0
LINE
  5
299
100
AcDbEntity
  8
0
100
AcDbLine
 62
7
  6
CONTINUOUS
 10
40.9654875612
 20
-61.8433345602
 11
40.9654875612
 21
9.688540272
  0
LINE
  5
29A
100
AcDbEntity
  8
ASSI
100
AcDbLine
 62
7
  6
CONTINUOUS
 10
40.9654875612
 20
-61.8433345602
 11
40.9654875612
 21
9.688540272
  0
LINE
  5
29B
100
AcDbEntity
  8
0
100
AcDbLine
 62
7
  6
CONTINUOUS
 10
40.2579502919
 20
10.9140307694
 11
40.2575878617
 21
10.8894120305
  0
LINE
  5
29C
100
AcDbEntity
  8
ASSI
100
AcDbLine
 62
7
  6
CONTINUOUS
 10
40.2579502919
 20
10.9140307694
 11
40.2575878617
 21
10.8894120305
  0
LINE
  5
29D
100
AcDbEntity
  8
0
100
AcDbLine
 62
7
  6
CONTINUOUS
 10
39.5270270784
 20
9.3529169433
 11
39.2480511443
 21
9.8361174348
  0
LINE
  5
29E
100
AcDbEntity
  8
ASSI
100
AcDbLine
 62
7
  6
CONTINUOUS
 10
39.5270270784
 20
9.3529169433
 11
39.2480511443
 21
9.8361174348
  0
LINE
  5
29F
100
AcDbEntity
  8
0
100
AcDbLine
 62
7
  6
CONTINUOUS
 10
40.9439862093
 20
9.7005352194
 11
40.2575878617
 21
10.8894120305
  0
LINE
  5
2A0
100
AcDbEntity
  8
ASSI
100
AcDbLine
 62
7
  6
CONTINUOUS
 10
40.9439862093
 20
9.7005352194
 11
40.2575878617
 21
10.8894120305
  0
LINE
  5
2A1
100
AcDbEntity
  8
CURVE
100
AcDbLine
 62
250
  6
CONTINUOUS
 10
42.0963309347
 20
-54.6455849069
 11
42.0963309347
 21
-55.071613382
  0
LINE
  5
2A2
100
AcDbEntity
  8
CURVE
100
AcDbLine
 62
250
  6
CONTINUOUS
 10
42.0964399064
 20
-56.9081629569
 11
42.0964399064
 21
-56.4453647428
  0
LINE
  5
2A3
100
AcDbEntity
  8
CURVE
100
AcDbLine
 62
250
  6
CONTINUOUS
 10
42.0964399064
 20
-55.6553921924
 11
42.0964399064
 21
-55.2296551971
  0
LINE
  5
2A4
100
AcDbEntity
  8
CURVE
100
AcDbLine
 62
250
  6
CONTINUOUS
 10
42.0964399064
 20
-54.2318950436
 11
42.0964399064
 21
-53.8062192836
  0
LINE
  5
2A5
100
AcDbEntity
  8
CURVE
100
AcDbLine
 62
250
  6
CONTINUOUS
 10
42.0964399064
 20
-52.9586619011
 11
42.0964399064
 21
-52.5371485066
  0
LINE
  5
2A6
100
AcDbEntity
  8
CURVE
100
AcDbLine
 62
250
  6
CONTINUOUS
 10
42.0964399064
 20
-51.6392230726
 11
42.0964399064
 21
-51.227091738
  0
LINE
  5
2A7
100
AcDbEntity
  8
CURVE
100
AcDbLine
 62
250
  6
CONTINUOUS
 10
42.9097646912
 20
-49.3842007395
 11
42.9097646912
 21
-49.6276717307
  0
LINE
  5
2A8
100
AcDbEntity
  8
CURVE
100
AcDbLine
 62
250
  6
CONTINUOUS
 10
43.209178179
 20
-49.452334305
 11
43.209178179
 21
-49.2239080702
  0
LINE
  5
2A9
100
AcDbEntity
  8
CURVE
100
AcDbLine
 62
250
  6
CONTINUOUS
 10
43.2772455626
 20
-51.0175160448
 11
43.2772455626
 21
-50.6096238239
  0
LINE
  5
2AA
100
AcDbEntity
  8
CURVE
100
AcDbLine
 62
250
  6
CONTINUOUS
 10
43.5596592572
 20
-50.3724244093
 11
43.5596592572
 21
-50.9526041056
  0
LINE
  5
2AB
100
AcDbEntity
  8
CURVE
100
AcDbLine
 62
250
  6
CONTINUOUS
 10
43.924631083
 20
-54.0872154023
 11
43.924631083
 21
-53.6611869272
  0
LINE
  5
2AC
100
AcDbEntity
  8
CURVE
100
AcDbLine
 62
250
  6
CONTINUOUS
 10
43.9246310951
 20
-49.4914325069
 11
43.9246310951
 21
-49.0671183405
  0
LINE
  5
2AD
100
AcDbEntity
  8
CURVE
100
AcDbLine
 62
250
  6
CONTINUOUS
 10
43.9246310951
 20
-48.4147146479
 11
43.9246310951
 21
-48.0049248698
  0
LINE
  5
2AE
100
AcDbEntity
  8
CURVE
100
AcDbLine
 62
250
  6
CONTINUOUS
 10
43.924631083
 20
-49.6165352417
 11
43.924631083
 21
-50.0655514375
  0
LINE
  5
2AF
100
AcDbEntity
  8
CURVE
100
AcDbLine
 62
250
  6
CONTINUOUS
 10
43.924631083
 20
-50.873652894
 11
43.924631083
 21
-51.2950585144
  0
LINE
  5
2B0
100
AcDbEntity
  8
CURVE
100
AcDbLine
 62
250
  6
CONTINUOUS
 10
43.924631083
 20
-51.361956823
 11
43.924631083
 21
-51.7787257087
  0
LINE
  5
2B1
100
AcDbEntity
  8
CURVE
100
AcDbLine
 62
250
  6
CONTINUOUS
 10
43.924631083
 20
-52.3728017292
 11
43.924631083
 21
-52.432552657
  0
LINE
  5
2B2
100
AcDbEntity
  8
CURVE
100
AcDbLine
 62
250
  6
CONTINUOUS
 10
43.924631083
 20
-53.0242723442
 11
43.924631083
 21
-53.4318428758
  0
LINE
  5
2B3
100
AcDbEntity
  8
CURVE
100
AcDbLine
 62
250
  6
CONTINUOUS
 10
43.924631083
 20
-54.9013620047
 11
43.924631083
 21
-55.2767995321
  0
LINE
  5
2B4
100
AcDbEntity
  8
0
100
AcDbLine
 62
7
  6
CONTINUOUS
 10
45.0274205459
 20
-59.8145560459
 11
45.0274205459
 21
12.0338341742
  0
LINE
  5
2B5
100
AcDbEntity
  8
ASSI
100
AcDbLine
 62
7
  6
CONTINUOUS
 10
45.0274205459
 20
-59.8145560459
 11
45.0274205459
 21
12.0338341742
  0
LINE
  5
2B6
100
AcDbEntity
  8
0
100
AcDbLine
 62
7
  6
CONTINUOUS
 10
44.3198832767
 20
13.2593246716
 11
45.0274205459
 21
12.0338341742
  0
LINE
  5
2B7
100
AcDbEntity
  8
ASSI
100
AcDbLine
 62
7
  6
CONTINUOUS
 10
44.3198832767
 20
13.2593246716
 11
45.0274205459
 21
12.0338341742
  0
LINE
  5
2B8
100
AcDbEntity
  8
CURVE
100
AcDbLine
 62
7
  6
CONTINUOUS
 10
42.1744926139
 20
-49.3011254834
 11
42.7011900548
 21
-48.7744280425
  0
LINE
  5
2B9
100
AcDbEntity
  8
CURVE
100
AcDbLine
 62
7
  6
CONTINUOUS
 10
42.0987986349
 20
-49.5868301764
 11
42.9282546066
 21
-48.7573742047
  0
LINE
  5
2BA
100
AcDbEntity
  8
CURVE
100
AcDbLine
 62
7
  6
CONTINUOUS
 10
42.0781787566
 20
-49.8174607687
 11
42.4159913533
 21
-49.479648172
  0
LINE
  5
2BB
100
AcDbEntity
  8
CURVE
100
AcDbLine
 62
7
  6
CONTINUOUS
 10
42.7278458883
 20
-49.167793637
 11
43.0537082286
 21
-48.8419312967
  0
LINE
  5
2BC
100
AcDbEntity
  8
CURVE
100
AcDbLine
 62
7
  6
CONTINUOUS
 10
43.090031066
 20
-48.8056084593
 11
43.7230073065
 21
-48.1726322188
  0
LINE
  5
2BD
100
AcDbEntity
  8
CURVE
100
AcDbLine
 62
7
  6
CONTINUOUS
 10
42.0771265901
 20
-50.0285236492
 11
42.3908272576
 21
-49.7148229817
  0
LINE
  5
2BE
100
AcDbEntity
  8
CURVE
100
AcDbLine
 62
7
  6
CONTINUOUS
 10
42.8788565349
 20
-49.2267937044
 11
43.9246310951
 21
-48.1810191442
  0
LINE
  5
2BF
100
AcDbEntity
  8
CURVE
100
AcDbLine
 62
7
  6
CONTINUOUS
 10
42.0894101817
 20
-50.2262507716
 11
42.4292917914
 21
-49.8863691619
  0
LINE
  5
2C0
100
AcDbEntity
  8
CURVE
100
AcDbLine
 62
7
  6
CONTINUOUS
 10
42.9097646912
 20
-49.4058962621
 11
43.2460031381
 21
-49.0696578152
  0
LINE
  5
2C1
100
AcDbEntity
  8
CURVE
100
AcDbLine
 62
7
  6
CONTINUOUS
 10
43.7506656584
 20
-48.5649952949
 11
43.9246310951
 21
-48.3910298582
  0
LINE
  5
2C2
100
AcDbEntity
  8
CURVE
100
AcDbLine
 62
7
  6
CONTINUOUS
 10
42.1112074651
 20
-50.4144642022
 11
42.8842765443
 21
-49.6413951231
  0
LINE
  5
2C3
100
AcDbEntity
  8
CURVE
100
AcDbLine
 62
7
  6
CONTINUOUS
 10
42.9097646912
 20
-49.6159069761
 11
43.209178179
 21
-49.3164934883
  0
LINE
  5
2C4
100
AcDbEntity
  8
CURVE
100
AcDbLine
 62
7
  6
CONTINUOUS
 10
42.4505963872
 20
-50.2850859942
 11
43.3698660399
 21
-49.3658163415
  0
LINE
  5
2C5
100
AcDbEntity
  8
CURVE
100
AcDbLine
 62
7
  6
CONTINUOUS
 10
42.90558114
 20
-50.0401119554
 11
43.8248507927
 21
-49.1208423027
  0
LINE
  5
2C6
100
AcDbEntity
  8
CURVE
100
AcDbLine
 62
7
  6
CONTINUOUS
 10
43.3605658928
 20
-49.7951379166
 11
43.9246310951
 21
-49.2310727143
  0
LINE
  5
2C7
100
AcDbEntity
  8
CURVE
100
AcDbLine
 62
7
  6
CONTINUOUS
 10
42.0964399064
 20
-51.269274617
 11
42.4507876925
 21
-50.9149268309
  0
LINE
  5
2C8
100
AcDbEntity
  8
CURVE
100
AcDbLine
 62
7
  6
CONTINUOUS
 10
43.8155506456
 20
-49.5501638778
 11
43.9246310951
 21
-49.4410834283
  0
LINE
  5
2C9
100
AcDbEntity
  8
CURVE
100
AcDbLine
 62
7
  6
CONTINUOUS
 10
42.0964399064
 20
-51.479285331
 11
43.924631083
 21
-49.6510941544
  0
LINE
  5
2CA
100
AcDbEntity
  8
CURVE
100
AcDbLine
 62
7
  6
CONTINUOUS
 10
42.158125435
 20
-51.6276105164
 11
42.6197881647
 21
-51.1659477867
  0
LINE
  5
2CB
100
AcDbEntity
  8
CURVE
100
AcDbLine
 62
7
  6
CONTINUOUS
 10
42.6927780416
 20
-51.0929579098
 11
43.924631083
 21
-49.8611048684
  0
LINE
  5
2CC
100
AcDbEntity
  8
CURVE
100
AcDbLine
 62
7
  6
CONTINUOUS
 10
42.416840292
 20
-51.5789063735
 11
42.8910379454
 21
-51.10470872
  0
LINE
  5
2CD
100
AcDbEntity
  8
CURVE
100
AcDbLine
 62
7
  6
CONTINUOUS
 10
43.2772455626
 20
-50.7185011028
 11
43.5596592572
 21
-50.4360874082
  0
LINE
  5
2CE
100
AcDbEntity
  8
CURVE
100
AcDbLine
 62
7
  6
CONTINUOUS
 10
42.6755551489
 20
-51.5302022305
 11
43.1622877262
 21
-51.0434696533
  0
LINE
  5
2CF
100
AcDbEntity
  8
CURVE
100
AcDbLine
 62
7
  6
CONTINUOUS
 10
43.2772455626
 20
-50.9285118168
 11
43.5596592572
 21
-50.6460981222
  0
LINE
  5
2D0
100
AcDbEntity
  8
CURVE
100
AcDbLine
 62
7
  6
CONTINUOUS
 10
42.9342700059
 20
-51.4814980875
 11
43.5596592572
 21
-50.8561088363
  0
LINE
  5
2D1
100
AcDbEntity
  8
CURVE
100
AcDbLine
 62
7
  6
CONTINUOUS
 10
43.1929848629
 20
-51.4327939446
 11
43.7045087437
 21
-50.9212700638
  0
LINE
  5
2D2
100
AcDbEntity
  8
CURVE
100
AcDbLine
 62
7
  6
CONTINUOUS
 10
42.0964399064
 20
-52.7393496151
 11
42.6625387877
 21
-52.1732507338
  0
LINE
  5
2D3
100
AcDbEntity
  8
CURVE
100
AcDbLine
 62
7
  6
CONTINUOUS
 10
43.4516997199
 20
-51.3840898016
 11
43.924631083
 21
-50.9111584384
  0
LINE
  5
2D4
100
AcDbEntity
  8
CURVE
100
AcDbLine
 62
7
  6
CONTINUOUS
 10
42.0964399064
 20
-52.9493603291
 11
43.2505020839
 21
-51.7952981516
  0
LINE
  5
2D5
100
AcDbEntity
  8
CURVE
100
AcDbLine
 62
7
  6
CONTINUOUS
 10
43.7104145769
 20
-51.3353856586
 11
43.924631083
 21
-51.1211691525
  0
LINE
  5
2D6
100
AcDbEntity
  8
CURVE
100
AcDbLine
 62
250
  6
CONTINUOUS
 10
42.0964399064
 20
-51.227091738
 11
43.924631083
 21
-49.6165352417
  0
LINE
  5
2D7
100
AcDbEntity
  8
CURVE
100
AcDbLine
 62
250
  6
CONTINUOUS
 10
43.924631083
 20
-50.0655514375
 11
43.5596592572
 21
-50.3724244093
  0
LINE
  5
2D8
100
AcDbEntity
  8
CURVE
100
AcDbLine
 62
250
  6
CONTINUOUS
 10
43.2772455626
 20
-50.6096238239
 11
42.5987804353
 21
-51.1706906246
  0
LINE
  5
2D9
100
AcDbEntity
  8
CURVE
100
AcDbLine
 62
250
  6
CONTINUOUS
 10
42.0964399064
 20
-52.5371485066
 11
43.924631083
 21
-51.361956823
  0
LINE
  5
2DA
100
AcDbEntity
  8
CURVE
100
AcDbLine
 62
250
  6
CONTINUOUS
 10
43.924631083
 20
-51.7787257087
 11
42.7358331935
 21
-52.506330148
  0
LINE
  5
2DB
100
AcDbEntity
  8
CURVE
100
AcDbLine
 62
250
  6
CONTINUOUS
 10
43.0712478173
 20
-48.8556152283
 11
43.0604448031
 21
-48.8614318145
  0
LINE
  5
2DC
100
AcDbEntity
  8
CURVE
100
AcDbLine
 62
250
  6
CONTINUOUS
 10
43.9246310951
 20
-49.0671183405
 11
43.209178179
 21
-49.452334305
  0
LINE
  5
2DD
100
AcDbEntity
  8
CURVE
100
AcDbLine
 62
250
  6
CONTINUOUS
 10
42.9097646912
 20
-49.6276717307
 11
42.4078906545
 21
-49.897892016
  0
LINE
  5
2DE
100
AcDbEntity
  8
CURVE
100
AcDbLine
 62
250
  6
CONTINUOUS
 10
42.1177995647
 20
-50.4642712992
 11
43.9246310951
 21
-49.4914325069
  0
LINE
  5
2DF
100
AcDbEntity
  8
CURVE
100
AcDbLine
 62
250
  6
CONTINUOUS
 10
42.730857063
 20
-53.5750901621
 11
43.924631083
 21
-53.0242723442
  0
LINE
  5
2E0
100
AcDbEntity
  8
CURVE
100
AcDbLine
 62
250
  6
CONTINUOUS
 10
43.924631083
 20
-53.4318428758
 11
42.0964399064
 21
-54.2318950436
  0
LINE
  5
2E1
100
AcDbEntity
  8
CURVE
100
AcDbLine
 62
7
  6
CONTINUOUS
 10
42.3241813113
 20
-52.9316296382
 11
42.7512077003
 21
-52.5046032492
  0
LINE
  5
2E2
100
AcDbEntity
  8
CURVE
100
AcDbLine
 62
7
  6
CONTINUOUS
 10
42.771012027
 20
-52.4847989225
 11
43.83846538
 21
-51.4173455695
  0
LINE
  5
2E3
100
AcDbEntity
  8
CURVE
100
AcDbLine
 62
7
  6
CONTINUOUS
 10
42.5624770588
 20
-52.9033446047
 11
42.9877920993
 21
-52.4780295642
  0
LINE
  5
2E4
100
AcDbEntity
  8
CURVE
100
AcDbLine
 62
7
  6
CONTINUOUS
 10
43.3123473244
 20
-52.1534743391
 11
43.924631083
 21
-51.5411905805
  0
LINE
  5
2E5
100
AcDbEntity
  8
CURVE
100
AcDbLine
 62
7
  6
CONTINUOUS
 10
42.8007728064
 20
-52.8750595711
 11
43.2243764984
 21
-52.4514558791
  0
LINE
  5
2E6
100
AcDbEntity
  8
CURVE
100
AcDbLine
 62
7
  6
CONTINUOUS
 10
43.8536826219
 20
-51.8221497556
 11
43.924631083
 21
-51.7512012945
  0
LINE
  5
2E7
100
AcDbEntity
  8
CURVE
100
AcDbLine
 62
7
  6
CONTINUOUS
 10
43.039068554
 20
-52.8467745376
 11
43.4609608975
 21
-52.4248821941
  0
LINE
  5
2E8
100
AcDbEntity
  8
CURVE
100
AcDbLine
 62
7
  6
CONTINUOUS
 10
42.0964399064
 20
-53.9994138992
 11
43.6975452966
 21
-52.398308509
  0
LINE
  5
2E9
100
AcDbEntity
  8
CURVE
100
AcDbLine
 62
7
  6
CONTINUOUS
 10
42.0964399064
 20
-54.2094246132
 11
43.924631083
 21
-52.3812334365
  0
LINE
  5
2EA
100
AcDbEntity
  8
CURVE
100
AcDbLine
 62
7
  6
CONTINUOUS
 10
42.4299157192
 20
-54.0859595143
 11
43.120629495
 21
-53.3952457385
  0
LINE
  5
2EB
100
AcDbEntity
  8
CURVE
100
AcDbLine
 62
7
  6
CONTINUOUS
 10
42.8033474547
 20
-53.9225384929
 11
43.5105554861
 21
-53.2153304615
  0
LINE
  5
2EC
100
AcDbEntity
  8
CURVE
100
AcDbLine
 62
7
  6
CONTINUOUS
 10
42.0963309347
 20
-54.8395657269
 11
42.5165871862
 21
-54.4193094754
  0
LINE
  5
2ED
100
AcDbEntity
  8
CURVE
100
AcDbLine
 62
7
  6
CONTINUOUS
 10
43.1767791901
 20
-53.7591174715
 11
43.9004814771
 21
-53.0354151845
  0
LINE
  5
2EE
100
AcDbEntity
  8
CURVE
100
AcDbLine
 62
7
  6
CONTINUOUS
 10
42.0963309347
 20
-55.0495764409
 11
42.971571939
 21
-54.1743354366
  0
LINE
  5
2EF
100
AcDbEntity
  8
CURVE
100
AcDbLine
 62
7
  6
CONTINUOUS
 10
43.5502109256
 20
-53.59569645
 11
43.924631083
 21
-53.2212762926
  0
LINE
  5
2F0
100
AcDbEntity
  8
CURVE
100
AcDbLine
 62
7
  6
CONTINUOUS
 10
42.0964399064
 20
-55.2594781833
 11
42.1327904586
 21
-55.223127631
  0
LINE
  5
2F1
100
AcDbEntity
  8
CURVE
100
AcDbLine
 62
7
  6
CONTINUOUS
 10
42.5035730176
 20
-54.852345072
 11
43.4265566918
 21
-53.9293613978
  0
LINE
  5
2F2
100
AcDbEntity
  8
CURVE
100
AcDbLine
 62
7
  6
CONTINUOUS
 10
43.923642661
 20
-53.4322754286
 11
43.924631083
 21
-53.4312870066
  0
LINE
  5
2F3
100
AcDbEntity
  8
CURVE
100
AcDbLine
 62
7
  6
CONTINUOUS
 10
42.0964399064
 20
-55.4694888973
 11
42.3887676907
 21
-55.1771611129
  0
LINE
  5
2F4
100
AcDbEntity
  8
CURVE
100
AcDbLine
 62
7
  6
CONTINUOUS
 10
42.9585577704
 20
-54.6073710332
 11
43.8815414446
 21
-53.684387359
  0
LINE
  5
2F5
100
AcDbEntity
  8
CURVE
100
AcDbLine
 62
7
  6
CONTINUOUS
 10
42.1273397585
 20
-55.6485997591
 11
42.6447449228
 21
-55.1311945949
  0
LINE
  5
2F6
100
AcDbEntity
  8
CURVE
100
AcDbLine
 62
7
  6
CONTINUOUS
 10
43.4135425232
 20
-54.3623969944
 11
43.924631083
 21
-53.8513084346
  0
LINE
  5
2F7
100
AcDbEntity
  8
CURVE
100
AcDbLine
 62
7
  6
CONTINUOUS
 10
42.3965224549
 20
-55.5894277768
 11
42.9007221548
 21
-55.0852280769
  0
LINE
  5
2F8
100
AcDbEntity
  8
CURVE
100
AcDbLine
 62
7
  6
CONTINUOUS
 10
43.868527276
 20
-54.1174229556
 11
43.924631083
 21
-54.0613191486
  0
LINE
  5
2F9
100
AcDbEntity
  8
CURVE
100
AcDbLine
 62
7
  6
CONTINUOUS
 10
42.6657051512
 20
-55.5302557944
 11
43.1566993869
 21
-55.0392615588
  0
LINE
  5
2FA
100
AcDbEntity
  8
CURVE
100
AcDbLine
 62
7
  6
CONTINUOUS
 10
42.9348878476
 20
-55.4710838121
 11
43.4126766189
 21
-54.9932950408
  0
LINE
  5
2FB
100
AcDbEntity
  8
CURVE
100
AcDbLine
 62
7
  6
CONTINUOUS
 10
42.0964399064
 20
-56.5195424673
 11
42.5831064703
 21
-56.0328759034
  0
LINE
  5
2FC
100
AcDbEntity
  8
CURVE
100
AcDbLine
 62
7
  6
CONTINUOUS
 10
43.2040705439
 20
-55.4119118298
 11
43.668653851
 21
-54.9473285227
  0
LINE
  5
2FD
100
AcDbEntity
  8
CURVE
100
AcDbLine
 62
7
  6
CONTINUOUS
 10
42.0964399064
 20
-56.7295531813
 11
43.924631083
 21
-54.9013620047
  0
LINE
  5
2FE
100
AcDbEntity
  8
CURVE
100
AcDbLine
 62
7
  6
CONTINUOUS
 10
42.3881006002
 20
-56.6479032015
 11
43.924631083
 21
-55.1113727187
  0
LINE
  5
2FF
100
AcDbEntity
  8
CURVE
100
AcDbLine
 62
250
  6
CONTINUOUS
 10
43.924631083
 20
-52.432552657
 11
42.730857063
 21
-53.5750901621
  0
LINE
  5
300
100
AcDbEntity
  8
CURVE
100
AcDbLine
 62
250
  6
CONTINUOUS
 10
42.0964399064
 20
-53.8062192836
 11
43.111457186
 21
-52.838182211
  0
LINE
  5
301
100
AcDbEntity
  8
CURVE
100
AcDbLine
 62
250
  6
CONTINUOUS
 10
43.924631083
 20
-55.2767995321
 11
42.0964399064
 21
-56.9081629569
  0
LINE
  5
302
100
AcDbEntity
  8
CURVE
100
AcDbLine
 62
250
  6
CONTINUOUS
 10
42.0964399064
 20
-56.4453647428
 11
43.3548407276
 21
-55.3787693924
  0
LINE
  5
303
100
AcDbEntity
  8
0
100
AcDbLine
 62
7
  6
CONTINUOUS
 10
39.2480511443
 20
-61.6397627316
 11
39.5270270784
 21
-61.4787166561
  0
LINE
  5
304
100
AcDbEntity
  8
ASSI
100
AcDbLine
 62
7
  6
CONTINUOUS
 10
39.2480511443
 20
-61.6397627316
 11
39.5270270784
 21
-61.4787166561
  0
LINE
  5
305
100
AcDbEntity
  8
0
100
AcDbLine
 62
7
  6
CONTINUOUS
 10
40.2575878617
 20
-62.2511373164
 11
40.9439862093
 21
-61.8548961119
  0
LINE
  5
306
100
AcDbEntity
  8
ASSI
100
AcDbLine
 62
7
  6
CONTINUOUS
 10
40.2575878617
 20
-62.2511373164
 11
40.9439862093
 21
-61.8548961119
  0
LINE
  5
307
100
AcDbEntity
  8
0
100
AcDbLine
 62
7
  6
CONTINUOUS
 10
45.0274205459
 20
-59.8145560459
 11
44.3198832767
 21
-60.2230002398
  0
LINE
  5
308
100
AcDbEntity
  8
ASSI
100
AcDbLine
 62
7
  6
CONTINUOUS
 10
45.0274205459
 20
-59.8145560459
 11
44.3198832767
 21
-60.2230002398
  0
LINE
  5
309
100
AcDbEntity
  8
CURVE
100
AcDbLine
 62
250
  6
CONTINUOUS
 10
43.924631083
 20
-53.6611869272
 11
42.0963309347
 21
-54.6455849069
  0
LINE
  5
30A
100
AcDbEntity
  8
CURVE
100
AcDbLine
 62
250
  6
CONTINUOUS
 10
42.0963309347
 20
-55.071613382
 11
43.924631083
 21
-54.0872154023
  0
LINE
  5
30B
100
AcDbEntity
  8
0
100
AcDbLine
 62
7
  6
CONTINUOUS
 10
40.9654875612
 20
-61.8433345602
 11
40.9439862093
 21
-61.8548961119
  0
LINE
  5
30C
100
AcDbEntity
  8
ASSI
100
AcDbLine
 62
7
  6
CONTINUOUS
 10
40.9654875612
 20
-61.8433345602
 11
40.9439862093
 21
-61.8548961119
  0
LINE
  5
30D
100
AcDbEntity
  8
0
100
AcDbLine
 62
7
  6
CONTINUOUS
 10
40.9654875612
 20
-61.8433345602
 11
45.0274205459
 21
-59.8145560459
  0
LINE
  5
30E
100
AcDbEntity
  8
ASSI
100
AcDbLine
 62
7
  6
CONTINUOUS
 10
40.9654875612
 20
-61.8433345602
 11
45.0274205459
 21
-59.8145560459
  0
LINE
  5
30F
100
AcDbEntity
  8
0
100
AcDbLine
 62
7
  6
CONTINUOUS
 10
40.2579502919
 20
-62.251778754
 11
44.3198832767
 21
-60.2230002398
  0
LINE
  5
310
100
AcDbEntity
  8
ASSI
100
AcDbLine
 62
7
  6
CONTINUOUS
 10
40.2579502919
 20
-62.251778754
 11
44.3198832767
 21
-60.2230002398
  0
ARC
  5
311
100
AcDbEntity
  8
0
100
AcDbCircle
 62
7
  6
CONTINUOUS
 10
-16.1543039116
 20
8.186137454
 40
3.7661262153
100
AcDbArc
 50
182.4266424488
 51
182.5767787787
  0
ARC
  5
312
100
AcDbEntity
  8
ASSI
100
AcDbCircle
 62
7
  6
CONTINUOUS
 10
-16.1543039115
 20
8.186137454
 40
3.7661262154
100
AcDbArc
 50
182.4266424488
 51
182.5767787787
  0
ARC
  5
313
100
AcDbEntity
  8
0
100
AcDbCircle
 62
7
  6
CONTINUOUS
 10
-0.2444013373
 20
-1.000040896
 40
3.7661262128
100
AcDbArc
 50
182.4266424487
 51
182.5767787787
  0
ARC
  5
314
100
AcDbEntity
  8
0
100
AcDbCircle
 62
7
  6
CONTINUOUS
 10
15.6655012396
 20
-10.1862192459
 40
3.766126213
100
AcDbArc
 50
182.4266424487
 51
182.5767787787
  0
ARC
  5
315
100
AcDbEntity
  8
ASSI
100
AcDbCircle
 62
7
  6
CONTINUOUS
 10
-0.2444013373
 20
-1.000040896
 40
3.7661262128
100
AcDbArc
 50
182.4266424487
 51
182.5767787787
  0
ARC
  5
316
100
AcDbEntity
  8
ASSI
100
AcDbCircle
 62
7
  6
CONTINUOUS
 10
15.6655012396
 20
-10.1862192459
 40
3.766126213
100
AcDbArc
 50
182.4266424487
 51
182.5767787787
  0
ARC
  5
317
100
AcDbEntity
  8
0
100
AcDbCircle
 62
7
  6
CONTINUOUS
 10
-16.7656059533
 20
11.2835822484
 40
3.1547315983
100
AcDbArc
 50
177.4672689404
 51
180.022607675
  0
ARC
  5
318
100
AcDbEntity
  8
0
100
AcDbCircle
 62
7
  6
CONTINUOUS
 10
-0.8557033766
 20
2.0974038985
 40
3.1547315983
100
AcDbArc
 50
177.4672689404
 51
180.022607675
  0
ARC
  5
319
100
AcDbEntity
  8
0
100
AcDbCircle
 62
7
  6
CONTINUOUS
 10
15.0541992001
 20
-7.0887744513
 40
3.1547315983
100
AcDbArc
 50
177.4672689404
 51
180.022607675
  0
ARC
  5
31A
100
AcDbEntity
  8
ASSI
100
AcDbCircle
 62
7
  6
CONTINUOUS
 10
-16.7656059533
 20
11.2835822484
 40
3.1547315983
100
AcDbArc
 50
177.4672689404
 51
180.022607675
  0
ARC
  5
31B
100
AcDbEntity
  8
ASSI
100
AcDbCircle
 62
7
  6
CONTINUOUS
 10
-0.8557033766
 20
2.0974038985
 40
3.1547315983
100
AcDbArc
 50
177.4672689404
 51
180.022607675
  0
ARC
  5
31C
100
AcDbEntity
  8
ASSI
100
AcDbCircle
 62
7
  6
CONTINUOUS
 10
15.0541992001
 20
-7.0887744513
 40
3.1547315983
100
AcDbArc
 50
177.4672689404
 51
180.022607675
  0
ARC
  5
31D
100
AcDbEntity
  8
0
100
AcDbCircle
 62
7
  6
CONTINUOUS
 10
-16.8797966736
 20
11.2882410415
 40
3.040446579
100
AcDbArc
 50
177.0332283937
 51
177.4598845736
  0
ARC
  5
31E
100
AcDbEntity
  8
ASSI
100
AcDbCircle
 62
7
  6
CONTINUOUS
 10
-16.8797966736
 20
11.2882410415
 40
3.040446579
100
AcDbArc
 50
177.0332283937
 51
177.4598845736
  0
ARC
  5
31F
100
AcDbEntity
  8
0
100
AcDbCircle
 62
7
  6
CONTINUOUS
 10
-0.9698940972
 20
2.1020626917
 40
3.0404465787
100
AcDbArc
 50
177.0332283937
 51
177.4598845737
  0
ARC
  5
320
100
AcDbEntity
  8
0
100
AcDbCircle
 62
7
  6
CONTINUOUS
 10
14.9400084796
 20
-7.0841156582
 40
3.0404465789
100
AcDbArc
 50
177.0332283937
 51
177.4598845736
  0
ARC
  5
321
100
AcDbEntity
  8
ASSI
100
AcDbCircle
 62
7
  6
CONTINUOUS
 10
-0.9698940972
 20
2.1020626917
 40
3.0404465787
100
AcDbArc
 50
177.0332283937
 51
177.4598845737
  0
ARC
  5
322
100
AcDbEntity
  8
ASSI
100
AcDbCircle
 62
7
  6
CONTINUOUS
 10
14.9400084796
 20
-7.0841156582
 40
3.0404465789
100
AcDbArc
 50
177.0332283937
 51
177.4598845736
  0
ARC
  5
323
100
AcDbEntity
  8
0
100
AcDbCircle
 62
7
  6
CONTINUOUS
 10
-2.6193086463
 20
2.5965856469
 40
1.2903836906
100
AcDbArc
 50
138.1430026808
 51
138.5537230987
  0
ARC
  5
324
100
AcDbEntity
  8
0
100
AcDbCircle
 62
7
  6
CONTINUOUS
 10
13.2905939303
 20
-6.5895927029
 40
1.2903836905
100
AcDbArc
 50
138.1430026807
 51
138.5537230987
  0
ARC
  5
325
100
AcDbEntity
  8
ASSI
100
AcDbCircle
 62
7
  6
CONTINUOUS
 10
-2.6193086463
 20
2.5965856469
 40
1.2903836906
100
AcDbArc
 50
138.1430026808
 51
138.5537230987
  0
ARC
  5
326
100
AcDbEntity
  8
ASSI
100
AcDbCircle
 62
7
  6
CONTINUOUS
 10
13.2905939303
 20
-6.5895927029
 40
1.2903836905
100
AcDbArc
 50
138.1430026807
 51
138.5537230987
  0
ARC
  5
327
100
AcDbEntity
  8
0
100
AcDbCircle
 62
7
  6
CONTINUOUS
 10
-18.5292112234
 20
11.7827639971
 40
1.2903836901
100
AcDbArc
 50
138.1430026807
 51
138.5537230987
  0
ARC
  5
328
100
AcDbEntity
  8
ASSI
100
AcDbCircle
 62
7
  6
CONTINUOUS
 10
-18.5292112234
 20
11.7827639971
 40
1.2903836901
100
AcDbArc
 50
138.1430026807
 51
138.5537230987
  0
ARC
  5
329
100
AcDbEntity
  8
0
100
AcDbCircle
 62
7
  6
CONTINUOUS
 10
-18.570199604
 20
11.8215244238
 40
1.233992149
100
AcDbArc
 50
129.9832946071
 51
138.2135216839
  0
ARC
  5
32A
100
AcDbEntity
  8
0
100
AcDbCircle
 62
7
  6
CONTINUOUS
 10
-2.6602970273
 20
2.6353460739
 40
1.233992149
100
AcDbArc
 50
129.9832946072
 51
138.2135216839
  0
ARC
  5
32B
100
AcDbEntity
  8
0
100
AcDbCircle
 62
7
  6
CONTINUOUS
 10
13.2496055494
 20
-6.5508322759
 40
1.233992149
100
AcDbArc
 50
129.9832946071
 51
138.2135216839
  0
ARC
  5
32C
100
AcDbEntity
  8
ASSI
100
AcDbCircle
 62
7
  6
CONTINUOUS
 10
-18.570199604
 20
11.8215244238
 40
1.233992149
100
AcDbArc
 50
129.9832946071
 51
138.2135216839
  0
ARC
  5
32D
100
AcDbEntity
  8
ASSI
100
AcDbCircle
 62
7
  6
CONTINUOUS
 10
-2.6602970273
 20
2.6353460739
 40
1.233992149
100
AcDbArc
 50
129.9832946072
 51
138.2135216839
  0
ARC
  5
32E
100
AcDbEntity
  8
ASSI
100
AcDbCircle
 62
7
  6
CONTINUOUS
 10
13.2496055494
 20
-6.5508322759
 40
1.233992149
100
AcDbArc
 50
129.9832946071
 51
138.2135216839
  0
ARC
  5
32F
100
AcDbEntity
  8
0
100
AcDbCircle
 62
7
  6
CONTINUOUS
 10
-16.3024652523
 20
4.6279901318
 40
1.2323685406
100
AcDbArc
 50
284.1706875207
 51
289.9734775507
  0
ARC
  5
330
100
AcDbEntity
  8
0
100
AcDbCircle
 62
7
  6
CONTINUOUS
 10
-0.3925626756
 20
-4.5581882181
 40
1.2323685406
100
AcDbArc
 50
284.1706875207
 51
289.9734775507
  0
ARC
  5
331
100
AcDbEntity
  8
0
100
AcDbCircle
 62
7
  6
CONTINUOUS
 10
15.5173399011
 20
-13.7443665679
 40
1.2323685406
100
AcDbArc
 50
284.1706875207
 51
289.9734775507
  0
ARC
  5
332
100
AcDbEntity
  8
ASSI
100
AcDbCircle
 62
7
  6
CONTINUOUS
 10
-16.3024652523
 20
4.6279901318
 40
1.2323685406
100
AcDbArc
 50
284.1706875207
 51
289.9734775507
  0
ARC
  5
333
100
AcDbEntity
  8
ASSI
100
AcDbCircle
 62
7
  6
CONTINUOUS
 10
-0.3925626756
 20
-4.5581882181
 40
1.2323685406
100
AcDbArc
 50
284.1706875207
 51
289.9734775507
  0
ARC
  5
334
100
AcDbEntity
  8
ASSI
100
AcDbCircle
 62
7
  6
CONTINUOUS
 10
15.5173399011
 20
-13.7443665679
 40
1.2323685406
100
AcDbArc
 50
284.1706875207
 51
289.9734775507
  0
SPLINE
  5
335
100
AcDbEntity
  8
0
100
AcDbSpline
 62
7
  6
CONTINUOUS
 70
0
 71
3
 72
11
 73
7
 74
0
 42
0.0000001
 43
0.0000001
 44
0.0000000001
 40
0.0
 40
0.0
 40
0.0
 40
0.0
 40
0.2831431636
 40
0.5426262077
 40
0.7800699581
 40
1.0
 40
1.0
 40
1.0
 40
1.0
 10
-17.4452243932
 20
3.7297149701
 30
0.0
 10
-17.3219007776
 20
3.6585232088
 30
0.0
 10
-17.0763225318
 20
3.5370086137
 30
0.0
 10
-16.699854739
 20
3.4199791608
 30
0.0
 10
-16.3391960275
 20
3.3793218104
 30
0.0
 10
-16.1080021652
 20
3.4060205007
 30
0.0
 10
-16.0007674015
 20
3.433121676
 30
0.0
  0
SPLINE
  5
336
100
AcDbEntity
  8
0
100
AcDbSpline
 62
7
  6
CONTINUOUS
 70
0
 71
3
 72
11
 73
7
 74
0
 42
0.0000001
 43
0.0000001
 44
0.0000000001
 40
0.0
 40
0.0
 40
0.0
 40
0.0
 40
0.2831431636
 40
0.5426262077
 40
0.7800699581
 40
1.0
 40
1.0
 40
1.0
 40
1.0
 10
-1.5353218165
 20
-5.4564633797
 30
0.0
 10
-1.4119982009
 20
-5.5276551411
 30
0.0
 10
-1.1664199551
 20
-5.6491697361
 30
0.0
 10
-0.7899521623
 20
-5.7661991891
 30
0.0
 10
-0.4292934508
 20
-5.8068565395
 30
0.0
 10
-0.1980995885
 20
-5.7801578492
 30
0.0
 10
-0.0908648248
 20
-5.7530566739
 30
0.0
  0
SPLINE
  5
337
100
AcDbEntity
  8
0
100
AcDbSpline
 62
7
  6
CONTINUOUS
 70
0
 71
3
 72
11
 73
7
 74
0
 42
0.0000001
 43
0.0000001
 44
0.0000000001
 40
0.0
 40
0.0
 40
0.0
 40
0.0
 40
0.2831431636
 40
0.5426262077
 40
0.7800699581
 40
1.0
 40
1.0
 40
1.0
 40
1.0
 10
14.3745807602
 20
-14.6426417296
 30
0.0
 10
14.4979043758
 20
-14.713833491
 30
0.0
 10
14.7434826216
 20
-14.835348086
 30
0.0
 10
15.1199504144
 20
-14.952377539
 30
0.0
 10
15.4806091259
 20
-14.9930348894
 30
0.0
 10
15.7118029882
 20
-14.9663361991
 30
0.0
 10
15.8190377519
 20
-14.9392350237
 30
0.0
  0
SPLINE
  5
338
100
AcDbEntity
  8
0
100
AcDbSpline
 62
7
  6
CONTINUOUS
 70
0
 71
3
 72
15
 73
11
 74
0
 42
0.0000001
 43
0.0000001
 44
0.0000000001
 40
0.0
 40
0.0
 40
0.0
 40
0.0
 40
0.114152814
 40
0.2373238404
 40
0.3669742789
 40
0.4999999752
 40
0.633025728
 40
0.7626765144
 40
0.8858441492
 40
1.0
 40
1.0
 40
1.0
 40
1.0
 10
-18.6478662831
 20
12.9969053044
 30
0.0
 10
-18.4203380011
 20
12.8655587592
 30
0.0
 10
-17.9709271618
 20
12.5505517847
 30
0.0
 10
-17.3525505204
 20
11.9720623311
 30
0.0
 10
-16.7826739753
 20
11.2882273625
 30
0.0
 10
-16.2827736452
 20
10.5246988902
 30
0.0
 10
-15.8714422279
 20
9.7100304991
 30
0.0
 10
-15.5641216402
 20
8.8746081016
 30
0.0
 10
-15.3722671107
 20
8.0498464828
 30
0.0
 10
-15.3241432274
 20
7.50314452
 30
0.0
 10
-15.3241432283
 20
7.2404189857
 30
0.0
  0
SPLINE
  5
339
100
AcDbEntity
  8
0
100
AcDbSpline
 62
7
  6
CONTINUOUS
 70
0
 71
3
 72
11
 73
7
 74
0
 42
0.0000001
 43
0.0000001
 44
0.0000000001
 40
0.0
 40
0.0
 40
0.0
 40
0.0
 40
0.2267380222
 40
0.4639929084
 40
0.7200685266
 40
1.0
 40
1.0
 40
1.0
 40
1.0
 10
-19.5491002708
 20
12.6802770081
 30
0.0
 10
-19.4573062128
 20
12.7332722231
 30
0.0
 10
-19.2534262895
 20
12.8159998533
 30
0.0
 10
-18.9160838491
 20
12.8574667335
 30
0.0
 10
-18.5540463367
 20
12.8189197313
 30
0.0
 10
-18.3130947268
 20
12.745003959
 30
0.0
 10
-18.1912631596
 20
12.6972397997
 30
0.0
  0
SPLINE
  5
33A
100
AcDbEntity
  8
0
100
AcDbSpline
 62
7
  6
CONTINUOUS
 70
0
 71
3
 72
11
 73
7
 74
0
 42
0.0000001
 43
0.0000001
 44
0.0000000001
 40
0.0
 40
0.0
 40
0.0
 40
0.0
 40
0.2238059636
 40
0.4631000352
 40
0.7212878713
 40
1.0
 40
1.0
 40
1.0
 40
1.0
 10
-19.4964527636
 20
12.6368915465
 30
0.0
 10
-19.5599212371
 20
12.5650182256
 30
0.0
 10
-19.6748620589
 20
12.4012485486
 30
0.0
 10
-19.8010505695
 20
12.1174662484
 30
0.0
 10
-19.8845196962
 20
11.794235277
 30
0.0
 10
-19.9099870505
 20
11.5648537041
 30
0.0
 10
-19.9161681992
 20
11.4456048191
 30
0.0
  0
SPLINE
  5
33B
100
AcDbEntity
  8
0
100
AcDbSpline
 62
7
  6
CONTINUOUS
 70
0
 71
3
 72
15
 73
11
 74
0
 42
0.0000001
 43
0.0000001
 44
0.0000000001
 40
0.0
 40
0.0
 40
0.0
 40
0.0
 40
0.114152814
 40
0.2373238404
 40
0.3669742789
 40
0.4999999752
 40
0.633025728
 40
0.7626765144
 40
0.8858441492
 40
1.0
 40
1.0
 40
1.0
 40
1.0
 10
-2.7379637064
 20
3.8107269545
 30
0.0
 10
-2.5104354244
 20
3.6793804094
 30
0.0
 10
-2.0610245851
 20
3.3643734349
 30
0.0
 10
-1.4426479437
 20
2.7858839813
 30
0.0
 10
-0.8727713986
 20
2.1020490126
 30
0.0
 10
-0.3728710685
 20
1.3385205403
 30
0.0
 10
0.0384603488
 20
0.5238521492
 30
0.0
 10
0.3457809365
 20
-0.3115702483
 30
0.0
 10
0.537635466
 20
-1.1363318671
 30
0.0
 10
0.5857593493
 20
-1.6830338299
 30
0.0
 10
0.5857593484
 20
-1.9457593642
 30
0.0
  0
SPLINE
  5
33C
100
AcDbEntity
  8
0
100
AcDbSpline
 62
7
  6
CONTINUOUS
 70
0
 71
3
 72
11
 73
7
 74
0
 42
0.0000001
 43
0.0000001
 44
0.0000000001
 40
0.0
 40
0.0
 40
0.0
 40
0.0
 40
0.2267380222
 40
0.4639929084
 40
0.7200685266
 40
1.0
 40
1.0
 40
1.0
 40
1.0
 10
-3.6391976941
 20
3.4940986583
 30
0.0
 10
-3.5474036361
 20
3.5470938732
 30
0.0
 10
-3.3435237128
 20
3.6298215034
 30
0.0
 10
-3.0061812724
 20
3.6712883837
 30
0.0
 10
-2.64414376
 20
3.6327413814
 30
0.0
 10
-2.4031921501
 20
3.5588256091
 30
0.0
 10
-2.2813605829
 20
3.5110614498
 30
0.0
  0
SPLINE
  5
33D
100
AcDbEntity
  8
0
100
AcDbSpline
 62
7
  6
CONTINUOUS
 70
0
 71
3
 72
11
 73
7
 74
0
 42
0.0000001
 43
0.0000001
 44
0.0000000001
 40
0.0
 40
0.0
 40
0.0
 40
0.0
 40
0.2238059636
 40
0.4631000352
 40
0.7212878713
 40
1.0
 40
1.0
 40
1.0
 40
1.0
 10
-3.5865501869
 20
3.4507131966
 30
0.0
 10
-3.6500186604
 20
3.3788398757
 30
0.0
 10
-3.7649594822
 20
3.2150701987
 30
0.0
 10
-3.8911479928
 20
2.9312878985
 30
0.0
 10
-3.9746171196
 20
2.6080569271
 30
0.0
 10
-4.0000844738
 20
2.3786753543
 30
0.0
 10
-4.0062656225
 20
2.2594264692
 30
0.0
  0
SPLINE
  5
33E
100
AcDbEntity
  8
0
100
AcDbSpline
 62
7
  6
CONTINUOUS
 70
0
 71
3
 72
15
 73
11
 74
0
 42
0.0000001
 43
0.0000001
 44
0.0000000001
 40
0.0
 40
0.0
 40
0.0
 40
0.0
 40
0.114152814
 40
0.2373238404
 40
0.3669742789
 40
0.4999999752
 40
0.633025728
 40
0.7626765144
 40
0.8858441492
 40
1.0
 40
1.0
 40
1.0
 40
1.0
 10
13.1719388703
 20
-5.3754513953
 30
0.0
 10
13.3994671523
 20
-5.5067979405
 30
0.0
 10
13.8488779916
 20
-5.821804915
 30
0.0
 10
14.4672546329
 20
-6.4002943686
 30
0.0
 10
15.0371311781
 20
-7.0841293373
 30
0.0
 10
15.5370315082
 20
-7.8476578096
 30
0.0
 10
15.9483629255
 20
-8.6623262007
 30
0.0
 10
16.2556835132
 20
-9.4977485982
 30
0.0
 10
16.4475380427
 20
-10.322510217
 30
0.0
 10
16.495661926
 20
-10.8692121797
 30
0.0
 10
16.4956619251
 20
-11.1319377141
 30
0.0
  0
SPLINE
  5
33F
100
AcDbEntity
  8
0
100
AcDbSpline
 62
7
  6
CONTINUOUS
 70
0
 71
3
 72
11
 73
7
 74
0
 42
0.0000001
 43
0.0000001
 44
0.0000000001
 40
0.0
 40
0.0
 40
0.0
 40
0.0
 40
0.2267380222
 40
0.4639929084
 40
0.7200685266
 40
1.0
 40
1.0
 40
1.0
 40
1.0
 10
12.2707048826
 20
-5.6920796916
 30
0.0
 10
12.3624989406
 20
-5.6390844766
 30
0.0
 10
12.5663788639
 20
-5.5563568465
 30
0.0
 10
12.9037213043
 20
-5.5148899662
 30
0.0
 10
13.2657588167
 20
-5.5534369684
 30
0.0
 10
13.5067104266
 20
-5.6273527408
 30
0.0
 10
13.6285419938
 20
-5.6751169
 30
0.0
  0
SPLINE
  5
340
100
AcDbEntity
  8
0
100
AcDbSpline
 62
7
  6
CONTINUOUS
 70
0
 71
3
 72
11
 73
7
 74
0
 42
0.0000001
 43
0.0000001
 44
0.0000000001
 40
0.0
 40
0.0
 40
0.0
 40
0.0
 40
0.2238059636
 40
0.4631000352
 40
0.7212878713
 40
1.0
 40
1.0
 40
1.0
 40
1.0
 10
12.3233523898
 20
-5.7354651532
 30
0.0
 10
12.2598839163
 20
-5.8073384742
 30
0.0
 10
12.1449430945
 20
-5.9711081511
 30
0.0
 10
12.0187545839
 20
-6.2548904514
 30
0.0
 10
11.9352854571
 20
-6.5781214227
 30
0.0
 10
11.9098181029
 20
-6.8075029956
 30
0.0
 10
11.9036369542
 20
-6.9267518806
 30
0.0
  0
SPLINE
  5
341
100
AcDbEntity
  8
0
100
AcDbSpline
 62
7
  6
CONTINUOUS
 70
0
 71
3
 72
15
 73
11
 74
0
 42
0.0000001
 43
0.0000001
 44
0.0000000001
 40
0.0
 40
0.0
 40
0.0
 40
0.0
 40
0.1158428899
 40
0.239705169
 40
0.3692167984
 40
0.5015464239
 40
0.6336643373
 40
0.7625559301
 40
0.8854389423
 40
1.0
 40
1.0
 40
1.0
 40
1.0
 10
-19.9166220941
 20
8.016819519
 30
0.0
 10
-19.9076134482
 20
7.8166389413
 30
0.0
 10
-19.8562343327
 20
7.4035374653
 30
0.0
 10
-19.6958266772
 20
6.7838496119
 30
0.0
 10
-19.4545972707
 20
6.160277118
 30
0.0
 10
-19.1406586249
 20
5.5539734124
 30
0.0
 10
-18.7646410885
 20
4.9853650899
 30
0.0
 10
-18.3391827955
 20
4.4736331061
 30
0.0
 10
-17.8787436831
 20
4.0361153828
 30
0.0
 10
-17.54498742
 20
3.7938194579
 30
0.0
 10
-17.3757384704
 20
3.6907441825
 30
0.0
  0
SPLINE
  5
342
100
AcDbEntity
  8
0
100
AcDbSpline
 62
7
  6
CONTINUOUS
 70
0
 71
3
 72
15
 73
11
 74
0
 42
0.0000001
 43
0.0000001
 44
0.0000000001
 40
0.0
 40
0.0
 40
0.0
 40
0.0
 40
0.1158428899
 40
0.239705169
 40
0.3692167984
 40
0.5015464239
 40
0.6336643373
 40
0.7625559301
 40
0.8854389423
 40
1.0
 40
1.0
 40
1.0
 40
1.0
 10
-4.0067195174
 20
-1.1693588309
 30
0.0
 10
-3.9977108715
 20
-1.3695394086
 30
0.0
 10
-3.946331756
 20
-1.7826408846
 30
0.0
 10
-3.7859241005
 20
-2.402328738
 30
0.0
 10
-3.544694694
 20
-3.0259012318
 30
0.0
 10
-3.2307560482
 20
-3.6322049375
 30
0.0
 10
-2.8547385118
 20
-4.2008132599
 30
0.0
 10
-2.4292802188
 20
-4.7125452438
 30
0.0
 10
-1.9688411064
 20
-5.1500629671
 30
0.0
 10
-1.6350848433
 20
-5.3923588919
 30
0.0
 10
-1.4658358937
 20
-5.4954341674
 30
0.0
  0
SPLINE
  5
343
100
AcDbEntity
  8
0
100
AcDbSpline
 62
7
  6
CONTINUOUS
 70
0
 71
3
 72
15
 73
11
 74
0
 42
0.0000001
 43
0.0000001
 44
0.0000000001
 40
0.0
 40
0.0
 40
0.0
 40
0.0
 40
0.1158428899
 40
0.239705169
 40
0.3692167984
 40
0.5015464239
 40
0.6336643373
 40
0.7625559301
 40
0.8854389423
 40
1.0
 40
1.0
 40
1.0
 40
1.0
 10
11.9031830593
 20
-10.3555371807
 30
0.0
 10
11.9121917052
 20
-10.5557177585
 30
0.0
 10
11.9635708207
 20
-10.9688192344
 30
0.0
 10
12.1239784762
 20
-11.5885070879
 30
0.0
 10
12.3652078827
 20
-12.2120795817
 30
0.0
 10
12.6791465285
 20
-12.8183832873
 30
0.0
 10
13.0551640649
 20
-13.3869916098
 30
0.0
 10
13.4806223579
 20
-13.8987235937
 30
0.0
 10
13.9410614703
 20
-14.336241317
 30
0.0
 10
14.2748177334
 20
-14.5785372418
 30
0.0
 10
14.4440666829
 20
-14.6816125173
 30
0.0
  0
SPLINE
  5
344
100
AcDbEntity
  8
0
100
AcDbSpline
 62
7
  6
CONTINUOUS
 70
0
 71
3
 72
12
 73
8
 74
0
 42
0.0000001
 43
0.0000001
 44
0.0000000001
 40
0.0
 40
0.0
 40
0.0
 40
0.0
 40
0.2895888088
 40
0.5486306857
 40
0.7816356815
 40
0.8918371347
 40
1.0
 40
1.0
 40
1.0
 40
1.0
 10
-15.3241432283
 20
4.9543969025
 30
0.0
 10
-15.3241432279
 20
4.7770116569
 30
0.0
 10
-15.3510139659
 20
4.4397469681
 30
0.0
 10
-15.4873928698
 20
3.976637518
 30
0.0
 10
-15.6833379715
 20
3.6570949053
 30
0.0
 10
-15.8812466111
 20
3.4624527166
 30
0.0
 10
-15.9915551985
 20
3.3854462058
 30
0.0
 10
-16.0489336542
 20
3.3523200573
 30
0.0
  0
SPLINE
  5
345
100
AcDbEntity
  8
0
100
AcDbSpline
 62
7
  6
CONTINUOUS
 70
0
 71
3
 72
12
 73
8
 74
0
 42
0.0000001
 43
0.0000001
 44
0.0000000001
 40
0.0
 40
0.0
 40
0.0
 40
0.0
 40
0.2895888088
 40
0.5486306857
 40
0.7816356815
 40
0.8918371347
 40
1.0
 40
1.0
 40
1.0
 40
1.0
 10
0.5857593484
 20
-4.2317814474
 30
0.0
 10
0.5857593488
 20
-4.409166693
 30
0.0
 10
0.5588886108
 20
-4.7464313818
 30
0.0
 10
0.4225097069
 20
-5.2095408318
 30
0.0
 10
0.2265646052
 20
-5.5290834445
 30
0.0
 10
0.0286559656
 20
-5.7237256333
 30
0.0
 10
-0.0816526218
 20
-5.8007321441
 30
0.0
 10
-0.1390310775
 20
-5.8338582926
 30
0.0
  0
SPLINE
  5
346
100
AcDbEntity
  8
0
100
AcDbSpline
 62
7
  6
CONTINUOUS
 70
0
 71
3
 72
12
 73
8
 74
0
 42
0.0000001
 43
0.0000001
 44
0.0000000001
 40
0.0
 40
0.0
 40
0.0
 40
0.0
 40
0.2895888088
 40
0.5486306857
 40
0.7816356815
 40
0.8918371347
 40
1.0
 40
1.0
 40
1.0
 40
1.0
 10
16.4956619251
 20
-13.4179597973
 30
0.0
 10
16.4956619255
 20
-13.5953450429
 30
0.0
 10
16.4687911875
 20
-13.9326097316
 30
0.0
 10
16.3324122836
 20
-14.3957191817
 30
0.0
 10
16.1364671819
 20
-14.7152617944
 30
0.0
 10
15.9385585423
 20
-14.9099039832
 30
0.0
 10
15.8282499549
 20
-14.986910494
 30
0.0
 10
15.7708714992
 20
-15.0200366425
 30
0.0
  0
SPLINE
  5
347
100
AcDbEntity
  8
0
100
AcDbSpline
 62
7
  6
CONTINUOUS
 70
0
 71
3
 72
18
 73
14
 74
0
 42
0.0000001
 43
0.0000001
 44
0.0000000001
 40
0.0
 40
0.0
 40
0.0
 40
0.0
 40
0.1447491977
 40
0.2742312443
 40
0.3339752858
 40
0.391005609
 40
0.4460896173
 40
0.500154292
 40
0.5542189271
 40
0.6093029238
 40
0.7257683624
 40
0.8552550504
 40
1.0
 40
1.0
 40
1.0
 40
1.0
 10
-21.9709469715
 20
11.0782001629
 30
0.0
 10
-21.9709469721
 20
11.3164023943
 30
0.0
 10
-21.9350837577
 20
11.769043402
 30
0.0
 10
-21.7777842808
 20
12.3015237058
 30
0.0
 10
-21.5869189874
 20
12.6604116671
 30
0.0
 10
-21.4185906026
 20
12.8890524304
 30
0.0
 10
-21.2228009755
 20
13.0817237188
 30
0.0
 10
-21.0014874621
 20
13.2361886742
 30
0.0
 10
-20.7570419022
 20
13.3506257182
 30
0.0
 10
-20.3977334519
 20
13.4501338823
 30
0.0
 10
-19.8945906112
 20
13.4634875077
 30
0.0
 10
-19.2644305348
 20
13.3111608441
 30
0.0
 10
-18.8541560743
 20
13.1159913853
 30
0.0
 10
-18.6478662831
 20
12.9969053044
 30
0.0
  0
SPLINE
  5
348
100
AcDbEntity
  8
0
100
AcDbSpline
 62
7
  6
CONTINUOUS
 70
0
 71
3
 72
19
 73
15
 74
0
 42
0.0000001
 43
0.0000001
 44
0.0000000001
 40
0.0
 40
0.0
 40
0.0
 40
0.0
 40
0.042839958
 40
0.0874488157
 40
0.1352609847
 40
0.1872025449
 40
0.2436847611
 40
0.3046810672
 40
0.369820767
 40
0.4384729563
 40
0.5827574429
 40
0.7298491876
 40
0.8713790248
 40
1.0
 40
1.0
 40
1.0
 40
1.0
 10
-16.0489336542
 20
3.3523200573
 30
0.0
 10
-16.1352220271
 20
3.3025034246
 30
0.0
 10
-16.3254244734
 20
3.2234365807
 30
0.0
 10
-16.6394069249
 20
3.1774207408
 30
0.0
 10
-16.9765748073
 20
3.2022403042
 30
0.0
 10
-17.3294454102
 20
3.2959974209
 30
0.0
 10
-17.6910907562
 20
3.4558305518
 30
0.0
 10
-18.0543029576
 20
3.6780461312
 30
0.0
 10
-18.4117412263
 20
3.9578647462
 30
0.0
 10
-18.8781819844
 20
4.4071881035
 30
0.0
 10
-19.3964795476
 20
5.0709089139
 30
0.0
 10
-19.877830527
 20
5.9605021157
 30
0.0
 10
-20.1901908032
 20
6.8841583889
 30
0.0
 10
-20.2738906956
 20
7.513175199
 30
0.0
 10
-20.2738906966
 20
7.8123190558
 30
0.0
  0
SPLINE
  5
349
100
AcDbEntity
  8
0
100
AcDbSpline
 62
7
  6
CONTINUOUS
 70
0
 71
3
 72
19
 73
15
 74
0
 42
0.0000001
 43
0.0000001
 44
0.0000000001
 40
0.0
 40
0.0
 40
0.0
 40
0.0
 40
0.042839958
 40
0.0874488157
 40
0.1352609847
 40
0.1872025449
 40
0.2436847611
 40
0.3046810672
 40
0.369820767
 40
0.4384729563
 40
0.5827574429
 40
0.7298491876
 40
0.8713790248
 40
1.0
 40
1.0
 40
1.0
 40
1.0
 10
-0.1390310775
 20
-5.8338582926
 30
0.0
 10
-0.2253194504
 20
-5.8836749253
 30
0.0
 10
-0.4155218967
 20
-5.9627417692
 30
0.0
 10
-0.7295043482
 20
-6.0087576091
 30
0.0
 10
-1.0666722306
 20
-5.9839380457
 30
0.0
 10
-1.4195428335
 20
-5.890180929
 30
0.0
 10
-1.7811881795
 20
-5.7303477981
 30
0.0
 10
-2.1444003809
 20
-5.5081322186
 30
0.0
 10
-2.5018386496
 20
-5.2283136037
 30
0.0
 10
-2.9682794077
 20
-4.7789902464
 30
0.0
 10
-3.4865769709
 20
-4.115269436
 30
0.0
 10
-3.9679279503
 20
-3.2256762342
 30
0.0
 10
-4.2802882265
 20
-2.302019961
 30
0.0
 10
-4.3639881189
 20
-1.6730031508
 30
0.0
 10
-4.3639881199
 20
-1.3738592941
 30
0.0
  0
SPLINE
  5
34A
100
AcDbEntity
  8
0
100
AcDbSpline
 62
7
  6
CONTINUOUS
 70
0
 71
3
 72
26
 73
22
 74
0
 42
0.0000001
 43
0.0000001
 44
0.0000000001
 40
0.0
 40
0.0
 40
0.0
 40
0.0
 40
0.0603524175
 40
0.1143388911
 40
0.1392485905
 40
0.1630268326
 40
0.1859936485
 40
0.2085356084
 40
0.2310777643
 40
0.2540451928
 40
0.3026065396
 40
0.3565979513
 40
0.4169517675
 40
0.4835105422
 40
0.5553264685
 40
0.6309193265
 40
0.7084793976
 40
0.786039011
 40
0.8616306383
 40
0.9334423291
 40
1.0
 40
1.0
 40
1.0
 40
1.0
 10
16.4956619251
 20
-14.3978188213
 30
0.0
 10
16.4956619257
 20
-14.6360348794
 30
0.0
 10
16.4597947541
 20
-15.0887008336
 30
0.0
 10
16.3024760082
 20
-15.6212073308
 30
0.0
 10
16.111587577
 20
-15.9801059301
 30
0.0
 10
15.9432391762
 20
-16.2087492853
 30
0.0
 10
15.7474267554
 20
-16.4014178989
 30
0.0
 10
15.5260879041
 20
-16.5558743851
 30
0.0
 10
15.2816162696
 20
-16.6702976602
 30
0.0
 10
14.9222648366
 20
-16.7697775342
 30
0.0
 10
14.4191023018
 20
-16.7830980795
 30
0.0
 10
13.7887487789
 20
-16.630616992
 30
0.0
 10
13.1402397517
 20
-16.3220979181
 30
0.0
 10
12.4955260077
 20
-15.8700322198
 30
0.0
 10
11.8770025776
 20
-15.2914214456
 30
0.0
 10
11.30723834
 20
-14.6076285512
 30
0.0
 10
10.807374139
 20
-13.8441191909
 30
0.0
 10
10.3960928956
 20
-13.0294947032
 30
0.0
 10
10.0888070386
 20
-12.1941214625
 30
0.0
 10
9.8969759335
 20
-11.3694124143
 30
0.0
 10
9.848858181
 20
-10.8227463583
 30
0.0
 10
9.8488581819
 20
-10.560037644
 30
0.0
  0
SPLINE
  5
34B
100
AcDbEntity
  8
0
100
AcDbSpline
 62
7
  6
CONTINUOUS
 70
0
 71
3
 72
19
 73
15
 74
0
 42
0.0000001
 43
0.0000001
 44
0.0000000001
 40
0.0
 40
0.0
 40
0.0
 40
0.0
 40
0.042839958
 40
0.0874488157
 40
0.1352609847
 40
0.1872025449
 40
0.2436847611
 40
0.3046810672
 40
0.369820767
 40
0.4384729563
 40
0.5827574429
 40
0.7298491876
 40
0.8713790248
 40
1.0
 40
1.0
 40
1.0
 40
1.0
 10
15.7708714992
 20
-15.0200366425
 30
0.0
 10
15.6845831263
 20
-15.0698532752
 30
0.0
 10
15.49438068
 20
-15.1489201191
 30
0.0
 10
15.1803982285
 20
-15.194935959
 30
0.0
 10
14.8432303461
 20
-15.1701163955
 30
0.0
 10
14.4903597432
 20
-15.0763592789
 30
0.0
 10
14.1287143972
 20
-14.9165261479
 30
0.0
 10
13.7655021958
 20
-14.6943105685
 30
0.0
 10
13.408063927
 20
-14.4144919535
 30
0.0
 10
12.941623169
 20
-13.9651685963
 30
0.0
 10
12.4233256058
 20
-13.3014477859
 30
0.0
 10
11.9419746264
 20
-12.4118545841
 30
0.0
 10
11.6296143502
 20
-11.4881983109
 30
0.0
 10
11.5459144578
 20
-10.8591815007
 30
0.0
 10
11.5459144568
 20
-10.560037644
 30
0.0
  0
SPLINE
  5
34C
100
AcDbEntity
  8
0
100
AcDbSpline
 62
7
  6
CONTINUOUS
 70
0
 71
3
 72
18
 73
14
 74
0
 42
0.0000001
 43
0.0000001
 44
0.0000000001
 40
0.0
 40
0.0
 40
0.0
 40
0.0
 40
0.1447491977
 40
0.2742312443
 40
0.3339752858
 40
0.391005609
 40
0.4460896173
 40
0.500154292
 40
0.5542189271
 40
0.6093029238
 40
0.7257683624
 40
0.8552550504
 40
1.0
 40
1.0
 40
1.0
 40
1.0
 10
9.8488581819
 20
-7.2941565368
 30
0.0
 10
9.8488581813
 20
-7.0559543055
 30
0.0
 10
9.8847213957
 20
-6.6033132978
 30
0.0
 10
10.0420208726
 20
-6.0708329939
 30
0.0
 10
10.232886166
 20
-5.7119450327
 30
0.0
 10
10.4012145508
 20
-5.4833042694
 30
0.0
 10
10.5970041779
 20
-5.2906329809
 30
0.0
 10
10.8183176913
 20
-5.1361680256
 30
0.0
 10
11.0627632512
 20
-5.0217309815
 30
0.0
 10
11.4220717015
 20
-4.9222228175
 30
0.0
 10
11.9252145422
 20
-4.9088691921
 30
0.0
 10
12.5553746186
 20
-5.0611958556
 30
0.0
 10
12.9656490791
 20
-5.2563653145
 30
0.0
 10
13.1719388703
 20
-5.3754513953
 30
0.0
  0
SPLINE
  5
34D
100
AcDbEntity
  8
0
100
AcDbSpline
 62
7
  6
CONTINUOUS
 70
0
 71
3
 72
26
 73
22
 74
0
 42
0.0000001
 43
0.0000001
 44
0.0000000001
 40
0.0
 40
0.0
 40
0.0
 40
0.0
 40
0.0603524175
 40
0.1143388911
 40
0.1392485905
 40
0.1630268326
 40
0.1859936485
 40
0.2085356084
 40
0.2310777643
 40
0.2540451928
 40
0.3026065396
 40
0.3565979513
 40
0.4169517675
 40
0.4835105422
 40
0.5553264685
 40
0.6309193265
 40
0.7084793976
 40
0.786039011
 40
0.8616306383
 40
0.9334423291
 40
1.0
 40
1.0
 40
1.0
 40
1.0
 10
0.5857593484
 20
-5.2116404714
 30
0.0
 10
0.585759349
 20
-5.4498565295
 30
0.0
 10
0.5498921774
 20
-5.9025224837
 30
0.0
 10
0.3925734315
 20
-6.4350289809
 30
0.0
 10
0.2016850003
 20
-6.7939275802
 30
0.0
 10
0.0333365995
 20
-7.0225709354
 30
0.0
 10
-0.1624758213
 20
-7.215239549
 30
0.0
 10
-0.3838146726
 20
-7.3696960352
 30
0.0
 10
-0.6282863071
 20
-7.4841193103
 30
0.0
 10
-0.9876377401
 20
-7.5835991844
 30
0.0
 10
-1.4908002749
 20
-7.5969197296
 30
0.0
 10
-2.1211537978
 20
-7.4444386421
 30
0.0
 10
-2.769662825
 20
-7.1359195683
 30
0.0
 10
-3.414376569
 20
-6.68385387
 30
0.0
 10
-4.0328999991
 20
-6.1052430957
 30
0.0
 10
-4.6026642366
 20
-5.4214502013
 30
0.0
 10
-5.1025284377
 20
-4.657940841
 30
0.0
 10
-5.5138096811
 20
-3.8433163533
 30
0.0
 10
-5.8210955381
 20
-3.0079431127
 30
0.0
 10
-6.0129266432
 20
-2.1832340645
 30
0.0
 10
-6.0610443957
 20
-1.6365680084
 30
0.0
 10
-6.0610443948
 20
-1.3738592941
 30
0.0
  0
SPLINE
  5
34E
100
AcDbEntity
  8
0
100
AcDbSpline
 62
7
  6
CONTINUOUS
 70
0
 71
3
 72
15
 73
11
 74
0
 42
0.0000001
 43
0.0000001
 44
0.0000000001
 40
0.0
 40
0.0
 40
0.0
 40
0.0
 40
0.114156257
 40
0.2373233809
 40
0.3669744944
 40
0.5000001903
 40
0.6330258594
 40
0.7626765622
 40
0.8858475939
 40
1.0
 40
1.0
 40
1.0
 40
1.0
 10
-19.920337306
 20
8.0164563524
 30
0.0
 10
-19.9203373074
 20
7.8208090643
 30
0.0
 10
-19.8845014832
 20
7.4136907033
 30
0.0
 10
-19.7416269987
 20
6.7995073958
 30
0.0
 10
-19.5127752193
 20
6.1773838722
 30
0.0
 10
-19.2064651853
 20
5.5707150465
 30
0.0
 10
-18.8341940796
 20
5.0021333747
 30
0.0
 10
-18.4098222348
 20
4.4928912411
 30
0.0
 10
-17.9493299526
 20
4.0621000109
 30
0.0
 10
-17.6146596493
 20
3.827525874
 30
0.0
 10
-17.4452243932
 20
3.7297149701
 30
0.0
  0
SPLINE
  5
34F
100
AcDbEntity
  8
0
100
AcDbSpline
 62
7
  6
CONTINUOUS
 70
0
 71
3
 72
12
 73
8
 74
0
 42
0.0000001
 43
0.0000001
 44
0.0000000001
 40
0.0
 40
0.0
 40
0.0
 40
0.0
 40
0.2895888088
 40
0.5486306858
 40
0.7816356815
 40
0.8918371347
 40
1.0
 40
1.0
 40
1.0
 40
1.0
 10
-20.2738906966
 20
11.0782001629
 30
0.0
 10
-20.2738906962
 20
11.2555854086
 30
0.0
 10
-20.2470199596
 20
11.5928500973
 30
0.0
 10
-20.1106410551
 20
12.0559595474
 30
0.0
 10
-19.9146959535
 20
12.3755021601
 30
0.0
 10
-19.7167873138
 20
12.5701443489
 30
0.0
 10
-19.6064787264
 20
12.6471508597
 30
0.0
 10
-19.5491002708
 20
12.6802770081
 30
0.0
  0
SPLINE
  5
350
100
AcDbEntity
  8
0
100
AcDbSpline
 62
7
  6
CONTINUOUS
 70
0
 71
3
 72
18
 73
14
 74
0
 42
0.0000001
 43
0.0000001
 44
0.0000000001
 40
0.0
 40
0.0
 40
0.0
 40
0.0
 40
0.1447491977
 40
0.2742312443
 40
0.3339752858
 40
0.391005609
 40
0.4460896173
 40
0.500154292
 40
0.5542189271
 40
0.6093029238
 40
0.7257683624
 40
0.8552550504
 40
1.0
 40
1.0
 40
1.0
 40
1.0
 10
-6.0610443948
 20
1.8920218131
 30
0.0
 10
-6.0610443954
 20
2.1302240444
 30
0.0
 10
-6.025181181
 20
2.5828650521
 30
0.0
 10
-5.8678817041
 20
3.115345356
 30
0.0
 10
-5.6770164107
 20
3.4742333172
 30
0.0
 10
-5.5086880259
 20
3.7028740805
 30
0.0
 10
-5.3128983988
 20
3.8955453689
 30
0.0
 10
-5.0915848854
 20
4.0500103243
 30
0.0
 10
-4.8471393255
 20
4.1644473683
 30
0.0
 10
-4.4878308752
 20
4.2639555324
 30
0.0
 10
-3.9846880345
 20
4.2773091578
 30
0.0
 10
-3.3545279581
 20
4.1249824943
 30
0.0
 10
-2.9442534976
 20
3.9298130354
 30
0.0
 10
-2.7379637064
 20
3.8107269545
 30
0.0
  0
SPLINE
  5
351
100
AcDbEntity
  8
0
100
AcDbSpline
 62
7
  6
CONTINUOUS
 70
0
 71
3
 72
15
 73
11
 74
0
 42
0.0000001
 43
0.0000001
 44
0.0000000001
 40
0.0
 40
0.0
 40
0.0
 40
0.0
 40
0.114156257
 40
0.2373233809
 40
0.3669744944
 40
0.5000001903
 40
0.6330258594
 40
0.7626765622
 40
0.8858475939
 40
1.0
 40
1.0
 40
1.0
 40
1.0
 10
-4.0104347293
 20
-1.1697219974
 30
0.0
 10
-4.0104347307
 20
-1.3653692855
 30
0.0
 10
-3.9745989065
 20
-1.7724876466
 30
0.0
 10
-3.831724422
 20
-2.3866709541
 30
0.0
 10
-3.6028726426
 20
-3.0087944777
 30
0.0
 10
-3.2965626086
 20
-3.6154633034
 30
0.0
 10
-2.9242915029
 20
-4.1840449752
 30
0.0
 10
-2.4999196581
 20
-4.6932871088
 30
0.0
 10
-2.0394273759
 20
-5.124078339
 30
0.0
 10
-1.7047570726
 20
-5.3586524759
 30
0.0
 10
-1.5353218165
 20
-5.4564633797
 30
0.0
  0
SPLINE
  5
352
100
AcDbEntity
  8
0
100
AcDbSpline
 62
7
  6
CONTINUOUS
 70
0
 71
3
 72
12
 73
8
 74
0
 42
0.0000001
 43
0.0000001
 44
0.0000000001
 40
0.0
 40
0.0
 40
0.0
 40
0.0
 40
0.2895888088
 40
0.5486306858
 40
0.7816356815
 40
0.8918371347
 40
1.0
 40
1.0
 40
1.0
 40
1.0
 10
-4.3639881199
 20
1.8920218131
 30
0.0
 10
-4.3639881195
 20
2.0694070587
 30
0.0
 10
-4.3371173829
 20
2.4066717475
 30
0.0
 10
-4.2007384784
 20
2.8697811975
 30
0.0
 10
-4.0047933768
 20
3.1893238102
 30
0.0
 10
-3.8068847371
 20
3.383965999
 30
0.0
 10
-3.6965761497
 20
3.4609725098
 30
0.0
 10
-3.6391976941
 20
3.4940986583
 30
0.0
  0
SPLINE
  5
353
100
AcDbEntity
  8
0
100
AcDbSpline
 62
7
  6
CONTINUOUS
 70
0
 71
3
 72
26
 73
22
 74
0
 42
0.0000001
 43
0.0000001
 44
0.0000000001
 40
0.0
 40
0.0
 40
0.0
 40
0.0
 40
0.0603524175
 40
0.1143388911
 40
0.1392485905
 40
0.1630268326
 40
0.1859936485
 40
0.2085356084
 40
0.2310777643
 40
0.2540451928
 40
0.3026065396
 40
0.3565979513
 40
0.4169517675
 40
0.4835105422
 40
0.5553264685
 40
0.6309193265
 40
0.7084793976
 40
0.786039011
 40
0.8616306383
 40
0.9334423291
 40
1.0
 40
1.0
 40
1.0
 40
1.0
 10
-15.3241432283
 20
3.9745378785
 30
0.0
 10
-15.3241432277
 20
3.7363218203
 30
0.0
 10
-15.3600103993
 20
3.2836558662
 30
0.0
 10
-15.5173291452
 20
2.7511493689
 30
0.0
 10
-15.7082175764
 20
2.3922507697
 30
0.0
 10
-15.8765659771
 20
2.1636074144
 30
0.0
 10
-16.072378398
 20
1.9709388008
 30
0.0
 10
-16.2937172493
 20
1.8164823146
 30
0.0
 10
-16.5381888838
 20
1.7020590396
 30
0.0
 10
-16.8975403168
 20
1.6025791655
 30
0.0
 10
-17.4007028516
 20
1.5892586203
 30
0.0
 10
-18.0310563745
 20
1.7417397078
 30
0.0
 10
-18.6795654017
 20
2.0502587816
 30
0.0
 10
-19.3242791457
 20
2.5023244799
 30
0.0
 10
-19.9428025758
 20
3.0809352541
 30
0.0
 10
-20.5125668133
 20
3.7647281485
 30
0.0
 10
-21.0124310144
 20
4.5282375089
 30
0.0
 10
-21.4237122578
 20
5.3428619966
 30
0.0
 10
-21.7309981148
 20
6.1782352372
 30
0.0
 10
-21.9228292199
 20
7.0029442854
 30
0.0
 10
-21.9709469724
 20
7.5496103414
 30
0.0
 10
-21.9709469715
 20
7.8123190558
 30
0.0
  0
SPLINE
  5
354
100
AcDbEntity
  8
0
100
AcDbSpline
 62
7
  6
CONTINUOUS
 70
0
 71
3
 72
15
 73
11
 74
0
 42
0.0000001
 43
0.0000001
 44
0.0000000001
 40
0.0
 40
0.0
 40
0.0
 40
0.0
 40
0.114156257
 40
0.2373233809
 40
0.3669744944
 40
0.5000001903
 40
0.6330258594
 40
0.7626765622
 40
0.8858475939
 40
1.0
 40
1.0
 40
1.0
 40
1.0
 10
11.8994678474
 20
-10.3559003473
 30
0.0
 10
11.899467846
 20
-10.5515476354
 30
0.0
 10
11.9353036702
 20
-10.9586659965
 30
0.0
 10
12.0781781547
 20
-11.5728493039
 30
0.0
 10
12.3070299341
 20
-12.1949728275
 30
0.0
 10
12.6133399681
 20
-12.8016416533
 30
0.0
 10
12.9856110738
 20
-13.370223325
 30
0.0
 10
13.4099829186
 20
-13.8794654587
 30
0.0
 10
13.8704752008
 20
-14.3102566888
 30
0.0
 10
14.2051455041
 20
-14.5448308258
 30
0.0
 10
14.3745807602
 20
-14.6426417296
 30
0.0
  0
SPLINE
  5
355
100
AcDbEntity
  8
0
100
AcDbSpline
 62
7
  6
CONTINUOUS
 70
0
 71
3
 72
12
 73
8
 74
0
 42
0.0000001
 43
0.0000001
 44
0.0000000001
 40
0.0
 40
0.0
 40
0.0
 40
0.0
 40
0.2895888088
 40
0.5486306858
 40
0.7816356815
 40
0.8918371347
 40
1.0
 40
1.0
 40
1.0
 40
1.0
 10
11.5459144568
 20
-7.2941565368
 30
0.0
 10
11.5459144572
 20
-7.1167712912
 30
0.0
 10
11.5727851938
 20
-6.7795066024
 30
0.0
 10
11.7091640983
 20
-6.3163971524
 30
0.0
 10
11.9051091999
 20
-5.9968545396
 30
0.0
 10
12.1030178395
 20
-5.8022123509
 30
0.0
 10
12.213326427
 20
-5.7252058401
 30
0.0
 10
12.2707048826
 20
-5.6920796916
 30
0.0
  0
SPLINE
  5
356
100
AcDbEntity
  8
ASSI
100
AcDbSpline
 62
7
  6
CONTINUOUS
 70
0
 71
3
 72
15
 73
11
 74
0
 42
0.0000001
 43
0.0000001
 44
0.0000000001
 40
0.0
 40
0.0
 40
0.0
 40
0.0
 40
0.1158428899
 40
0.239705169
 40
0.3692167984
 40
0.5015464239
 40
0.6336643373
 40
0.7625559301
 40
0.8854389423
 40
1.0
 40
1.0
 40
1.0
 40
1.0
 10
-19.9166220941
 20
8.016819519
 30
0.0
 10
-19.9076134482
 20
7.8166389413
 30
0.0
 10
-19.8562343327
 20
7.4035374653
 30
0.0
 10
-19.6958266772
 20
6.7838496119
 30
0.0
 10
-19.4545972707
 20
6.160277118
 30
0.0
 10
-19.1406586249
 20
5.5539734124
 30
0.0
 10
-18.7646410885
 20
4.9853650899
 30
0.0
 10
-18.3391827955
 20
4.4736331061
 30
0.0
 10
-17.8787436831
 20
4.0361153828
 30
0.0
 10
-17.54498742
 20
3.7938194579
 30
0.0
 10
-17.3757384704
 20
3.6907441825
 30
0.0
  0
SPLINE
  5
357
100
AcDbEntity
  8
ASSI
100
AcDbSpline
 62
7
  6
CONTINUOUS
 70
0
 71
3
 72
15
 73
11
 74
0
 42
0.0000001
 43
0.0000001
 44
0.0000000001
 40
0.0
 40
0.0
 40
0.0
 40
0.0
 40
0.1158428899
 40
0.239705169
 40
0.3692167984
 40
0.5015464239
 40
0.6336643373
 40
0.7625559301
 40
0.8854389423
 40
1.0
 40
1.0
 40
1.0
 40
1.0
 10
-4.0067195174
 20
-1.1693588309
 30
0.0
 10
-3.9977108715
 20
-1.3695394086
 30
0.0
 10
-3.946331756
 20
-1.7826408846
 30
0.0
 10
-3.7859241005
 20
-2.402328738
 30
0.0
 10
-3.544694694
 20
-3.0259012318
 30
0.0
 10
-3.2307560482
 20
-3.6322049375
 30
0.0
 10
-2.8547385118
 20
-4.2008132599
 30
0.0
 10
-2.4292802188
 20
-4.7125452438
 30
0.0
 10
-1.9688411064
 20
-5.1500629671
 30
0.0
 10
-1.6350848433
 20
-5.3923588919
 30
0.0
 10
-1.4658358937
 20
-5.4954341674
 30
0.0
  0
SPLINE
  5
358
100
AcDbEntity
  8
ASSI
100
AcDbSpline
 62
7
  6
CONTINUOUS
 70
0
 71
3
 72
15
 73
11
 74
0
 42
0.0000001
 43
0.0000001
 44
0.0000000001
 40
0.0
 40
0.0
 40
0.0
 40
0.0
 40
0.1158428899
 40
0.239705169
 40
0.3692167984
 40
0.5015464239
 40
0.6336643373
 40
0.7625559301
 40
0.8854389423
 40
1.0
 40
1.0
 40
1.0
 40
1.0
 10
11.9031830593
 20
-10.3555371807
 30
0.0
 10
11.9121917052
 20
-10.5557177585
 30
0.0
 10
11.9635708207
 20
-10.9688192344
 30
0.0
 10
12.1239784762
 20
-11.5885070879
 30
0.0
 10
12.3652078827
 20
-12.2120795817
 30
0.0
 10
12.6791465285
 20
-12.8183832873
 30
0.0
 10
13.0551640649
 20
-13.3869916098
 30
0.0
 10
13.4806223579
 20
-13.8987235937
 30
0.0
 10
13.9410614703
 20
-14.336241317
 30
0.0
 10
14.2748177334
 20
-14.5785372418
 30
0.0
 10
14.4440666829
 20
-14.6816125173
 30
0.0
  0
SPLINE
  5
359
100
AcDbEntity
  8
ASSI
100
AcDbSpline
 62
7
  6
CONTINUOUS
 70
0
 71
3
 72
11
 73
7
 74
0
 42
0.0000001
 43
0.0000001
 44
0.0000000001
 40
0.0
 40
0.0
 40
0.0
 40
0.0
 40
0.2831431636
 40
0.5426262077
 40
0.7800699581
 40
1.0
 40
1.0
 40
1.0
 40
1.0
 10
-17.4452243932
 20
3.7297149701
 30
0.0
 10
-17.3219007776
 20
3.6585232088
 30
0.0
 10
-17.0763225318
 20
3.5370086137
 30
0.0
 10
-16.699854739
 20
3.4199791608
 30
0.0
 10
-16.3391960275
 20
3.3793218104
 30
0.0
 10
-16.1080021652
 20
3.4060205007
 30
0.0
 10
-16.0007674015
 20
3.433121676
 30
0.0
  0
SPLINE
  5
35A
100
AcDbEntity
  8
ASSI
100
AcDbSpline
 62
7
  6
CONTINUOUS
 70
0
 71
3
 72
11
 73
7
 74
0
 42
0.0000001
 43
0.0000001
 44
0.0000000001
 40
0.0
 40
0.0
 40
0.0
 40
0.0
 40
0.2831431636
 40
0.5426262077
 40
0.7800699581
 40
1.0
 40
1.0
 40
1.0
 40
1.0
 10
-1.5353218165
 20
-5.4564633797
 30
0.0
 10
-1.4119982009
 20
-5.5276551411
 30
0.0
 10
-1.1664199551
 20
-5.6491697361
 30
0.0
 10
-0.7899521623
 20
-5.7661991891
 30
0.0
 10
-0.4292934508
 20
-5.8068565395
 30
0.0
 10
-0.1980995885
 20
-5.7801578492
 30
0.0
 10
-0.0908648248
 20
-5.7530566739
 30
0.0
  0
SPLINE
  5
35B
100
AcDbEntity
  8
ASSI
100
AcDbSpline
 62
7
  6
CONTINUOUS
 70
0
 71
3
 72
11
 73
7
 74
0
 42
0.0000001
 43
0.0000001
 44
0.0000000001
 40
0.0
 40
0.0
 40
0.0
 40
0.0
 40
0.2831431636
 40
0.5426262077
 40
0.7800699581
 40
1.0
 40
1.0
 40
1.0
 40
1.0
 10
14.3745807602
 20
-14.6426417296
 30
0.0
 10
14.4979043758
 20
-14.713833491
 30
0.0
 10
14.7434826216
 20
-14.835348086
 30
0.0
 10
15.1199504144
 20
-14.952377539
 30
0.0
 10
15.4806091259
 20
-14.9930348894
 30
0.0
 10
15.7118029882
 20
-14.9663361991
 30
0.0
 10
15.8190377519
 20
-14.9392350237
 30
0.0
  0
SPLINE
  5
35C
100
AcDbEntity
  8
ASSI
100
AcDbSpline
 62
7
  6
CONTINUOUS
 70
0
 71
3
 72
15
 73
11
 74
0
 42
0.0000001
 43
0.0000001
 44
0.0000000001
 40
0.0
 40
0.0
 40
0.0
 40
0.0
 40
0.114152814
 40
0.2373238404
 40
0.3669742789
 40
0.4999999752
 40
0.633025728
 40
0.7626765144
 40
0.8858441492
 40
1.0
 40
1.0
 40
1.0
 40
1.0
 10
-18.6478662831
 20
12.9969053044
 30
0.0
 10
-18.4203380011
 20
12.8655587592
 30
0.0
 10
-17.9709271618
 20
12.5505517847
 30
0.0
 10
-17.3525505204
 20
11.9720623311
 30
0.0
 10
-16.7826739753
 20
11.2882273625
 30
0.0
 10
-16.2827736452
 20
10.5246988902
 30
0.0
 10
-15.8714422279
 20
9.7100304991
 30
0.0
 10
-15.5641216402
 20
8.8746081016
 30
0.0
 10
-15.3722671107
 20
8.0498464828
 30
0.0
 10
-15.3241432274
 20
7.50314452
 30
0.0
 10
-15.3241432283
 20
7.2404189857
 30
0.0
  0
SPLINE
  5
35D
100
AcDbEntity
  8
ASSI
100
AcDbSpline
 62
7
  6
CONTINUOUS
 70
0
 71
3
 72
11
 73
7
 74
0
 42
0.0000001
 43
0.0000001
 44
0.0000000001
 40
0.0
 40
0.0
 40
0.0
 40
0.0
 40
0.2267380222
 40
0.4639929084
 40
0.7200685266
 40
1.0
 40
1.0
 40
1.0
 40
1.0
 10
-19.5491002708
 20
12.6802770081
 30
0.0
 10
-19.4573062128
 20
12.7332722231
 30
0.0
 10
-19.2534262895
 20
12.8159998533
 30
0.0
 10
-18.9160838491
 20
12.8574667335
 30
0.0
 10
-18.5540463367
 20
12.8189197313
 30
0.0
 10
-18.3130947268
 20
12.745003959
 30
0.0
 10
-18.1912631596
 20
12.6972397997
 30
0.0
  0
SPLINE
  5
35E
100
AcDbEntity
  8
ASSI
100
AcDbSpline
 62
7
  6
CONTINUOUS
 70
0
 71
3
 72
11
 73
7
 74
0
 42
0.0000001
 43
0.0000001
 44
0.0000000001
 40
0.0
 40
0.0
 40
0.0
 40
0.0
 40
0.2238059636
 40
0.4631000352
 40
0.7212878713
 40
1.0
 40
1.0
 40
1.0
 40
1.0
 10
-19.4964527636
 20
12.6368915465
 30
0.0
 10
-19.5599212371
 20
12.5650182256
 30
0.0
 10
-19.6748620589
 20
12.4012485486
 30
0.0
 10
-19.8010505695
 20
12.1174662484
 30
0.0
 10
-19.8845196962
 20
11.794235277
 30
0.0
 10
-19.9099870505
 20
11.5648537041
 30
0.0
 10
-19.9161681992
 20
11.4456048191
 30
0.0
  0
SPLINE
  5
35F
100
AcDbEntity
  8
ASSI
100
AcDbSpline
 62
7
  6
CONTINUOUS
 70
0
 71
3
 72
15
 73
11
 74
0
 42
0.0000001
 43
0.0000001
 44
0.0000000001
 40
0.0
 40
0.0
 40
0.0
 40
0.0
 40
0.114152814
 40
0.2373238404
 40
0.3669742789
 40
0.4999999752
 40
0.633025728
 40
0.7626765144
 40
0.8858441492
 40
1.0
 40
1.0
 40
1.0
 40
1.0
 10
-2.7379637064
 20
3.8107269545
 30
0.0
 10
-2.5104354244
 20
3.6793804094
 30
0.0
 10
-2.0610245851
 20
3.3643734349
 30
0.0
 10
-1.4426479437
 20
2.7858839813
 30
0.0
 10
-0.8727713986
 20
2.1020490126
 30
0.0
 10
-0.3728710685
 20
1.3385205403
 30
0.0
 10
0.0384603488
 20
0.5238521492
 30
0.0
 10
0.3457809365
 20
-0.3115702483
 30
0.0
 10
0.537635466
 20
-1.1363318671
 30
0.0
 10
0.5857593493
 20
-1.6830338299
 30
0.0
 10
0.5857593484
 20
-1.9457593642
 30
0.0
  0
SPLINE
  5
360
100
AcDbEntity
  8
ASSI
100
AcDbSpline
 62
7
  6
CONTINUOUS
 70
0
 71
3
 72
11
 73
7
 74
0
 42
0.0000001
 43
0.0000001
 44
0.0000000001
 40
0.0
 40
0.0
 40
0.0
 40
0.0
 40
0.2267380222
 40
0.4639929084
 40
0.7200685266
 40
1.0
 40
1.0
 40
1.0
 40
1.0
 10
-3.6391976941
 20
3.4940986583
 30
0.0
 10
-3.5474036361
 20
3.5470938732
 30
0.0
 10
-3.3435237128
 20
3.6298215034
 30
0.0
 10
-3.0061812724
 20
3.6712883837
 30
0.0
 10
-2.64414376
 20
3.6327413814
 30
0.0
 10
-2.4031921501
 20
3.5588256091
 30
0.0
 10
-2.2813605829
 20
3.5110614498
 30
0.0
  0
SPLINE
  5
361
100
AcDbEntity
  8
ASSI
100
AcDbSpline
 62
7
  6
CONTINUOUS
 70
0
 71
3
 72
11
 73
7
 74
0
 42
0.0000001
 43
0.0000001
 44
0.0000000001
 40
0.0
 40
0.0
 40
0.0
 40
0.0
 40
0.2238059636
 40
0.4631000352
 40
0.7212878713
 40
1.0
 40
1.0
 40
1.0
 40
1.0
 10
-3.5865501869
 20
3.4507131966
 30
0.0
 10
-3.6500186604
 20
3.3788398757
 30
0.0
 10
-3.7649594822
 20
3.2150701987
 30
0.0
 10
-3.8911479928
 20
2.9312878985
 30
0.0
 10
-3.9746171196
 20
2.6080569271
 30
0.0
 10
-4.0000844738
 20
2.3786753543
 30
0.0
 10
-4.0062656225
 20
2.2594264692
 30
0.0
  0
SPLINE
  5
362
100
AcDbEntity
  8
ASSI
100
AcDbSpline
 62
7
  6
CONTINUOUS
 70
0
 71
3
 72
15
 73
11
 74
0
 42
0.0000001
 43
0.0000001
 44
0.0000000001
 40
0.0
 40
0.0
 40
0.0
 40
0.0
 40
0.114152814
 40
0.2373238404
 40
0.3669742789
 40
0.4999999752
 40
0.633025728
 40
0.7626765144
 40
0.8858441492
 40
1.0
 40
1.0
 40
1.0
 40
1.0
 10
13.1719388703
 20
-5.3754513953
 30
0.0
 10
13.3994671523
 20
-5.5067979405
 30
0.0
 10
13.8488779916
 20
-5.821804915
 30
0.0
 10
14.4672546329
 20
-6.4002943686
 30
0.0
 10
15.0371311781
 20
-7.0841293373
 30
0.0
 10
15.5370315082
 20
-7.8476578096
 30
0.0
 10
15.9483629255
 20
-8.6623262007
 30
0.0
 10
16.2556835132
 20
-9.4977485982
 30
0.0
 10
16.4475380427
 20
-10.322510217
 30
0.0
 10
16.495661926
 20
-10.8692121797
 30
0.0
 10
16.4956619251
 20
-11.1319377141
 30
0.0
  0
SPLINE
  5
363
100
AcDbEntity
  8
ASSI
100
AcDbSpline
 62
7
  6
CONTINUOUS
 70
0
 71
3
 72
11
 73
7
 74
0
 42
0.0000001
 43
0.0000001
 44
0.0000000001
 40
0.0
 40
0.0
 40
0.0
 40
0.0
 40
0.2267380222
 40
0.4639929084
 40
0.7200685266
 40
1.0
 40
1.0
 40
1.0
 40
1.0
 10
12.2707048826
 20
-5.6920796916
 30
0.0
 10
12.3624989406
 20
-5.6390844766
 30
0.0
 10
12.5663788639
 20
-5.5563568465
 30
0.0
 10
12.9037213043
 20
-5.5148899662
 30
0.0
 10
13.2657588167
 20
-5.5534369684
 30
0.0
 10
13.5067104266
 20
-5.6273527408
 30
0.0
 10
13.6285419938
 20
-5.6751169
 30
0.0
  0
SPLINE
  5
364
100
AcDbEntity
  8
ASSI
100
AcDbSpline
 62
7
  6
CONTINUOUS
 70
0
 71
3
 72
11
 73
7
 74
0
 42
0.0000001
 43
0.0000001
 44
0.0000000001
 40
0.0
 40
0.0
 40
0.0
 40
0.0
 40
0.2238059636
 40
0.4631000352
 40
0.7212878713
 40
1.0
 40
1.0
 40
1.0
 40
1.0
 10
12.3233523898
 20
-5.7354651532
 30
0.0
 10
12.2598839163
 20
-5.8073384742
 30
0.0
 10
12.1449430945
 20
-5.9711081511
 30
0.0
 10
12.0187545839
 20
-6.2548904514
 30
0.0
 10
11.9352854571
 20
-6.5781214227
 30
0.0
 10
11.9098181029
 20
-6.8075029956
 30
0.0
 10
11.9036369542
 20
-6.9267518806
 30
0.0
  0
SPLINE
  5
365
100
AcDbEntity
  8
ASSI
100
AcDbSpline
 62
7
  6
CONTINUOUS
 70
0
 71
3
 72
12
 73
8
 74
0
 42
0.0000001
 43
0.0000001
 44
0.0000000001
 40
0.0
 40
0.0
 40
0.0
 40
0.0
 40
0.2895888088
 40
0.5486306857
 40
0.7816356815
 40
0.8918371347
 40
1.0
 40
1.0
 40
1.0
 40
1.0
 10
16.4956619251
 20
-13.4179597973
 30
0.0
 10
16.4956619255
 20
-13.5953450429
 30
0.0
 10
16.4687911875
 20
-13.9326097316
 30
0.0
 10
16.3324122836
 20
-14.3957191817
 30
0.0
 10
16.1364671819
 20
-14.7152617944
 30
0.0
 10
15.9385585423
 20
-14.9099039832
 30
0.0
 10
15.8282499549
 20
-14.986910494
 30
0.0
 10
15.7708714992
 20
-15.0200366425
 30
0.0
  0
SPLINE
  5
366
100
AcDbEntity
  8
ASSI
100
AcDbSpline
 62
7
  6
CONTINUOUS
 70
0
 71
3
 72
12
 73
8
 74
0
 42
0.0000001
 43
0.0000001
 44
0.0000000001
 40
0.0
 40
0.0
 40
0.0
 40
0.0
 40
0.2895888088
 40
0.5486306857
 40
0.7816356815
 40
0.8918371347
 40
1.0
 40
1.0
 40
1.0
 40
1.0
 10
0.5857593484
 20
-4.2317814474
 30
0.0
 10
0.5857593488
 20
-4.409166693
 30
0.0
 10
0.5588886108
 20
-4.7464313818
 30
0.0
 10
0.4225097069
 20
-5.2095408318
 30
0.0
 10
0.2265646052
 20
-5.5290834445
 30
0.0
 10
0.0286559656
 20
-5.7237256333
 30
0.0
 10
-0.0816526218
 20
-5.8007321441
 30
0.0
 10
-0.1390310775
 20
-5.8338582926
 30
0.0
  0
SPLINE
  5
367
100
AcDbEntity
  8
ASSI
100
AcDbSpline
 62
7
  6
CONTINUOUS
 70
0
 71
3
 72
12
 73
8
 74
0
 42
0.0000001
 43
0.0000001
 44
0.0000000001
 40
0.0
 40
0.0
 40
0.0
 40
0.0
 40
0.2895888088
 40
0.5486306857
 40
0.7816356815
 40
0.8918371347
 40
1.0
 40
1.0
 40
1.0
 40
1.0
 10
-15.3241432283
 20
4.9543969025
 30
0.0
 10
-15.3241432279
 20
4.7770116569
 30
0.0
 10
-15.3510139659
 20
4.4397469681
 30
0.0
 10
-15.4873928698
 20
3.976637518
 30
0.0
 10
-15.6833379715
 20
3.6570949053
 30
0.0
 10
-15.8812466111
 20
3.4624527166
 30
0.0
 10
-15.9915551985
 20
3.3854462058
 30
0.0
 10
-16.0489336542
 20
3.3523200573
 30
0.0
  0
SPLINE
  5
368
100
AcDbEntity
  8
ASSI
100
AcDbSpline
 62
7
  6
CONTINUOUS
 70
0
 71
3
 72
18
 73
14
 74
0
 42
0.0000001
 43
0.0000001
 44
0.0000000001
 40
0.0
 40
0.0
 40
0.0
 40
0.0
 40
0.1447491977
 40
0.2742312443
 40
0.3339752858
 40
0.391005609
 40
0.4460896173
 40
0.500154292
 40
0.5542189271
 40
0.6093029238
 40
0.7257683624
 40
0.8552550504
 40
1.0
 40
1.0
 40
1.0
 40
1.0
 10
-21.9709469715
 20
11.0782001629
 30
0.0
 10
-21.9709469721
 20
11.3164023943
 30
0.0
 10
-21.9350837577
 20
11.769043402
 30
0.0
 10
-21.7777842808
 20
12.3015237058
 30
0.0
 10
-21.5869189874
 20
12.6604116671
 30
0.0
 10
-21.4185906026
 20
12.8890524304
 30
0.0
 10
-21.2228009755
 20
13.0817237188
 30
0.0
 10
-21.0014874621
 20
13.2361886742
 30
0.0
 10
-20.7570419022
 20
13.3506257182
 30
0.0
 10
-20.3977334519
 20
13.4501338823
 30
0.0
 10
-19.8945906112
 20
13.4634875077
 30
0.0
 10
-19.2644305348
 20
13.3111608441
 30
0.0
 10
-18.8541560743
 20
13.1159913853
 30
0.0
 10
-18.6478662831
 20
12.9969053044
 30
0.0
  0
SPLINE
  5
369
100
AcDbEntity
  8
ASSI
100
AcDbSpline
 62
7
  6
CONTINUOUS
 70
0
 71
3
 72
12
 73
8
 74
0
 42
0.0000001
 43
0.0000001
 44
0.0000000001
 40
0.0
 40
0.0
 40
0.0
 40
0.0
 40
0.2895888088
 40
0.5486306858
 40
0.7816356815
 40
0.8918371347
 40
1.0
 40
1.0
 40
1.0
 40
1.0
 10
11.5459144568
 20
-7.2941565368
 30
0.0
 10
11.5459144572
 20
-7.1167712912
 30
0.0
 10
11.5727851938
 20
-6.7795066024
 30
0.0
 10
11.7091640983
 20
-6.3163971524
 30
0.0
 10
11.9051091999
 20
-5.9968545396
 30
0.0
 10
12.1030178395
 20
-5.8022123509
 30
0.0
 10
12.213326427
 20
-5.7252058401
 30
0.0
 10
12.2707048826
 20
-5.6920796916
 30
0.0
  0
SPLINE
  5
36A
100
AcDbEntity
  8
ASSI
100
AcDbSpline
 62
7
  6
CONTINUOUS
 70
0
 71
3
 72
26
 73
22
 74
0
 42
0.0000001
 43
0.0000001
 44
0.0000000001
 40
0.0
 40
0.0
 40
0.0
 40
0.0
 40
0.0603524175
 40
0.1143388911
 40
0.1392485905
 40
0.1630268326
 40
0.1859936485
 40
0.2085356084
 40
0.2310777643
 40
0.2540451928
 40
0.3026065396
 40
0.3565979513
 40
0.4169517675
 40
0.4835105422
 40
0.5553264685
 40
0.6309193265
 40
0.7084793976
 40
0.786039011
 40
0.8616306383
 40
0.9334423291
 40
1.0
 40
1.0
 40
1.0
 40
1.0
 10
16.4956619251
 20
-14.3978188213
 30
0.0
 10
16.4956619257
 20
-14.6360348794
 30
0.0
 10
16.4597947541
 20
-15.0887008336
 30
0.0
 10
16.3024760082
 20
-15.6212073308
 30
0.0
 10
16.111587577
 20
-15.9801059301
 30
0.0
 10
15.9432391762
 20
-16.2087492853
 30
0.0
 10
15.7474267554
 20
-16.4014178989
 30
0.0
 10
15.5260879041
 20
-16.5558743851
 30
0.0
 10
15.2816162696
 20
-16.6702976602
 30
0.0
 10
14.9222648366
 20
-16.7697775342
 30
0.0
 10
14.4191023018
 20
-16.7830980795
 30
0.0
 10
13.7887487789
 20
-16.630616992
 30
0.0
 10
13.1402397517
 20
-16.3220979181
 30
0.0
 10
12.4955260077
 20
-15.8700322198
 30
0.0
 10
11.8770025776
 20
-15.2914214456
 30
0.0
 10
11.30723834
 20
-14.6076285512
 30
0.0
 10
10.807374139
 20
-13.8441191909
 30
0.0
 10
10.3960928956
 20
-13.0294947032
 30
0.0
 10
10.0888070386
 20
-12.1941214625
 30
0.0
 10
9.8969759335
 20
-11.3694124143
 30
0.0
 10
9.848858181
 20
-10.8227463583
 30
0.0
 10
9.8488581819
 20
-10.560037644
 30
0.0
  0
SPLINE
  5
36B
100
AcDbEntity
  8
ASSI
100
AcDbSpline
 62
7
  6
CONTINUOUS
 70
0
 71
3
 72
15
 73
11
 74
0
 42
0.0000001
 43
0.0000001
 44
0.0000000001
 40
0.0
 40
0.0
 40
0.0
 40
0.0
 40
0.114156257
 40
0.2373233809
 40
0.3669744944
 40
0.5000001903
 40
0.6330258594
 40
0.7626765622
 40
0.8858475939
 40
1.0
 40
1.0
 40
1.0
 40
1.0
 10
11.8994678474
 20
-10.3559003473
 30
0.0
 10
11.899467846
 20
-10.5515476354
 30
0.0
 10
11.9353036702
 20
-10.9586659965
 30
0.0
 10
12.0781781547
 20
-11.5728493039
 30
0.0
 10
12.3070299341
 20
-12.1949728275
 30
0.0
 10
12.6133399681
 20
-12.8016416533
 30
0.0
 10
12.9856110738
 20
-13.370223325
 30
0.0
 10
13.4099829186
 20
-13.8794654587
 30
0.0
 10
13.8704752008
 20
-14.3102566888
 30
0.0
 10
14.2051455041
 20
-14.5448308258
 30
0.0
 10
14.3745807602
 20
-14.6426417296
 30
0.0
  0
SPLINE
  5
36C
100
AcDbEntity
  8
ASSI
100
AcDbSpline
 62
7
  6
CONTINUOUS
 70
0
 71
3
 72
19
 73
15
 74
0
 42
0.0000001
 43
0.0000001
 44
0.0000000001
 40
0.0
 40
0.0
 40
0.0
 40
0.0
 40
0.042839958
 40
0.0874488157
 40
0.1352609847
 40
0.1872025449
 40
0.2436847611
 40
0.3046810672
 40
0.369820767
 40
0.4384729563
 40
0.5827574429
 40
0.7298491876
 40
0.8713790248
 40
1.0
 40
1.0
 40
1.0
 40
1.0
 10
-16.0489336542
 20
3.3523200573
 30
0.0
 10
-16.1352220271
 20
3.3025034246
 30
0.0
 10
-16.3254244734
 20
3.2234365807
 30
0.0
 10
-16.6394069249
 20
3.1774207408
 30
0.0
 10
-16.9765748073
 20
3.2022403042
 30
0.0
 10
-17.3294454102
 20
3.2959974209
 30
0.0
 10
-17.6910907562
 20
3.4558305518
 30
0.0
 10
-18.0543029576
 20
3.6780461312
 30
0.0
 10
-18.4117412263
 20
3.9578647462
 30
0.0
 10
-18.8781819844
 20
4.4071881035
 30
0.0
 10
-19.3964795476
 20
5.0709089139
 30
0.0
 10
-19.877830527
 20
5.9605021157
 30
0.0
 10
-20.1901908032
 20
6.8841583889
 30
0.0
 10
-20.2738906956
 20
7.513175199
 30
0.0
 10
-20.2738906966
 20
7.8123190558
 30
0.0
  0
SPLINE
  5
36D
100
AcDbEntity
  8
ASSI
100
AcDbSpline
 62
7
  6
CONTINUOUS
 70
0
 71
3
 72
18
 73
14
 74
0
 42
0.0000001
 43
0.0000001
 44
0.0000000001
 40
0.0
 40
0.0
 40
0.0
 40
0.0
 40
0.1447491977
 40
0.2742312443
 40
0.3339752858
 40
0.391005609
 40
0.4460896173
 40
0.500154292
 40
0.5542189271
 40
0.6093029238
 40
0.7257683624
 40
0.8552550504
 40
1.0
 40
1.0
 40
1.0
 40
1.0
 10
9.8488581819
 20
-7.2941565368
 30
0.0
 10
9.8488581813
 20
-7.0559543055
 30
0.0
 10
9.8847213957
 20
-6.6033132978
 30
0.0
 10
10.0420208726
 20
-6.0708329939
 30
0.0
 10
10.232886166
 20
-5.7119450327
 30
0.0
 10
10.4012145508
 20
-5.4833042694
 30
0.0
 10
10.5970041779
 20
-5.2906329809
 30
0.0
 10
10.8183176913
 20
-5.1361680256
 30
0.0
 10
11.0627632512
 20
-5.0217309815
 30
0.0
 10
11.4220717015
 20
-4.9222228175
 30
0.0
 10
11.9252145422
 20
-4.9088691921
 30
0.0
 10
12.5553746186
 20
-5.0611958556
 30
0.0
 10
12.9656490791
 20
-5.2563653145
 30
0.0
 10
13.1719388703
 20
-5.3754513953
 30
0.0
  0
SPLINE
  5
36E
100
AcDbEntity
  8
ASSI
100
AcDbSpline
 62
7
  6
CONTINUOUS
 70
0
 71
3
 72
26
 73
22
 74
0
 42
0.0000001
 43
0.0000001
 44
0.0000000001
 40
0.0
 40
0.0
 40
0.0
 40
0.0
 40
0.0603524175
 40
0.1143388911
 40
0.1392485905
 40
0.1630268326
 40
0.1859936485
 40
0.2085356084
 40
0.2310777643
 40
0.2540451928
 40
0.3026065396
 40
0.3565979513
 40
0.4169517675
 40
0.4835105422
 40
0.5553264685
 40
0.6309193265
 40
0.7084793976
 40
0.786039011
 40
0.8616306383
 40
0.9334423291
 40
1.0
 40
1.0
 40
1.0
 40
1.0
 10
0.5857593484
 20
-5.2116404714
 30
0.0
 10
0.585759349
 20
-5.4498565295
 30
0.0
 10
0.5498921774
 20
-5.9025224837
 30
0.0
 10
0.3925734315
 20
-6.4350289809
 30
0.0
 10
0.2016850003
 20
-6.7939275802
 30
0.0
 10
0.0333365995
 20
-7.0225709354
 30
0.0
 10
-0.1624758213
 20
-7.215239549
 30
0.0
 10
-0.3838146726
 20
-7.3696960352
 30
0.0
 10
-0.6282863071
 20
-7.4841193103
 30
0.0
 10
-0.9876377401
 20
-7.5835991844
 30
0.0
 10
-1.4908002749
 20
-7.5969197296
 30
0.0
 10
-2.1211537978
 20
-7.4444386421
 30
0.0
 10
-2.769662825
 20
-7.1359195683
 30
0.0
 10
-3.414376569
 20
-6.68385387
 30
0.0
 10
-4.0328999991
 20
-6.1052430957
 30
0.0
 10
-4.6026642366
 20
-5.4214502013
 30
0.0
 10
-5.1025284377
 20
-4.657940841
 30
0.0
 10
-5.5138096811
 20
-3.8433163533
 30
0.0
 10
-5.8210955381
 20
-3.0079431127
 30
0.0
 10
-6.0129266432
 20
-2.1832340645
 30
0.0
 10
-6.0610443957
 20
-1.6365680084
 30
0.0
 10
-6.0610443948
 20
-1.3738592941
 30
0.0
  0
SPLINE
  5
36F
100
AcDbEntity
  8
ASSI
100
AcDbSpline
 62
7
  6
CONTINUOUS
 70
0
 71
3
 72
19
 73
15
 74
0
 42
0.0000001
 43
0.0000001
 44
0.0000000001
 40
0.0
 40
0.0
 40
0.0
 40
0.0
 40
0.042839958
 40
0.0874488157
 40
0.1352609847
 40
0.1872025449
 40
0.2436847611
 40
0.3046810672
 40
0.369820767
 40
0.4384729563
 40
0.5827574429
 40
0.7298491876
 40
0.8713790248
 40
1.0
 40
1.0
 40
1.0
 40
1.0
 10
-0.1390310775
 20
-5.8338582926
 30
0.0
 10
-0.2253194504
 20
-5.8836749253
 30
0.0
 10
-0.4155218967
 20
-5.9627417692
 30
0.0
 10
-0.7295043482
 20
-6.0087576091
 30
0.0
 10
-1.0666722306
 20
-5.9839380457
 30
0.0
 10
-1.4195428335
 20
-5.890180929
 30
0.0
 10
-1.7811881795
 20
-5.7303477981
 30
0.0
 10
-2.1444003809
 20
-5.5081322186
 30
0.0
 10
-2.5018386496
 20
-5.2283136037
 30
0.0
 10
-2.9682794077
 20
-4.7789902464
 30
0.0
 10
-3.4865769709
 20
-4.115269436
 30
0.0
 10
-3.9679279503
 20
-3.2256762342
 30
0.0
 10
-4.2802882265
 20
-2.302019961
 30
0.0
 10
-4.3639881189
 20
-1.6730031508
 30
0.0
 10
-4.3639881199
 20
-1.3738592941
 30
0.0
  0
SPLINE
  5
370
100
AcDbEntity
  8
ASSI
100
AcDbSpline
 62
7
  6
CONTINUOUS
 70
0
 71
3
 72
12
 73
8
 74
0
 42
0.0000001
 43
0.0000001
 44
0.0000000001
 40
0.0
 40
0.0
 40
0.0
 40
0.0
 40
0.2895888088
 40
0.5486306858
 40
0.7816356815
 40
0.8918371347
 40
1.0
 40
1.0
 40
1.0
 40
1.0
 10
-4.3639881199
 20
1.8920218131
 30
0.0
 10
-4.3639881195
 20
2.0694070587
 30
0.0
 10
-4.3371173829
 20
2.4066717475
 30
0.0
 10
-4.2007384784
 20
2.8697811975
 30
0.0
 10
-4.0047933768
 20
3.1893238102
 30
0.0
 10
-3.8068847371
 20
3.383965999
 30
0.0
 10
-3.6965761497
 20
3.4609725098
 30
0.0
 10
-3.6391976941
 20
3.4940986583
 30
0.0
  0
SPLINE
  5
371
100
AcDbEntity
  8
ASSI
100
AcDbSpline
 62
7
  6
CONTINUOUS
 70
0
 71
3
 72
18
 73
14
 74
0
 42
0.0000001
 43
0.0000001
 44
0.0000000001
 40
0.0
 40
0.0
 40
0.0
 40
0.0
 40
0.1447491977
 40
0.2742312443
 40
0.3339752858
 40
0.391005609
 40
0.4460896173
 40
0.500154292
 40
0.5542189271
 40
0.6093029238
 40
0.7257683624
 40
0.8552550504
 40
1.0
 40
1.0
 40
1.0
 40
1.0
 10
-6.0610443948
 20
1.8920218131
 30
0.0
 10
-6.0610443954
 20
2.1302240444
 30
0.0
 10
-6.025181181
 20
2.5828650521
 30
0.0
 10
-5.8678817041
 20
3.115345356
 30
0.0
 10
-5.6770164107
 20
3.4742333172
 30
0.0
 10
-5.5086880259
 20
3.7028740805
 30
0.0
 10
-5.3128983988
 20
3.8955453689
 30
0.0
 10
-5.0915848854
 20
4.0500103243
 30
0.0
 10
-4.8471393255
 20
4.1644473683
 30
0.0
 10
-4.4878308752
 20
4.2639555324
 30
0.0
 10
-3.9846880345
 20
4.2773091578
 30
0.0
 10
-3.3545279581
 20
4.1249824943
 30
0.0
 10
-2.9442534976
 20
3.9298130354
 30
0.0
 10
-2.7379637064
 20
3.8107269545
 30
0.0
  0
SPLINE
  5
372
100
AcDbEntity
  8
ASSI
100
AcDbSpline
 62
7
  6
CONTINUOUS
 70
0
 71
3
 72
15
 73
11
 74
0
 42
0.0000001
 43
0.0000001
 44
0.0000000001
 40
0.0
 40
0.0
 40
0.0
 40
0.0
 40
0.114156257
 40
0.2373233809
 40
0.3669744944
 40
0.5000001903
 40
0.6330258594
 40
0.7626765622
 40
0.8858475939
 40
1.0
 40
1.0
 40
1.0
 40
1.0
 10
-4.0104347293
 20
-1.1697219974
 30
0.0
 10
-4.0104347307
 20
-1.3653692855
 30
0.0
 10
-3.9745989065
 20
-1.7724876466
 30
0.0
 10
-3.831724422
 20
-2.3866709541
 30
0.0
 10
-3.6028726426
 20
-3.0087944777
 30
0.0
 10
-3.2965626086
 20
-3.6154633034
 30
0.0
 10
-2.9242915029
 20
-4.1840449752
 30
0.0
 10
-2.4999196581
 20
-4.6932871088
 30
0.0
 10
-2.0394273759
 20
-5.124078339
 30
0.0
 10
-1.7047570726
 20
-5.3586524759
 30
0.0
 10
-1.5353218165
 20
-5.4564633797
 30
0.0
  0
SPLINE
  5
373
100
AcDbEntity
  8
ASSI
100
AcDbSpline
 62
7
  6
CONTINUOUS
 70
0
 71
3
 72
19
 73
15
 74
0
 42
0.0000001
 43
0.0000001
 44
0.0000000001
 40
0.0
 40
0.0
 40
0.0
 40
0.0
 40
0.042839958
 40
0.0874488157
 40
0.1352609847
 40
0.1872025449
 40
0.2436847611
 40
0.3046810672
 40
0.369820767
 40
0.4384729563
 40
0.5827574429
 40
0.7298491876
 40
0.8713790248
 40
1.0
 40
1.0
 40
1.0
 40
1.0
 10
15.7708714992
 20
-15.0200366425
 30
0.0
 10
15.6845831263
 20
-15.0698532752
 30
0.0
 10
15.49438068
 20
-15.1489201191
 30
0.0
 10
15.1803982285
 20
-15.194935959
 30
0.0
 10
14.8432303461
 20
-15.1701163955
 30
0.0
 10
14.4903597432
 20
-15.0763592789
 30
0.0
 10
14.1287143972
 20
-14.9165261479
 30
0.0
 10
13.7655021958
 20
-14.6943105685
 30
0.0
 10
13.408063927
 20
-14.4144919535
 30
0.0
 10
12.941623169
 20
-13.9651685963
 30
0.0
 10
12.4233256058
 20
-13.3014477859
 30
0.0
 10
11.9419746264
 20
-12.4118545841
 30
0.0
 10
11.6296143502
 20
-11.4881983109
 30
0.0
 10
11.5459144578
 20
-10.8591815007
 30
0.0
 10
11.5459144568
 20
-10.560037644
 30
0.0
  0
SPLINE
  5
374
100
AcDbEntity
  8
ASSI
100
AcDbSpline
 62
7
  6
CONTINUOUS
 70
0
 71
3
 72
26
 73
22
 74
0
 42
0.0000001
 43
0.0000001
 44
0.0000000001
 40
0.0
 40
0.0
 40
0.0
 40
0.0
 40
0.0603524175
 40
0.1143388911
 40
0.1392485905
 40
0.1630268326
 40
0.1859936485
 40
0.2085356084
 40
0.2310777643
 40
0.2540451928
 40
0.3026065396
 40
0.3565979513
 40
0.4169517675
 40
0.4835105422
 40
0.5553264685
 40
0.6309193265
 40
0.7084793976
 40
0.786039011
 40
0.8616306383
 40
0.9334423291
 40
1.0
 40
1.0
 40
1.0
 40
1.0
 10
-15.3241432283
 20
3.9745378785
 30
0.0
 10
-15.3241432277
 20
3.7363218203
 30
0.0
 10
-15.3600103993
 20
3.2836558662
 30
0.0
 10
-15.5173291452
 20
2.7511493689
 30
0.0
 10
-15.7082175764
 20
2.3922507697
 30
0.0
 10
-15.8765659771
 20
2.1636074144
 30
0.0
 10
-16.072378398
 20
1.9709388008
 30
0.0
 10
-16.2937172493
 20
1.8164823146
 30
0.0
 10
-16.5381888838
 20
1.7020590396
 30
0.0
 10
-16.8975403168
 20
1.6025791655
 30
0.0
 10
-17.4007028516
 20
1.5892586203
 30
0.0
 10
-18.0310563745
 20
1.7417397078
 30
0.0
 10
-18.6795654017
 20
2.0502587816
 30
0.0
 10
-19.3242791457
 20
2.5023244799
 30
0.0
 10
-19.9428025758
 20
3.0809352541
 30
0.0
 10
-20.5125668133
 20
3.7647281485
 30
0.0
 10
-21.0124310144
 20
4.5282375089
 30
0.0
 10
-21.4237122578
 20
5.3428619966
 30
0.0
 10
-21.7309981148
 20
6.1782352372
 30
0.0
 10
-21.9228292199
 20
7.0029442854
 30
0.0
 10
-21.9709469724
 20
7.5496103414
 30
0.0
 10
-21.9709469715
 20
7.8123190558
 30
0.0
  0
SPLINE
  5
375
100
AcDbEntity
  8
ASSI
100
AcDbSpline
 62
7
  6
CONTINUOUS
 70
0
 71
3
 72
12
 73
8
 74
0
 42
0.0000001
 43
0.0000001
 44
0.0000000001
 40
0.0
 40
0.0
 40
0.0
 40
0.0
 40
0.2895888088
 40
0.5486306858
 40
0.7816356815
 40
0.8918371347
 40
1.0
 40
1.0
 40
1.0
 40
1.0
 10
-20.2738906966
 20
11.0782001629
 30
0.0
 10
-20.2738906962
 20
11.2555854086
 30
0.0
 10
-20.2470199596
 20
11.5928500973
 30
0.0
 10
-20.1106410551
 20
12.0559595474
 30
0.0
 10
-19.9146959535
 20
12.3755021601
 30
0.0
 10
-19.7167873138
 20
12.5701443489
 30
0.0
 10
-19.6064787264
 20
12.6471508597
 30
0.0
 10
-19.5491002708
 20
12.6802770081
 30
0.0
  0
SPLINE
  5
376
100
AcDbEntity
  8
ASSI
100
AcDbSpline
 62
7
  6
CONTINUOUS
 70
0
 71
3
 72
15
 73
11
 74
0
 42
0.0000001
 43
0.0000001
 44
0.0000000001
 40
0.0
 40
0.0
 40
0.0
 40
0.0
 40
0.114156257
 40
0.2373233809
 40
0.3669744944
 40
0.5000001903
 40
0.6330258594
 40
0.7626765622
 40
0.8858475939
 40
1.0
 40
1.0
 40
1.0
 40
1.0
 10
-19.920337306
 20
8.0164563524
 30
0.0
 10
-19.9203373074
 20
7.8208090643
 30
0.0
 10
-19.8845014832
 20
7.4136907033
 30
0.0
 10
-19.7416269987
 20
6.7995073958
 30
0.0
 10
-19.5127752193
 20
6.1773838722
 30
0.0
 10
-19.2064651853
 20
5.5707150465
 30
0.0
 10
-18.8341940796
 20
5.0021333747
 30
0.0
 10
-18.4098222348
 20
4.4928912411
 30
0.0
 10
-17.9493299526
 20
4.0621000109
 30
0.0
 10
-17.6146596493
 20
3.827525874
 30
0.0
 10
-17.4452243932
 20
3.7297149701
 30
0.0
  0
SPLINE
  5
377
100
AcDbEntity
  8
CURVE
100
AcDbSpline
 62
250
  6
CONTINUOUS
 70
0
 71
3
 72
9
 73
5
 74
0
 42
0.0000001
 43
0.0000001
 44
0.0000000001
 40
0.0
 40
0.0
 40
0.0
 40
0.0
 40
0.5206208722
 40
1.0
 40
1.0
 40
1.0
 40
1.0
 10
42.625664613
 20
-49.2062278952
 30
0.0
 10
42.7046983507
 20
-49.1623129062
 30
0.0
 10
42.8773467732
 20
-49.1316866335
 30
0.0
 10
42.9081394659
 20
-49.303843942
 30
0.0
 10
42.9097646912
 20
-49.3842007395
 30
0.0
  0
SPLINE
  5
378
100
AcDbEntity
  8
CURVE
100
AcDbSpline
 62
250
  6
CONTINUOUS
 70
0
 71
3
 72
9
 73
5
 74
0
 42
0.0000001
 43
0.0000001
 44
0.0000000001
 40
0.0
 40
0.0
 40
0.0
 40
0.0
 40
0.5013510385
 40
1.0
 40
1.0
 40
1.0
 40
1.0
 10
42.3971287686
 20
-49.5699316234
 30
0.0
 10
42.4036222376
 20
-49.5039960527
 30
0.0
 10
42.4528767944
 20
-49.3511854293
 30
0.0
 10
42.5696691691
 20
-49.2373548266
 30
0.0
 10
42.625664613
 20
-49.2062278952
 30
0.0
  0
SPLINE
  5
379
100
AcDbEntity
  8
CURVE
100
AcDbSpline
 62
250
  6
CONTINUOUS
 70
0
 71
3
 72
9
 73
5
 74
0
 42
0.0000001
 43
0.0000001
 44
0.0000000001
 40
0.0
 40
0.0
 40
0.0
 40
0.0
 40
0.2703953699
 40
1.0
 40
1.0
 40
1.0
 40
1.0
 10
42.4078906545
 20
-49.897892016
 30
0.0
 10
42.4033457905
 20
-49.8706041301
 30
0.0
 10
42.3883980951
 20
-49.7683398582
 30
0.0
 10
42.3887225926
 20
-49.6553079858
 30
0.0
 10
42.3971287686
 20
-49.5699316234
 30
0.0
  0
SPLINE
  5
37A
100
AcDbEntity
  8
CURVE
100
AcDbSpline
 62
250
  6
CONTINUOUS
 70
0
 71
3
 72
9
 73
5
 74
0
 42
0.0000001
 43
0.0000001
 44
0.0000000001
 40
0.0
 40
0.0
 40
0.0
 40
0.0
 40
0.2957417834
 40
1.0
 40
1.0
 40
1.0
 40
1.0
 10
42.1370475746
 20
-49.4025348593
 30
0.0
 10
42.10528707
 20
-49.5177785455
 30
0.0
 10
42.0535155543
 20
-49.8984185819
 30
0.0
 10
42.0854015216
 20
-50.2358659625
 30
0.0
 10
42.1177995647
 20
-50.4642712992
 30
0.0
  0
SPLINE
  5
37B
100
AcDbEntity
  8
CURVE
100
AcDbSpline
 62
250
  6
CONTINUOUS
 70
0
 71
3
 72
17
 73
13
 74
0
 42
0.0000001
 43
0.0000001
 44
0.0000000001
 40
0.0
 40
0.0
 40
0.0
 40
0.0
 40
0.0559780952
 40
0.1687540387
 40
0.321006234
 40
0.4122750837
 40
0.516613223
 40
0.6013931059
 40
0.6776022439
 40
0.8103422694
 40
0.9200404832
 40
1.0
 40
1.0
 40
1.0
 40
1.0
 10
43.0604448031
 20
-48.8614318145
 30
0.0
 10
43.0577250637
 20
-48.8393651003
 30
0.0
 10
43.0155284743
 20
-48.802271724
 30
0.0
 10
42.9350900033
 20
-48.7463887611
 30
0.0
 10
42.8112674658
 20
-48.7400200269
 30
0.0
 10
42.6820925321
 20
-48.7770341538
 30
0.0
 10
42.5748800336
 20
-48.8317030325
 30
0.0
 10
42.4747444297
 20
-48.9017276849
 30
0.0
 10
42.3683425389
 20
-48.9980604846
 30
0.0
 10
42.2640663664
 20
-49.1275370424
 30
0.0
 10
42.1825196602
 20
-49.2749825878
 30
0.0
 10
42.1473493128
 20
-49.365108574
 30
0.0
 10
42.1370475746
 20
-49.4025348593
 30
0.0
  0
SPLINE
  5
37C
100
AcDbEntity
  8
CURVE
100
AcDbSpline
 62
250
  6
CONTINUOUS
 70
0
 71
3
 72
9
 73
5
 74
0
 42
0.0000001
 43
0.0000001
 44
0.0000000001
 40
0.0
 40
0.0
 40
0.0
 40
0.0
 40
0.2426586216
 40
1.0
 40
1.0
 40
1.0
 40
1.0
 10
43.4298174039
 20
-48.4169855186
 30
0.0
 10
43.3965961014
 20
-48.4449764149
 30
0.0
 10
43.2624403859
 20
-48.5558038258
 30
0.0
 10
43.1110509768
 20
-48.7227472196
 30
0.0
 10
43.0712478173
 20
-48.8556152283
 30
0.0
  0
SPLINE
  5
37D
100
AcDbEntity
  8
CURVE
100
AcDbSpline
 62
250
  6
CONTINUOUS
 70
0
 71
3
 72
9
 73
5
 74
0
 42
0.0000001
 43
0.0000001
 44
0.0000000001
 40
0.0
 40
0.0
 40
0.0
 40
0.0
 40
0.1980141723
 40
1.0
 40
1.0
 40
1.0
 40
1.0
 10
43.9246310951
 20
-48.0049248698
 30
0.0
 10
43.892035783
 20
-48.0323580225
 30
0.0
 10
43.7270547748
 20
-48.1695608711
 30
0.0
 10
43.5618047618
 20
-48.3057762763
 30
0.0
 10
43.4298174039
 20
-48.4169855186
 30
0.0
  0
SPLINE
  5
37E
100
AcDbEntity
  8
CURVE
100
AcDbSpline
 62
250
  6
CONTINUOUS
 70
0
 71
3
 72
9
 73
5
 74
0
 42
0.0000001
 43
0.0000001
 44
0.0000000001
 40
0.0
 40
0.0
 40
0.0
 40
0.0
 40
0.5586214172
 40
1.0
 40
1.0
 40
1.0
 40
1.0
 10
43.3702637322
 20
-48.8994902564
 30
0.0
 10
43.471182617
 20
-48.8028269329
 30
0.0
 10
43.6580559051
 20
-48.646547268
 30
0.0
 10
43.8427676835
 20
-48.4850669912
 30
0.0
 10
43.9246310951
 20
-48.4147146479
 30
0.0
  0
SPLINE
  5
37F
100
AcDbEntity
  8
CURVE
100
AcDbSpline
 62
250
  6
CONTINUOUS
 70
0
 71
3
 72
9
 73
5
 74
0
 42
0.0000001
 43
0.0000001
 44
0.0000000001
 40
0.0
 40
0.0
 40
0.0
 40
0.0
 40
0.3559141631
 40
1.0
 40
1.0
 40
1.0
 40
1.0
 10
43.209178179
 20
-49.2239080702
 30
0.0
 10
43.209178179
 20
-49.1867827713
 30
0.0
 10
43.2293151407
 20
-49.0691410484
 30
0.0
 10
43.3139203432
 20
-48.9534326974
 30
0.0
 10
43.3702637322
 20
-48.8994902564
 30
0.0
  0
ENDSEC
  0
SECTION
  2
OBJECTS
  0
DICTIONARY
  5
C
100
AcDbDictionary
280
0
281
1
  3
ACAD_GROUP
350
D
  3
ACAD_MLINESTYLE
350
17
  3
ACAD_LAYOUT
350
1A
  3
ACAD_PLOTSETTINGS
350
19
  3
ACAD_PLOTSTYLENAME
350
E
  0
DICTIONARY
  5
D
102
{ACAD_REACTORS
330
C
102
}
100
AcDbDictionary
280
0
281
1
  0
ACDBDICTIONARYWDFLT
  5
E
102
{ACAD_REACTORS
330
C
102
}
100
AcDbDictionary
281
1
  3
Normal
350
F
100
AcDbDictionaryWithDefault
340
F
  0
DICTIONARY
  5
17
102
{ACAD_REACTORS
330
C
102
}
100
AcDbDictionary
280
0
281
1
  3
Standard
350
18
  0
DICTIONARY
  5
19
102
{ACAD_REACTORS
330
C
102
}
100
AcDbDictionary
281
1
  0
DICTIONARY
  5
1A
102
{ACAD_REACTORS
330
C
102
}
100
AcDbDictionary
281
1
  3
Model
350
380
  3
Layout1
350
381
  0
ACDBPLACEHOLDER
  5
F
102
{ACAD_REACTORS
330
E
102
}
  0
MLINESTYLE
  5
18
102
{ACAD_REACTORS
330
17
102
}
100
AcDbMlineStyle
  2
STANDARD
 70
0
  3

 62
256
 51
90.0
 52
90.0
 71
2
 49
0.5
 62
256
  6
BYLAYER
 49
-0.5
 62
256
  6
BYLAYER
  0
LAYOUT
  5
380
102
{ACAD_REACTORS
330
1A
102
}
100
AcDbPlotSettings
  1

  2
none_device
  4
ISO_A4_(297.00_x_210.00_MM)
  6

 40
0.0
 41
0.0
 42
0.0
 43
0.0
 44
297.0
 45
210.0
 46
0.0
 47
0.0
 48
0.0
 49
0.0
140
0.0
141
0.0
142
1.0
143
1.0
 70
1024
 72
1
 73
0
 74
0
  7

 75
0
147
1.0
148
0.0
149
0.0
100
AcDbLayout
  1
Model
 70
0
 71
0
 10
0.0
 20
0.0
 11
297.0
 21
210.0
 12
0.0
 22
0.0
 32
0.0
 14
0.0
 24
0.0
 34
0.0
 15
0.0
 25
0.0
 35
0.0
146
0.0
 13
0.0
 23
0.0
 33
0.0
 16
1.0
 26
0.0
 36
0.0
 17
0.0
 27
1.0
 37
0.0
 76
0
330
21F
345
0
346
0
  0
LAYOUT
  5
381
102
{ACAD_REACTORS
330
1A
102
}
100
AcDbPlotSettings
  1

  2
none_device
  4
ISO_A4_(297.00_x_210.00_MM)
  6

 40
0.0
 41
0.0
 42
0.0
 43
0.0
 44
297.0
 45
210.0
 46
0.0
 47
0.0
 48
0.0
 49
0.0
140
0.0
141
0.0
142
1.0
143
1.0
 70
0
 72
1
 73
0
 74
0
  7

 75
0
147
1.0
148
0.0
149
0.0
100
AcDbLayout
  1
Layout1
 70
0
 71
1
 10
0.0
 20
0.0
 11
297.0
 21
210.0
 12
0.0
 22
0.0
 32
0.0
 14
0.0
 24
0.0
 34
0.0
 15
0.0
 25
0.0
 35
0.0
146
0.0
 13
0.0
 23
0.0
 33
0.0
 16
1.0
 26
0.0
 36
0.0
 17
0.0
 27
1.0
 37
0.0
 76
0
330
220
345
0
346
0
  0
ENDSEC
  0
EOF
