  0
SECTION
  2
HEADER
  9
$ACADVER
  1
AC1024
  9
$DWGCODEPAGE
  3
ANSI_1252
  9
$EXTMAX
 10
297.0
 20
210.0
 30
0.0
  9
$EXTMIN
 10
0.0
 20
0.0
 30
0.0
  9
$LIMMIN
 10
0.0
 20
0.0
  9
$LIMMAX
 10
297.0
 20
210.0
  9
$VIEWCTR
 10
148.5
 20
105.0
  9
$VIEWSIZE
 40
210.0
  9
$CLAYER
  8
0
  9
$LTSCALE
 40
16.335
  9
$CELTYPE
  6
BYLAYER
  9
$DIMSCALE
 40
1.0
  9
$DIMASZ
 40
3.0
  9
$DIMEXO
 40
0.5
  9
$DIMDLI
 40
11.286
  9
$DIMEXE
 40
1.5
  9
$DIMCEN
 40
2.673
  9
$DIMLFAC
 40
1.0
  9
$DIMBLK
  1
_FILLED
  9
$DIMALT
 70
0
  9
$DIMALTF
 40
0.0393700787
  9
$DIMTXT
 40
3.0
  9
$DIMTOL
 70
1
  9
$DIMLIM
 70
0
  9
$DIMTFAC
 40
1.0
  9
$DIMTP
 40
0.01
  9
$DIMTM
 40
0.01
  9
$DIMGAP
 40
0.625
  9
$DIMDSEP
 70
44
  9
$AUNITS
 70
0
  9
$PDMODE
 70
3
  9
$PDSIZE
 40
3.0
  9
$HANDSEED
  5
32E
  9
$TILEMODE
 70
1
  9
$MEASUREMENT
 70
1
  9
$INSUNITS
 70
4
  0
ENDSEC
  0
SECTION
  2
CLASSES
  0
CLASS
  1
ACDBDICTIONARYWDFLT
  2
AcDbDictionaryWithDefault
  3
AutoCAD 2000
 90
0
 91
1
280
0
281
0
  0
CLASS
  1
ACDBPLACEHOLDER
  2
AcDbPlaceHolder
  3
AutoCAD 2000
 90
0
 91
1
280
0
281
0
  0
CLASS
  1
LAYOUT
  2
AcDbLayout
  3
AutoCAD 2000
 90
0
 91
0
280
0
281
0
  0
ENDSEC
  0
SECTION
  2
TABLES
  0
TABLE
  2
VPORT
  5
8
100
AcDbSymbolTable
 70
2
  0
VPORT
  5
1F4
100
AcDbSymbolTableRecord
100
AcDbViewportTableRecord
  2
*ACTIVE
 70
0
 10
0.0
 20
0.0
 11
1.0
 21
1.0
 12
148.5
 22
105.0
 13
0.0
 23
0.0
 14
1.0
 24
1.0
 15
0.0
 25
0.0
 16
0.0
 26
0.0
 36
1.0
 17
0.0
 27
0.0
 37
0.0
 40
210.0
 41
1.4142857143
 42
50.0
 43
0.0
 44
0.0
 50
0.0
 51
0.0
 71
0
 72
100
 73
1
 74
1
 75
0
 76
0
 77
0
 78
0
  0
ENDTAB
  0
TABLE
  2
LTYPE
  5
5
100
AcDbSymbolTable
 70
6
  0
LTYPE
  5
14
100
AcDbSymbolTableRecord
100
AcDbLinetypeTableRecord
  2
BYBLOCK
 70
0
  3

 72
65
 73
0
 40
0.0
  0
LTYPE
  5
15
100
AcDbSymbolTableRecord
100
AcDbLinetypeTableRecord
  2
BYLAYER
 70
0
  3

 72
65
 73
0
 40
0.0
  0
LTYPE
  5
16
100
AcDbSymbolTableRecord
100
AcDbLinetypeTableRecord
  2
CONTINUOUS
 70
64
  3
Solid line
 72
65
 73
0
 40
0.0
  0
LTYPE
  5
1F5
100
AcDbSymbolTableRecord
100
AcDbLinetypeTableRecord
  2
CENTER
 70
64
  3
____ _ ____ _ ____ _ ____ _ ____ _ ____ _ ____
 72
65
 73
4
 40
0.6
 49
0.375
 74
0
 49
-0.075
 74
0
 49
0.075
 74
0
 49
-0.075
 74
0
  0
LTYPE
  5
1F6
100
AcDbSymbolTableRecord
100
AcDbLinetypeTableRecord
  2
HIDDEN
 70
64
  3
- - - - - - - - - - - - - - - - - - - -
 72
65
 73
2
 40
0.2
 49
0.1
 74
0
 49
-0.1
 74
0
  0
LTYPE
  5
1F7
100
AcDbSymbolTableRecord
100
AcDbLinetypeTableRecord
  2
PHANTOM
 70
64
  3
_____ _ _ _____ _ _ _____ _ _ _____
 72
65
 73
6
 40
0.8
 49
0.45
 74
0
 49
-0.05
 74
0
 49
0.1
 74
0
 49
-0.05
 74
0
 49
0.1
 74
0
 49
-0.05
 74
0
  0
LTYPE
  5
1F8
100
AcDbSymbolTableRecord
100
AcDbLinetypeTableRecord
  2
DOT
 70
64
  3
. . . . . . . . . . . . . . . . . . . .
 72
65
 73
2
 40
0.2
 49
0.1
 74
0
 49
-0.1
 74
0
  0
LTYPE
  5
1F9
100
AcDbSymbolTableRecord
100
AcDbLinetypeTableRecord
  2
DASHED
 70
64
  3
- - - - - - - - - - - - - - - - - - - -
 72
65
 73
2
 40
0.2
 49
0.1
 74
0
 49
-0.1
 74
0
  0
ENDTAB
  0
TABLE
  2
LAYER
  5
2
100
AcDbSymbolTable
 70
36
  0
LAYER
  5
10
100
AcDbSymbolTableRecord
100
AcDbLayerTableRecord
  2
0
 70
0
 62
7
  6
CONTINUOUS
370
-3
390
F
  0
LAYER
  5
1FA
100
AcDbSymbolTableRecord
100
AcDbLayerTableRecord
  2
DEFAULT_1
 70
0
 62
7
  6
CENTER
370
-3
390
F
  0
LAYER
  5
1FB
100
AcDbSymbolTableRecord
100
AcDbLayerTableRecord
  2
DEFAULT_2
 70
0
 62
7
  6
HIDDEN
370
-3
390
F
  0
LAYER
  5
1FC
100
AcDbSymbolTableRecord
100
AcDbLayerTableRecord
  2
DEFAULT_3
 70
0
 62
7
  6
PHANTOM
370
-3
390
F
  0
LAYER
  5
1FD
100
AcDbSymbolTableRecord
100
AcDbLayerTableRecord
  2
ASSI
 70
0
 62
7
  6
CONTINUOUS
370
-3
390
F
  0
LAYER
  5
1FE
100
AcDbSymbolTableRecord
100
AcDbLayerTableRecord
  2
COORDINATE
 70
0
 62
7
  6
CONTINUOUS
370
-3
390
F
  0
LAYER
  5
1FF
100
AcDbSymbolTableRecord
100
AcDbLayerTableRecord
  2
COORD_ORIGINE
 70
0
 62
7
  6
CONTINUOUS
370
-3
390
F
  0
LAYER
  5
200
100
AcDbSymbolTableRecord
100
AcDbLayerTableRecord
  2
COPY_PUBLISH
 70
0
 62
7
  6
CONTINUOUS
370
-3
390
F
  0
LAYER
  5
201
100
AcDbSymbolTableRecord
100
AcDbLayerTableRecord
  2
COSMETIC
 70
0
 62
7
  6
CONTINUOUS
370
-3
390
F
  0
LAYER
  5
202
100
AcDbSymbolTableRecord
100
AcDbLayerTableRecord
  2
COSMETICI
 70
0
 62
7
  6
CONTINUOUS
370
-3
390
F
  0
LAYER
  5
203
100
AcDbSymbolTableRecord
100
AcDbLayerTableRecord
  2
CURVA_TASSELLO
 70
0
 62
7
  6
CONTINUOUS
370
-3
390
F
  0
LAYER
  5
204
100
AcDbSymbolTableRecord
100
AcDbLayerTableRecord
  2
CURVE
 70
0
 62
7
  6
CONTINUOUS
370
-3
390
F
  0
LAYER
  5
205
100
AcDbSymbolTableRecord
100
AcDbLayerTableRecord
  2
DRAFT
 70
0
 62
7
  6
CONTINUOUS
370
-3
390
F
  0
LAYER
  5
206
100
AcDbSymbolTableRecord
100
AcDbLayerTableRecord
  2
IMPORT_IGES
 70
0
 62
7
  6
CONTINUOUS
370
-3
390
F
  0
LAYER
  5
207
100
AcDbSymbolTableRecord
100
AcDbLayerTableRecord
  2
INTFCLR_2
 70
0
 62
7
  6
CONTINUOUS
370
-3
390
F
  0
LAYER
  5
208
100
AcDbSymbolTableRecord
100
AcDbLayerTableRecord
  2
INTF_1
 70
0
 62
7
  6
CONTINUOUS
370
-3
390
F
  0
LAYER
  5
209
100
AcDbSymbolTableRecord
100
AcDbLayerTableRecord
  2
INTF_21
 70
0
 62
7
  6
CONTINUOUS
370
-3
390
F
  0
LAYER
  5
20A
100
AcDbSymbolTableRecord
100
AcDbLayerTableRecord
  2
INTF_6
 70
0
 62
7
  6
CONTINUOUS
370
-3
390
F
  0
LAYER
  5
20B
100
AcDbSymbolTableRecord
100
AcDbLayerTableRecord
  2
INTF_7
 70
0
 62
7
  6
CONTINUOUS
370
-3
390
F
  0
LAYER
  5
20C
100
AcDbSymbolTableRecord
100
AcDbLayerTableRecord
  2
INTF_9
 70
0
 62
7
  6
CONTINUOUS
370
-3
390
F
  0
LAYER
  5
20D
100
AcDbSymbolTableRecord
100
AcDbLayerTableRecord
  2
LIVELLO_1
 70
0
 62
7
  6
CONTINUOUS
370
-3
390
F
  0
LAYER
  5
20E
100
AcDbSymbolTableRecord
100
AcDbLayerTableRecord
  2
NOTE
 70
0
 62
7
  6
CONTINUOUS
370
-3
390
F
  0
LAYER
  5
20F
100
AcDbSymbolTableRecord
100
AcDbLayerTableRecord
  2
PIANI
 70
0
 62
7
  6
CONTINUOUS
370
-3
390
F
  0
LAYER
  5
210
100
AcDbSymbolTableRecord
100
AcDbLayerTableRecord
  2
PIANI_ORIGINE
 70
0
 62
7
  6
CONTINUOUS
370
-3
390
F
  0
LAYER
  5
211
100
AcDbSymbolTableRecord
100
AcDbLayerTableRecord
  2
PIANI_RIFERIMENTO
 70
0
 62
7
  6
CONTINUOUS
370
-3
390
F
  0
LAYER
  5
212
100
AcDbSymbolTableRecord
100
AcDbLayerTableRecord
  2
PUNTI
 70
0
 62
7
  6
CONTINUOUS
370
-3
390
F
  0
LAYER
  5
213
100
AcDbSymbolTableRecord
100
AcDbLayerTableRecord
  2
RACCORDO
 70
0
 62
7
  6
CONTINUOUS
370
-3
390
F
  0
LAYER
  5
214
100
AcDbSymbolTableRecord
100
AcDbLayerTableRecord
  2
RGB__255__255__255__
 70
0
 62
7
  6
CONTINUOUS
370
-3
390
F
  0
LAYER
  5
215
100
AcDbSymbolTableRecord
100
AcDbLayerTableRecord
  2
RGB____0____0____0__
 70
0
 62
7
  6
CONTINUOUS
370
-3
390
F
  0
LAYER
  5
216
100
AcDbSymbolTableRecord
100
AcDbLayerTableRecord
  2
SIMBOLI
 70
0
 62
7
  6
CONTINUOUS
370
-3
390
F
  0
LAYER
  5
217
100
AcDbSymbolTableRecord
100
AcDbLayerTableRecord
  2
SMUSSO
 70
0
 62
7
  6
CONTINUOUS
370
-3
390
F
  0
LAYER
  5
218
100
AcDbSymbolTableRecord
100
AcDbLayerTableRecord
  2
SUPERFICI
 70
0
 62
7
  6
CONTINUOUS
370
-3
390
F
  0
LAYER
  5
219
100
AcDbSymbolTableRecord
100
AcDbLayerTableRecord
  2
TRASH
 70
0
 62
7
  6
CONTINUOUS
370
-3
390
F
  0
LAYER
  5
21A
100
AcDbSymbolTableRecord
100
AcDbLayerTableRecord
  2
WHITE
 70
0
 62
7
  6
CONTINUOUS
370
-3
390
F
  0
LAYER
  5
21B
100
AcDbSymbolTableRecord
100
AcDbLayerTableRecord
  2
XSEC_DATUMS
 70
0
 62
7
  6
CONTINUOUS
370
-3
390
F
  0
ENDTAB
  0
TABLE
  2
STYLE
  5
3
100
AcDbSymbolTable
 70
1
  0
STYLE
  5
11
100
AcDbSymbolTableRecord
100
AcDbTextStyleTableRecord
  2
STANDARD
 70
0
 40
0.0
 41
0.8
 50
0.0
 71
0
 42
0.2
  3
txt
  4

  0
STYLE
  5
21C
100
AcDbSymbolTableRecord
100
AcDbTextStyleTableRecord
  2
TEXTSTYLE_1
 70
0
 40
0.0
 41
0.8
 50
0.0
 71
0
 42
0.2
  3
gdt
  4

  0
ENDTAB
  0
TABLE
  2
VIEW
  5
6
100
AcDbSymbolTable
 70
0
  0
ENDTAB
  0
TABLE
  2
UCS
  5
7
100
AcDbSymbolTable
 70
0
  0
ENDTAB
  0
TABLE
  2
APPID
  5
9
100
AcDbSymbolTable
 70
1
  0
APPID
  5
21D
100
AcDbSymbolTableRecord
100
AcDbRegAppTableRecord
  2
ACAD
 70
0
  0
ENDTAB
  0
TABLE
  2
BLOCK_RECORD
  5
1
100
AcDbSymbolTable
 70
0
  0
BLOCK_RECORD
  5
21E
100
AcDbSymbolTableRecord
100
AcDbBlockTableRecord
  2
*Model_Space
  0
BLOCK_RECORD
  5
21F
100
AcDbSymbolTableRecord
100
AcDbBlockTableRecord
  2
*Paper_Space
  0
BLOCK_RECORD
  5
220
100
AcDbSymbolTableRecord
100
AcDbBlockTableRecord
  2
_FILLED
  0
ENDTAB
  0
TABLE
  2
DIMSTYLE
  5
A
100
AcDbSymbolTable
 70
1
100
AcDbDimStyleTable
 71
0
  0
DIMSTYLE
105
221
100
AcDbSymbolTableRecord
100
AcDbDimStyleTableRecord
  2
STANDARD
 70
0
  3

  4

 40
1.0
 41
3.0
 42
0.5
 43
0.38
 44
1.5
 45
0.0
 46
0.0
 47
0.01
 48
0.01
140
3.0
141
0.09
142
0.0
143
25.4
144
1.0
145
0.0
146
1.0
147
0.625
 71
1
 72
0
 73
0
 74
0
 75
0
 76
0
 77
1
 78
8
 79
2
170
0
171
1
172
0
173
0
174
0
175
0
176
0
177
0
178
0
270
2
179
2
271
2
272
2
273
2
274
2
275
0
280
0
281
0
282
0
283
1
284
8
285
0
286
0
287
3
288
0
340
11
278
44
341
220
342
220
343
220
344
220
  0
ENDTAB
  0
ENDSEC
  0
SECTION
  2
BLOCKS
  0
BLOCK
  5
20
100
AcDbEntity
  8
0
100
AcDbBlockBegin
  2
*Model_Space
 70
0
 10
0.0
 20
0.0
 30
0.0
  3
*Model_Space
  1

  0
ENDBLK
  5
21
100
AcDbEntity
  8
0
100
AcDbBlockEnd
  0
BLOCK
  5
1C
100
AcDbEntity
  8
0
100
AcDbBlockBegin
  2
*Paper_Space
 70
0
 10
0.0
 20
0.0
 30
0.0
  3
*Paper_Space
  1

  0
ENDBLK
  5
1D
100
AcDbEntity
  8
0
100
AcDbBlockEnd
  0
BLOCK
  5
222
100
AcDbEntity
  8
0
100
AcDbBlockBegin
  2
_FILLED
 70
64
 10
0.0
 20
0.0
  3
_FILLED
  1

  0
SOLID
  5
223
100
AcDbEntity
  8
0
  6
BYBLOCK
 62
0
100
AcDbTrace
 10
0.0
 20
0.0
 11
-1.0
 21
0.3166666667
 12
-1.0
 22
-0.3166666667
 13
-1.0
 23
-0.3166666667
  0
ENDBLK
  5
224
100
AcDbEntity
  8
0
  6
BYBLOCK
 62
0
100
AcDbBlockEnd
  0
ENDSEC
  0
SECTION
  2
ENTITIES
  0
LINE
  5
225
100
AcDbEntity
  8
SMUSSO
100
AcDbLine
 62
7
  6
CONTINUOUS
 10
-45.0274205459
 20
59.3397676688
 11
-41.2396067588
 21
61.8433345602
  0
LINE
  5
226
100
AcDbEntity
  8
0
100
AcDbLine
 62
7
  6
CONTINUOUS
 10
-45.0274205459
 20
59.3397676688
 11
-41.2396067588
 21
61.8433345602
  0
LINE
  5
227
100
AcDbEntity
  8
SMUSSO
100
AcDbLine
 62
7
  6
CONTINUOUS
 10
-44.3198832767
 20
59.7482118627
 11
-40.5320694895
 21
62.251778754
  0
LINE
  5
228
100
AcDbEntity
  8
0
100
AcDbLine
 62
7
  6
CONTINUOUS
 10
-44.3198832767
 20
59.7482118627
 11
-40.5320694895
 21
62.251778754
  0
LINE
  5
229
100
AcDbEntity
  8
SMUSSO
100
AcDbLine
 62
7
  6
CONTINUOUS
 10
-44.3406468908
 20
59.7353725117
 11
-44.3198832767
 21
59.7482118627
  0
LINE
  5
22A
100
AcDbEntity
  8
0
100
AcDbLine
 62
7
  6
CONTINUOUS
 10
-44.3406468908
 20
59.7353725117
 11
-44.3198832767
 21
59.7482118627
  0
LINE
  5
22B
100
AcDbEntity
  8
SMUSSO
100
AcDbLine
 62
7
  6
CONTINUOUS
 10
-41.2396067588
 20
61.8433345602
 11
-40.5320694895
 21
62.251778754
  0
LINE
  5
22C
100
AcDbEntity
  8
0
100
AcDbLine
 62
7
  6
CONTINUOUS
 10
-41.2396067588
 20
61.8433345602
 11
-40.5320694895
 21
62.251778754
  0
LINE
  5
22D
100
AcDbEntity
  8
SMUSSO
100
AcDbLine
 62
7
  6
CONTINUOUS
 10
-44.3406468908
 20
59.7353725117
 11
-45.0270452385
 21
59.3391313073
  0
LINE
  5
22E
100
AcDbEntity
  8
0
100
AcDbLine
 62
7
  6
CONTINUOUS
 10
-44.3406468908
 20
59.7353725117
 11
-45.0270452385
 21
59.3391313073
  0
LINE
  5
22F
100
AcDbEntity
  8
SMUSSO
100
AcDbLine
 62
7
  6
CONTINUOUS
 10
-44.7233361907
 20
58.3201440733
 11
-45.0023121248
 21
58.1590979978
  0
LINE
  5
230
100
AcDbEntity
  8
0
100
AcDbLine
 62
7
  6
CONTINUOUS
 10
-44.7233361907
 20
58.3201440733
 11
-45.0023121248
 21
58.1590979978
  0
LINE
  5
231
100
AcDbEntity
  8
CURVE
100
AcDbLine
 62
250
  6
CONTINUOUS
 10
43.3548407276
 20
-55.3787693924
 11
42.0964399064
 21
-55.6553921924
  0
LINE
  5
232
100
AcDbEntity
  8
CURVE
100
AcDbLine
 62
250
  6
CONTINUOUS
 10
42.0964399064
 20
-55.2296551971
 11
43.924631083
 21
-54.9013620047
  0
LINE
  5
233
100
AcDbEntity
  8
SMUSSO
100
AcDbLine
 62
7
  6
CONTINUOUS
 10
-44.7233361907
 20
58.3201440733
 11
-44.3406468908
 21
59.7353725117
  0
LINE
  5
234
100
AcDbEntity
  8
0
100
AcDbLine
 62
7
  6
CONTINUOUS
 10
-44.7233361907
 20
58.3201440733
 11
-44.3406468908
 21
59.7353725117
  0
LINE
  5
235
100
AcDbEntity
  8
CURVE
100
AcDbLine
 62
250
  6
CONTINUOUS
 10
42.5987804353
 20
-51.1706906246
 11
43.2772455626
 21
-51.0175160448
  0
LINE
  5
236
100
AcDbEntity
  8
CURVE
100
AcDbLine
 62
250
  6
CONTINUOUS
 10
43.5596592572
 20
-50.9526041056
 11
43.924631083
 21
-50.873652894
  0
LINE
  5
237
100
AcDbEntity
  8
CURVE
100
AcDbLine
 62
250
  6
CONTINUOUS
 10
43.924631083
 20
-51.2950585144
 11
42.0964399064
 21
-51.6392230726
  0
LINE
  5
238
100
AcDbEntity
  8
CURVE
100
AcDbLine
 62
250
  6
CONTINUOUS
 10
43.111457186
 20
-52.838182211
 11
42.0964399064
 21
-52.9586619011
  0
LINE
  5
239
100
AcDbEntity
  8
CURVE
100
AcDbLine
 62
250
  6
CONTINUOUS
 10
42.7358331935
 20
-52.506330148
 11
43.924631083
 21
-52.3728017292
  0
LINE
  5
23A
100
AcDbEntity
  8
SMUSSO
100
AcDbLine
 62
7
  6
CONTINUOUS
 10
-45.0023121248
 20
-12.6725356016
 11
-45.0270452385
 21
-12.2163000241
  0
LINE
  5
23B
100
AcDbEntity
  8
0
100
AcDbLine
 62
7
  6
CONTINUOUS
 10
-45.0023121248
 20
-12.6725356016
 11
-45.0270452385
 21
-12.2163000241
  0
LINE
  5
23C
100
AcDbEntity
  8
SMUSSO
100
AcDbLine
 62
7
  6
CONTINUOUS
 10
39.5270270784
 20
-61.4787166561
 11
40.9439862093
 21
-61.8548961119
  0
LINE
  5
23D
100
AcDbEntity
  8
0
100
AcDbLine
 62
7
  6
CONTINUOUS
 10
39.5270270784
 20
-61.4787166561
 11
40.9439862093
 21
-61.8548961119
  0
LINE
  5
23E
100
AcDbEntity
  8
SMUSSO
100
AcDbLine
 62
7
  6
CONTINUOUS
 10
-45.0023121248
 20
58.1590979978
 11
-45.0270452385
 21
59.3391313073
  0
LINE
  5
23F
100
AcDbEntity
  8
0
100
AcDbLine
 62
7
  6
CONTINUOUS
 10
-45.0023121248
 20
58.1590979978
 11
-45.0270452385
 21
59.3391313073
  0
LINE
  5
240
100
AcDbEntity
  8
SMUSSO
100
AcDbLine
 62
7
  6
CONTINUOUS
 10
-45.0270452385
 20
-12.2163000241
 11
-45.0274205459
 21
-12.1921071634
  0
LINE
  5
241
100
AcDbEntity
  8
0
100
AcDbLine
 62
7
  6
CONTINUOUS
 10
-45.0270452385
 20
-12.2163000241
 11
-45.0274205459
 21
-12.1921071634
  0
LINE
  5
242
100
AcDbEntity
  8
SMUSSO
100
AcDbLine
 62
7
  6
CONTINUOUS
 10
-45.0274205459
 20
59.3397676688
 11
-45.0274205459
 21
-12.1921071634
  0
LINE
  5
243
100
AcDbEntity
  8
0
100
AcDbLine
 62
7
  6
CONTINUOUS
 10
-45.0274205459
 20
59.3397676688
 11
-45.0274205459
 21
-12.1921071634
  0
LINE
  5
244
100
AcDbEntity
  8
SMUSSO
100
AcDbLine
 62
7
  6
CONTINUOUS
 10
-45.0023121248
 20
58.1590979978
 11
-45.0023121248
 21
-12.6725356016
  0
LINE
  5
245
100
AcDbEntity
  8
0
100
AcDbLine
 62
7
  6
CONTINUOUS
 10
-45.0023121248
 20
58.1590979978
 11
-45.0023121248
 21
-12.6725356016
  0
LINE
  5
246
100
AcDbEntity
  8
SMUSSO
100
AcDbLine
 62
7
  6
CONTINUOUS
 10
-45.0023121248
 20
-12.6725356016
 11
-44.7233361907
 21
-13.1557360931
  0
LINE
  5
247
100
AcDbEntity
  8
0
100
AcDbLine
 62
7
  6
CONTINUOUS
 10
-45.0023121248
 20
-12.6725356016
 11
-44.7233361907
 21
-13.1557360931
  0
LINE
  5
248
100
AcDbEntity
  8
SMUSSO
100
AcDbLine
 62
7
  6
CONTINUOUS
 10
-44.7233361907
 20
-13.1557360931
 11
-44.3406468908
 21
-13.4051768352
  0
LINE
  5
249
100
AcDbEntity
  8
0
100
AcDbLine
 62
7
  6
CONTINUOUS
 10
-44.7233361907
 20
-13.1557360931
 11
-44.3406468908
 21
-13.4051768352
  0
LINE
  5
24A
100
AcDbEntity
  8
SMUSSO
100
AcDbLine
 62
7
  6
CONTINUOUS
 10
-44.3198832767
 20
-13.4175976608
 11
40.2579502919
 21
-62.251778754
  0
LINE
  5
24B
100
AcDbEntity
  8
0
100
AcDbLine
 62
7
  6
CONTINUOUS
 10
-44.3198832767
 20
-13.4175976608
 11
40.2579502919
 21
-62.251778754
  0
LINE
  5
24C
100
AcDbEntity
  8
SMUSSO
100
AcDbLine
 62
7
  6
CONTINUOUS
 10
-44.7233361907
 20
-13.1557360931
 11
39.2480511443
 21
-61.6397627316
  0
LINE
  5
24D
100
AcDbEntity
  8
0
100
AcDbLine
 62
7
  6
CONTINUOUS
 10
-44.7233361907
 20
-13.1557360931
 11
39.2480511443
 21
-61.6397627316
  0
LINE
  5
24E
100
AcDbEntity
  8
SMUSSO
100
AcDbLine
 62
7
  6
CONTINUOUS
 10
-44.3198832767
 20
-13.4175976608
 11
-44.3406468908
 21
-13.4051768352
  0
LINE
  5
24F
100
AcDbEntity
  8
0
100
AcDbLine
 62
7
  6
CONTINUOUS
 10
-44.3198832767
 20
-13.4175976608
 11
-44.3406468908
 21
-13.4051768352
  0
LINE
  5
250
100
AcDbEntity
  8
SMUSSO
100
AcDbLine
 62
7
  6
CONTINUOUS
 10
39.2480511443
 20
-61.6397627316
 11
40.2575878617
 21
-62.2511373164
  0
LINE
  5
251
100
AcDbEntity
  8
0
100
AcDbLine
 62
7
  6
CONTINUOUS
 10
39.2480511443
 20
-61.6397627316
 11
40.2575878617
 21
-62.2511373164
  0
LINE
  5
252
100
AcDbEntity
  8
0
100
AcDbLine
 62
7
  6
CONTINUOUS
 10
-21.9943979016
 20
7.8258593289
 11
-21.9943979016
 21
11.0917404361
  0
LINE
  5
253
100
AcDbEntity
  8
0
100
AcDbLine
 62
7
  6
CONTINUOUS
 10
-21.9709469715
 20
7.8123190558
 11
-21.9709469715
 21
11.0782001629
  0
LINE
  5
254
100
AcDbEntity
  8
0
100
AcDbLine
 62
7
  6
CONTINUOUS
 10
-20.2738906966
 20
7.8123190558
 11
-20.2738906966
 21
11.0782001629
  0
LINE
  5
255
100
AcDbEntity
  8
0
100
AcDbLine
 62
7
  6
CONTINUOUS
 10
-19.7789159498
 20
11.3639923783
 11
-19.7789159498
 21
8.0981112711
  0
LINE
  5
256
100
AcDbEntity
  8
0
100
AcDbLine
 62
7
  6
CONTINUOUS
 10
-15.3241432283
 20
7.2404189857
 11
-15.3241432283
 21
3.9745378785
  0
LINE
  5
257
100
AcDbEntity
  8
0
100
AcDbLine
 62
7
  6
CONTINUOUS
 10
-15.3006922982
 20
7.2268787126
 11
-15.3006922982
 21
3.9609976054
  0
LINE
  5
258
100
AcDbEntity
  8
0
100
AcDbLine
 62
7
  6
CONTINUOUS
 10
-15.3241432283
 20
4.9543969025
 11
-15.3242498576
 21
4.9495209537
  0
LINE
  5
259
100
AcDbEntity
  8
0
100
AcDbLine
 62
250
  6
CONTINUOUS
 10
-19.7789159498
 20
11.3639923783
 11
-20.2738906966
 21
11.0782001629
  0
LINE
  5
25A
100
AcDbEntity
  8
0
100
AcDbLine
 62
250
  6
CONTINUOUS
 10
-19.7789159498
 20
8.0981112711
 11
-20.2738906966
 21
7.8123190558
  0
LINE
  5
25B
100
AcDbEntity
  8
0
100
AcDbLine
 62
250
  6
CONTINUOUS
 10
9.8488581819
 20
-10.560037644
 11
11.5459144568
 21
-10.560037644
  0
LINE
  5
25C
100
AcDbEntity
  8
0
100
AcDbLine
 62
250
  6
CONTINUOUS
 10
9.8488581819
 20
-7.2941565368
 11
11.5459144568
 21
-7.2941565368
  0
LINE
  5
25D
100
AcDbEntity
  8
SMUSSO
100
AcDbLine
 62
7
  6
CONTINUOUS
 10
-45.0274205459
 20
59.3397676688
 11
-45.0270452385
 21
59.3391313073
  0
LINE
  5
25E
100
AcDbEntity
  8
0
100
AcDbLine
 62
7
  6
CONTINUOUS
 10
-45.0274205459
 20
59.3397676688
 11
-45.0270452385
 21
59.3391313073
  0
LINE
  5
25F
100
AcDbEntity
  8
SMUSSO
100
AcDbLine
 62
7
  6
CONTINUOUS
 10
39.5270270784
 20
9.3529169433
 11
40.9439862093
 21
9.7005352194
  0
LINE
  5
260
100
AcDbEntity
  8
0
100
AcDbLine
 62
7
  6
CONTINUOUS
 10
39.5270270784
 20
9.3529169433
 11
40.9439862093
 21
9.7005352194
  0
LINE
  5
261
100
AcDbEntity
  8
SMUSSO
100
AcDbLine
 62
7
  6
CONTINUOUS
 10
40.2575878617
 20
-62.2511373164
 11
40.2579502919
 21
-62.251778754
  0
LINE
  5
262
100
AcDbEntity
  8
0
100
AcDbLine
 62
7
  6
CONTINUOUS
 10
40.2575878617
 20
-62.2511373164
 11
40.2579502919
 21
-62.251778754
  0
LINE
  5
263
100
AcDbEntity
  8
0
100
AcDbLine
 62
7
  6
CONTINUOUS
 10
9.8254072518
 20
-10.5464973709
 11
9.8254072518
 21
-7.2806162637
  0
LINE
  5
264
100
AcDbEntity
  8
0
100
AcDbLine
 62
7
  6
CONTINUOUS
 10
9.8488581819
 20
-10.560037644
 11
9.8488581819
 21
-7.2941565368
  0
LINE
  5
265
100
AcDbEntity
  8
SMUSSO
100
AcDbLine
 62
7
  6
CONTINUOUS
 10
40.2579502919
 20
10.9140307694
 11
44.3198832767
 21
13.2593246716
  0
LINE
  5
266
100
AcDbEntity
  8
0
100
AcDbLine
 62
7
  6
CONTINUOUS
 10
40.2579502919
 20
10.9140307694
 11
44.3198832767
 21
13.2593246716
  0
LINE
  5
267
100
AcDbEntity
  8
0
100
AcDbLine
 62
250
  6
CONTINUOUS
 10
-21.9709469715
 20
7.8123190558
 11
-20.2738906966
 21
7.8123190558
  0
LINE
  5
268
100
AcDbEntity
  8
0
100
AcDbLine
 62
7
  6
CONTINUOUS
 10
11.5459144568
 20
-10.560037644
 11
11.5459144568
 21
-7.2941565368
  0
LINE
  5
269
100
AcDbEntity
  8
0
100
AcDbLine
 62
7
  6
CONTINUOUS
 10
12.0408892036
 20
-7.0083643215
 11
12.0408892036
 21
-10.2742454286
  0
LINE
  5
26A
100
AcDbEntity
  8
0
100
AcDbLine
 62
250
  6
CONTINUOUS
 10
12.0408892036
 20
-7.0083643215
 11
11.5459144568
 21
-7.2941565368
  0
LINE
  5
26B
100
AcDbEntity
  8
SMUSSO
100
AcDbLine
 62
7
  6
CONTINUOUS
 10
40.9654875612
 20
9.688540272
 11
45.0274205459
 21
12.0338341742
  0
LINE
  5
26C
100
AcDbEntity
  8
0
100
AcDbLine
 62
7
  6
CONTINUOUS
 10
40.9654875612
 20
9.688540272
 11
45.0274205459
 21
12.0338341742
  0
LINE
  5
26D
100
AcDbEntity
  8
0
100
AcDbLine
 62
250
  6
CONTINUOUS
 10
12.0408892036
 20
-10.2742454286
 11
11.5459144568
 21
-10.560037644
  0
LINE
  5
26E
100
AcDbEntity
  8
0
100
AcDbLine
 62
250
  6
CONTINUOUS
 10
-21.9709469715
 20
11.0782001629
 11
-20.2738906966
 21
11.0782001629
  0
LINE
  5
26F
100
AcDbEntity
  8
0
100
AcDbLine
 62
7
  6
CONTINUOUS
 10
16.4956619251
 20
-11.1319377141
 11
16.4956619251
 21
-14.3978188213
  0
LINE
  5
270
100
AcDbEntity
  8
0
100
AcDbLine
 62
7
  6
CONTINUOUS
 10
16.5191128551
 20
-11.1454779872
 11
16.5191128551
 21
-14.4113590944
  0
LINE
  5
271
100
AcDbEntity
  8
0
100
AcDbLine
 62
7
  6
CONTINUOUS
 10
16.4956619251
 20
-13.4179597973
 11
16.4955552958
 21
-13.422835746
  0
LINE
  5
272
100
AcDbEntity
  8
SMUSSO
100
AcDbLine
 62
7
  6
CONTINUOUS
 10
39.2480511443
 20
9.8361174348
 11
40.2575878617
 21
10.8894120305
  0
LINE
  5
273
100
AcDbEntity
  8
0
100
AcDbLine
 62
7
  6
CONTINUOUS
 10
39.2480511443
 20
9.8361174348
 11
40.2575878617
 21
10.8894120305
  0
LINE
  5
274
100
AcDbEntity
  8
SMUSSO
100
AcDbLine
 62
7
  6
CONTINUOUS
 10
40.9439862093
 20
9.7005352194
 11
40.9654875612
 21
9.688540272
  0
LINE
  5
275
100
AcDbEntity
  8
0
100
AcDbLine
 62
7
  6
CONTINUOUS
 10
40.9439862093
 20
9.7005352194
 11
40.9654875612
 21
9.688540272
  0
LINE
  5
276
100
AcDbEntity
  8
SMUSSO
100
AcDbLine
 62
7
  6
CONTINUOUS
 10
39.2480511443
 20
9.8361174348
 11
-44.7233361907
 21
58.3201440733
  0
LINE
  5
277
100
AcDbEntity
  8
0
100
AcDbLine
 62
7
  6
CONTINUOUS
 10
39.2480511443
 20
9.8361174348
 11
-44.7233361907
 21
58.3201440733
  0
LINE
  5
278
100
AcDbEntity
  8
SMUSSO
100
AcDbLine
 62
7
  6
CONTINUOUS
 10
40.2579502919
 20
10.9140307694
 11
-44.3198832767
 21
59.7482118627
  0
LINE
  5
279
100
AcDbEntity
  8
0
100
AcDbLine
 62
7
  6
CONTINUOUS
 10
40.2579502919
 20
10.9140307694
 11
-44.3198832767
 21
59.7482118627
  0
LINE
  5
27A
100
AcDbEntity
  8
SMUSSO
100
AcDbLine
 62
7
  6
CONTINUOUS
 10
44.3198832767
 20
13.2593246716
 11
-40.5320694895
 21
62.251778754
  0
LINE
  5
27B
100
AcDbEntity
  8
0
100
AcDbLine
 62
7
  6
CONTINUOUS
 10
44.3198832767
 20
13.2593246716
 11
-40.5320694895
 21
62.251778754
  0
LINE
  5
27C
100
AcDbEntity
  8
SMUSSO
100
AcDbLine
 62
7
  6
CONTINUOUS
 10
39.5270270784
 20
-61.4787166561
 11
39.5270270784
 21
9.3529169433
  0
LINE
  5
27D
100
AcDbEntity
  8
0
100
AcDbLine
 62
7
  6
CONTINUOUS
 10
39.5270270784
 20
-61.4787166561
 11
39.5270270784
 21
9.3529169433
  0
LINE
  5
27E
100
AcDbEntity
  8
SMUSSO
100
AcDbLine
 62
7
  6
CONTINUOUS
 10
40.9654875612
 20
-61.8433345602
 11
40.9654875612
 21
9.688540272
  0
LINE
  5
27F
100
AcDbEntity
  8
0
100
AcDbLine
 62
7
  6
CONTINUOUS
 10
40.9654875612
 20
-61.8433345602
 11
40.9654875612
 21
9.688540272
  0
LINE
  5
280
100
AcDbEntity
  8
SMUSSO
100
AcDbLine
 62
7
  6
CONTINUOUS
 10
40.2579502919
 20
10.9140307694
 11
40.2575878617
 21
10.8894120305
  0
LINE
  5
281
100
AcDbEntity
  8
0
100
AcDbLine
 62
7
  6
CONTINUOUS
 10
40.2579502919
 20
10.9140307694
 11
40.2575878617
 21
10.8894120305
  0
LINE
  5
282
100
AcDbEntity
  8
SMUSSO
100
AcDbLine
 62
7
  6
CONTINUOUS
 10
39.5270270784
 20
9.3529169433
 11
39.2480511443
 21
9.8361174348
  0
LINE
  5
283
100
AcDbEntity
  8
0
100
AcDbLine
 62
7
  6
CONTINUOUS
 10
39.5270270784
 20
9.3529169433
 11
39.2480511443
 21
9.8361174348
  0
LINE
  5
284
100
AcDbEntity
  8
SMUSSO
100
AcDbLine
 62
7
  6
CONTINUOUS
 10
40.9439862093
 20
9.7005352194
 11
40.2575878617
 21
10.8894120305
  0
LINE
  5
285
100
AcDbEntity
  8
0
100
AcDbLine
 62
7
  6
CONTINUOUS
 10
40.9439862093
 20
9.7005352194
 11
40.2575878617
 21
10.8894120305
  0
LINE
  5
286
100
AcDbEntity
  8
CURVE
100
AcDbLine
 62
250
  6
CONTINUOUS
 10
42.0963309347
 20
-54.6455849069
 11
42.0963309347
 21
-55.071613382
  0
LINE
  5
287
100
AcDbEntity
  8
CURVE
100
AcDbLine
 62
250
  6
CONTINUOUS
 10
42.0964399064
 20
-56.9081629569
 11
42.0964399064
 21
-56.4453647428
  0
LINE
  5
288
100
AcDbEntity
  8
CURVE
100
AcDbLine
 62
250
  6
CONTINUOUS
 10
42.0964399064
 20
-55.6553921924
 11
42.0964399064
 21
-55.2296551971
  0
LINE
  5
289
100
AcDbEntity
  8
CURVE
100
AcDbLine
 62
250
  6
CONTINUOUS
 10
42.0964399064
 20
-54.2318950436
 11
42.0964399064
 21
-53.8062192836
  0
LINE
  5
28A
100
AcDbEntity
  8
CURVE
100
AcDbLine
 62
250
  6
CONTINUOUS
 10
42.0964399064
 20
-52.9586619011
 11
42.0964399064
 21
-52.5371485066
  0
LINE
  5
28B
100
AcDbEntity
  8
CURVE
100
AcDbLine
 62
250
  6
CONTINUOUS
 10
42.0964399064
 20
-51.6392230726
 11
42.0964399064
 21
-51.227091738
  0
LINE
  5
28C
100
AcDbEntity
  8
CURVE
100
AcDbLine
 62
250
  6
CONTINUOUS
 10
42.9097646912
 20
-49.3842007395
 11
42.9097646912
 21
-49.6276717307
  0
LINE
  5
28D
100
AcDbEntity
  8
CURVE
100
AcDbLine
 62
250
  6
CONTINUOUS
 10
43.209178179
 20
-49.452334305
 11
43.209178179
 21
-49.2239080702
  0
LINE
  5
28E
100
AcDbEntity
  8
CURVE
100
AcDbLine
 62
250
  6
CONTINUOUS
 10
43.2772455626
 20
-51.0175160448
 11
43.2772455626
 21
-50.6096238239
  0
LINE
  5
28F
100
AcDbEntity
  8
CURVE
100
AcDbLine
 62
250
  6
CONTINUOUS
 10
43.5596592572
 20
-50.3724244093
 11
43.5596592572
 21
-50.9526041056
  0
LINE
  5
290
100
AcDbEntity
  8
CURVE
100
AcDbLine
 62
250
  6
CONTINUOUS
 10
43.924631083
 20
-54.0872154023
 11
43.924631083
 21
-53.6611869272
  0
LINE
  5
291
100
AcDbEntity
  8
CURVE
100
AcDbLine
 62
250
  6
CONTINUOUS
 10
43.9246310951
 20
-49.4914325069
 11
43.9246310951
 21
-49.0671183405
  0
LINE
  5
292
100
AcDbEntity
  8
CURVE
100
AcDbLine
 62
250
  6
CONTINUOUS
 10
43.9246310951
 20
-48.4147146479
 11
43.9246310951
 21
-48.0049248698
  0
LINE
  5
293
100
AcDbEntity
  8
CURVE
100
AcDbLine
 62
250
  6
CONTINUOUS
 10
43.924631083
 20
-49.6165352417
 11
43.924631083
 21
-50.0655514375
  0
LINE
  5
294
100
AcDbEntity
  8
CURVE
100
AcDbLine
 62
250
  6
CONTINUOUS
 10
43.924631083
 20
-50.873652894
 11
43.924631083
 21
-51.2950585144
  0
LINE
  5
295
100
AcDbEntity
  8
CURVE
100
AcDbLine
 62
250
  6
CONTINUOUS
 10
43.924631083
 20
-51.361956823
 11
43.924631083
 21
-51.7787257087
  0
LINE
  5
296
100
AcDbEntity
  8
CURVE
100
AcDbLine
 62
250
  6
CONTINUOUS
 10
43.924631083
 20
-52.3728017292
 11
43.924631083
 21
-52.432552657
  0
LINE
  5
297
100
AcDbEntity
  8
CURVE
100
AcDbLine
 62
250
  6
CONTINUOUS
 10
43.924631083
 20
-53.0242723442
 11
43.924631083
 21
-53.4318428758
  0
LINE
  5
298
100
AcDbEntity
  8
CURVE
100
AcDbLine
 62
250
  6
CONTINUOUS
 10
43.924631083
 20
-54.9013620047
 11
43.924631083
 21
-55.2767995321
  0
LINE
  5
299
100
AcDbEntity
  8
SMUSSO
100
AcDbLine
 62
7
  6
CONTINUOUS
 10
45.0274205459
 20
-59.8145560459
 11
45.0274205459
 21
12.0338341742
  0
LINE
  5
29A
100
AcDbEntity
  8
0
100
AcDbLine
 62
7
  6
CONTINUOUS
 10
45.0274205459
 20
-59.8145560459
 11
45.0274205459
 21
12.0338341742
  0
LINE
  5
29B
100
AcDbEntity
  8
SMUSSO
100
AcDbLine
 62
7
  6
CONTINUOUS
 10
44.3198832767
 20
13.2593246716
 11
45.0274205459
 21
12.0338341742
  0
LINE
  5
29C
100
AcDbEntity
  8
0
100
AcDbLine
 62
7
  6
CONTINUOUS
 10
44.3198832767
 20
13.2593246716
 11
45.0274205459
 21
12.0338341742
  0
LINE
  5
29D
100
AcDbEntity
  8
CURVE
100
AcDbLine
 62
7
  6
CONTINUOUS
 10
42.1960041552
 20
-49.2555065232
 11
42.6603084748
 21
-48.7912022036
  0
LINE
  5
29E
100
AcDbEntity
  8
CURVE
100
AcDbLine
 62
7
  6
CONTINUOUS
 10
42.1033762807
 20
-49.5581451117
 11
42.9094234156
 21
-48.7520979768
  0
LINE
  5
29F
100
AcDbEntity
  8
CURVE
100
AcDbLine
 62
7
  6
CONTINUOUS
 10
42.0794092151
 20
-49.7921228913
 11
42.4289064799
 21
-49.4426256265
  0
LINE
  5
2A0
100
AcDbEntity
  8
CURVE
100
AcDbLine
 62
7
  6
CONTINUOUS
 10
42.6955657885
 20
-49.175966318
 11
43.0434019544
 21
-48.828130152
  0
LINE
  5
2A1
100
AcDbEntity
  8
CURVE
100
AcDbLine
 62
7
  6
CONTINUOUS
 10
43.1140830196
 20
-48.7574490868
 11
43.5800857483
 21
-48.2914463581
  0
LINE
  5
2A2
100
AcDbEntity
  8
CURVE
100
AcDbLine
 62
7
  6
CONTINUOUS
 10
42.0761760036
 20
-50.0053668169
 11
42.3909002568
 21
-49.6906425636
  0
LINE
  5
2A3
100
AcDbEntity
  8
CURVE
100
AcDbLine
 62
7
  6
CONTINUOUS
 10
42.8699380418
 20
-49.2116047786
 11
43.9246310951
 21
-48.1569117253
  0
LINE
  5
2A4
100
AcDbEntity
  8
CURVE
100
AcDbLine
 62
7
  6
CONTINUOUS
 10
42.0876677047
 20
-50.2038858297
 11
42.4059893026
 21
-49.8855642319
  0
LINE
  5
2A5
100
AcDbEntity
  8
CURVE
100
AcDbLine
 62
7
  6
CONTINUOUS
 10
42.9096733415
 20
-49.3818801929
 11
43.2750386386
 21
-49.0165148958
  0
LINE
  5
2A6
100
AcDbEntity
  8
CURVE
100
AcDbLine
 62
7
  6
CONTINUOUS
 10
43.579354234
 20
-48.7121993005
 11
43.9246310951
 21
-48.3669224393
  0
LINE
  5
2A7
100
AcDbEntity
  8
CURVE
100
AcDbLine
 62
7
  6
CONTINUOUS
 10
42.108389721
 20
-50.3931745275
 11
42.8320482183
 21
-49.6695160301
  0
LINE
  5
2A8
100
AcDbEntity
  8
CURVE
100
AcDbLine
 62
7
  6
CONTINUOUS
 10
42.9097646912
 20
-49.5917995572
 11
43.209178179
 21
-49.2923860694
  0
LINE
  5
2A9
100
AcDbEntity
  8
CURVE
100
AcDbLine
 62
7
  6
CONTINUOUS
 10
42.3983680612
 20
-50.3132069012
 11
43.3176377139
 21
-49.3939372485
  0
LINE
  5
2AA
100
AcDbEntity
  8
CURVE
100
AcDbLine
 62
7
  6
CONTINUOUS
 10
42.853352814
 20
-50.0682328624
 11
43.7726224667
 21
-49.1489632098
  0
LINE
  5
2AB
100
AcDbEntity
  8
CURVE
100
AcDbLine
 62
7
  6
CONTINUOUS
 10
43.3083375668
 20
-49.8232588236
 11
43.9246310951
 21
-49.2069652954
  0
LINE
  5
2AC
100
AcDbEntity
  8
CURVE
100
AcDbLine
 62
7
  6
CONTINUOUS
 10
42.0964399064
 20
-51.2451671981
 11
42.2482787429
 21
-51.0933283616
  0
LINE
  5
2AD
100
AcDbEntity
  8
CURVE
100
AcDbLine
 62
7
  6
CONTINUOUS
 10
43.7633223197
 20
-49.5782847848
 11
43.9246310951
 21
-49.4169760094
  0
LINE
  5
2AE
100
AcDbEntity
  8
CURVE
100
AcDbLine
 62
7
  6
CONTINUOUS
 10
42.0964399064
 20
-51.4551779121
 11
43.924631083
 21
-49.6269867355
  0
LINE
  5
2AF
100
AcDbEntity
  8
CURVE
100
AcDbLine
 62
7
  6
CONTINUOUS
 10
42.1284272005
 20
-51.633201332
 11
43.924631083
 21
-49.8369974495
  0
LINE
  5
2B0
100
AcDbEntity
  8
CURVE
100
AcDbLine
 62
7
  6
CONTINUOUS
 10
42.3871420575
 20
-51.5844971891
 11
42.8599008098
 21
-51.1117384368
  0
LINE
  5
2B1
100
AcDbEntity
  8
CURVE
100
AcDbLine
 62
7
  6
CONTINUOUS
 10
43.2772455626
 20
-50.6943936839
 11
43.5596592572
 21
-50.4119799893
  0
LINE
  5
2B2
100
AcDbEntity
  8
CURVE
100
AcDbLine
 62
7
  6
CONTINUOUS
 10
43.8081438874
 20
-50.1634953591
 11
43.924631083
 21
-50.0470081635
  0
LINE
  5
2B3
100
AcDbEntity
  8
CURVE
100
AcDbLine
 62
7
  6
CONTINUOUS
 10
42.6458569144
 20
-51.5357930461
 11
43.1311505905
 21
-51.05049937
  0
LINE
  5
2B4
100
AcDbEntity
  8
CURVE
100
AcDbLine
 62
7
  6
CONTINUOUS
 10
43.2772455626
 20
-50.9044043979
 11
43.5596592572
 21
-50.6219907034
  0
LINE
  5
2B5
100
AcDbEntity
  8
CURVE
100
AcDbLine
 62
7
  6
CONTINUOUS
 10
42.9045717714
 20
-51.4870889031
 11
43.5596592572
 21
-50.8320014174
  0
LINE
  5
2B6
100
AcDbEntity
  8
CURVE
100
AcDbLine
 62
7
  6
CONTINUOUS
 10
43.1632866284
 20
-51.4383847602
 11
43.6737468746
 21
-50.927924514
  0
LINE
  5
2B7
100
AcDbEntity
  8
CURVE
100
AcDbLine
 62
7
  6
CONTINUOUS
 10
42.0964399064
 20
-52.7152421962
 11
42.5950456717
 21
-52.2166364308
  0
LINE
  5
2B8
100
AcDbEntity
  8
CURVE
100
AcDbLine
 62
7
  6
CONTINUOUS
 10
43.4220014854
 20
-51.3896806172
 11
43.924631083
 21
-50.8870510195
  0
LINE
  5
2B9
100
AcDbEntity
  8
CURVE
100
AcDbLine
 62
7
  6
CONTINUOUS
 10
42.0964399064
 20
-52.9252529102
 11
43.1830089679
 21
-51.8386838487
  0
LINE
  5
2BA
100
AcDbEntity
  8
CURVE
100
AcDbLine
 62
7
  6
CONTINUOUS
 10
43.6807163424
 20
-51.3409764742
 11
43.924631083
 21
-51.0970617336
  0
LINE
  5
2BB
100
AcDbEntity
  8
CURVE
100
AcDbLine
 62
250
  6
CONTINUOUS
 10
42.0964399064
 20
-51.227091738
 11
43.924631083
 21
-49.6165352417
  0
LINE
  5
2BC
100
AcDbEntity
  8
CURVE
100
AcDbLine
 62
250
  6
CONTINUOUS
 10
43.924631083
 20
-50.0655514375
 11
43.5596592572
 21
-50.3724244093
  0
LINE
  5
2BD
100
AcDbEntity
  8
CURVE
100
AcDbLine
 62
250
  6
CONTINUOUS
 10
43.2772455626
 20
-50.6096238239
 11
42.5987804353
 21
-51.1706906246
  0
LINE
  5
2BE
100
AcDbEntity
  8
CURVE
100
AcDbLine
 62
250
  6
CONTINUOUS
 10
42.0964399064
 20
-52.5371485066
 11
43.924631083
 21
-51.361956823
  0
LINE
  5
2BF
100
AcDbEntity
  8
CURVE
100
AcDbLine
 62
250
  6
CONTINUOUS
 10
43.924631083
 20
-51.7787257087
 11
42.7358331935
 21
-52.506330148
  0
LINE
  5
2C0
100
AcDbEntity
  8
CURVE
100
AcDbLine
 62
250
  6
CONTINUOUS
 10
43.0712478173
 20
-48.8556152283
 11
43.0604448031
 21
-48.8614318145
  0
LINE
  5
2C1
100
AcDbEntity
  8
CURVE
100
AcDbLine
 62
250
  6
CONTINUOUS
 10
43.9246310951
 20
-49.0671183405
 11
43.209178179
 21
-49.452334305
  0
LINE
  5
2C2
100
AcDbEntity
  8
CURVE
100
AcDbLine
 62
250
  6
CONTINUOUS
 10
42.9097646912
 20
-49.6276717307
 11
42.4078906545
 21
-49.897892016
  0
LINE
  5
2C3
100
AcDbEntity
  8
CURVE
100
AcDbLine
 62
250
  6
CONTINUOUS
 10
42.1177995647
 20
-50.4642712992
 11
43.9246310951
 21
-49.4914325069
  0
LINE
  5
2C4
100
AcDbEntity
  8
CURVE
100
AcDbLine
 62
250
  6
CONTINUOUS
 10
42.730857063
 20
-53.5750901621
 11
43.924631083
 21
-53.0242723442
  0
LINE
  5
2C5
100
AcDbEntity
  8
CURVE
100
AcDbLine
 62
250
  6
CONTINUOUS
 10
43.924631083
 20
-53.4318428758
 11
42.0964399064
 21
-54.2318950436
  0
LINE
  5
2C6
100
AcDbEntity
  8
CURVE
100
AcDbLine
 62
7
  6
CONTINUOUS
 10
42.2968270144
 20
-52.9348765162
 11
43.770972264
 21
-51.4607312666
  0
LINE
  5
2C7
100
AcDbEntity
  8
CURVE
100
AcDbLine
 62
7
  6
CONTINUOUS
 10
42.535122762
 20
-52.9065914826
 11
42.9606342506
 21
-52.4810799941
  0
LINE
  5
2C8
100
AcDbEntity
  8
CURVE
100
AcDbLine
 62
7
  6
CONTINUOUS
 10
43.2502067006
 20
-52.191507544
 11
43.924631083
 21
-51.5170831616
  0
LINE
  5
2C9
100
AcDbEntity
  8
CURVE
100
AcDbLine
 62
7
  6
CONTINUOUS
 10
42.7734185096
 20
-52.8783064491
 11
43.1972186496
 21
-52.454506309
  0
LINE
  5
2CA
100
AcDbEntity
  8
CURVE
100
AcDbLine
 62
7
  6
CONTINUOUS
 10
43.7915419981
 20
-51.8601829605
 11
43.924631083
 21
-51.7270938756
  0
LINE
  5
2CB
100
AcDbEntity
  8
CURVE
100
AcDbLine
 62
7
  6
CONTINUOUS
 10
43.0117142571
 20
-52.8500214155
 11
43.4338030487
 21
-52.4279326239
  0
LINE
  5
2CC
100
AcDbEntity
  8
CURVE
100
AcDbLine
 62
7
  6
CONTINUOUS
 10
42.0964399064
 20
-53.9753064803
 11
43.6703874478
 21
-52.4013589389
  0
LINE
  5
2CD
100
AcDbEntity
  8
CURVE
100
AcDbLine
 62
7
  6
CONTINUOUS
 10
42.0964399064
 20
-54.1853171943
 11
43.9069718469
 21
-52.3747852538
  0
LINE
  5
2CE
100
AcDbEntity
  8
CURVE
100
AcDbLine
 62
7
  6
CONTINUOUS
 10
42.3870489764
 20
-54.1047188383
 11
43.0758693539
 21
-53.4158984608
  0
LINE
  5
2CF
100
AcDbEntity
  8
CURVE
100
AcDbLine
 62
7
  6
CONTINUOUS
 10
42.7604807118
 20
-53.9412978169
 11
43.4657953449
 21
-53.2359831838
  0
LINE
  5
2D0
100
AcDbEntity
  8
CURVE
100
AcDbLine
 62
7
  6
CONTINUOUS
 10
42.0963309347
 20
-54.815458308
 11
42.4643588603
 21
-54.4474303824
  0
LINE
  5
2D1
100
AcDbEntity
  8
CURVE
100
AcDbLine
 62
7
  6
CONTINUOUS
 10
43.1339124473
 20
-53.7778767954
 11
43.8557213359
 21
-53.0560679068
  0
LINE
  5
2D2
100
AcDbEntity
  8
CURVE
100
AcDbLine
 62
7
  6
CONTINUOUS
 10
42.0963309347
 20
-55.0254690221
 11
42.9193436131
 21
-54.2024563437
  0
LINE
  5
2D3
100
AcDbEntity
  8
CURVE
100
AcDbLine
 62
7
  6
CONTINUOUS
 10
43.5073441827
 20
-53.614455774
 11
43.924631083
 21
-53.1971688737
  0
LINE
  5
2D4
100
AcDbEntity
  8
CURVE
100
AcDbLine
 62
7
  6
CONTINUOUS
 10
42.0964399064
 20
-55.2353707644
 11
42.1034064799
 21
-55.2284041909
  0
LINE
  5
2D5
100
AcDbEntity
  8
CURVE
100
AcDbLine
 62
7
  6
CONTINUOUS
 10
42.4513446916
 20
-54.8804659791
 11
43.3743283659
 21
-53.9574823049
  0
LINE
  5
2D6
100
AcDbEntity
  8
CURVE
100
AcDbLine
 62
7
  6
CONTINUOUS
 10
43.8807759182
 20
-53.4510347525
 11
43.924631083
 21
-53.4071795877
  0
LINE
  5
2D7
100
AcDbEntity
  8
CURVE
100
AcDbLine
 62
7
  6
CONTINUOUS
 10
42.0964399064
 20
-55.4453814784
 11
42.3593837119
 21
-55.1824376728
  0
LINE
  5
2D8
100
AcDbEntity
  8
CURVE
100
AcDbLine
 62
7
  6
CONTINUOUS
 10
42.9063294444
 20
-54.6354919403
 11
43.8293131187
 21
-53.7125082661
  0
LINE
  5
2D9
100
AcDbEntity
  8
CURVE
100
AcDbLine
 62
7
  6
CONTINUOUS
 10
42.0964399064
 20
-55.6553921924
 11
42.615360944
 21
-55.1364711548
  0
LINE
  5
2DA
100
AcDbEntity
  8
CURVE
100
AcDbLine
 62
7
  6
CONTINUOUS
 10
43.3613141972
 20
-54.3905179015
 11
43.924631083
 21
-53.8272010157
  0
LINE
  5
2DB
100
AcDbEntity
  8
CURVE
100
AcDbLine
 62
7
  6
CONTINUOUS
 10
42.3656226027
 20
-55.5962202101
 11
42.871338176
 21
-55.0905046367
  0
LINE
  5
2DC
100
AcDbEntity
  8
CURVE
100
AcDbLine
 62
7
  6
CONTINUOUS
 10
43.8162989501
 20
-54.1455438627
 11
43.924631083
 21
-54.0372117297
  0
LINE
  5
2DD
100
AcDbEntity
  8
CURVE
100
AcDbLine
 62
7
  6
CONTINUOUS
 10
42.6348052991
 20
-55.5370482277
 11
43.1273154081
 21
-55.0445381187
  0
LINE
  5
2DE
100
AcDbEntity
  8
CURVE
100
AcDbLine
 62
7
  6
CONTINUOUS
 10
42.9039879954
 20
-55.4778762454
 11
43.3832926402
 21
-54.9985716006
  0
LINE
  5
2DF
100
AcDbEntity
  8
CURVE
100
AcDbLine
 62
7
  6
CONTINUOUS
 10
42.0964399064
 20
-56.4954350484
 11
42.424942078
 21
-56.1669328768
  0
LINE
  5
2E0
100
AcDbEntity
  8
CURVE
100
AcDbLine
 62
7
  6
CONTINUOUS
 10
43.1731706918
 20
-55.418704263
 11
43.6392698722
 21
-54.9526050826
  0
LINE
  5
2E1
100
AcDbEntity
  8
CURVE
100
AcDbLine
 62
7
  6
CONTINUOUS
 10
42.0964399064
 20
-56.7054457625
 11
43.8952471043
 21
-54.9066385645
  0
LINE
  5
2E2
100
AcDbEntity
  8
CURVE
100
AcDbLine
 62
7
  6
CONTINUOUS
 10
42.164184155
 20
-56.8477122278
 11
43.924631083
 21
-55.0872652998
  0
LINE
  5
2E3
100
AcDbEntity
  8
CURVE
100
AcDbLine
 62
250
  6
CONTINUOUS
 10
43.924631083
 20
-52.432552657
 11
42.730857063
 21
-53.5750901621
  0
LINE
  5
2E4
100
AcDbEntity
  8
CURVE
100
AcDbLine
 62
250
  6
CONTINUOUS
 10
42.0964399064
 20
-53.8062192836
 11
43.111457186
 21
-52.838182211
  0
LINE
  5
2E5
100
AcDbEntity
  8
CURVE
100
AcDbLine
 62
250
  6
CONTINUOUS
 10
43.924631083
 20
-55.2767995321
 11
42.0964399064
 21
-56.9081629569
  0
LINE
  5
2E6
100
AcDbEntity
  8
CURVE
100
AcDbLine
 62
250
  6
CONTINUOUS
 10
42.0964399064
 20
-56.4453647428
 11
43.3548407276
 21
-55.3787693924
  0
LINE
  5
2E7
100
AcDbEntity
  8
SMUSSO
100
AcDbLine
 62
7
  6
CONTINUOUS
 10
39.2480511443
 20
-61.6397627316
 11
39.5270270784
 21
-61.4787166561
  0
LINE
  5
2E8
100
AcDbEntity
  8
0
100
AcDbLine
 62
7
  6
CONTINUOUS
 10
39.2480511443
 20
-61.6397627316
 11
39.5270270784
 21
-61.4787166561
  0
LINE
  5
2E9
100
AcDbEntity
  8
SMUSSO
100
AcDbLine
 62
7
  6
CONTINUOUS
 10
40.2575878617
 20
-62.2511373164
 11
40.9439862093
 21
-61.8548961119
  0
LINE
  5
2EA
100
AcDbEntity
  8
0
100
AcDbLine
 62
7
  6
CONTINUOUS
 10
40.2575878617
 20
-62.2511373164
 11
40.9439862093
 21
-61.8548961119
  0
LINE
  5
2EB
100
AcDbEntity
  8
SMUSSO
100
AcDbLine
 62
7
  6
CONTINUOUS
 10
45.0274205459
 20
-59.8145560459
 11
44.3198832767
 21
-60.2230002398
  0
LINE
  5
2EC
100
AcDbEntity
  8
0
100
AcDbLine
 62
7
  6
CONTINUOUS
 10
45.0274205459
 20
-59.8145560459
 11
44.3198832767
 21
-60.2230002398
  0
LINE
  5
2ED
100
AcDbEntity
  8
CURVE
100
AcDbLine
 62
250
  6
CONTINUOUS
 10
43.924631083
 20
-53.6611869272
 11
42.0963309347
 21
-54.6455849069
  0
LINE
  5
2EE
100
AcDbEntity
  8
CURVE
100
AcDbLine
 62
250
  6
CONTINUOUS
 10
42.0963309347
 20
-55.071613382
 11
43.924631083
 21
-54.0872154023
  0
LINE
  5
2EF
100
AcDbEntity
  8
SMUSSO
100
AcDbLine
 62
7
  6
CONTINUOUS
 10
40.9654875612
 20
-61.8433345602
 11
40.9439862093
 21
-61.8548961119
  0
LINE
  5
2F0
100
AcDbEntity
  8
0
100
AcDbLine
 62
7
  6
CONTINUOUS
 10
40.9654875612
 20
-61.8433345602
 11
40.9439862093
 21
-61.8548961119
  0
LINE
  5
2F1
100
AcDbEntity
  8
SMUSSO
100
AcDbLine
 62
7
  6
CONTINUOUS
 10
40.9654875612
 20
-61.8433345602
 11
45.0274205459
 21
-59.8145560459
  0
LINE
  5
2F2
100
AcDbEntity
  8
0
100
AcDbLine
 62
7
  6
CONTINUOUS
 10
40.9654875612
 20
-61.8433345602
 11
45.0274205459
 21
-59.8145560459
  0
LINE
  5
2F3
100
AcDbEntity
  8
SMUSSO
100
AcDbLine
 62
7
  6
CONTINUOUS
 10
40.2579502919
 20
-62.251778754
 11
44.3198832767
 21
-60.2230002398
  0
LINE
  5
2F4
100
AcDbEntity
  8
0
100
AcDbLine
 62
7
  6
CONTINUOUS
 10
40.2579502919
 20
-62.251778754
 11
44.3198832767
 21
-60.2230002398
  0
ARC
  5
2F5
100
AcDbEntity
  8
0
100
AcDbCircle
 62
7
  6
CONTINUOUS
 10
-20.9285491705
 20
9.0472685901
 40
4.5608271847
100
AcDbArc
 50
57.6712629552
 51
59.9960935218
  0
ARC
  5
2F6
100
AcDbEntity
  8
0
100
AcDbCircle
 62
7
  6
CONTINUOUS
 10
10.8912559829
 20
-9.3250881097
 40
4.5608271847
100
AcDbArc
 50
57.6712629553
 51
59.9960935218
  0
ARC
  5
2F7
100
AcDbEntity
  8
0
100
AcDbCircle
 62
7
  6
CONTINUOUS
 10
-19.8250085005
 20
7.2265759654
 40
4.5243168089
100
AcDbArc
 50
0.1770469581
 51
0.8770782618
  0
ARC
  5
2F8
100
AcDbEntity
  8
0
100
AcDbCircle
 62
7
  6
CONTINUOUS
 10
11.9947966529
 20
-11.1457807344
 40
4.5243168089
100
AcDbArc
 50
0.1770469581
 51
0.8770782618
  0
ARC
  5
2F9
100
AcDbEntity
  8
0
100
AcDbCircle
 62
7
  6
CONTINUOUS
 10
-20.9062958025
 20
9.1120930567
 40
4.5170110438
100
AcDbArc
 50
59.1264946829
 51
59.9963965067
  0
ARC
  5
2FA
100
AcDbEntity
  8
0
100
AcDbCircle
 62
7
  6
CONTINUOUS
 10
10.9135093509
 20
-9.260263643
 40
4.5170110438
100
AcDbArc
 50
59.1264946829
 51
59.9963965067
  0
ARC
  5
2FB
100
AcDbEntity
  8
0
100
AcDbCircle
 62
7
  6
CONTINUOUS
 10
-19.7909982169
 20
7.2403150645
 40
4.4668549898
100
AcDbArc
 50
0.0013329841
 51
0.7001808941
  0
ARC
  5
2FC
100
AcDbEntity
  8
0
100
AcDbCircle
 62
7
  6
CONTINUOUS
 10
12.0288069366
 20
-11.1320416353
 40
4.4668549897
100
AcDbArc
 50
0.0013329841
 51
0.7001808941
  0
ARC
  5
2FD
100
AcDbEntity
  8
0
100
AcDbCircle
 62
7
  6
CONTINUOUS
 10
-19.7606068755
 20
7.2268721445
 40
4.4599145773
100
AcDbArc
 50
0.0000843782
 51
0.175798584
  0
ARC
  5
2FE
100
AcDbEntity
  8
0
100
AcDbCircle
 62
7
  6
CONTINUOUS
 10
12.0591982779
 20
-11.1454845552
 40
4.4599145773
100
AcDbArc
 50
0.0000843782
 51
0.175798584
  0
ARC
  5
2FF
100
AcDbEntity
  8
0
100
AcDbCircle
 62
7
  6
CONTINUOUS
 10
-18.3040962992
 20
11.7976957752
 40
1.3974633374
100
AcDbArc
 50
143.7198390075
 51
144.8980488624
  0
ARC
  5
300
100
AcDbEntity
  8
0
100
AcDbCircle
 62
7
  6
CONTINUOUS
 10
13.5157088542
 20
-6.5746609245
 40
1.3974633374
100
AcDbArc
 50
143.7198390075
 51
144.8980488624
  0
ARC
  5
301
100
AcDbEntity
  8
0
100
AcDbCircle
 62
7
  6
CONTINUOUS
 10
-18.962844621
 20
11.6644674232
 40
1.1728447466
100
AcDbArc
 50
113.8246611542
 51
119.9905956722
  0
ARC
  5
302
100
AcDbEntity
  8
0
100
AcDbCircle
 62
7
  6
CONTINUOUS
 10
12.8569605324
 20
-6.7078892765
 40
1.1728447466
100
AcDbArc
 50
113.8246611542
 51
119.9905956722
  0
ARC
  5
303
100
AcDbEntity
  8
0
100
AcDbCircle
 62
7
  6
CONTINUOUS
 10
15.1872365344
 20
-14.0091066058
 40
1.1673085758
100
AcDbArc
 50
298.75765879
 51
303.7054971961
  0
ARC
  5
304
100
AcDbEntity
  8
0
100
AcDbCircle
 62
7
  6
CONTINUOUS
 10
-16.6325686189
 20
4.3632500939
 40
1.1673085757
100
AcDbArc
 50
298.75765879
 51
303.7054971961
  0
SPLINE
  5
305
100
AcDbEntity
  8
0
100
AcDbSpline
 62
7
  6
CONTINUOUS
 70
0
 71
3
 72
15
 73
11
 74
0
 42
0.0000001
 43
0.0000001
 44
0.0000000001
 40
0.0
 40
0.0
 40
0.0
 40
0.0
 40
0.1124865279
 40
0.2325425472
 40
0.3584898332
 40
0.4882812165
 40
0.6196485753
 40
0.7502370853
 40
0.8777346834
 40
1.0
 40
1.0
 40
1.0
 40
1.0
 10
-18.5884168297
 20
12.989053959
 30
0.0
 10
-18.3980626788
 20
12.8752577986
 30
0.0
 10
-18.0212114677
 20
12.6114534672
 30
0.0
 10
-17.4936940107
 20
12.1389972148
 30
0.0
 10
-16.9967568159
 20
11.5876650884
 30
0.0
 10
-16.5436118358
 20
10.9720786062
 30
0.0
 10
-16.1461812558
 20
10.3084891426
 30
0.0
 10
-15.8149916405
 20
9.6144340447
 30
0.0
 10
-15.5588406234
 20
8.9084108632
 30
0.0
 10
-15.4394502863
 20
8.4294653955
 30
0.0
 10
-15.3950527612
 20
8.1925343912
 30
0.0
  0
SPLINE
  5
306
100
AcDbEntity
  8
0
100
AcDbSpline
 62
7
  6
CONTINUOUS
 70
0
 71
3
 72
9
 73
5
 74
0
 42
0.0000001
 43
0.0000001
 44
0.0000000001
 40
0.0
 40
0.0
 40
0.0
 40
0.0
 40
0.258788437
 40
1.0
 40
1.0
 40
1.0
 40
1.0
 10
-15.3950527612
 20
8.1925343912
 30
0.0
 10
-15.3807188183
 20
8.1160401391
 30
0.0
 10
-15.3310132569
 20
7.8194482434
 30
0.0
 10
-15.304628695
 20
7.5187101772
 30
0.0
 10
-15.3012217771
 20
7.2958310655
 30
0.0
  0
SPLINE
  5
307
100
AcDbEntity
  8
0
100
AcDbSpline
 62
7
  6
CONTINUOUS
 70
0
 71
3
 72
15
 73
11
 74
0
 42
0.0000001
 43
0.0000001
 44
0.0000000001
 40
0.0
 40
0.0
 40
0.0
 40
0.0
 40
0.1124865279
 40
0.2325425472
 40
0.3584898332
 40
0.4882812165
 40
0.6196485753
 40
0.7502370853
 40
0.8777346834
 40
1.0
 40
1.0
 40
1.0
 40
1.0
 10
13.2313883237
 20
-5.3833027408
 30
0.0
 10
13.4217424746
 20
-5.4970989011
 30
0.0
 10
13.7985936857
 20
-5.7609032325
 30
0.0
 10
14.3261111427
 20
-6.2333594849
 30
0.0
 10
14.8230483375
 20
-6.7846916113
 30
0.0
 10
15.2761933176
 20
-7.4002780935
 30
0.0
 10
15.6736238976
 20
-8.0638675571
 30
0.0
 10
16.0048135129
 20
-8.757922655
 30
0.0
 10
16.26096453
 20
-9.4639458365
 30
0.0
 10
16.3803548671
 20
-9.9428913043
 30
0.0
 10
16.4247523922
 20
-10.1798223085
 30
0.0
  0
SPLINE
  5
308
100
AcDbEntity
  8
0
100
AcDbSpline
 62
7
  6
CONTINUOUS
 70
0
 71
3
 72
9
 73
5
 74
0
 42
0.0000001
 43
0.0000001
 44
0.0000000001
 40
0.0
 40
0.0
 40
0.0
 40
0.0
 40
0.258788437
 40
1.0
 40
1.0
 40
1.0
 40
1.0
 10
16.4247523922
 20
-10.1798223085
 30
0.0
 10
16.4390863351
 20
-10.2563165607
 30
0.0
 10
16.4887918965
 20
-10.5529084563
 30
0.0
 10
16.5151764584
 20
-10.8536465225
 30
0.0
 10
16.5185833763
 20
-11.0765256343
 30
0.0
  0
SPLINE
  5
309
100
AcDbEntity
  8
0
100
AcDbSpline
 62
7
  6
CONTINUOUS
 70
0
 71
3
 72
19
 73
15
 74
0
 42
0.0000001
 43
0.0000001
 44
0.0000000001
 40
0.0
 40
0.0
 40
0.0
 40
0.0
 40
0.1447021217
 40
0.2741411309
 40
0.3338651055
 40
0.3908762765
 40
0.4459419568
 40
0.499988995
 40
0.5540365044
 40
0.6091036574
 40
0.6661174394
 40
0.7258436374
 40
0.8552945051
 40
1.0
 40
1.0
 40
1.0
 40
1.0
 10
-21.9943979016
 20
11.0917404361
 30
0.0
 10
-21.9943979021
 20
11.331637455
 30
0.0
 10
-21.9582776599
 20
11.7874976402
 30
0.0
 10
-21.7998486754
 20
12.3237616731
 30
0.0
 10
-21.6076133964
 20
12.6851929056
 30
0.0
 10
-21.4380765263
 20
12.9154493429
 30
0.0
 10
-21.2408841205
 20
13.1094785551
 30
0.0
 10
-21.0179768635
 20
13.2650209871
 30
0.0
 10
-20.7718044396
 20
13.3802663152
 30
0.0
 10
-20.5051590393
 20
13.4539997461
 30
0.0
 10
-20.2209692971
 20
13.4856662471
 30
0.0
 10
-19.8118163715
 20
13.4714032159
 30
0.0
 10
-19.2681669373
 20
13.3404211476
 30
0.0
 10
-18.8553026412
 20
13.1437544653
 30
0.0
 10
-18.647544258
 20
13.0237973183
 30
0.0
  0
SPLINE
  5
30A
100
AcDbEntity
  8
0
100
AcDbSpline
 62
7
  6
CONTINUOUS
 70
0
 71
3
 72
19
 73
15
 74
0
 42
0.0000001
 43
0.0000001
 44
0.0000000001
 40
0.0
 40
0.0
 40
0.0
 40
0.0
 40
0.0428480059
 40
0.0875818389
 40
0.13558339
 40
0.1877296077
 40
0.2443951296
 40
0.3055302546
 40
0.370752386
 40
0.4394272834
 40
0.5835967173
 40
0.7304215411
 40
0.8716372482
 40
1.0
 40
1.0
 40
1.0
 40
1.0
 10
15.7547410914
 20
-15.0431440411
 30
0.0
 10
15.667387715
 20
-15.0910831304
 30
0.0
 10
15.4753318465
 20
-15.1662020504
 30
0.0
 10
15.1599460311
 20
-15.2066534407
 30
0.0
 10
14.8220759867
 20
-15.1769028729
 30
0.0
 10
14.4690718955
 20
-15.0788772909
 30
0.0
 10
14.1077849921
 20
-14.9154446623
 30
0.0
 10
13.7453555903
 20
-14.6903107161
 30
0.0
 10
13.3890457502
 20
-14.4082577917
 30
0.0
 10
12.9246530313
 20
-13.9569866755
 30
0.0
 10
12.4090620708
 20
-13.2924376389
 30
0.0
 10
11.9305215884
 20
-12.4033591034
 30
0.0
 10
11.6202056441
 20
-11.4812417192
 30
0.0
 10
11.5371431507
 20
-10.8536305242
 30
0.0
 10
11.5371431497
 20
-10.5551224385
 30
0.0
  0
SPLINE
  5
30B
100
AcDbEntity
  8
0
100
AcDbSpline
 62
7
  6
CONTINUOUS
 70
0
 71
3
 72
19
 73
15
 74
0
 42
0.0000001
 43
0.0000001
 44
0.0000000001
 40
0.0
 40
0.0
 40
0.0
 40
0.0
 40
0.0428480059
 40
0.0875818389
 40
0.13558339
 40
0.1877296077
 40
0.2443951296
 40
0.3055302546
 40
0.370752386
 40
0.4394272834
 40
0.5835967173
 40
0.7304215411
 40
0.8716372482
 40
1.0
 40
1.0
 40
1.0
 40
1.0
 10
-16.065064062
 20
3.3292126586
 30
0.0
 10
-16.1524174384
 20
3.2812735693
 30
0.0
 10
-16.3444733069
 20
3.2061546493
 30
0.0
 10
-16.6598591223
 20
3.165703259
 30
0.0
 10
-16.9977291667
 20
3.1954538268
 30
0.0
 10
-17.3507332579
 20
3.2934794088
 30
0.0
 10
-17.7120201613
 20
3.4569120375
 30
0.0
 10
-18.0744495631
 20
3.6820459836
 30
0.0
 10
-18.4307594032
 20
3.964098908
 30
0.0
 10
-18.8951521221
 20
4.4153700243
 30
0.0
 10
-19.4107430826
 20
5.0799190609
 30
0.0
 10
-19.889283565
 20
5.9689975963
 30
0.0
 10
-20.1995995093
 20
6.8911149805
 30
0.0
 10
-20.2826620027
 20
7.5187261755
 30
0.0
 10
-20.2826620037
 20
7.8172342613
 30
0.0
  0
SPLINE
  5
30C
100
AcDbEntity
  8
0
100
AcDbSpline
 62
7
  6
CONTINUOUS
 70
0
 71
3
 72
26
 73
22
 74
0
 42
0.0000001
 43
0.0000001
 44
0.0000000001
 40
0.0
 40
0.0
 40
0.0
 40
0.0
 40
0.0603524175
 40
0.1143388911
 40
0.1392485905
 40
0.1630268326
 40
0.1859936485
 40
0.2085356084
 40
0.2310777643
 40
0.2540451928
 40
0.3026065396
 40
0.3565979513
 40
0.4169517675
 40
0.4835105422
 40
0.5553264685
 40
0.6309193265
 40
0.7084793976
 40
0.786039011
 40
0.8616306383
 40
0.9334423291
 40
1.0
 40
1.0
 40
1.0
 40
1.0
 10
16.5191128551
 20
-14.4113590944
 30
0.0
 10
16.5191128557
 20
-14.6512560771
 30
0.0
 10
16.4829925946
 20
-15.1071161794
 30
0.0
 10
16.3245637599
 20
-15.6433802037
 30
0.0
 10
16.1323283622
 20
-16.0048113002
 30
0.0
 10
15.9627920441
 20
-16.2350680322
 30
0.0
 10
15.7655979115
 20
-16.4290961739
 30
0.0
 10
15.5426972263
 20
-16.5846425518
 30
0.0
 10
15.2965005259
 20
-16.6998732322
 30
0.0
 10
14.9346134004
 20
-16.8000550664
 30
0.0
 10
14.4279003983
 20
-16.8134696054
 30
0.0
 10
13.79309891
 20
-16.6599125652
 30
0.0
 10
13.1400138068
 20
-16.3492164873
 30
0.0
 10
12.4907507674
 20
-15.8939608765
 30
0.0
 10
11.8678628486
 20
-15.3112672495
 30
0.0
 10
11.294078182
 20
-14.6226493053
 30
0.0
 10
10.7906867878
 20
-13.8537523917
 30
0.0
 10
10.3765034194
 20
-13.0333796669
 30
0.0
 10
10.0670492603
 20
-12.1921117797
 30
0.0
 10
9.8738645368
 20
-11.3615833347
 30
0.0
 10
9.825407251
 20
-10.8110598374
 30
0.0
 10
9.8254072518
 20
-10.5464973709
 30
0.0
  0
SPLINE
  5
30D
100
AcDbEntity
  8
0
100
AcDbSpline
 62
7
  6
CONTINUOUS
 70
0
 71
3
 72
19
 73
15
 74
0
 42
0.0000001
 43
0.0000001
 44
0.0000000001
 40
0.0
 40
0.0
 40
0.0
 40
0.0
 40
0.1447021217
 40
0.2741411309
 40
0.3338651055
 40
0.3908762765
 40
0.4459419568
 40
0.499988995
 40
0.5540365044
 40
0.6091036574
 40
0.6661174394
 40
0.7258436374
 40
0.8552945051
 40
1.0
 40
1.0
 40
1.0
 40
1.0
 10
9.8254072518
 20
-7.2806162637
 30
0.0
 10
9.8254072513
 20
-7.0407192447
 30
0.0
 10
9.8615274935
 20
-6.5848590596
 30
0.0
 10
10.019956478
 20
-6.0485950266
 30
0.0
 10
10.212191757
 20
-5.6871637942
 30
0.0
 10
10.3817286271
 20
-5.4569073568
 30
0.0
 10
10.5789210329
 20
-5.2628781446
 30
0.0
 10
10.8018282899
 20
-5.1073357127
 30
0.0
 10
11.0480007138
 20
-4.9920903846
 30
0.0
 10
11.3146461141
 20
-4.9183569537
 30
0.0
 10
11.5988358563
 20
-4.8866904526
 30
0.0
 10
12.0079887819
 20
-4.9009534838
 30
0.0
 10
12.5516382161
 20
-5.0319355521
 30
0.0
 10
12.9645025122
 20
-5.2286022344
 30
0.0
 10
13.1722608954
 20
-5.3485593814
 30
0.0
  0
SPLINE
  5
30E
100
AcDbEntity
  8
0
100
AcDbSpline
 62
7
  6
CONTINUOUS
 70
0
 71
3
 72
26
 73
22
 74
0
 42
0.0000001
 43
0.0000001
 44
0.0000000001
 40
0.0
 40
0.0
 40
0.0
 40
0.0
 40
0.0603524175
 40
0.1143388911
 40
0.1392485905
 40
0.1630268326
 40
0.1859936485
 40
0.2085356084
 40
0.2310777643
 40
0.2540451928
 40
0.3026065396
 40
0.3565979513
 40
0.4169517675
 40
0.4835105422
 40
0.5553264685
 40
0.6309193265
 40
0.7084793976
 40
0.786039011
 40
0.8616306383
 40
0.9334423291
 40
1.0
 40
1.0
 40
1.0
 40
1.0
 10
-15.3006922982
 20
3.9609976054
 30
0.0
 10
-15.3006922977
 20
3.7211006226
 30
0.0
 10
-15.3368125588
 20
3.2652405204
 30
0.0
 10
-15.4952413935
 20
2.7289764961
 30
0.0
 10
-15.6874767912
 20
2.3675453996
 30
0.0
 10
-15.8570131093
 20
2.1372886676
 30
0.0
 10
-16.0542072419
 20
1.9432605259
 30
0.0
 10
-16.2771079271
 20
1.7877141479
 30
0.0
 10
-16.5233046275
 20
1.6724834676
 30
0.0
 10
-16.885191753
 20
1.5723016334
 30
0.0
 10
-17.3919047551
 20
1.5588870943
 30
0.0
 10
-18.0267062434
 20
1.7124441346
 30
0.0
 10
-18.6797913466
 20
2.0231402124
 30
0.0
 10
-19.329054386
 20
2.4783958232
 30
0.0
 10
-19.9519423048
 20
3.0610894503
 30
0.0
 10
-20.5257269714
 20
3.7497073944
 30
0.0
 10
-21.0291183656
 20
4.5186043081
 30
0.0
 10
-21.443301734
 20
5.3389770329
 30
0.0
 10
-21.7527558931
 20
6.1802449201
 30
0.0
 10
-21.9459406166
 20
7.0107733651
 30
0.0
 10
-21.9943979024
 20
7.5612968623
 30
0.0
 10
-21.9943979016
 20
7.8258593289
 30
0.0
  0
SPLINE
  5
30F
100
AcDbEntity
  8
0
100
AcDbSpline
 62
7
  6
CONTINUOUS
 70
0
 71
3
 72
18
 73
14
 74
0
 42
0.0000001
 43
0.0000001
 44
0.0000000001
 40
0.0
 40
0.0
 40
0.0
 40
0.0
 40
0.1256689656
 40
0.2635912009
 40
0.4075376322
 40
0.5502900483
 40
0.6848184852
 40
0.7472354222
 40
0.8056859757
 40
0.8599324603
 40
0.9100383136
 40
0.9564400192
 40
1.0
 40
1.0
 40
1.0
 40
1.0
 10
12.0408892036
 20
-10.2742454286
 30
0.0
 10
12.0408892036
 20
-10.5545243381
 30
0.0
 10
12.1144393997
 20
-11.1430864824
 30
0.0
 10
12.3922232103
 20
-12.012631722
 30
0.0
 10
12.8238123382
 20
-12.8602455626
 30
0.0
 10
13.3777538448
 20
-13.6236402321
 30
0.0
 10
13.9218775741
 20
-14.1576817605
 30
0.0
 10
14.3852644966
 20
-14.4906265475
 30
0.0
 10
14.7270924853
 20
-14.6815494739
 30
0.0
 10
15.0655591372
 20
-14.816249796
 30
0.0
 10
15.3947825558
 20
-14.8918655379
 30
0.0
 10
15.7086822721
 20
-14.906341436
 30
0.0
 10
15.9085809499
 20
-14.8733879518
 30
0.0
 10
16.0018943676
 20
-14.8463501298
 30
0.0
  0
SPLINE
  5
310
100
AcDbEntity
  8
0
100
AcDbSpline
 62
7
  6
CONTINUOUS
 70
0
 71
3
 72
18
 73
14
 74
0
 42
0.0000001
 43
0.0000001
 44
0.0000000001
 40
0.0
 40
0.0
 40
0.0
 40
0.0
 40
0.1256689656
 40
0.2635912009
 40
0.4075376322
 40
0.5502900483
 40
0.6848184852
 40
0.7472354222
 40
0.8056859757
 40
0.8599324603
 40
0.9100383136
 40
0.9564400192
 40
1.0
 40
1.0
 40
1.0
 40
1.0
 10
-19.7789159498
 20
8.0981112711
 30
0.0
 10
-19.7789159498
 20
7.8178323617
 30
0.0
 10
-19.7053657537
 20
7.2292702173
 30
0.0
 10
-19.4275819431
 20
6.3597249778
 30
0.0
 10
-18.9959928152
 20
5.5121111372
 30
0.0
 10
-18.4420513086
 20
4.7487164676
 30
0.0
 10
-17.8979275793
 20
4.2146749393
 30
0.0
 10
-17.4345406568
 20
3.8817301523
 30
0.0
 10
-17.0927126681
 20
3.6908072258
 30
0.0
 10
-16.7542460162
 20
3.5561069037
 30
0.0
 10
-16.4250225975
 20
3.4804911619
 30
0.0
 10
-16.1111228813
 20
3.4660152637
 30
0.0
 10
-15.9112242035
 20
3.498968748
 30
0.0
 10
-15.8179107858
 20
3.52600657
 30
0.0
  0
SPLINE
  5
311
100
AcDbEntity
  8
0
100
AcDbSpline
 62
7
  6
CONTINUOUS
 70
0
 71
3
 72
15
 73
11
 74
0
 42
0.0000001
 43
0.0000001
 44
0.0000000001
 40
0.0
 40
0.0
 40
0.0
 40
0.0
 40
0.1157852428
 40
0.2397601103
 40
0.3694737322
 40
0.5020212089
 40
0.6342898125
 40
0.7631869101
 40
0.8858656707
 40
1.0
 40
1.0
 40
1.0
 40
1.0
 10
-18.4895272106
 20
12.9011389158
 30
0.0
 10
-18.2720989846
 20
12.7636435164
 30
0.0
 10
-17.8443975768
 20
12.4424273993
 30
0.0
 10
-17.2568829592
 20
11.8663627943
 30
0.0
 10
-16.7175159389
 20
11.1964910527
 30
0.0
 10
-16.245097953
 20
10.4560831826
 30
0.0
 10
-15.8559064173
 20
9.6707507884
 30
0.0
 10
-15.5634525063
 20
8.8675905517
 30
0.0
 10
-15.3778081718
 20
8.0745217997
 30
0.0
 10
-15.3275697608
 20
7.548468603
 30
0.0
 10
-15.3244767623
 20
7.2949007373
 30
0.0
  0
SPLINE
  5
312
100
AcDbEntity
  8
0
100
AcDbSpline
 62
7
  6
CONTINUOUS
 70
0
 71
3
 72
11
 73
7
 74
0
 42
0.0000001
 43
0.0000001
 44
0.0000000001
 40
0.0
 40
0.0
 40
0.0
 40
0.0
 40
0.2267537036
 40
0.4653745878
 40
0.7219128359
 40
1.0
 40
1.0
 40
1.0
 40
1.0
 10
-19.4366024423
 20
12.7373692484
 30
0.0
 10
-19.3483038747
 20
12.7763662337
 30
0.0
 10
-19.1564684352
 20
12.834021838
 30
0.0
 10
-18.847554
 20
12.853685568
 30
0.0
 10
-18.519587373
 20
12.8090553147
 30
0.0
 10
-18.3014746325
 20
12.7404482921
 30
0.0
 10
-18.1912631596
 20
12.6972397997
 30
0.0
  0
SPLINE
  5
313
100
AcDbEntity
  8
0
100
AcDbSpline
 62
7
  6
CONTINUOUS
 70
0
 71
3
 72
9
 73
5
 74
0
 42
0.0000001
 43
0.0000001
 44
0.0000000001
 40
0.0
 40
0.0
 40
0.0
 40
0.0
 40
0.2467303521
 40
1.0
 40
1.0
 40
1.0
 40
1.0
 10
-19.2841697549
 20
12.7925666836
 30
0.0
 10
-19.2973829468
 20
12.7798479505
 30
0.0
 10
-19.3497855674
 20
12.7271121904
 30
0.0
 10
-19.3975041652
 20
12.6697585589
 30
0.0
 10
-19.4306379221
 20
12.6246224657
 30
0.0
  0
SPLINE
  5
314
100
AcDbEntity
  8
0
100
AcDbSpline
 62
7
  6
CONTINUOUS
 70
0
 71
3
 72
10
 73
6
 74
0
 42
0.0000001
 43
0.0000001
 44
0.0000000001
 40
0.0
 40
0.0
 40
0.0
 40
0.0
 40
0.4623222734
 40
0.721451795
 40
1.0
 40
1.0
 40
1.0
 40
1.0
 10
-19.4474031693
 20
12.6012834682
 30
0.0
 10
-19.5623626614
 20
12.4377345972
 30
0.0
 10
-19.6874033021
 20
12.1428724326
 30
0.0
 10
-19.7661405331
 20
11.7174315602
 30
0.0
 10
-19.7789159498
 20
11.4844376004
 30
0.0
 10
-19.7789159498
 20
11.3639923783
 30
0.0
  0
SPLINE
  5
315
100
AcDbEntity
  8
0
100
AcDbSpline
 62
7
  6
CONTINUOUS
 70
0
 71
3
 72
15
 73
11
 74
0
 42
0.0000001
 43
0.0000001
 44
0.0000000001
 40
0.0
 40
0.0
 40
0.0
 40
0.0
 40
0.1157852428
 40
0.2397601103
 40
0.3694737322
 40
0.5020212089
 40
0.6342898125
 40
0.7631869101
 40
0.8858656707
 40
1.0
 40
1.0
 40
1.0
 40
1.0
 10
13.3302779428
 20
-5.471217784
 30
0.0
 10
13.5477061688
 20
-5.6087131834
 30
0.0
 10
13.9754075766
 20
-5.9299293005
 30
0.0
 10
14.5629221942
 20
-6.5059939055
 30
0.0
 10
15.1022892145
 20
-7.1758656471
 30
0.0
 10
15.5747072004
 20
-7.9162735172
 30
0.0
 10
15.9638987361
 20
-8.7016059114
 30
0.0
 10
16.2563526471
 20
-9.5047661481
 30
0.0
 10
16.4419969816
 20
-10.2978349
 30
0.0
 10
16.4922353926
 20
-10.8238880968
 30
0.0
 10
16.4953283911
 20
-11.0774559625
 30
0.0
  0
SPLINE
  5
316
100
AcDbEntity
  8
0
100
AcDbSpline
 62
7
  6
CONTINUOUS
 70
0
 71
3
 72
11
 73
7
 74
0
 42
0.0000001
 43
0.0000001
 44
0.0000000001
 40
0.0
 40
0.0
 40
0.0
 40
0.0
 40
0.2267537036
 40
0.4653745878
 40
0.7219128359
 40
1.0
 40
1.0
 40
1.0
 40
1.0
 10
12.3832027111
 20
-5.6349874514
 30
0.0
 10
12.4715012787
 20
-5.595990466
 30
0.0
 10
12.6633367182
 20
-5.5383348617
 30
0.0
 10
12.9722511534
 20
-5.5186711318
 30
0.0
 10
13.3002177804
 20
-5.563301385
 30
0.0
 10
13.5183305209
 20
-5.6319084076
 30
0.0
 10
13.6285419938
 20
-5.6751169
 30
0.0
  0
SPLINE
  5
317
100
AcDbEntity
  8
0
100
AcDbSpline
 62
7
  6
CONTINUOUS
 70
0
 71
3
 72
9
 73
5
 74
0
 42
0.0000001
 43
0.0000001
 44
0.0000000001
 40
0.0
 40
0.0
 40
0.0
 40
0.0
 40
0.2467303521
 40
1.0
 40
1.0
 40
1.0
 40
1.0
 10
12.5356353985
 20
-5.5797900161
 30
0.0
 10
12.5224222066
 20
-5.5925087492
 30
0.0
 10
12.470019586
 20
-5.6452445093
 30
0.0
 10
12.4223009882
 20
-5.7025981408
 30
0.0
 10
12.3891672313
 20
-5.7477342341
 30
0.0
  0
SPLINE
  5
318
100
AcDbEntity
  8
0
100
AcDbSpline
 62
7
  6
CONTINUOUS
 70
0
 71
3
 72
10
 73
6
 74
0
 42
0.0000001
 43
0.0000001
 44
0.0000000001
 40
0.0
 40
0.0
 40
0.0
 40
0.0
 40
0.4623222734
 40
0.721451795
 40
1.0
 40
1.0
 40
1.0
 40
1.0
 10
12.3724019841
 20
-5.7710732316
 30
0.0
 10
12.257442492
 20
-5.9346221026
 30
0.0
 10
12.1324018513
 20
-6.2294842671
 30
0.0
 10
12.0536646203
 20
-6.6549251395
 30
0.0
 10
12.0408892036
 20
-6.8879190994
 30
0.0
 10
12.0408892036
 20
-7.0083643215
 30
0.0
  0
SPLINE
  5
319
100
AcDbEntity
  8
0
100
AcDbSpline
 62
7
  6
CONTINUOUS
 70
0
 71
3
 72
12
 73
8
 74
0
 42
0.0000001
 43
0.0000001
 44
0.0000000001
 40
0.0
 40
0.0
 40
0.0
 40
0.0
 40
0.2882147344
 40
0.5475075163
 40
0.7815765375
 40
0.8920536105
 40
1.0
 40
1.0
 40
1.0
 40
1.0
 10
16.495658217
 20
-13.4228953775
 30
0.0
 10
16.495404371
 20
-13.5917695946
 30
0.0
 10
16.4704219405
 20
-13.9135624072
 30
0.0
 10
16.3462236501
 20
-14.3578110797
 30
0.0
 10
16.1686632451
 20
-14.6695104928
 30
0.0
 10
15.9884674381
 20
-14.8652356407
 30
0.0
 10
15.8876202864
 20
-14.9450930808
 30
0.0
 10
15.8350030354
 20
-14.9801915125
 30
0.0
  0
SPLINE
  5
31A
100
AcDbEntity
  8
0
100
AcDbSpline
 62
7
  6
CONTINUOUS
 70
0
 71
3
 72
12
 73
8
 74
0
 42
0.0000001
 43
0.0000001
 44
0.0000000001
 40
0.0
 40
0.0
 40
0.0
 40
0.0
 40
0.2882147344
 40
0.5475075163
 40
0.7815765375
 40
0.8920536105
 40
1.0
 40
1.0
 40
1.0
 40
1.0
 10
-15.3241469364
 20
4.9494613222
 30
0.0
 10
-15.3244007824
 20
4.7805871052
 30
0.0
 10
-15.3493832129
 20
4.4587942925
 30
0.0
 10
-15.4735815033
 20
4.01454562
 30
0.0
 10
-15.6511419083
 20
3.702846207
 30
0.0
 10
-15.8313377153
 20
3.507121059
 30
0.0
 10
-15.932184867
 20
3.4272636189
 30
0.0
 10
-15.9848021179
 20
3.3921651873
 30
0.0
  0
SPLINE
  5
31B
100
AcDbEntity
  8
0
100
AcDbSpline
 62
7
  6
CONTINUOUS
 70
0
 71
3
 72
18
 73
14
 74
0
 42
0.0000001
 43
0.0000001
 44
0.0000000001
 40
0.0
 40
0.0
 40
0.0
 40
0.0
 40
0.1447491977
 40
0.2742312443
 40
0.3339752858
 40
0.391005609
 40
0.4460896173
 40
0.500154292
 40
0.5542189271
 40
0.6093029238
 40
0.7257683624
 40
0.8552550504
 40
1.0
 40
1.0
 40
1.0
 40
1.0
 10
9.8488581819
 20
-7.2941565368
 30
0.0
 10
9.8488581813
 20
-7.0559543055
 30
0.0
 10
9.8847213957
 20
-6.6033132978
 30
0.0
 10
10.0420208726
 20
-6.0708329939
 30
0.0
 10
10.232886166
 20
-5.7119450327
 30
0.0
 10
10.4012145508
 20
-5.4833042694
 30
0.0
 10
10.5970041779
 20
-5.2906329809
 30
0.0
 10
10.8183176913
 20
-5.1361680256
 30
0.0
 10
11.0627632512
 20
-5.0217309815
 30
0.0
 10
11.4220717015
 20
-4.9222228175
 30
0.0
 10
11.9252145422
 20
-4.9088691921
 30
0.0
 10
12.5553746186
 20
-5.0611958556
 30
0.0
 10
12.9656490791
 20
-5.2563653145
 30
0.0
 10
13.1719388703
 20
-5.3754513953
 30
0.0
  0
SPLINE
  5
31C
100
AcDbEntity
  8
0
100
AcDbSpline
 62
7
  6
CONTINUOUS
 70
0
 71
3
 72
26
 73
22
 74
0
 42
0.0000001
 43
0.0000001
 44
0.0000000001
 40
0.0
 40
0.0
 40
0.0
 40
0.0
 40
0.0603524175
 40
0.1143388911
 40
0.1392485905
 40
0.1630268326
 40
0.1859936485
 40
0.2085356084
 40
0.2310777643
 40
0.2540451928
 40
0.3026065396
 40
0.3565979513
 40
0.4169517675
 40
0.4835105422
 40
0.5553264685
 40
0.6309193265
 40
0.7084793976
 40
0.786039011
 40
0.8616306383
 40
0.9334423291
 40
1.0
 40
1.0
 40
1.0
 40
1.0
 10
-15.3241432283
 20
3.9745378785
 30
0.0
 10
-15.3241432277
 20
3.7363218203
 30
0.0
 10
-15.3600103993
 20
3.2836558662
 30
0.0
 10
-15.5173291452
 20
2.7511493689
 30
0.0
 10
-15.7082175764
 20
2.3922507697
 30
0.0
 10
-15.8765659771
 20
2.1636074144
 30
0.0
 10
-16.072378398
 20
1.9709388008
 30
0.0
 10
-16.2937172493
 20
1.8164823146
 30
0.0
 10
-16.5381888838
 20
1.7020590396
 30
0.0
 10
-16.8975403168
 20
1.6025791655
 30
0.0
 10
-17.4007028516
 20
1.5892586203
 30
0.0
 10
-18.0310563745
 20
1.7417397078
 30
0.0
 10
-18.6795654017
 20
2.0502587816
 30
0.0
 10
-19.3242791457
 20
2.5023244799
 30
0.0
 10
-19.9428025758
 20
3.0809352541
 30
0.0
 10
-20.5125668133
 20
3.7647281485
 30
0.0
 10
-21.0124310144
 20
4.5282375089
 30
0.0
 10
-21.4237122578
 20
5.3428619966
 30
0.0
 10
-21.7309981148
 20
6.1782352372
 30
0.0
 10
-21.9228292199
 20
7.0029442854
 30
0.0
 10
-21.9709469724
 20
7.5496103414
 30
0.0
 10
-21.9709469715
 20
7.8123190558
 30
0.0
  0
SPLINE
  5
31D
100
AcDbEntity
  8
0
100
AcDbSpline
 62
7
  6
CONTINUOUS
 70
0
 71
3
 72
26
 73
22
 74
0
 42
0.0000001
 43
0.0000001
 44
0.0000000001
 40
0.0
 40
0.0
 40
0.0
 40
0.0
 40
0.0603524175
 40
0.1143388911
 40
0.1392485905
 40
0.1630268326
 40
0.1859936485
 40
0.2085356084
 40
0.2310777643
 40
0.2540451928
 40
0.3026065396
 40
0.3565979513
 40
0.4169517675
 40
0.4835105422
 40
0.5553264685
 40
0.6309193265
 40
0.7084793976
 40
0.786039011
 40
0.8616306383
 40
0.9334423291
 40
1.0
 40
1.0
 40
1.0
 40
1.0
 10
16.4956619251
 20
-14.3978188213
 30
0.0
 10
16.4956619257
 20
-14.6360348794
 30
0.0
 10
16.4597947541
 20
-15.0887008336
 30
0.0
 10
16.3024760082
 20
-15.6212073308
 30
0.0
 10
16.111587577
 20
-15.9801059301
 30
0.0
 10
15.9432391762
 20
-16.2087492853
 30
0.0
 10
15.7474267554
 20
-16.4014178989
 30
0.0
 10
15.5260879041
 20
-16.5558743851
 30
0.0
 10
15.2816162696
 20
-16.6702976602
 30
0.0
 10
14.9222648366
 20
-16.7697775342
 30
0.0
 10
14.4191023018
 20
-16.7830980795
 30
0.0
 10
13.7887487789
 20
-16.630616992
 30
0.0
 10
13.1402397517
 20
-16.3220979181
 30
0.0
 10
12.4955260077
 20
-15.8700322198
 30
0.0
 10
11.8770025776
 20
-15.2914214456
 30
0.0
 10
11.30723834
 20
-14.6076285512
 30
0.0
 10
10.807374139
 20
-13.8441191909
 30
0.0
 10
10.3960928956
 20
-13.0294947032
 30
0.0
 10
10.0888070386
 20
-12.1941214625
 30
0.0
 10
9.8969759335
 20
-11.3694124143
 30
0.0
 10
9.848858181
 20
-10.8227463583
 30
0.0
 10
9.8488581819
 20
-10.560037644
 30
0.0
  0
SPLINE
  5
31E
100
AcDbEntity
  8
0
100
AcDbSpline
 62
7
  6
CONTINUOUS
 70
0
 71
3
 72
18
 73
14
 74
0
 42
0.0000001
 43
0.0000001
 44
0.0000000001
 40
0.0
 40
0.0
 40
0.0
 40
0.0
 40
0.1447491977
 40
0.2742312443
 40
0.3339752858
 40
0.391005609
 40
0.4460896173
 40
0.500154292
 40
0.5542189271
 40
0.6093029238
 40
0.7257683624
 40
0.8552550504
 40
1.0
 40
1.0
 40
1.0
 40
1.0
 10
-21.9709469715
 20
11.0782001629
 30
0.0
 10
-21.9709469721
 20
11.3164023943
 30
0.0
 10
-21.9350837577
 20
11.769043402
 30
0.0
 10
-21.7777842808
 20
12.3015237058
 30
0.0
 10
-21.5869189874
 20
12.6604116671
 30
0.0
 10
-21.4185906026
 20
12.8890524304
 30
0.0
 10
-21.2228009755
 20
13.0817237188
 30
0.0
 10
-21.0014874621
 20
13.2361886742
 30
0.0
 10
-20.7570419022
 20
13.3506257182
 30
0.0
 10
-20.3977334519
 20
13.4501338823
 30
0.0
 10
-19.8945906112
 20
13.4634875077
 30
0.0
 10
-19.2644305348
 20
13.3111608441
 30
0.0
 10
-18.8541560743
 20
13.1159913853
 30
0.0
 10
-18.6478662831
 20
12.9969053044
 30
0.0
  0
SPLINE
  5
31F
100
AcDbEntity
  8
0
100
AcDbSpline
 62
7
  6
CONTINUOUS
 70
0
 71
3
 72
19
 73
15
 74
0
 42
0.0000001
 43
0.0000001
 44
0.0000000001
 40
0.0
 40
0.0
 40
0.0
 40
0.0
 40
0.0428480062
 40
0.0875818419
 40
0.135583397
 40
0.187729619
 40
0.2443951448
 40
0.3055302726
 40
0.3707524057
 40
0.4394273035
 40
0.583596735
 40
0.730421553
 40
0.8716372535
 40
1.0
 40
1.0
 40
1.0
 40
1.0
 10
15.7488356447
 20
-15.0324422059
 30
0.0
 10
15.6617862224
 20
-15.0802144348
 30
0.0
 10
15.4703986404
 20
-15.1550718692
 30
0.0
 10
15.1561102904
 20
-15.1953823779
 30
0.0
 10
14.8194159677
 20
-15.165735234
 30
0.0
 10
14.4676402745
 20
-15.0680506764
 30
0.0
 10
14.1076106022
 20
-14.9051866928
 30
0.0
 10
13.7464424161
 20
-14.6808361173
 30
0.0
 10
13.3913725038
 20
-14.3997646473
 30
0.0
 10
12.9285958439
 20
-13.9500638449
 30
0.0
 10
12.4147991183
 20
-13.2878273205
 30
0.0
 10
11.9379239428
 20
-12.4018426537
 30
0.0
 10
11.6286878932
 20
-11.4829341293
 30
0.0
 10
11.5459144578
 20
-10.8575069544
 30
0.0
 10
11.5459144568
 20
-10.560037644
 30
0.0
  0
SPLINE
  5
320
100
AcDbEntity
  8
0
100
AcDbSpline
 62
7
  6
CONTINUOUS
 70
0
 71
3
 72
12
 73
8
 74
0
 42
0.0000001
 43
0.0000001
 44
0.0000000001
 40
0.0
 40
0.0
 40
0.0
 40
0.0
 40
0.2895888088
 40
0.5486306858
 40
0.7816356815
 40
0.8918371347
 40
1.0
 40
1.0
 40
1.0
 40
1.0
 10
11.5459144568
 20
-7.2941565368
 30
0.0
 10
11.5459144572
 20
-7.1167712912
 30
0.0
 10
11.5727851938
 20
-6.7795066024
 30
0.0
 10
11.7091640983
 20
-6.3163971524
 30
0.0
 10
11.9051091999
 20
-5.9968545396
 30
0.0
 10
12.1030178395
 20
-5.8022123509
 30
0.0
 10
12.213326427
 20
-5.7252058401
 30
0.0
 10
12.2707048826
 20
-5.6920796916
 30
0.0
  0
SPLINE
  5
321
100
AcDbEntity
  8
0
100
AcDbSpline
 62
7
  6
CONTINUOUS
 70
0
 71
3
 72
19
 73
15
 74
0
 42
0.0000001
 43
0.0000001
 44
0.0000000001
 40
0.0
 40
0.0
 40
0.0
 40
0.0
 40
0.0428480062
 40
0.0875818419
 40
0.135583397
 40
0.187729619
 40
0.2443951448
 40
0.3055302726
 40
0.3707524057
 40
0.4394273035
 40
0.583596735
 40
0.730421553
 40
0.8716372535
 40
1.0
 40
1.0
 40
1.0
 40
1.0
 10
-16.0709695087
 20
3.3399144938
 30
0.0
 10
-16.158018931
 20
3.2921422649
 30
0.0
 10
-16.349406513
 20
3.2172848305
 30
0.0
 10
-16.663694863
 20
3.1769743218
 30
0.0
 10
-17.0003891856
 20
3.2066214658
 30
0.0
 10
-17.3521648789
 20
3.3043060234
 30
0.0
 10
-17.7121945512
 20
3.4671700069
 30
0.0
 10
-18.0733627373
 20
3.6915205825
 30
0.0
 10
-18.4284326496
 20
3.9725920525
 30
0.0
 10
-18.8912093095
 20
4.4222928548
 30
0.0
 10
-19.4050060351
 20
5.0845293793
 30
0.0
 10
-19.8818812106
 20
5.970514046
 30
0.0
 10
-20.1911172602
 20
6.8894225705
 30
0.0
 10
-20.2738906956
 20
7.5148497454
 30
0.0
 10
-20.2738906966
 20
7.8123190558
 30
0.0
  0
SPLINE
  5
322
100
AcDbEntity
  8
0
100
AcDbSpline
 62
7
  6
CONTINUOUS
 70
0
 71
3
 72
12
 73
8
 74
0
 42
0.0000001
 43
0.0000001
 44
0.0000000001
 40
0.0
 40
0.0
 40
0.0
 40
0.0
 40
0.2895888088
 40
0.5486306858
 40
0.7816356815
 40
0.8918371347
 40
1.0
 40
1.0
 40
1.0
 40
1.0
 10
-20.2738906966
 20
11.0782001629
 30
0.0
 10
-20.2738906962
 20
11.2555854086
 30
0.0
 10
-20.2470199596
 20
11.5928500973
 30
0.0
 10
-20.1106410551
 20
12.0559595474
 30
0.0
 10
-19.9146959535
 20
12.3755021601
 30
0.0
 10
-19.7167873138
 20
12.5701443489
 30
0.0
 10
-19.6064787264
 20
12.6471508597
 30
0.0
 10
-19.5491002708
 20
12.6802770081
 30
0.0
  0
SPLINE
  5
323
100
AcDbEntity
  8
CURVE
100
AcDbSpline
 62
250
  6
CONTINUOUS
 70
0
 71
3
 72
9
 73
5
 74
0
 42
0.0000001
 43
0.0000001
 44
0.0000000001
 40
0.0
 40
0.0
 40
0.0
 40
0.0
 40
0.5206208722
 40
1.0
 40
1.0
 40
1.0
 40
1.0
 10
42.625664613
 20
-49.2062278952
 30
0.0
 10
42.7046983507
 20
-49.1623129062
 30
0.0
 10
42.8773467732
 20
-49.1316866335
 30
0.0
 10
42.9081394659
 20
-49.303843942
 30
0.0
 10
42.9097646912
 20
-49.3842007395
 30
0.0
  0
SPLINE
  5
324
100
AcDbEntity
  8
CURVE
100
AcDbSpline
 62
250
  6
CONTINUOUS
 70
0
 71
3
 72
9
 73
5
 74
0
 42
0.0000001
 43
0.0000001
 44
0.0000000001
 40
0.0
 40
0.0
 40
0.0
 40
0.0
 40
0.5013510385
 40
1.0
 40
1.0
 40
1.0
 40
1.0
 10
42.3971287686
 20
-49.5699316234
 30
0.0
 10
42.4036222376
 20
-49.5039960527
 30
0.0
 10
42.4528767944
 20
-49.3511854293
 30
0.0
 10
42.5696691691
 20
-49.2373548266
 30
0.0
 10
42.625664613
 20
-49.2062278952
 30
0.0
  0
SPLINE
  5
325
100
AcDbEntity
  8
CURVE
100
AcDbSpline
 62
250
  6
CONTINUOUS
 70
0
 71
3
 72
9
 73
5
 74
0
 42
0.0000001
 43
0.0000001
 44
0.0000000001
 40
0.0
 40
0.0
 40
0.0
 40
0.0
 40
0.2703953699
 40
1.0
 40
1.0
 40
1.0
 40
1.0
 10
42.4078906545
 20
-49.897892016
 30
0.0
 10
42.4033457905
 20
-49.8706041301
 30
0.0
 10
42.3883980951
 20
-49.7683398582
 30
0.0
 10
42.3887225926
 20
-49.6553079858
 30
0.0
 10
42.3971287686
 20
-49.5699316234
 30
0.0
  0
SPLINE
  5
326
100
AcDbEntity
  8
CURVE
100
AcDbSpline
 62
250
  6
CONTINUOUS
 70
0
 71
3
 72
9
 73
5
 74
0
 42
0.0000001
 43
0.0000001
 44
0.0000000001
 40
0.0
 40
0.0
 40
0.0
 40
0.0
 40
0.2957417834
 40
1.0
 40
1.0
 40
1.0
 40
1.0
 10
42.1370475746
 20
-49.4025348593
 30
0.0
 10
42.10528707
 20
-49.5177785455
 30
0.0
 10
42.0535155543
 20
-49.8984185819
 30
0.0
 10
42.0854015216
 20
-50.2358659625
 30
0.0
 10
42.1177995647
 20
-50.4642712992
 30
0.0
  0
SPLINE
  5
327
100
AcDbEntity
  8
CURVE
100
AcDbSpline
 62
250
  6
CONTINUOUS
 70
0
 71
3
 72
17
 73
13
 74
0
 42
0.0000001
 43
0.0000001
 44
0.0000000001
 40
0.0
 40
0.0
 40
0.0
 40
0.0
 40
0.0559780952
 40
0.1687540387
 40
0.321006234
 40
0.4122750837
 40
0.516613223
 40
0.6013931059
 40
0.6776022439
 40
0.8103422694
 40
0.9200404832
 40
1.0
 40
1.0
 40
1.0
 40
1.0
 10
43.0604448031
 20
-48.8614318145
 30
0.0
 10
43.0577250637
 20
-48.8393651003
 30
0.0
 10
43.0155284743
 20
-48.802271724
 30
0.0
 10
42.9350900033
 20
-48.7463887611
 30
0.0
 10
42.8112674658
 20
-48.7400200269
 30
0.0
 10
42.6820925321
 20
-48.7770341538
 30
0.0
 10
42.5748800336
 20
-48.8317030325
 30
0.0
 10
42.4747444297
 20
-48.9017276849
 30
0.0
 10
42.3683425389
 20
-48.9980604846
 30
0.0
 10
42.2640663664
 20
-49.1275370424
 30
0.0
 10
42.1825196602
 20
-49.2749825878
 30
0.0
 10
42.1473493128
 20
-49.365108574
 30
0.0
 10
42.1370475746
 20
-49.4025348593
 30
0.0
  0
SPLINE
  5
328
100
AcDbEntity
  8
CURVE
100
AcDbSpline
 62
250
  6
CONTINUOUS
 70
0
 71
3
 72
9
 73
5
 74
0
 42
0.0000001
 43
0.0000001
 44
0.0000000001
 40
0.0
 40
0.0
 40
0.0
 40
0.0
 40
0.2426586216
 40
1.0
 40
1.0
 40
1.0
 40
1.0
 10
43.4298174039
 20
-48.4169855186
 30
0.0
 10
43.3965961014
 20
-48.4449764149
 30
0.0
 10
43.2624403859
 20
-48.5558038258
 30
0.0
 10
43.1110509768
 20
-48.7227472196
 30
0.0
 10
43.0712478173
 20
-48.8556152283
 30
0.0
  0
SPLINE
  5
329
100
AcDbEntity
  8
CURVE
100
AcDbSpline
 62
250
  6
CONTINUOUS
 70
0
 71
3
 72
9
 73
5
 74
0
 42
0.0000001
 43
0.0000001
 44
0.0000000001
 40
0.0
 40
0.0
 40
0.0
 40
0.0
 40
0.1980141723
 40
1.0
 40
1.0
 40
1.0
 40
1.0
 10
43.9246310951
 20
-48.0049248698
 30
0.0
 10
43.892035783
 20
-48.0323580225
 30
0.0
 10
43.7270547748
 20
-48.1695608711
 30
0.0
 10
43.5618047618
 20
-48.3057762763
 30
0.0
 10
43.4298174039
 20
-48.4169855186
 30
0.0
  0
SPLINE
  5
32A
100
AcDbEntity
  8
CURVE
100
AcDbSpline
 62
250
  6
CONTINUOUS
 70
0
 71
3
 72
9
 73
5
 74
0
 42
0.0000001
 43
0.0000001
 44
0.0000000001
 40
0.0
 40
0.0
 40
0.0
 40
0.0
 40
0.5586214172
 40
1.0
 40
1.0
 40
1.0
 40
1.0
 10
43.3702637322
 20
-48.8994902564
 30
0.0
 10
43.471182617
 20
-48.8028269329
 30
0.0
 10
43.6580559051
 20
-48.646547268
 30
0.0
 10
43.8427676835
 20
-48.4850669912
 30
0.0
 10
43.9246310951
 20
-48.4147146479
 30
0.0
  0
SPLINE
  5
32B
100
AcDbEntity
  8
CURVE
100
AcDbSpline
 62
250
  6
CONTINUOUS
 70
0
 71
3
 72
9
 73
5
 74
0
 42
0.0000001
 43
0.0000001
 44
0.0000000001
 40
0.0
 40
0.0
 40
0.0
 40
0.0
 40
0.3559141631
 40
1.0
 40
1.0
 40
1.0
 40
1.0
 10
43.209178179
 20
-49.2239080702
 30
0.0
 10
43.209178179
 20
-49.1867827713
 30
0.0
 10
43.2293151407
 20
-49.0691410484
 30
0.0
 10
43.3139203432
 20
-48.9534326974
 30
0.0
 10
43.3702637322
 20
-48.8994902564
 30
0.0
  0
ENDSEC
  0
SECTION
  2
OBJECTS
  0
DICTIONARY
  5
C
100
AcDbDictionary
280
0
281
1
  3
ACAD_GROUP
350
D
  3
ACAD_MLINESTYLE
350
17
  3
ACAD_LAYOUT
350
1A
  3
ACAD_PLOTSETTINGS
350
19
  3
ACAD_PLOTSTYLENAME
350
E
  0
DICTIONARY
  5
D
102
{ACAD_REACTORS
330
C
102
}
100
AcDbDictionary
280
0
281
1
  0
ACDBDICTIONARYWDFLT
  5
E
102
{ACAD_REACTORS
330
C
102
}
100
AcDbDictionary
281
1
  3
Normal
350
F
100
AcDbDictionaryWithDefault
340
F
  0
DICTIONARY
  5
17
102
{ACAD_REACTORS
330
C
102
}
100
AcDbDictionary
280
0
281
1
  3
Standard
350
18
  0
DICTIONARY
  5
19
102
{ACAD_REACTORS
330
C
102
}
100
AcDbDictionary
281
1
  0
DICTIONARY
  5
1A
102
{ACAD_REACTORS
330
C
102
}
100
AcDbDictionary
281
1
  3
Model
350
32C
  3
Layout1
350
32D
  0
ACDBPLACEHOLDER
  5
F
102
{ACAD_REACTORS
330
E
102
}
  0
MLINESTYLE
  5
18
102
{ACAD_REACTORS
330
17
102
}
100
AcDbMlineStyle
  2
STANDARD
 70
0
  3

 62
256
 51
90.0
 52
90.0
 71
2
 49
0.5
 62
256
  6
BYLAYER
 49
-0.5
 62
256
  6
BYLAYER
  0
LAYOUT
  5
32C
102
{ACAD_REACTORS
330
1A
102
}
100
AcDbPlotSettings
  1

  2
none_device
  4
ISO_A4_(297.00_x_210.00_MM)
  6

 40
0.0
 41
0.0
 42
0.0
 43
0.0
 44
297.0
 45
210.0
 46
0.0
 47
0.0
 48
0.0
 49
0.0
140
0.0
141
0.0
142
1.0
143
1.0
 70
1024
 72
1
 73
0
 74
0
  7

 75
0
147
1.0
148
0.0
149
0.0
100
AcDbLayout
  1
Model
 70
0
 71
0
 10
0.0
 20
0.0
 11
297.0
 21
210.0
 12
0.0
 22
0.0
 32
0.0
 14
0.0
 24
0.0
 34
0.0
 15
0.0
 25
0.0
 35
0.0
146
0.0
 13
0.0
 23
0.0
 33
0.0
 16
1.0
 26
0.0
 36
0.0
 17
0.0
 27
1.0
 37
0.0
 76
0
330
21E
345
0
346
0
  0
LAYOUT
  5
32D
102
{ACAD_REACTORS
330
1A
102
}
100
AcDbPlotSettings
  1

  2
none_device
  4
ISO_A4_(297.00_x_210.00_MM)
  6

 40
0.0
 41
0.0
 42
0.0
 43
0.0
 44
297.0
 45
210.0
 46
0.0
 47
0.0
 48
0.0
 49
0.0
140
0.0
141
0.0
142
1.0
143
1.0
 70
0
 72
1
 73
0
 74
0
  7

 75
0
147
1.0
148
0.0
149
0.0
100
AcDbLayout
  1
Layout1
 70
0
 71
1
 10
0.0
 20
0.0
 11
297.0
 21
210.0
 12
0.0
 22
0.0
 32
0.0
 14
0.0
 24
0.0
 34
0.0
 15
0.0
 25
0.0
 35
0.0
146
0.0
 13
0.0
 23
0.0
 33
0.0
 16
1.0
 26
0.0
 36
0.0
 17
0.0
 27
1.0
 37
0.0
 76
0
330
21F
345
0
346
0
  0
ENDSEC
  0
EOF
