  0
SECTION
  2
HEADER
  9
$ACADVER
  1
AC1024
  9
$DWGCODEPAGE
  3
ANSI_1252
  9
$EXTMAX
 10
297.0
 20
210.0
 30
0.0
  9
$EXTMIN
 10
0.0
 20
0.0
 30
0.0
  9
$LIMMIN
 10
0.0
 20
0.0
  9
$LIMMAX
 10
297.0
 20
210.0
  9
$VIEWCTR
 10
148.5
 20
105.0
  9
$VIEWSIZE
 40
210.0
  9
$CLAYER
  8
0
  9
$LTSCALE
 40
16.335
  9
$CELTYPE
  6
BYLAYER
  9
$DIMSCALE
 40
1.0
  9
$DIMASZ
 40
3.0
  9
$DIMEXO
 40
0.5
  9
$DIMDLI
 40
11.286
  9
$DIMEXE
 40
1.5
  9
$DIMCEN
 40
2.673
  9
$DIMLFAC
 40
1.0
  9
$DIMBLK
  1
_FILLED
  9
$DIMALT
 70
0
  9
$DIMALTF
 40
0.0393700787
  9
$DIMTXT
 40
3.0
  9
$DIMTOL
 70
1
  9
$DIMLIM
 70
0
  9
$DIMTFAC
 40
1.0
  9
$DIMTP
 40
0.01
  9
$DIMTM
 40
0.01
  9
$DIMGAP
 40
0.625
  9
$DIMDSEP
 70
44
  9
$AUNITS
 70
0
  9
$PDMODE
 70
3
  9
$PDSIZE
 40
3.0
  9
$HANDSEED
  5
278
  9
$TILEMODE
 70
1
  9
$MEASUREMENT
 70
1
  9
$INSUNITS
 70
4
  0
ENDSEC
  0
SECTION
  2
CLASSES
  0
CLASS
  1
ACDBDICTIONARYWDFLT
  2
AcDbDictionaryWithDefault
  3
AutoCAD 2000
 90
0
 91
1
280
0
281
0
  0
CLASS
  1
ACDBPLACEHOLDER
  2
AcDbPlaceHolder
  3
AutoCAD 2000
 90
0
 91
1
280
0
281
0
  0
CLASS
  1
LAYOUT
  2
AcDbLayout
  3
AutoCAD 2000
 90
0
 91
0
280
0
281
0
  0
ENDSEC
  0
SECTION
  2
TABLES
  0
TABLE
  2
VPORT
  5
8
100
AcDbSymbolTable
 70
2
  0
VPORT
  5
1F4
100
AcDbSymbolTableRecord
100
AcDbViewportTableRecord
  2
*ACTIVE
 70
0
 10
0.0
 20
0.0
 11
1.0
 21
1.0
 12
148.5
 22
105.0
 13
0.0
 23
0.0
 14
1.0
 24
1.0
 15
0.0
 25
0.0
 16
0.0
 26
0.0
 36
1.0
 17
0.0
 27
0.0
 37
0.0
 40
210.0
 41
1.4142857143
 42
50.0
 43
0.0
 44
0.0
 50
0.0
 51
0.0
 71
0
 72
100
 73
1
 74
1
 75
0
 76
0
 77
0
 78
0
  0
ENDTAB
  0
TABLE
  2
LTYPE
  5
5
100
AcDbSymbolTable
 70
6
  0
LTYPE
  5
14
100
AcDbSymbolTableRecord
100
AcDbLinetypeTableRecord
  2
BYBLOCK
 70
0
  3

 72
65
 73
0
 40
0.0
  0
LTYPE
  5
15
100
AcDbSymbolTableRecord
100
AcDbLinetypeTableRecord
  2
BYLAYER
 70
0
  3

 72
65
 73
0
 40
0.0
  0
LTYPE
  5
16
100
AcDbSymbolTableRecord
100
AcDbLinetypeTableRecord
  2
CONTINUOUS
 70
64
  3
Solid line
 72
65
 73
0
 40
0.0
  0
LTYPE
  5
1F5
100
AcDbSymbolTableRecord
100
AcDbLinetypeTableRecord
  2
CENTER
 70
64
  3
____ _ ____ _ ____ _ ____ _ ____ _ ____ _ ____
 72
65
 73
4
 40
0.6
 49
0.375
 74
0
 49
-0.075
 74
0
 49
0.075
 74
0
 49
-0.075
 74
0
  0
LTYPE
  5
1F6
100
AcDbSymbolTableRecord
100
AcDbLinetypeTableRecord
  2
HIDDEN
 70
64
  3
- - - - - - - - - - - - - - - - - - - -
 72
65
 73
2
 40
0.2
 49
0.1
 74
0
 49
-0.1
 74
0
  0
LTYPE
  5
1F7
100
AcDbSymbolTableRecord
100
AcDbLinetypeTableRecord
  2
PHANTOM
 70
64
  3
_____ _ _ _____ _ _ _____ _ _ _____
 72
65
 73
6
 40
0.8
 49
0.45
 74
0
 49
-0.05
 74
0
 49
0.1
 74
0
 49
-0.05
 74
0
 49
0.1
 74
0
 49
-0.05
 74
0
  0
LTYPE
  5
1F8
100
AcDbSymbolTableRecord
100
AcDbLinetypeTableRecord
  2
DOT
 70
64
  3
. . . . . . . . . . . . . . . . . . . .
 72
65
 73
2
 40
0.2
 49
0.1
 74
0
 49
-0.1
 74
0
  0
LTYPE
  5
1F9
100
AcDbSymbolTableRecord
100
AcDbLinetypeTableRecord
  2
DASHED
 70
64
  3
- - - - - - - - - - - - - - - - - - - -
 72
65
 73
2
 40
0.2
 49
0.1
 74
0
 49
-0.1
 74
0
  0
ENDTAB
  0
TABLE
  2
LAYER
  5
2
100
AcDbSymbolTable
 70
36
  0
LAYER
  5
10
100
AcDbSymbolTableRecord
100
AcDbLayerTableRecord
  2
0
 70
0
 62
7
  6
CONTINUOUS
370
-3
390
F
  0
LAYER
  5
1FA
100
AcDbSymbolTableRecord
100
AcDbLayerTableRecord
  2
DEFAULT_1
 70
0
 62
7
  6
CENTER
370
-3
390
F
  0
LAYER
  5
1FB
100
AcDbSymbolTableRecord
100
AcDbLayerTableRecord
  2
DEFAULT_2
 70
0
 62
7
  6
HIDDEN
370
-3
390
F
  0
LAYER
  5
1FC
100
AcDbSymbolTableRecord
100
AcDbLayerTableRecord
  2
DEFAULT_3
 70
0
 62
7
  6
PHANTOM
370
-3
390
F
  0
LAYER
  5
1FD
100
AcDbSymbolTableRecord
100
AcDbLayerTableRecord
  2
ASSI
 70
0
 62
7
  6
CONTINUOUS
370
-3
390
F
  0
LAYER
  5
1FE
100
AcDbSymbolTableRecord
100
AcDbLayerTableRecord
  2
COORDINATE
 70
0
 62
7
  6
CONTINUOUS
370
-3
390
F
  0
LAYER
  5
1FF
100
AcDbSymbolTableRecord
100
AcDbLayerTableRecord
  2
COORD_ORIGINE
 70
0
 62
7
  6
CONTINUOUS
370
-3
390
F
  0
LAYER
  5
200
100
AcDbSymbolTableRecord
100
AcDbLayerTableRecord
  2
COPY_PUBLISH
 70
0
 62
7
  6
CONTINUOUS
370
-3
390
F
  0
LAYER
  5
201
100
AcDbSymbolTableRecord
100
AcDbLayerTableRecord
  2
COSMETIC
 70
0
 62
7
  6
CONTINUOUS
370
-3
390
F
  0
LAYER
  5
202
100
AcDbSymbolTableRecord
100
AcDbLayerTableRecord
  2
COSMETICI
 70
0
 62
7
  6
CONTINUOUS
370
-3
390
F
  0
LAYER
  5
203
100
AcDbSymbolTableRecord
100
AcDbLayerTableRecord
  2
CURVA_TASSELLO
 70
0
 62
7
  6
CONTINUOUS
370
-3
390
F
  0
LAYER
  5
204
100
AcDbSymbolTableRecord
100
AcDbLayerTableRecord
  2
CURVE
 70
0
 62
7
  6
CONTINUOUS
370
-3
390
F
  0
LAYER
  5
205
100
AcDbSymbolTableRecord
100
AcDbLayerTableRecord
  2
DRAFT
 70
0
 62
7
  6
CONTINUOUS
370
-3
390
F
  0
LAYER
  5
206
100
AcDbSymbolTableRecord
100
AcDbLayerTableRecord
  2
IMPORT_IGES
 70
0
 62
7
  6
CONTINUOUS
370
-3
390
F
  0
LAYER
  5
207
100
AcDbSymbolTableRecord
100
AcDbLayerTableRecord
  2
INTFCLR_2
 70
0
 62
7
  6
CONTINUOUS
370
-3
390
F
  0
LAYER
  5
208
100
AcDbSymbolTableRecord
100
AcDbLayerTableRecord
  2
INTF_1
 70
0
 62
7
  6
CONTINUOUS
370
-3
390
F
  0
LAYER
  5
209
100
AcDbSymbolTableRecord
100
AcDbLayerTableRecord
  2
INTF_21
 70
0
 62
7
  6
CONTINUOUS
370
-3
390
F
  0
LAYER
  5
20A
100
AcDbSymbolTableRecord
100
AcDbLayerTableRecord
  2
INTF_7
 70
0
 62
7
  6
CONTINUOUS
370
-3
390
F
  0
LAYER
  5
20B
100
AcDbSymbolTableRecord
100
AcDbLayerTableRecord
  2
INTF_9
 70
0
 62
7
  6
CONTINUOUS
370
-3
390
F
  0
LAYER
  5
20C
100
AcDbSymbolTableRecord
100
AcDbLayerTableRecord
  2
NOTE
 70
0
 62
7
  6
CONTINUOUS
370
-3
390
F
  0
LAYER
  5
20D
100
AcDbSymbolTableRecord
100
AcDbLayerTableRecord
  2
PIANI
 70
0
 62
7
  6
CONTINUOUS
370
-3
390
F
  0
LAYER
  5
20E
100
AcDbSymbolTableRecord
100
AcDbLayerTableRecord
  2
PIANI_ORIGINE
 70
0
 62
7
  6
CONTINUOUS
370
-3
390
F
  0
LAYER
  5
20F
100
AcDbSymbolTableRecord
100
AcDbLayerTableRecord
  2
PIANI_RIFERIMENTO
 70
0
 62
7
  6
CONTINUOUS
370
-3
390
F
  0
LAYER
  5
210
100
AcDbSymbolTableRecord
100
AcDbLayerTableRecord
  2
PUNTI
 70
0
 62
7
  6
CONTINUOUS
370
-3
390
F
  0
LAYER
  5
211
100
AcDbSymbolTableRecord
100
AcDbLayerTableRecord
  2
RACCORDO
 70
0
 62
7
  6
CONTINUOUS
370
-3
390
F
  0
LAYER
  5
212
100
AcDbSymbolTableRecord
100
AcDbLayerTableRecord
  2
RGB__255__255__255__
 70
0
 62
7
  6
CONTINUOUS
370
-3
390
F
  0
LAYER
  5
213
100
AcDbSymbolTableRecord
100
AcDbLayerTableRecord
  2
RGB____0____0____0__
 70
0
 62
7
  6
CONTINUOUS
370
-3
390
F
  0
LAYER
  5
214
100
AcDbSymbolTableRecord
100
AcDbLayerTableRecord
  2
SIMBOLI
 70
0
 62
7
  6
CONTINUOUS
370
-3
390
F
  0
LAYER
  5
215
100
AcDbSymbolTableRecord
100
AcDbLayerTableRecord
  2
SMUSSO
 70
0
 62
7
  6
CONTINUOUS
370
-3
390
F
  0
LAYER
  5
216
100
AcDbSymbolTableRecord
100
AcDbLayerTableRecord
  2
SUPERFICI
 70
0
 62
7
  6
CONTINUOUS
370
-3
390
F
  0
LAYER
  5
217
100
AcDbSymbolTableRecord
100
AcDbLayerTableRecord
  2
TRASH
 70
0
 62
7
  6
CONTINUOUS
370
-3
390
F
  0
LAYER
  5
218
100
AcDbSymbolTableRecord
100
AcDbLayerTableRecord
  2
XSEC_DATUMS
 70
0
 62
7
  6
CONTINUOUS
370
-3
390
F
  0
ENDTAB
  0
TABLE
  2
STYLE
  5
3
100
AcDbSymbolTable
 70
1
  0
STYLE
  5
11
100
AcDbSymbolTableRecord
100
AcDbTextStyleTableRecord
  2
STANDARD
 70
0
 40
0.0
 41
0.8
 50
0.0
 71
0
 42
0.2
  3
txt
  4

  0
STYLE
  5
219
100
AcDbSymbolTableRecord
100
AcDbTextStyleTableRecord
  2
TEXTSTYLE_1
 70
0
 40
0.0
 41
0.8
 50
0.0
 71
0
 42
0.2
  3
gdt
  4

  0
ENDTAB
  0
TABLE
  2
VIEW
  5
6
100
AcDbSymbolTable
 70
0
  0
ENDTAB
  0
TABLE
  2
UCS
  5
7
100
AcDbSymbolTable
 70
0
  0
ENDTAB
  0
TABLE
  2
APPID
  5
9
100
AcDbSymbolTable
 70
1
  0
APPID
  5
21A
100
AcDbSymbolTableRecord
100
AcDbRegAppTableRecord
  2
ACAD
 70
0
  0
ENDTAB
  0
TABLE
  2
BLOCK_RECORD
  5
1
100
AcDbSymbolTable
 70
0
  0
BLOCK_RECORD
  5
21B
100
AcDbSymbolTableRecord
100
AcDbBlockTableRecord
  2
*Model_Space
  0
BLOCK_RECORD
  5
21C
100
AcDbSymbolTableRecord
100
AcDbBlockTableRecord
  2
*Paper_Space
  0
BLOCK_RECORD
  5
21D
100
AcDbSymbolTableRecord
100
AcDbBlockTableRecord
  2
_FILLED
  0
ENDTAB
  0
TABLE
  2
DIMSTYLE
  5
A
100
AcDbSymbolTable
 70
1
100
AcDbDimStyleTable
 71
0
  0
DIMSTYLE
105
21E
100
AcDbSymbolTableRecord
100
AcDbDimStyleTableRecord
  2
STANDARD
 70
0
  3

  4

 40
1.0
 41
3.0
 42
0.5
 43
0.38
 44
1.5
 45
0.0
 46
0.0
 47
0.01
 48
0.01
140
3.0
141
0.09
142
0.0
143
25.4
144
1.0
145
0.0
146
1.0
147
0.625
 71
1.0
 72
0.0
 73
0
 74
0
 75
0
 76
0
 77
1
 78
8
 79
2
170
0
171
1
172
0
173
0
174
0
175
0
176
0
177
0
178
0
270
2
179
2
271
2
272
2
273
2
274
2
275
0
280
0
281
0
282
0
283
1
284
8
285
0
286
0
287
3
288
0
340
11
278
44
341
21D
342
21D
343
21D
344
21D
  0
ENDTAB
  0
ENDSEC
  0
SECTION
  2
BLOCKS
  0
BLOCK
  5
20
100
AcDbEntity
  8
0
100
AcDbBlockBegin
  2
*Model_Space
 70
0
 10
0.0
 20
0.0
 30
0.0
  3
*Model_Space
  1

  0
ENDBLK
  5
21
100
AcDbEntity
  8
0
100
AcDbBlockEnd
  0
BLOCK
  5
1C
100
AcDbEntity
  8
0
100
AcDbBlockBegin
  2
*Paper_Space
 70
0
 10
0.0
 20
0.0
 30
0.0
  3
*Paper_Space
  1

  0
ENDBLK
  5
1D
100
AcDbEntity
  8
0
100
AcDbBlockEnd
  0
BLOCK
  5
21F
100
AcDbEntity
  8
0
100
AcDbBlockBegin
  2
_FILLED
 70
64
 10
0.0
 20
0.0
  3
_FILLED
  1

  0
SOLID
  5
220
100
AcDbEntity
  8
0
  6
BYBLOCK
 62
0
100
AcDbTrace
 10
0.0
 20
0.0
 11
-1.0
 21
0.3166666667
 12
-1.0
 22
-0.3166666667
 13
-1.0
 23
-0.3166666667
  0
ENDBLK
  5
221
100
AcDbEntity
  8
0
  6
BYBLOCK
 62
0
100
AcDbBlockEnd
  0
ENDSEC
  0
SECTION
  2
ENTITIES
  0
LINE
  5
222
100
AcDbEntity
  8
0
100
AcDbLine
 62
7
  6
CONTINUOUS
 10
163.9915843609
 20
171.8817075247
 11
167.7793981481
 21
174.3852744161
  0
LINE
  5
223
100
AcDbEntity
  8
0
100
AcDbLine
 62
7
  6
CONTINUOUS
 10
164.6991216302
 20
172.2901517186
 11
168.4869354174
 21
174.79371861
  0
LINE
  5
224
100
AcDbEntity
  8
0
100
AcDbLine
 62
7
  6
CONTINUOUS
 10
164.6783580161
 20
172.2773123676
 11
164.6991216302
 21
172.2901517186
  0
LINE
  5
225
100
AcDbEntity
  8
0
100
AcDbLine
 62
7
  6
CONTINUOUS
 10
167.7793981481
 20
174.3852744161
 11
168.4869354174
 21
174.79371861
  0
LINE
  5
226
100
AcDbEntity
  8
0
100
AcDbLine
 62
7
  6
CONTINUOUS
 10
164.6783580161
 20
172.2773123676
 11
163.9919596684
 21
171.8810711632
  0
LINE
  5
227
100
AcDbEntity
  8
0
100
AcDbLine
 62
7
  6
CONTINUOUS
 10
164.2956687162
 20
170.8620839292
 11
164.0166927821
 21
170.7010378537
  0
LINE
  5
228
100
AcDbEntity
  8
0
100
AcDbLine
 62
7
  6
CONTINUOUS
 10
164.2956687162
 20
170.8620839292
 11
164.6783580161
 21
172.2773123676
  0
LINE
  5
229
100
AcDbEntity
  8
0
100
AcDbLine
 62
7
  6
CONTINUOUS
 10
164.0166927821
 20
99.8694042543
 11
163.9919596684
 21
100.3256398319
  0
LINE
  5
22A
100
AcDbEntity
  8
0
100
AcDbLine
 62
7
  6
CONTINUOUS
 10
248.5460319853
 20
51.0632231998
 11
249.9629911162
 21
50.687043744
  0
LINE
  5
22B
100
AcDbEntity
  8
0
100
AcDbLine
 62
7
  6
CONTINUOUS
 10
164.0166927821
 20
170.7010378537
 11
163.9919596684
 21
171.8810711632
  0
LINE
  5
22C
100
AcDbEntity
  8
0
100
AcDbLine
 62
7
  6
CONTINUOUS
 10
163.9919596684
 20
100.3256398319
 11
163.9915843609
 21
100.3498326925
  0
LINE
  5
22D
100
AcDbEntity
  8
0
100
AcDbLine
 62
7
  6
CONTINUOUS
 10
163.9915843609
 20
171.8817075247
 11
163.9915843609
 21
100.3498326925
  0
LINE
  5
22E
100
AcDbEntity
  8
0
100
AcDbLine
 62
7
  6
CONTINUOUS
 10
164.0166927821
 20
170.7010378537
 11
164.0166927821
 21
99.8694042543
  0
LINE
  5
22F
100
AcDbEntity
  8
0
100
AcDbLine
 62
7
  6
CONTINUOUS
 10
164.0166927821
 20
99.8694042543
 11
164.2956687162
 21
99.3862037628
  0
LINE
  5
230
100
AcDbEntity
  8
0
100
AcDbLine
 62
7
  6
CONTINUOUS
 10
164.2956687162
 20
99.3862037628
 11
164.6783580161
 21
99.1367630207
  0
LINE
  5
231
100
AcDbEntity
  8
0
100
AcDbLine
 62
7
  6
CONTINUOUS
 10
164.6991216302
 20
99.1243421951
 11
249.2769551988
 21
50.2901611019
  0
LINE
  5
232
100
AcDbEntity
  8
0
100
AcDbLine
 62
7
  6
CONTINUOUS
 10
164.2956687162
 20
99.3862037628
 11
248.2670560512
 21
50.9021771243
  0
LINE
  5
233
100
AcDbEntity
  8
0
100
AcDbLine
 62
7
  6
CONTINUOUS
 10
164.6991216302
 20
99.1243421951
 11
164.6783580161
 21
99.1367630207
  0
LINE
  5
234
100
AcDbEntity
  8
0
100
AcDbLine
 62
7
  6
CONTINUOUS
 10
248.2670560512
 20
50.9021771243
 11
249.2765927686
 21
50.2908025395
  0
LINE
  5
235
100
AcDbEntity
  8
0
100
AcDbLine
 62
7
  6
CONTINUOUS
 10
187.0480579354
 20
120.3542589117
 11
187.0480579354
 21
123.6201400189
  0
LINE
  5
236
100
AcDbEntity
  8
0
100
AcDbLine
 62
7
  6
CONTINUOUS
 10
188.7451142103
 20
120.3542589117
 11
188.7451142103
 21
123.6201400189
  0
LINE
  5
237
100
AcDbEntity
  8
0
100
AcDbLine
 62
7
  6
CONTINUOUS
 10
189.0986676008
 20
123.8242773155
 11
189.0986676008
 21
120.5583962083
  0
LWPOLYLINE
  5
238
100
AcDbEntity
  8
0
100
AcDbPolyline
 62
7
  6
CONTINUOUS
 90
34
 70
0
 10
187.0480579354
 20
123.6201400189
 10
187.0518918295
 20
123.8011862469
 10
187.0631660722
 20
123.9767041715
 10
187.0818806637
 20
124.1466937925
 10
187.1081114197
 20
124.3115151813
 10
187.1417825244
 20
124.4708082666
 10
187.1826665301
 20
124.6234928343
 10
187.2308125306
 20
124.769523793
 10
187.2861714321
 20
124.9089462341
 10
187.3483685061
 20
125.0408152175
 10
187.4174502459
 20
125.1650793195
 10
187.4933701582
 20
125.2817899638
 10
187.5756140352
 20
125.3901564823
 10
187.6642247294
 20
125.4901220736
 10
187.7591593883
 20
125.5817435391
 10
187.8597752466
 20
125.6644006145
 10
187.9661107737
 20
125.7380324618
 10
188.0781275002
 20
125.802699919
 10
188.1950672533
 20
125.8579652363
 10
188.3169634815
 20
125.903764682
 10
188.4437827363
 20
125.9401619877
 10
188.5746664985
 20
125.9669105982
 10
188.7096424167
 20
125.9839450388
 10
188.8486828423
 20
125.9913307841
 10
188.9908463106
 20
125.9890177028
 10
189.1361540163
 20
125.9769399496
 10
189.2845847646
 20
125.9551633698
 10
189.435133506
 20
125.9238353671
 10
189.5878145969
 20
125.8828911147
 10
189.7426136809
 20
125.8323954395
 10
189.8984826402
 20
125.7726902262
 10
190.0554287269
 20
125.7037129785
 10
190.2134446888
 20
125.6255261928
 10
190.3711386238
 20
125.5388451601
  0
LWPOLYLINE
  5
239
100
AcDbEntity
  8
0
100
AcDbPolyline
 62
7
  6
CONTINUOUS
 90
17
 70
0
 10
188.7451142103
 20
123.6201400189
 10
188.7481900207
 20
123.7607908791
 10
188.7574100766
 20
123.8975432244
 10
188.7727518634
 20
124.0300568558
 10
188.7941777276
 20
124.1580024928
 10
188.8216347632
 20
124.2810613049
 10
188.8550547408
 20
124.3989258731
 10
188.8943547409
 20
124.5113028597
 10
188.9394372978
 20
124.6179128009
 10
188.9901901677
 20
124.7184897649
 10
189.0464872075
 20
124.8127835245
 10
189.1081885669
 20
124.9005596149
 10
189.1751406048
 20
124.9815993416
 10
189.2471767921
 20
125.0557011285
 10
189.3241180972
 20
125.122680804
 10
189.4057730999
 20
125.1823717341
 10
189.4699033839
 20
125.2222190329
  0
LWPOLYLINE
  5
23A
100
AcDbEntity
  8
0
100
AcDbPolyline
 62
7
  6
CONTINUOUS
 90
13
 70
0
 10
189.5286996903
 20
125.185742995
 10
189.4617484208
 20
125.1047053924
 10
189.400047313
 20
125.016931182
 10
189.3437501388
 20
124.9226390405
 10
189.2929968266
 20
124.8220633676
 10
189.2479135761
 20
124.715454286
 10
189.2086127154
 20
124.6030776832
 10
189.1751918139
 20
124.4852130865
 10
189.147733819
 20
124.3621536571
 10
189.1263069802
 20
124.2342063801
 10
189.1109643201
 20
124.1016898717
 10
189.1017436458
 20
123.964933468
 10
189.0986676008
 20
123.8242773155
  0
LWPOLYLINE
  5
23B
100
AcDbEntity
  8
0
100
AcDbPolyline
 62
7
  6
CONTINUOUS
 90
3
 70
0
 10
189.6563610382
 20
125.3082667066
 10
189.6007344106
 20
125.259842429
 10
189.5286996903
 20
125.185742995
  0
LWPOLYLINE
  5
23C
100
AcDbEntity
  8
0
100
AcDbPolyline
 62
7
  6
CONTINUOUS
 90
15
 70
0
 10
189.4699033839
 20
125.2222190329
 10
189.4919387398
 20
125.2346255111
 10
189.5824007943
 20
125.2793122539
 10
189.6769342764
 20
125.316320856
 10
189.7753041816
 20
125.3455593496
 10
189.8772658668
 20
125.3669550513
 10
189.9825655757
 20
125.3804547785
 10
190.0909414993
 20
125.3860250539
 10
190.2021241245
 20
125.3836521101
 10
190.315836645
 20
125.3733419771
 10
190.4317962795
 20
125.3551204505
 10
190.5497147078
 20
125.3290329896
 10
190.6692984252
 20
125.2951447045
 10
190.790249959
 20
125.2535401097
 10
190.8278451957
 20
125.2383757537
  0
LWPOLYLINE
  5
23D
100
AcDbEntity
  8
0
100
AcDbPolyline
 62
7
  6
CONTINUOUS
 90
31
 70
0
 10
189.1019859886
 20
120.5686009949
 10
189.1117254947
 20
120.412903463
 10
189.1278861192
 20
120.2546134499
 10
189.1505396964
 20
120.0933248404
 10
189.179614392
 20
119.9294437497
 10
189.2148947031
 20
119.7641885242
 10
189.2564270104
 20
119.5975489352
 10
189.3041649332
 20
119.4295352113
 10
189.3577538272
 20
119.2613963851
 10
189.4172373969
 20
119.0931315473
 10
189.4825719379
 20
118.9247416072
 10
189.553271692
 20
118.7574783251
 10
189.6293764598
 20
118.5913505402
 10
189.7108464407
 20
118.4263494133
 10
189.797076475
 20
118.2637001872
 10
189.8881018824
 20
118.1034204745
 10
189.983887343
 20
117.9454926625
 10
190.0837217374
 20
117.7910891561
 10
190.1876353038
 20
117.6402359827
 10
190.2955978038
 20
117.4929071148
 10
190.4068074038
 20
117.3501968754
 10
190.5212883738
 20
117.2121395667
 10
190.6390164437
 20
117.0787008866
 10
190.7591169693
 20
116.9508722515
 10
190.8816075741
 20
116.8286955139
 10
191.0064706346
 20
116.7121288214
 10
191.1327786359
 20
116.6020380331
 10
191.2605423024
 20
116.4984714007
 10
191.3897509096
 20
116.4013806725
 10
191.5194447687
 20
116.3114869537
 10
191.6432711256
 20
116.2328789969
  0
LWPOLYLINE
  5
23E
100
AcDbEntity
  8
0
100
AcDbPolyline
 62
7
  6
CONTINUOUS
 90
33
 70
0
 10
189.0986676008
 20
120.5583962083
 10
189.1017436253
 20
120.4141884037
 10
189.1109642416
 20
120.2667846602
 10
189.126306812
 20
120.1165512666
 10
189.1477335343
 20
119.9638612183
 10
189.1751913923
 20
119.8090943497
 10
189.2086121466
 20
119.6526364358
 10
189.2479128593
 20
119.4948764147
 10
189.2929959677
 20
119.3362064861
 10
189.3437491533
 20
119.1770222439
 10
189.4000462317
 20
119.0177195215
 10
189.4617472762
 20
118.8586943252
 10
189.528698497
 20
118.7003429611
 10
189.6007331831
 20
118.5430595077
 10
189.6776723349
 20
118.387234593
 10
189.7593247384
 20
118.2332553594
 10
189.8454872798
 20
118.0815047327
 10
189.9359457736
 20
117.9323598411
 10
190.0304756845
 20
117.7861908679
 10
190.1288421355
 20
117.643361049
 10
190.2308004716
 20
117.5042256776
 10
190.3360972597
 20
117.3691306333
 10
190.4444708087
 20
117.2384117135
 10
190.5556516209
 20
117.1123940312
 10
190.6693630849
 20
116.9913911282
 10
190.7853224377
 20
116.8757038895
 10
190.903241432
 20
116.7656198769
 10
191.0228268441
 20
116.661412822
 10
191.1437813269
 20
116.5633418173
 10
191.2658041951
 20
116.4716506448
 10
191.3885921198
 20
116.386567224
 10
191.5118398215
 20
116.3083030859
 10
191.573780514
 20
116.2716510773
  0
LINE
  5
23F
100
AcDbEntity
  8
0
100
AcDbLine
 62
7
  6
CONTINUOUS
 10
193.6948616786
 20
119.7823588416
 11
193.6948616786
 21
116.5164777344
  0
LWPOLYLINE
  5
240
100
AcDbEntity
  8
0
100
AcDbPolyline
 62
7
  6
CONTINUOUS
 90
67
 70
0
 10
193.6948616786
 20
116.5164777344
 10
193.6910277845
 20
116.3354315063
 10
193.6797535417
 20
116.1599135818
 10
193.6610389503
 20
115.9899239608
 10
193.6348081943
 20
115.8251025719
 10
193.6011370896
 20
115.6658094866
 10
193.5602530839
 20
115.5131249189
 10
193.5121070834
 20
115.3670939602
 10
193.4567481819
 20
115.2276715192
 10
193.3945511078
 20
115.0958025357
 10
193.3254693681
 20
114.9715384338
 10
193.2495494557
 20
114.8548277894
 10
193.1673055787
 20
114.7464612709
 10
193.0786948846
 20
114.6464956796
 10
192.9837602257
 20
114.5548742142
 10
192.8831443673
 20
114.4722171388
 10
192.7768088403
 20
114.3985852915
 10
192.6647921137
 20
114.3339178342
 10
192.5478523607
 20
114.2786525169
 10
192.4259561324
 20
114.2328530712
 10
192.2991368777
 20
114.1964557655
 10
192.1682531155
 20
114.1697071551
 10
192.0332771973
 20
114.1526727145
 10
191.8942367716
 20
114.1452869691
 10
191.7520733034
 20
114.1476000505
 10
191.6067655977
 20
114.1596778036
 10
191.4583348494
 20
114.1814543835
 10
191.3077861079
 20
114.2127823861
 10
191.1551050171
 20
114.2537266386
 10
191.000305933
 20
114.3042223138
 10
190.8444369738
 20
114.363927527
 10
190.6874908871
 20
114.4329047747
 10
190.5294749252
 20
114.5110915604
 10
190.3714589624
 20
114.5979585098
 10
190.2134429969
 20
114.6935645288
 10
190.0554270306
 20
114.7978507114
 10
189.8984809432
 20
114.9101109652
 10
189.7426119893
 20
115.0303994105
 10
189.5878129144
 20
115.1586619269
 10
189.4351318342
 20
115.2940300607
 10
189.2845831006
 20
115.436552066
 10
189.1361523618
 20
115.5861796886
 10
188.9908446782
 20
115.7418997131
 10
188.8486812508
 20
115.9037535032
 10
188.7096408785
 20
116.0716996951
 10
188.5746650189
 20
116.2446009817
 10
188.4437813256
 20
116.4224908985
 10
188.3169621449
 20
116.6053359101
 10
188.1950659741
 20
116.7918981031
 10
188.0781262502
 20
116.9822025988
 10
187.966109536
 20
117.1762242761
 10
187.859774018
 20
117.3726498581
 10
187.7591581602
 20
117.5714957796
 10
187.6642234985
 20
117.7727456059
 10
187.5756128267
 20
117.9750367569
 10
187.4933690094
 20
118.1783765344
 10
187.417449182
 20
118.3827576367
 10
187.3483675451
 20
118.5867955783
 10
187.2861705961
 20
118.790488087
 10
187.2308118375
 20
118.993837435
 10
187.1826659783
 20
119.1954659538
 10
187.1417821134
 20
119.3953620279
 10
187.1081111479
 20
119.5935372728
 10
187.0818805049
 20
119.7886488659
 10
187.0631659924
 20
119.9802491996
 10
187.0518918026
 20
120.1687858815
 10
187.0480579354
 20
120.3542589117
  0
LWPOLYLINE
  5
241
100
AcDbEntity
  8
0
100
AcDbPolyline
 62
7
  6
CONTINUOUS
 90
17
 70
0
 10
193.6948616786
 20
117.4963367584
 10
193.6917858682
 20
117.3556858982
 10
193.6825658123
 20
117.2189335528
 10
193.6672240254
 20
117.0864199214
 10
193.6457981612
 20
116.9584742845
 10
193.6183411257
 20
116.8354154724
 10
193.584921148
 20
116.7175509041
 10
193.545621148
 20
116.6051739175
 10
193.500538591
 20
116.4985639763
 10
193.4497857211
 20
116.3979870124
 10
193.3934886813
 20
116.3036932527
 10
193.3317873219
 20
116.2159171624
 10
193.264835284
 20
116.1348774357
 10
193.1927990967
 20
116.0607756487
 10
193.1158577916
 20
115.9937959732
 10
193.0342027889
 20
115.9341050432
 10
192.9700725049
 20
115.8942577444
  0
LINE
  5
242
100
AcDbEntity
  8
0
100
AcDbLine
 62
250
  6
CONTINUOUS
 10
189.0986676008
 20
123.8242773155
 11
188.7451142103
 21
123.6201400189
  0
LINE
  5
243
100
AcDbEntity
  8
0
100
AcDbLine
 62
250
  6
CONTINUOUS
 10
189.0986676008
 20
120.5583962083
 11
188.7451142103
 21
120.3542589117
  0
LWPOLYLINE
  5
244
100
AcDbEntity
  8
0
100
AcDbPolyline
 62
7
  6
CONTINUOUS
 90
49
 70
0
 10
192.9700725049
 20
115.8942577444
 10
192.948037149
 20
115.8818512661
 10
192.8575750945
 20
115.8371645233
 10
192.7630416124
 20
115.8001559212
 10
192.6646717073
 20
115.7709174276
 10
192.562710022
 20
115.7495217259
 10
192.4574103132
 20
115.7360219987
 10
192.3490343895
 20
115.7304517233
 10
192.2378517643
 20
115.7328246671
 10
192.1241392438
 20
115.7431348002
 10
192.0081796093
 20
115.7613563267
 10
191.8902611811
 20
115.7874437877
 10
191.7706774636
 20
115.8213320727
 10
191.6497259298
 20
115.8629366676
 10
191.5277071747
 20
115.912153962
 10
191.4049244699
 20
115.9688614384
 10
191.2816837206
 20
116.0329175755
 10
191.1582906466
 20
116.1041632337
 10
191.0350499277
 20
116.1824224925
 10
190.912267294
 20
116.2675014414
 10
190.790248639
 20
116.3591883522
 10
190.6692972011
 20
116.4572555553
 10
190.5497135632
 20
116.561459553
 10
190.4317952098
 20
116.6715413372
 10
190.3158356478
 20
116.787227085
 10
190.2021231981
 20
116.9082293102
 10
190.0909406408
 20
117.0342472615
 10
189.9825647815
 20
117.164967321
 10
189.8772651356
 20
117.3000644921
 10
189.7753035095
 20
117.4392029706
 10
189.676933653
 20
117.5820365529
 10
189.5824002092
 20
117.7282100507
 10
189.4919381845
 20
117.8773601185
 10
189.405772564
 20
118.029115847
 10
189.324117568
 20
118.183099985
 10
189.2471762633
 20
118.3389296285
 10
189.1751400811
 20
118.4962170768
 10
189.1081880521
 20
118.6545714193
 10
189.046486707
 20
118.8135987733
 10
188.9901896965
 20
118.9729029948
 10
188.9394368693
 20
119.1320881203
 10
188.8943543644
 20
119.2907582585
 10
188.8550544276
 20
119.4485178417
 10
188.8216345198
 20
119.6049748533
 10
188.7941775544
 20
119.7597402075
 10
188.772751756
 20
119.9124276905
 10
188.7574100245
 20
120.0626573784
 10
188.7481900066
 20
120.2100565164
 10
188.7451142103
 20
120.3542589117
  0
LINE
  5
245
100
AcDbEntity
  8
0
100
AcDbLine
 62
250
  6
CONTINUOUS
 10
218.8678630888
 20
101.9819022119
 11
220.5649193636
 21
101.9819022119
  0
LWPOLYLINE
  5
246
100
AcDbEntity
  8
0
100
AcDbPolyline
 62
7
  6
CONTINUOUS
 90
3
 70
0
 10
193.0182390124
 20
115.9750582413
 10
193.1166055432
 20
116.0042968376
 10
193.1371676138
 20
116.012346802
  0
LINE
  5
247
100
AcDbEntity
  8
0
100
AcDbLine
 62
250
  6
CONTINUOUS
 10
218.8678630888
 20
105.2477833191
 11
220.5649193636
 21
105.2477833191
  0
LWPOLYLINE
  5
248
100
AcDbEntity
  8
0
100
AcDbPolyline
 62
7
  6
CONTINUOUS
 90
14
 70
0
 10
223.3935856674
 20
97.8992943776
 10
223.4550460441
 20
97.864696099
 10
223.5782937479
 20
97.8006367664
 10
223.701081676
 20
97.7439276543
 10
223.8231045498
 20
97.6947097602
 10
223.9440590436
 20
97.6531054398
 10
224.0636444704
 20
97.6192181358
 10
224.1815634848
 20
97.5931321247
 10
224.2975228702
 20
97.5749122813
 10
224.4112343813
 20
97.5646039066
 10
224.5224152519
 20
97.5622326454
 10
224.6307888689
 20
97.5678043818
 10
224.7360857396
 20
97.5813052143
 10
224.8380441658
 20
97.6027015415
  0
LWPOLYLINE
  5
249
100
AcDbEntity
  8
0
100
AcDbPolyline
 62
7
  6
CONTINUOUS
 90
14
 70
0
 10
191.573780514
 20
116.2716510773
 10
191.6352408907
 20
116.2370527987
 10
191.7584885945
 20
116.1729934662
 10
191.8812765226
 20
116.1162843541
 10
192.0032993964
 20
116.06706646
 10
192.1242538902
 20
116.0254621396
 10
192.243839317
 20
115.9915748356
 10
192.3617583314
 20
115.9654888244
 10
192.4777177168
 20
115.9472689811
 10
192.5914292279
 20
115.9369606063
 10
192.7026100985
 20
115.9345893451
 10
192.8109837155
 20
115.9401610815
 10
192.9162805862
 20
115.9536619141
 10
193.0182390124
 20
115.9750582413
  0
LINE
  5
24A
100
AcDbEntity
  8
0
100
AcDbLine
 62
7
  6
CONTINUOUS
 10
163.9915843609
 20
171.8817075247
 11
163.9919596684
 21
171.8810711632
  0
LINE
  5
24B
100
AcDbEntity
  8
0
100
AcDbLine
 62
7
  6
CONTINUOUS
 10
248.5460319853
 20
121.8948567992
 11
249.9629911162
 21
122.2424750753
  0
LWPOLYLINE
  5
24C
100
AcDbEntity
  8
0
100
AcDbPolyline
 62
7
  6
CONTINUOUS
 90
34
 70
0
 10
190.3711386238
 20
125.5388451601
 10
190.529476617
 20
125.4430532245
 10
190.6874925834
 20
125.3387670418
 10
190.8444386708
 20
125.2265067881
 10
191.0003076246
 20
125.1062183428
 10
191.1551066996
 20
124.9779558264
 10
191.3077877798
 20
124.8425876925
 10
191.4583365133
 20
124.7000656873
 10
191.6067672521
 20
124.5504380646
 10
191.7520749357
 20
124.3947180402
 10
191.8942383632
 20
124.2328642501
 10
192.0332787355
 20
124.0649180582
 10
192.168254595
 20
123.8920167715
 10
192.2991382884
 20
123.7141268547
 10
192.425957469
 20
123.5312818432
 10
192.5478536398
 20
123.3447196501
 10
192.6647933638
 20
123.1544151544
 10
192.7768100779
 20
122.9603934772
 10
192.883145596
 20
122.7639678951
 10
192.9837614538
 20
122.5651219737
 10
193.0786961155
 20
122.3638721474
 10
193.1673067872
 20
122.1615809963
 10
193.2495506046
 20
121.9582412188
 10
193.325470432
 20
121.7538601166
 10
193.3945520689
 20
121.549822175
 10
193.4567490179
 20
121.3461296663
 10
193.5121077764
 20
121.1427803182
 10
193.5602536357
 20
120.9411517995
 10
193.6011375005
 20
120.7412557253
 10
193.6348084661
 20
120.5430804805
 10
193.661039109
 20
120.3479688874
 10
193.6797536215
 20
120.1563685536
 10
193.6910278114
 20
119.9678318717
 10
193.6948616786
 20
119.7823588416
  0
LWPOLYLINE
  5
24D
100
AcDbEntity
  8
0
100
AcDbPolyline
 62
7
  6
CONTINUOUS
 90
34
 70
0
 10
222.1909437772
 20
107.1664884603
 10
222.3492817704
 20
107.0706965247
 10
222.5072977368
 20
106.9664103421
 10
222.6642438242
 20
106.8541500883
 10
222.820112778
 20
106.733861643
 10
222.974911853
 20
106.6055991266
 10
223.1275929331
 20
106.4702309928
 10
223.2781416667
 20
106.3277089875
 10
223.4265724055
 20
106.1780813649
 10
223.5718800891
 20
106.0223613404
 10
223.7140435166
 20
105.8605075503
 10
223.8530838889
 20
105.6925613584
 10
223.9880597484
 20
105.5196600718
 10
224.1189434418
 20
105.341770155
 10
224.2457626224
 20
105.1589251434
 10
224.3676587932
 20
104.9723629504
 10
224.4845985172
 20
104.7820584547
 10
224.5966152313
 20
104.5880367774
 10
224.7029507494
 20
104.3916111954
 10
224.8035666072
 20
104.1927652739
 10
224.8985012689
 20
103.9915154476
 10
224.9871119406
 20
103.7892242966
 10
225.069355758
 20
103.5858845191
 10
225.1452755854
 20
103.3815034168
 10
225.2143572222
 20
103.1774654752
 10
225.2765541713
 20
102.9737729665
 10
225.3319129298
 20
102.7704236185
 10
225.3800587891
 20
102.5687950997
 10
225.4209426539
 20
102.3688990256
 10
225.4546136195
 20
102.1707237807
 10
225.4808442624
 20
101.9756121876
 10
225.4995587749
 20
101.7840118539
 10
225.5108329648
 20
101.595475172
 10
225.514666832
 20
101.4100021418
  0
LINE
  5
24E
100
AcDbEntity
  8
0
100
AcDbLine
 62
7
  6
CONTINUOUS
 10
249.2765927686
 20
50.2908025395
 11
249.2769551988
 21
50.2901611019
  0
LINE
  5
24F
100
AcDbEntity
  8
0
100
AcDbLine
 62
7
  6
CONTINUOUS
 10
218.8678630888
 20
101.9819022119
 11
218.8678630888
 21
105.2477833191
  0
LWPOLYLINE
  5
250
100
AcDbEntity
  8
0
100
AcDbPolyline
 62
7
  6
CONTINUOUS
 90
34
 70
0
 10
218.8678630888
 20
105.2477833191
 10
218.8716969829
 20
105.4288295472
 10
218.8829712256
 20
105.6043474717
 10
218.9016858171
 20
105.7743370927
 10
218.9279165731
 20
105.9391584816
 10
218.9615876777
 20
106.0984515669
 10
219.0024716835
 20
106.2511361346
 10
219.0506176839
 20
106.3971670933
 10
219.1059765855
 20
106.5365895343
 10
219.1681736595
 20
106.6684585178
 10
219.2372553993
 20
106.7927226197
 10
219.3131753116
 20
106.9094332641
 10
219.3954191886
 20
107.0177997826
 10
219.4840298828
 20
107.1177653739
 10
219.5789645417
 20
107.2093868393
 10
219.6795804
 20
107.2920439147
 10
219.7859159271
 20
107.365675762
 10
219.8979326536
 20
107.4303432193
 10
220.0148724067
 20
107.4856085366
 10
220.1367686349
 20
107.5314079823
 10
220.2635878897
 20
107.567805288
 10
220.3944716519
 20
107.5945538984
 10
220.5294475701
 20
107.611588339
 10
220.6684879957
 20
107.6189740844
 10
220.810651464
 20
107.616661003
 10
220.9559591697
 20
107.6045832499
 10
221.104389918
 20
107.58280667
 10
221.2549386594
 20
107.5514786674
 10
221.4076197503
 20
107.510534415
 10
221.5624188343
 20
107.4600387397
 10
221.7182877936
 20
107.4003335265
 10
221.8752338803
 20
107.3313562788
 10
222.0332498422
 20
107.2531694931
 10
222.1909437772
 20
107.1664884603
  0
LINE
  5
251
100
AcDbEntity
  8
0
100
AcDbLine
 62
7
  6
CONTINUOUS
 10
249.2769551988
 20
123.4559706253
 11
253.3388881835
 21
125.8012645275
  0
LINE
  5
252
100
AcDbEntity
  8
0
100
AcDbLine
 62
250
  6
CONTINUOUS
 10
187.0480579354
 20
120.3542589117
 11
188.7451142103
 21
120.3542589117
  0
LWPOLYLINE
  5
253
100
AcDbEntity
  8
0
100
AcDbPolyline
 62
7
  6
CONTINUOUS
 90
31
 70
0
 10
220.921791142
 20
102.1962442951
 10
220.9315306481
 20
102.0405467632
 10
220.9476912726
 20
101.8822567502
 10
220.9703448498
 20
101.7209681406
 10
220.9994195454
 20
101.55708705
 10
221.0346998565
 20
101.3918318245
 10
221.0762321638
 20
101.2251922354
 10
221.1239700866
 20
101.0571785116
 10
221.1775589806
 20
100.8890396854
 10
221.2370425503
 20
100.7207748476
 10
221.3023770913
 20
100.5523849074
 10
221.3730768454
 20
100.3851216253
 10
221.4491816132
 20
100.2189938404
 10
221.5306515941
 20
100.0539927136
 10
221.6168816284
 20
99.8913434875
 10
221.7079070358
 20
99.7310637748
 10
221.8036924964
 20
99.5731359628
 10
221.9035268908
 20
99.4187324564
 10
222.0074404572
 20
99.2678792829
 10
222.1154029572
 20
99.120550415
 10
222.2266125572
 20
98.9778401757
 10
222.3410935272
 20
98.839782867
 10
222.4588215971
 20
98.7063441868
 10
222.5789221226
 20
98.5785155517
 10
222.7014127275
 20
98.4563388141
 10
222.826275788
 20
98.3397721216
 10
222.9525837892
 20
98.2296813334
 10
223.0803474558
 20
98.1261147009
 10
223.2095560629
 20
98.0290239728
 10
223.3392499221
 20
97.9391302539
 10
223.463076279
 20
97.8605222971
  0
LWPOLYLINE
  5
254
100
AcDbEntity
  8
0
100
AcDbPolyline
 62
7
  6
CONTINUOUS
 90
33
 70
0
 10
220.9184727542
 20
102.1860395086
 10
220.9215487787
 20
102.0418317039
 10
220.930769395
 20
101.8944279604
 10
220.9461119654
 20
101.7441945669
 10
220.9675386877
 20
101.5915045185
 10
220.9949965457
 20
101.4367376499
 10
221.0284173
 20
101.2802797361
 10
221.0677180126
 20
101.122519715
 10
221.1128011211
 20
100.9638497863
 10
221.1635543066
 20
100.8046655442
 10
221.2198513851
 20
100.6453628218
 10
221.2815524296
 20
100.4863376254
 10
221.3485036504
 20
100.3279862613
 10
221.4205383365
 20
100.1707028079
 10
221.4974774883
 20
100.0148778932
 10
221.5791298918
 20
99.8608986597
 10
221.6652924332
 20
99.709148033
 10
221.755750927
 20
99.5600031413
 10
221.8502808379
 20
99.4138341682
 10
221.9486472889
 20
99.2710043492
 10
222.050605625
 20
99.1318689779
 10
222.1559024131
 20
98.9967739336
 10
222.2642759621
 20
98.8660550137
 10
222.3754567743
 20
98.7400373315
 10
222.4891682383
 20
98.6190344285
 10
222.6051275911
 20
98.5033471898
 10
222.7230465854
 20
98.3932631771
 10
222.8426319974
 20
98.2890561223
 10
222.9635864803
 20
98.1909851176
 10
223.0856093485
 20
98.0992939451
 10
223.2083972732
 20
98.0142105242
 10
223.3316449749
 20
97.9359463861
 10
223.3935856674
 20
97.8992943776
  0
LINE
  5
255
100
AcDbEntity
  8
0
100
AcDbLine
 62
7
  6
CONTINUOUS
 10
220.5649193636
 20
101.9819022119
 11
220.5649193636
 21
105.2477833191
  0
LINE
  5
256
100
AcDbEntity
  8
0
100
AcDbLine
 62
7
  6
CONTINUOUS
 10
220.9184727542
 20
105.4519206158
 11
220.9184727542
 21
102.1860395086
  0
LWPOLYLINE
  5
257
100
AcDbEntity
  8
0
100
AcDbPolyline
 62
7
  6
CONTINUOUS
 90
17
 70
0
 10
220.5649193636
 20
105.2477833191
 10
220.5679951741
 20
105.3884341793
 10
220.57721523
 20
105.5251865246
 10
220.5925570168
 20
105.6577001561
 10
220.613982881
 20
105.785645793
 10
220.6414399165
 20
105.9087046051
 10
220.6748598942
 20
106.0265691734
 10
220.7141598942
 20
106.1389461599
 10
220.7592424512
 20
106.2455561011
 10
220.8099953211
 20
106.3461330651
 10
220.8662923609
 20
106.4404268248
 10
220.9279937203
 20
106.5282029151
 10
220.9949457582
 20
106.6092426418
 10
221.0669819455
 20
106.6833444287
 10
221.1439232506
 20
106.7503241043
 10
221.2255782533
 20
106.8100150343
 10
221.2897085373
 20
106.8498623331
  0
LWPOLYLINE
  5
258
100
AcDbEntity
  8
0
100
AcDbPolyline
 62
7
  6
CONTINUOUS
 90
13
 70
0
 10
221.3485048437
 20
106.8133862952
 10
221.2815535742
 20
106.7323486926
 10
221.2198524663
 20
106.6445744823
 10
221.1635552922
 20
106.5502823407
 10
221.11280198
 20
106.4497066679
 10
221.0677187295
 20
106.3430975863
 10
221.0284178688
 20
106.2307209835
 10
220.9949969673
 20
106.1128563868
 10
220.9675389724
 20
105.9897969573
 10
220.9461121335
 20
105.8618496803
 10
220.9307694735
 20
105.729333172
 10
220.9215487992
 20
105.5925767682
 10
220.9184727542
 20
105.4519206158
  0
LWPOLYLINE
  5
259
100
AcDbEntity
  8
0
100
AcDbPolyline
 62
7
  6
CONTINUOUS
 90
3
 70
0
 10
221.4761661916
 20
106.9359100069
 10
221.420539564
 20
106.8874857293
 10
221.3485048437
 20
106.8133862952
  0
LINE
  5
25A
100
AcDbEntity
  8
0
100
AcDbLine
 62
250
  6
CONTINUOUS
 10
220.9184727542
 20
105.4519206158
 11
220.5649193636
 21
105.2477833191
  0
LINE
  5
25B
100
AcDbEntity
  8
0
100
AcDbLine
 62
7
  6
CONTINUOUS
 10
249.9844924681
 20
122.2304801279
 11
254.0464254528
 21
124.5757740301
  0
LINE
  5
25C
100
AcDbEntity
  8
0
100
AcDbLine
 62
250
  6
CONTINUOUS
 10
220.9184727542
 20
102.1860395086
 11
220.5649193636
 21
101.9819022119
  0
LWPOLYLINE
  5
25D
100
AcDbEntity
  8
0
100
AcDbPolyline
 62
7
  6
CONTINUOUS
 90
15
 70
0
 10
221.2897085373
 20
106.8498623331
 10
221.3117438932
 20
106.8622688114
 10
221.4022059477
 20
106.9069555541
 10
221.4967394298
 20
106.9439641563
 10
221.595109335
 20
106.9732026499
 10
221.6970710202
 20
106.9945983516
 10
221.8023707291
 20
107.0080980788
 10
221.9107466527
 20
107.0136683542
 10
222.0219292779
 20
107.0112954104
 10
222.1356417984
 20
107.0009852773
 10
222.2516014329
 20
106.9827637508
 10
222.3695198611
 20
106.9566762898
 10
222.4891035786
 20
106.9227880048
 10
222.6100551124
 20
106.8811834099
 10
222.6476503491
 20
106.866019054
  0
LINE
  5
25E
100
AcDbEntity
  8
0
100
AcDbLine
 62
250
  6
CONTINUOUS
 10
187.0480579354
 20
123.6201400189
 11
188.7451142103
 21
123.6201400189
  0
LINE
  5
25F
100
AcDbEntity
  8
0
100
AcDbLine
 62
7
  6
CONTINUOUS
 10
225.514666832
 20
101.4100021418
 11
225.514666832
 21
98.1441210347
  0
LWPOLYLINE
  5
260
100
AcDbEntity
  8
0
100
AcDbPolyline
 62
7
  6
CONTINUOUS
 90
67
 70
0
 10
225.514666832
 20
98.1441210347
 10
225.5108329379
 20
97.9630748066
 10
225.4995586951
 20
97.787556882
 10
225.4808441037
 20
97.617567261
 10
225.4546133477
 20
97.4527458722
 10
225.420942243
 20
97.2934527869
 10
225.3800582373
 20
97.1407682192
 10
225.3319122368
 20
96.9947372605
 10
225.2765533353
 20
96.8553148194
 10
225.2143562612
 20
96.723445836
 10
225.1452745215
 20
96.599181734
 10
225.0693546091
 20
96.4824710897
 10
224.9871107321
 20
96.3741045712
 10
224.8985000379
 20
96.2741389799
 10
224.8035653791
 20
96.1825175144
 10
224.7029495207
 20
96.099860439
 10
224.5966139937
 20
96.0262285917
 10
224.4845972671
 20
95.9615611345
 10
224.3676575141
 20
95.9062958172
 10
224.2457612858
 20
95.8604963715
 10
224.1189420311
 20
95.8240990658
 10
223.9880582689
 20
95.7973504553
 10
223.8530823507
 20
95.7803160147
 10
223.714041925
 20
95.7729302694
 10
223.5718784568
 20
95.7752433507
 10
223.4265707511
 20
95.7873211039
 10
223.2781400028
 20
95.8090976837
 10
223.1275912613
 20
95.8404256864
 10
222.9749101705
 20
95.8813699388
 10
222.8201110864
 20
95.9318656141
 10
222.6642421271
 20
95.9915708273
 10
222.5072960405
 20
96.060548075
 10
222.3492800786
 20
96.1387348607
 10
222.1912641158
 20
96.22560181
 10
222.0332481503
 20
96.321207829
 10
221.875232184
 20
96.4254940117
 10
221.7182860966
 20
96.5377542654
 10
221.5624171427
 20
96.6580427107
 10
221.4076180678
 20
96.7863052271
 10
221.2549369876
 20
96.921673361
 10
221.104388254
 20
97.0641953662
 10
220.9559575152
 20
97.2138229889
 10
220.8106498316
 20
97.3695430134
 10
220.6684864042
 20
97.5313968034
 10
220.5294460319
 20
97.6993429953
 10
220.3944701723
 20
97.872244282
 10
220.263586479
 20
98.0501341988
 10
220.1367672983
 20
98.2329792103
 10
220.0148711275
 20
98.4195414034
 10
219.8979314035
 20
98.6098458991
 10
219.7859146894
 20
98.8038675763
 10
219.6795791714
 20
99.0002931584
 10
219.5789633136
 20
99.1991390798
 10
219.4840286519
 20
99.4003889061
 10
219.3954179801
 20
99.6026800572
 10
219.3131741628
 20
99.8060198347
 10
219.2372543354
 20
100.0104009369
 10
219.1681726985
 20
100.2144388785
 10
219.1059757495
 20
100.4181313872
 10
219.0506169909
 20
100.6214807353
 10
219.0024711317
 20
100.823109254
 10
218.9615872668
 20
101.0230053282
 10
218.9279163013
 20
101.221180573
 10
218.9016856583
 20
101.4162921661
 10
218.8829711458
 20
101.6078924999
 10
218.871696956
 20
101.7964291818
 10
218.8678630888
 20
101.9819022119
  0
LWPOLYLINE
  5
261
100
AcDbEntity
  8
0
100
AcDbPolyline
 62
7
  6
CONTINUOUS
 90
17
 70
0
 10
225.514666832
 20
99.1239800586
 10
225.5115910215
 20
98.9833291984
 10
225.5023709657
 20
98.8465768531
 10
225.4870291788
 20
98.7140632217
 10
225.4656033146
 20
98.5861175847
 10
225.4381462791
 20
98.4630587726
 10
225.4047263014
 20
98.3451942044
 10
225.3654263014
 20
98.2328172178
 10
225.3203437444
 20
98.1262072766
 10
225.2695908745
 20
98.0256303126
 10
225.2132938347
 20
97.931336553
 10
225.1515924753
 20
97.8435604626
 10
225.0846404374
 20
97.7625207359
 10
225.0126042501
 20
97.688418949
 10
224.935662945
 20
97.6214392735
 10
224.8540079423
 20
97.5617483434
 10
224.7898776583
 20
97.5219010446
  0
LWPOLYLINE
  5
262
100
AcDbEntity
  8
0
100
AcDbPolyline
 62
7
  6
CONTINUOUS
 90
49
 70
0
 10
224.7898776583
 20
97.5219010446
 10
224.7678423024
 20
97.5094945663
 10
224.6773802479
 20
97.4648078236
 10
224.5828467658
 20
97.4277992215
 10
224.4844768606
 20
97.3985607279
 10
224.3825151754
 20
97.3771650261
 10
224.2772154665
 20
97.363665299
 10
224.1688395429
 20
97.3580950236
 10
224.0576569177
 20
97.3604679674
 10
223.9439443972
 20
97.3707781004
 10
223.8279847627
 20
97.388999627
 10
223.7100663345
 20
97.4150870879
 10
223.590482617
 20
97.448975373
 10
223.4695310832
 20
97.4905799678
 10
223.3475123281
 20
97.5397972623
 10
223.2247296233
 20
97.5965047387
 10
223.101488874
 20
97.6605608757
 10
222.9780958
 20
97.7318065339
 10
222.8548550811
 20
97.8100657927
 10
222.7320724474
 20
97.8951447416
 10
222.6100537924
 20
97.9868316525
 10
222.4891023545
 20
98.0848988556
 10
222.3695187166
 20
98.1891028532
 10
222.2516003632
 20
98.2991846375
 10
222.1356408012
 20
98.4148703852
 10
222.0219283515
 20
98.5358726104
 10
221.9107457942
 20
98.6618905617
 10
221.8023699349
 20
98.7926106212
 10
221.697070289
 20
98.9277077923
 10
221.5951086629
 20
99.0668462709
 10
221.4967388064
 20
99.2096798532
 10
221.4022053626
 20
99.355853351
 10
221.3117433379
 20
99.5050034187
 10
221.2255777174
 20
99.6567591473
 10
221.1439227214
 20
99.8107432852
 10
221.0669814167
 20
99.9665729287
 10
220.9949452345
 20
100.123860377
 10
220.9279932055
 20
100.2822147196
 10
220.8662918604
 20
100.4412420736
 10
220.8099948499
 20
100.6005462951
 10
220.7592420227
 20
100.7597314205
 10
220.7141595178
 20
100.9184015587
 10
220.674859581
 20
101.076161142
 10
220.6414396732
 20
101.2326181536
 10
220.6139827077
 20
101.3873835078
 10
220.5925569094
 20
101.5400709908
 10
220.5772151779
 20
101.6903006786
 10
220.56799516
 20
101.8376998167
 10
220.5649193636
 20
101.9819022119
  0
LWPOLYLINE
  5
263
100
AcDbEntity
  8
0
100
AcDbPolyline
 62
7
  6
CONTINUOUS
 90
3
 70
0
 10
224.8380441658
 20
97.6027015415
 10
224.9364106965
 20
97.6319401379
 10
224.9569727672
 20
97.6399901023
  0
LINE
  5
264
100
AcDbEntity
  8
0
100
AcDbLine
 62
7
  6
CONTINUOUS
 10
248.2670560512
 20
122.3780572907
 11
249.2765927686
 21
123.4313518864
  0
LINE
  5
265
100
AcDbEntity
  8
0
100
AcDbLine
 62
7
  6
CONTINUOUS
 10
249.9629911162
 20
122.2424750753
 11
249.9844924681
 21
122.2304801279
  0
LINE
  5
266
100
AcDbEntity
  8
0
100
AcDbLine
 62
7
  6
CONTINUOUS
 10
248.2670560512
 20
122.3780572907
 11
164.2956687162
 21
170.8620839292
  0
LINE
  5
267
100
AcDbEntity
  8
0
100
AcDbLine
 62
7
  6
CONTINUOUS
 10
249.2769551988
 20
123.4559706253
 11
164.6991216302
 21
172.2901517186
  0
LINE
  5
268
100
AcDbEntity
  8
0
100
AcDbLine
 62
7
  6
CONTINUOUS
 10
253.3388881835
 20
125.8012645275
 11
168.4869354174
 21
174.79371861
  0
LINE
  5
269
100
AcDbEntity
  8
0
100
AcDbLine
 62
7
  6
CONTINUOUS
 10
248.5460319853
 20
51.0632231998
 11
248.5460319853
 21
121.8948567992
  0
LINE
  5
26A
100
AcDbEntity
  8
0
100
AcDbLine
 62
7
  6
CONTINUOUS
 10
249.9844924681
 20
50.6986052957
 11
249.9844924681
 21
122.2304801279
  0
LINE
  5
26B
100
AcDbEntity
  8
0
100
AcDbLine
 62
7
  6
CONTINUOUS
 10
249.2769551988
 20
123.4559706253
 11
249.2765927686
 21
123.4313518864
  0
LINE
  5
26C
100
AcDbEntity
  8
0
100
AcDbLine
 62
7
  6
CONTINUOUS
 10
248.5460319853
 20
121.8948567992
 11
248.2670560512
 21
122.3780572907
  0
LINE
  5
26D
100
AcDbEntity
  8
0
100
AcDbLine
 62
7
  6
CONTINUOUS
 10
249.9629911162
 20
122.2424750753
 11
249.2765927686
 21
123.4313518864
  0
LINE
  5
26E
100
AcDbEntity
  8
0
100
AcDbLine
 62
7
  6
CONTINUOUS
 10
254.0464254528
 20
52.72738381
 11
254.0464254528
 21
124.5757740301
  0
LINE
  5
26F
100
AcDbEntity
  8
0
100
AcDbLine
 62
7
  6
CONTINUOUS
 10
253.3388881835
 20
125.8012645275
 11
254.0464254528
 21
124.5757740301
  0
LINE
  5
270
100
AcDbEntity
  8
0
100
AcDbLine
 62
7
  6
CONTINUOUS
 10
248.2670560512
 20
50.9021771243
 11
248.5460319853
 21
51.0632231998
  0
LINE
  5
271
100
AcDbEntity
  8
0
100
AcDbLine
 62
7
  6
CONTINUOUS
 10
249.2765927686
 20
50.2908025395
 11
249.9629911162
 21
50.687043744
  0
LINE
  5
272
100
AcDbEntity
  8
0
100
AcDbLine
 62
7
  6
CONTINUOUS
 10
254.0464254528
 20
52.72738381
 11
253.3388881835
 21
52.3189396161
  0
LINE
  5
273
100
AcDbEntity
  8
0
100
AcDbLine
 62
7
  6
CONTINUOUS
 10
249.9844924681
 20
50.6986052957
 11
249.9629911162
 21
50.687043744
  0
LINE
  5
274
100
AcDbEntity
  8
0
100
AcDbLine
 62
7
  6
CONTINUOUS
 10
249.9844924681
 20
50.6986052957
 11
254.0464254528
 21
52.72738381
  0
LINE
  5
275
100
AcDbEntity
  8
0
100
AcDbLine
 62
7
  6
CONTINUOUS
 10
249.2769551988
 20
50.2901611019
 11
253.3388881835
 21
52.3189396161
  0
ENDSEC
  0
SECTION
  2
OBJECTS
  0
DICTIONARY
  5
C
100
AcDbDictionary
280
0
281
1
  3
ACAD_GROUP
350
D
  3
ACAD_MLINESTYLE
350
17
  3
ACAD_LAYOUT
350
1A
  3
ACAD_PLOTSETTINGS
350
19
  3
ACAD_PLOTSTYLENAME
350
E
  0
DICTIONARY
  5
D
102
{ACAD_REACTORS
330
C
102
}
100
AcDbDictionary
280
0
281
1
  0
ACDBDICTIONARYWDFLT
  5
E
102
{ACAD_REACTORS
330
C
102
}
100
AcDbDictionary
281
1
  3
Normal
350
F
100
AcDbDictionaryWithDefault
340
F
  0
DICTIONARY
  5
17
102
{ACAD_REACTORS
330
C
102
}
100
AcDbDictionary
280
0
281
1
  3
Standard
350
18
  0
DICTIONARY
  5
19
102
{ACAD_REACTORS
330
C
102
}
100
AcDbDictionary
281
1
  0
DICTIONARY
  5
1A
102
{ACAD_REACTORS
330
C
102
}
100
AcDbDictionary
281
1
  3
Model
350
276
  3
Layout1
350
277
  0
ACDBPLACEHOLDER
  5
F
102
{ACAD_REACTORS
330
E
102
}
  0
MLINESTYLE
  5
18
102
{ACAD_REACTORS
330
17
102
}
100
AcDbMlineStyle
  2
STANDARD
 70
0
  3

 62
256
 51
90.0
 52
90.0
 71
2
 49
0.5
 62
256
  6
BYLAYER
 49
-0.5
 62
256
  6
BYLAYER
  0
LAYOUT
  5
276
102
{ACAD_REACTORS
330
1A
102
}
100
AcDbPlotSettings
  1

  2
none_device
  4
ISO_A4_(297.00_x_210.00_MM)
  6

 40
0.0
 41
0.0
 42
0.0
 43
0.0
 44
297.0
 45
210.0
 46
0.0
 47
0.0
 48
0.0
 49
0.0
140
0.0
141
0.0
142
1.0
143
1.0
 70
1024
 72
1
 73
0
 74
0
  7

 75
0
147
1.0
148
0.0
149
0.0
100
AcDbLayout
  1
Model
 70
0
 71
0
 10
0.0
 20
0.0
 11
297.0
 21
210.0
 12
0.0
 22
0.0
 32
0.0
 14
0.0
 24
0.0
 34
0.0
 15
0.0
 25
0.0
 35
0.0
146
0.0
 13
0.0
 23
0.0
 33
0.0
 16
1.0
 26
0.0
 36
0.0
 17
0.0
 27
1.0
 37
0.0
 76
0
330
21B
345
0
346
0
  0
LAYOUT
  5
277
102
{ACAD_REACTORS
330
1A
102
}
100
AcDbPlotSettings
  1

  2
none_device
  4
ISO_A4_(297.00_x_210.00_MM)
  6

 40
0.0
 41
0.0
 42
0.0
 43
0.0
 44
297.0
 45
210.0
 46
0.0
 47
0.0
 48
0.0
 49
0.0
140
0.0
141
0.0
142
1.0
143
1.0
 70
0
 72
1
 73
0
 74
0
  7

 75
0
147
1.0
148
0.0
149
0.0
100
AcDbLayout
  1
Layout1
 70
0
 71
1
 10
0.0
 20
0.0
 11
297.0
 21
210.0
 12
0.0
 22
0.0
 32
0.0
 14
0.0
 24
0.0
 34
0.0
 15
0.0
 25
0.0
 35
0.0
146
0.0
 13
0.0
 23
0.0
 33
0.0
 16
1.0
 26
0.0
 36
0.0
 17
0.0
 27
1.0
 37
0.0
 76
0
330
21C
345
0
346
0
  0
ENDSEC
  0
EOF
