  0
SECTION
  2
HEADER
  9
$ACADVER
  1
AC1024
  9
$DWGCODEPAGE
  3
ANSI_1252
  9
$EXTMAX
 10
297.0
 20
210.0
 30
0.0
  9
$EXTMIN
 10
0.0
 20
0.0
 30
0.0
  9
$LIMMIN
 10
0.0
 20
0.0
  9
$LIMMAX
 10
297.0
 20
210.0
  9
$VIEWCTR
 10
148.5
 20
105.0
  9
$VIEWSIZE
 40
210.0
  9
$CLAYER
  8
0
  9
$LTSCALE
 40
16.335
  9
$CELTYPE
  6
BYLAYER
  9
$DIMSCALE
 40
1.0
  9
$DIMASZ
 40
3.0
  9
$DIMEXO
 40
0.5
  9
$DIMDLI
 40
11.286
  9
$DIMEXE
 40
1.5
  9
$DIMCEN
 40
2.673
  9
$DIMLFAC
 40
1.0
  9
$DIMBLK
  1
_FILLED
  9
$DIMALT
 70
0
  9
$DIMALTF
 40
0.0393700787
  9
$DIMTXT
 40
3.0
  9
$DIMTOL
 70
1
  9
$DIMLIM
 70
0
  9
$DIMTFAC
 40
1.0
  9
$DIMTP
 40
0.01
  9
$DIMTM
 40
0.01
  9
$DIMGAP
 40
0.625
  9
$DIMDSEP
 70
44
  9
$AUNITS
 70
0
  9
$PDMODE
 70
3
  9
$PDSIZE
 40
3.0
  9
$HANDSEED
  5
28E
  9
$TILEMODE
 70
1
  9
$MEASUREMENT
 70
1
  9
$INSUNITS
 70
4
  0
ENDSEC
  0
SECTION
  2
CLASSES
  0
CLASS
  1
ACDBDICTIONARYWDFLT
  2
AcDbDictionaryWithDefault
  3
AutoCAD 2000
 90
0
 91
1
280
0
281
0
  0
CLASS
  1
ACDBPLACEHOLDER
  2
AcDbPlaceHolder
  3
AutoCAD 2000
 90
0
 91
1
280
0
281
0
  0
CLASS
  1
LAYOUT
  2
AcDbLayout
  3
AutoCAD 2000
 90
0
 91
0
280
0
281
0
  0
ENDSEC
  0
SECTION
  2
TABLES
  0
TABLE
  2
VPORT
  5
8
100
AcDbSymbolTable
 70
2
  0
VPORT
  5
1F4
100
AcDbSymbolTableRecord
100
AcDbViewportTableRecord
  2
*ACTIVE
 70
0
 10
0.0
 20
0.0
 11
1.0
 21
1.0
 12
148.5
 22
105.0
 13
0.0
 23
0.0
 14
1.0
 24
1.0
 15
0.0
 25
0.0
 16
0.0
 26
0.0
 36
1.0
 17
0.0
 27
0.0
 37
0.0
 40
210.0
 41
1.4142857143
 42
50.0
 43
0.0
 44
0.0
 50
0.0
 51
0.0
 71
0
 72
100
 73
1
 74
1
 75
0
 76
0
 77
0
 78
0
  0
ENDTAB
  0
TABLE
  2
LTYPE
  5
5
100
AcDbSymbolTable
 70
6
  0
LTYPE
  5
14
100
AcDbSymbolTableRecord
100
AcDbLinetypeTableRecord
  2
BYBLOCK
 70
0
  3

 72
65
 73
0
 40
0.0
  0
LTYPE
  5
15
100
AcDbSymbolTableRecord
100
AcDbLinetypeTableRecord
  2
BYLAYER
 70
0
  3

 72
65
 73
0
 40
0.0
  0
LTYPE
  5
16
100
AcDbSymbolTableRecord
100
AcDbLinetypeTableRecord
  2
CONTINUOUS
 70
64
  3
Solid line
 72
65
 73
0
 40
0.0
  0
LTYPE
  5
1F5
100
AcDbSymbolTableRecord
100
AcDbLinetypeTableRecord
  2
CENTER
 70
64
  3
____ _ ____ _ ____ _ ____ _ ____ _ ____ _ ____
 72
65
 73
4
 40
0.6
 49
0.375
 74
0
 49
-0.075
 74
0
 49
0.075
 74
0
 49
-0.075
 74
0
  0
LTYPE
  5
1F6
100
AcDbSymbolTableRecord
100
AcDbLinetypeTableRecord
  2
HIDDEN
 70
64
  3
- - - - - - - - - - - - - - - - - - - -
 72
65
 73
2
 40
0.2
 49
0.1
 74
0
 49
-0.1
 74
0
  0
LTYPE
  5
1F7
100
AcDbSymbolTableRecord
100
AcDbLinetypeTableRecord
  2
PHANTOM
 70
64
  3
_____ _ _ _____ _ _ _____ _ _ _____
 72
65
 73
6
 40
0.8
 49
0.45
 74
0
 49
-0.05
 74
0
 49
0.1
 74
0
 49
-0.05
 74
0
 49
0.1
 74
0
 49
-0.05
 74
0
  0
LTYPE
  5
1F8
100
AcDbSymbolTableRecord
100
AcDbLinetypeTableRecord
  2
DOT
 70
64
  3
. . . . . . . . . . . . . . . . . . . .
 72
65
 73
2
 40
0.2
 49
0.1
 74
0
 49
-0.1
 74
0
  0
LTYPE
  5
1F9
100
AcDbSymbolTableRecord
100
AcDbLinetypeTableRecord
  2
DASHED
 70
64
  3
- - - - - - - - - - - - - - - - - - - -
 72
65
 73
2
 40
0.2
 49
0.1
 74
0
 49
-0.1
 74
0
  0
ENDTAB
  0
TABLE
  2
LAYER
  5
2
100
AcDbSymbolTable
 70
36
  0
LAYER
  5
10
100
AcDbSymbolTableRecord
100
AcDbLayerTableRecord
  2
0
 70
0
 62
7
  6
CONTINUOUS
370
-3
390
F
  0
LAYER
  5
1FA
100
AcDbSymbolTableRecord
100
AcDbLayerTableRecord
  2
DEFAULT_1
 70
0
 62
7
  6
CENTER
370
-3
390
F
  0
LAYER
  5
1FB
100
AcDbSymbolTableRecord
100
AcDbLayerTableRecord
  2
DEFAULT_2
 70
0
 62
7
  6
HIDDEN
370
-3
390
F
  0
LAYER
  5
1FC
100
AcDbSymbolTableRecord
100
AcDbLayerTableRecord
  2
DEFAULT_3
 70
0
 62
7
  6
PHANTOM
370
-3
390
F
  0
LAYER
  5
1FD
100
AcDbSymbolTableRecord
100
AcDbLayerTableRecord
  2
ASSI
 70
0
 62
7
  6
CONTINUOUS
370
-3
390
F
  0
LAYER
  5
1FE
100
AcDbSymbolTableRecord
100
AcDbLayerTableRecord
  2
COORDINATE
 70
0
 62
7
  6
CONTINUOUS
370
-3
390
F
  0
LAYER
  5
1FF
100
AcDbSymbolTableRecord
100
AcDbLayerTableRecord
  2
COORD_ORIGINE
 70
0
 62
7
  6
CONTINUOUS
370
-3
390
F
  0
LAYER
  5
200
100
AcDbSymbolTableRecord
100
AcDbLayerTableRecord
  2
COPY_PUBLISH
 70
0
 62
7
  6
CONTINUOUS
370
-3
390
F
  0
LAYER
  5
201
100
AcDbSymbolTableRecord
100
AcDbLayerTableRecord
  2
COSMETIC
 70
0
 62
7
  6
CONTINUOUS
370
-3
390
F
  0
LAYER
  5
202
100
AcDbSymbolTableRecord
100
AcDbLayerTableRecord
  2
COSMETICI
 70
0
 62
7
  6
CONTINUOUS
370
-3
390
F
  0
LAYER
  5
203
100
AcDbSymbolTableRecord
100
AcDbLayerTableRecord
  2
CURVA_TASSELLO
 70
0
 62
7
  6
CONTINUOUS
370
-3
390
F
  0
LAYER
  5
204
100
AcDbSymbolTableRecord
100
AcDbLayerTableRecord
  2
CURVE
 70
0
 62
7
  6
CONTINUOUS
370
-3
390
F
  0
LAYER
  5
205
100
AcDbSymbolTableRecord
100
AcDbLayerTableRecord
  2
DRAFT
 70
0
 62
7
  6
CONTINUOUS
370
-3
390
F
  0
LAYER
  5
206
100
AcDbSymbolTableRecord
100
AcDbLayerTableRecord
  2
IMPORT_IGES
 70
0
 62
7
  6
CONTINUOUS
370
-3
390
F
  0
LAYER
  5
207
100
AcDbSymbolTableRecord
100
AcDbLayerTableRecord
  2
INTFCLR_2
 70
0
 62
7
  6
CONTINUOUS
370
-3
390
F
  0
LAYER
  5
208
100
AcDbSymbolTableRecord
100
AcDbLayerTableRecord
  2
INTF_1
 70
0
 62
7
  6
CONTINUOUS
370
-3
390
F
  0
LAYER
  5
209
100
AcDbSymbolTableRecord
100
AcDbLayerTableRecord
  2
INTF_21
 70
0
 62
7
  6
CONTINUOUS
370
-3
390
F
  0
LAYER
  5
20A
100
AcDbSymbolTableRecord
100
AcDbLayerTableRecord
  2
INTF_7
 70
0
 62
7
  6
CONTINUOUS
370
-3
390
F
  0
LAYER
  5
20B
100
AcDbSymbolTableRecord
100
AcDbLayerTableRecord
  2
INTF_9
 70
0
 62
7
  6
CONTINUOUS
370
-3
390
F
  0
LAYER
  5
20C
100
AcDbSymbolTableRecord
100
AcDbLayerTableRecord
  2
NOTE
 70
0
 62
7
  6
CONTINUOUS
370
-3
390
F
  0
LAYER
  5
20D
100
AcDbSymbolTableRecord
100
AcDbLayerTableRecord
  2
PIANI
 70
0
 62
7
  6
CONTINUOUS
370
-3
390
F
  0
LAYER
  5
20E
100
AcDbSymbolTableRecord
100
AcDbLayerTableRecord
  2
PIANI_ORIGINE
 70
0
 62
7
  6
CONTINUOUS
370
-3
390
F
  0
LAYER
  5
20F
100
AcDbSymbolTableRecord
100
AcDbLayerTableRecord
  2
PIANI_RIFERIMENTO
 70
0
 62
7
  6
CONTINUOUS
370
-3
390
F
  0
LAYER
  5
210
100
AcDbSymbolTableRecord
100
AcDbLayerTableRecord
  2
PUNTI
 70
0
 62
7
  6
CONTINUOUS
370
-3
390
F
  0
LAYER
  5
211
100
AcDbSymbolTableRecord
100
AcDbLayerTableRecord
  2
RACCORDO
 70
0
 62
7
  6
CONTINUOUS
370
-3
390
F
  0
LAYER
  5
212
100
AcDbSymbolTableRecord
100
AcDbLayerTableRecord
  2
RGB__255__255__255__
 70
0
 62
7
  6
CONTINUOUS
370
-3
390
F
  0
LAYER
  5
213
100
AcDbSymbolTableRecord
100
AcDbLayerTableRecord
  2
RGB____0____0____0__
 70
0
 62
7
  6
CONTINUOUS
370
-3
390
F
  0
LAYER
  5
214
100
AcDbSymbolTableRecord
100
AcDbLayerTableRecord
  2
SIMBOLI
 70
0
 62
7
  6
CONTINUOUS
370
-3
390
F
  0
LAYER
  5
215
100
AcDbSymbolTableRecord
100
AcDbLayerTableRecord
  2
SMUSSO
 70
0
 62
7
  6
CONTINUOUS
370
-3
390
F
  0
LAYER
  5
216
100
AcDbSymbolTableRecord
100
AcDbLayerTableRecord
  2
SNAPLINE
 70
0
 62
7
  6
CONTINUOUS
370
-3
390
F
  0
LAYER
  5
217
100
AcDbSymbolTableRecord
100
AcDbLayerTableRecord
  2
SUPERFICI
 70
0
 62
7
  6
CONTINUOUS
370
-3
390
F
  0
LAYER
  5
218
100
AcDbSymbolTableRecord
100
AcDbLayerTableRecord
  2
TRASH
 70
0
 62
7
  6
CONTINUOUS
370
-3
390
F
  0
LAYER
  5
219
100
AcDbSymbolTableRecord
100
AcDbLayerTableRecord
  2
XSEC_DATUMS
 70
0
 62
7
  6
CONTINUOUS
370
-3
390
F
  0
ENDTAB
  0
TABLE
  2
STYLE
  5
3
100
AcDbSymbolTable
 70
1
  0
STYLE
  5
11
100
AcDbSymbolTableRecord
100
AcDbTextStyleTableRecord
  2
STANDARD
 70
0
 40
0.0
 41
0.8
 50
0.0
 71
0
 42
0.2
  3
txt
  4

  0
STYLE
  5
21A
100
AcDbSymbolTableRecord
100
AcDbTextStyleTableRecord
  2
TEXTSTYLE_1
 70
0
 40
0.0
 41
0.8
 50
0.0
 71
0
 42
0.2
  3
gdt
  4

  0
ENDTAB
  0
TABLE
  2
VIEW
  5
6
100
AcDbSymbolTable
 70
0
  0
ENDTAB
  0
TABLE
  2
UCS
  5
7
100
AcDbSymbolTable
 70
0
  0
ENDTAB
  0
TABLE
  2
APPID
  5
9
100
AcDbSymbolTable
 70
1
  0
APPID
  5
21B
100
AcDbSymbolTableRecord
100
AcDbRegAppTableRecord
  2
ACAD
 70
0
  0
ENDTAB
  0
TABLE
  2
BLOCK_RECORD
  5
1
100
AcDbSymbolTable
 70
0
  0
BLOCK_RECORD
  5
21C
100
AcDbSymbolTableRecord
100
AcDbBlockTableRecord
  2
*Model_Space
  0
BLOCK_RECORD
  5
21D
100
AcDbSymbolTableRecord
100
AcDbBlockTableRecord
  2
*Paper_Space
  0
BLOCK_RECORD
  5
21E
100
AcDbSymbolTableRecord
100
AcDbBlockTableRecord
  2
_FILLED
  0
ENDTAB
  0
TABLE
  2
DIMSTYLE
  5
A
100
AcDbSymbolTable
 70
1
100
AcDbDimStyleTable
 71
0
  0
DIMSTYLE
105
21F
100
AcDbSymbolTableRecord
100
AcDbDimStyleTableRecord
  2
STANDARD
 70
0
  3

  4

 40
1.0
 41
3.0
 42
0.5
 43
0.38
 44
1.5
 45
0.0
 46
0.0
 47
0.01
 48
0.01
140
3.0
141
0.09
142
0.0
143
25.4
144
1.0
145
0.0
146
1.0
147
0.625
 71
1.0
 72
0.0
 73
0
 74
0
 75
0
 76
0
 77
1
 78
8
 79
2
170
0
171
1
172
0
173
0
174
0
175
0
176
0
177
0
178
0
270
2
179
2
271
2
272
2
273
2
274
2
275
0
280
0
281
0
282
0
283
1
284
8
285
0
286
0
287
3
288
0
340
11
278
44
341
21E
342
21E
343
21E
344
21E
  0
ENDTAB
  0
ENDSEC
  0
SECTION
  2
BLOCKS
  0
BLOCK
  5
20
100
AcDbEntity
  8
0
100
AcDbBlockBegin
  2
*Model_Space
 70
0
 10
0.0
 20
0.0
 30
0.0
  3
*Model_Space
  1

  0
ENDBLK
  5
21
100
AcDbEntity
  8
0
100
AcDbBlockEnd
  0
BLOCK
  5
1C
100
AcDbEntity
  8
0
100
AcDbBlockBegin
  2
*Paper_Space
 70
0
 10
0.0
 20
0.0
 30
0.0
  3
*Paper_Space
  1

  0
ENDBLK
  5
1D
100
AcDbEntity
  8
0
100
AcDbBlockEnd
  0
BLOCK
  5
220
100
AcDbEntity
  8
0
100
AcDbBlockBegin
  2
_FILLED
 70
64
 10
0.0
 20
0.0
  3
_FILLED
  1

  0
SOLID
  5
221
100
AcDbEntity
  8
0
  6
BYBLOCK
 62
0
100
AcDbTrace
 10
0.0
 20
0.0
 11
-1.0
 21
0.3166666667
 12
-1.0
 22
-0.3166666667
 13
-1.0
 23
-0.3166666667
  0
ENDBLK
  5
222
100
AcDbEntity
  8
0
  6
BYBLOCK
 62
0
100
AcDbBlockEnd
  0
ENDSEC
  0
SECTION
  2
ENTITIES
  0
LINE
  5
223
100
AcDbEntity
  8
0
100
AcDbLine
 62
7
  6
CONTINUOUS
 10
90.7780276448
 20
146.5344222741
 11
94.565841432
 21
149.0379891655
  0
LINE
  5
224
100
AcDbEntity
  8
0
100
AcDbLine
 62
7
  6
CONTINUOUS
 10
91.4855649141
 20
146.942866468
 11
95.2733787013
 21
149.4464333593
  0
LINE
  5
225
100
AcDbEntity
  8
0
100
AcDbLine
 62
7
  6
CONTINUOUS
 10
91.4648013
 20
146.930027117
 11
91.4855649141
 21
146.942866468
  0
LINE
  5
226
100
AcDbEntity
  8
0
100
AcDbLine
 62
7
  6
CONTINUOUS
 10
94.565841432
 20
149.0379891655
 11
95.2733787013
 21
149.4464333593
  0
LINE
  5
227
100
AcDbEntity
  8
0
100
AcDbLine
 62
7
  6
CONTINUOUS
 10
91.4648013
 20
146.930027117
 11
90.7784029523
 21
146.5337859126
  0
LINE
  5
228
100
AcDbEntity
  8
0
100
AcDbLine
 62
7
  6
CONTINUOUS
 10
91.0821120001
 20
145.5147986786
 11
90.803136066
 21
145.3537526031
  0
LINE
  5
229
100
AcDbEntity
  8
0
100
AcDbLine
 62
7
  6
CONTINUOUS
 10
91.0821120001
 20
145.5147986786
 11
91.4648013
 21
146.930027117
  0
LINE
  5
22A
100
AcDbEntity
  8
0
100
AcDbLine
 62
7
  6
CONTINUOUS
 10
90.803136066
 20
74.5221190037
 11
90.7784029523
 21
74.9783545812
  0
LINE
  5
22B
100
AcDbEntity
  8
0
100
AcDbLine
 62
7
  6
CONTINUOUS
 10
175.3324752692
 20
25.7159379492
 11
176.7494344001
 21
25.3397584933
  0
LINE
  5
22C
100
AcDbEntity
  8
0
100
AcDbLine
 62
7
  6
CONTINUOUS
 10
90.803136066
 20
145.3537526031
 11
90.7784029523
 21
146.5337859126
  0
LINE
  5
22D
100
AcDbEntity
  8
0
100
AcDbLine
 62
7
  6
CONTINUOUS
 10
90.7784029523
 20
74.9783545812
 11
90.7780276448
 21
75.0025474419
  0
LINE
  5
22E
100
AcDbEntity
  8
0
100
AcDbLine
 62
7
  6
CONTINUOUS
 10
90.7780276448
 20
146.5344222741
 11
90.7780276448
 21
75.0025474419
  0
LINE
  5
22F
100
AcDbEntity
  8
0
100
AcDbLine
 62
7
  6
CONTINUOUS
 10
90.803136066
 20
145.3537526031
 11
90.803136066
 21
74.5221190037
  0
LINE
  5
230
100
AcDbEntity
  8
0
100
AcDbLine
 62
7
  6
CONTINUOUS
 10
90.803136066
 20
74.5221190037
 11
91.0821120001
 21
74.0389185122
  0
LINE
  5
231
100
AcDbEntity
  8
0
100
AcDbLine
 62
7
  6
CONTINUOUS
 10
91.0821120001
 20
74.0389185122
 11
91.4648013
 21
73.7894777701
  0
LINE
  5
232
100
AcDbEntity
  8
0
100
AcDbLine
 62
7
  6
CONTINUOUS
 10
91.4855649141
 20
73.7770569445
 11
176.0633984827
 21
24.9428758512
  0
LINE
  5
233
100
AcDbEntity
  8
0
100
AcDbLine
 62
7
  6
CONTINUOUS
 10
91.0821120001
 20
74.0389185122
 11
175.0534993351
 21
25.5548918736
  0
LINE
  5
234
100
AcDbEntity
  8
0
100
AcDbLine
 62
7
  6
CONTINUOUS
 10
91.4855649141
 20
73.7770569445
 11
91.4648013
 21
73.7894777701
  0
LINE
  5
235
100
AcDbEntity
  8
0
100
AcDbLine
 62
7
  6
CONTINUOUS
 10
175.0534993351
 20
25.5548918736
 11
176.0630360525
 21
24.9435172889
  0
LINE
  5
236
100
AcDbEntity
  8
0
100
AcDbLine
 62
7
  6
CONTINUOUS
 10
113.8345012193
 20
95.006973661
 11
113.8345012193
 21
98.2728547682
  0
LINE
  5
237
100
AcDbEntity
  8
0
100
AcDbLine
 62
7
  6
CONTINUOUS
 10
115.5315574942
 20
95.006973661
 11
115.5315574942
 21
98.2728547682
  0
LINE
  5
238
100
AcDbEntity
  8
0
100
AcDbLine
 62
7
  6
CONTINUOUS
 10
115.8851108848
 20
98.4769920649
 11
115.8851108848
 21
95.2111109577
  0
LWPOLYLINE
  5
239
100
AcDbEntity
  8
0
100
AcDbPolyline
 62
7
  6
CONTINUOUS
 90
34
 70
0
 10
113.8345012193
 20
98.2728547682
 10
113.8383351134
 20
98.4539009963
 10
113.8496093561
 20
98.6294189208
 10
113.8683239476
 20
98.7994085418
 10
113.8945547036
 20
98.9642299307
 10
113.9282258083
 20
99.123523016
 10
113.969109814
 20
99.2762075837
 10
114.0172558145
 20
99.4222385424
 10
114.072614716
 20
99.5616609834
 10
114.1348117901
 20
99.6935299669
 10
114.2038935298
 20
99.8177940688
 10
114.2798134421
 20
99.9345047132
 10
114.3620573192
 20
100.0428712317
 10
114.4506680133
 20
100.142836823
 10
114.5456026722
 20
100.2344582884
 10
114.6462185305
 20
100.3171153638
 10
114.7525540576
 20
100.3907472111
 10
114.8645707841
 20
100.4554146684
 10
114.9815105372
 20
100.5106799857
 10
115.1034067654
 20
100.5564794314
 10
115.2302260202
 20
100.5928767371
 10
115.3611097824
 20
100.6196253475
 10
115.4960857006
 20
100.6366597881
 10
115.6351261263
 20
100.6440455335
 10
115.7772895945
 20
100.6417324521
 10
115.9225973002
 20
100.629654699
 10
116.0710280485
 20
100.6078781191
 10
116.2215767899
 20
100.5765501165
 10
116.3742578808
 20
100.5356058641
 10
116.5290569648
 20
100.4851101888
 10
116.6849259241
 20
100.4254049756
 10
116.8418720108
 20
100.3564277279
 10
116.9998879727
 20
100.2782409422
 10
117.1575819077
 20
100.1915599094
  0
LWPOLYLINE
  5
23A
100
AcDbEntity
  8
0
100
AcDbPolyline
 62
7
  6
CONTINUOUS
 90
17
 70
0
 10
115.5315574942
 20
98.2728547682
 10
115.5346333046
 20
98.4135056284
 10
115.5438533605
 20
98.5502579738
 10
115.5591951473
 20
98.6827716052
 10
115.5806210115
 20
98.8107172421
 10
115.6080780471
 20
98.9337760542
 10
115.6414980247
 20
99.0516406225
 10
115.6807980248
 20
99.1640176091
 10
115.7258805817
 20
99.2706275503
 10
115.7766334516
 20
99.3712045142
 10
115.8329304914
 20
99.4654982739
 10
115.8946318508
 20
99.5532743642
 10
115.9615838887
 20
99.6343140909
 10
116.033620076
 20
99.7084158779
 10
116.1105613811
 20
99.7753955534
 10
116.1922163838
 20
99.8350864834
 10
116.2563466678
 20
99.8749337822
  0
LWPOLYLINE
  5
23B
100
AcDbEntity
  8
0
100
AcDbPolyline
 62
7
  6
CONTINUOUS
 90
13
 70
0
 10
116.3151429742
 20
99.8384577443
 10
116.2481917047
 20
99.7574201418
 10
116.1864905969
 20
99.6696459314
 10
116.1301934227
 20
99.5753537898
 10
116.0794401105
 20
99.474778117
 10
116.03435686
 20
99.3681690354
 10
115.9950559993
 20
99.2557924326
 10
115.9616350978
 20
99.1379278359
 10
115.9341771029
 20
99.0148684064
 10
115.9127502641
 20
98.8869211294
 10
115.897407604
 20
98.7544046211
 10
115.8881869297
 20
98.6176482173
 10
115.8851108848
 20
98.4769920649
  0
LWPOLYLINE
  5
23C
100
AcDbEntity
  8
0
100
AcDbPolyline
 62
7
  6
CONTINUOUS
 90
3
 70
0
 10
116.4428043221
 20
99.960981456
 10
116.3871776945
 20
99.9125571784
 10
116.3151429742
 20
99.8384577443
  0
LWPOLYLINE
  5
23D
100
AcDbEntity
  8
0
100
AcDbPolyline
 62
7
  6
CONTINUOUS
 90
15
 70
0
 10
116.2563466678
 20
99.8749337822
 10
116.2783820238
 20
99.8873402605
 10
116.3688440783
 20
99.9320270033
 10
116.4633775603
 20
99.9690356054
 10
116.5617474655
 20
99.998274099
 10
116.6637091507
 20
100.0196698007
 10
116.7690088596
 20
100.0331695279
 10
116.8773847832
 20
100.0387398033
 10
116.9885674084
 20
100.0363668595
 10
117.1022799289
 20
100.0260567264
 10
117.2182395634
 20
100.0078351999
 10
117.3361579917
 20
99.9817477389
 10
117.4557417092
 20
99.9478594539
 10
117.5766932429
 20
99.906254859
 10
117.6142884796
 20
99.8910905031
  0
LWPOLYLINE
  5
23E
100
AcDbEntity
  8
0
100
AcDbPolyline
 62
7
  6
CONTINUOUS
 90
31
 70
0
 10
115.8884292725
 20
95.2213157442
 10
115.8981687786
 20
95.0656182123
 10
115.9143294031
 20
94.9073281993
 10
115.9369829803
 20
94.7460395897
 10
115.9660576759
 20
94.5821584991
 10
116.001337987
 20
94.4169032736
 10
116.0428702943
 20
94.2502636845
 10
116.0906082171
 20
94.0822499607
 10
116.1441971111
 20
93.9141111345
 10
116.2036806808
 20
93.7458462967
 10
116.2690152218
 20
93.5774563565
 10
116.3397149759
 20
93.4101930744
 10
116.4158197437
 20
93.2440652896
 10
116.4972897247
 20
93.0790641627
 10
116.5835197589
 20
92.9164149366
 10
116.6745451663
 20
92.7561352239
 10
116.7703306269
 20
92.5982074119
 10
116.8701650214
 20
92.4438039055
 10
116.9740785877
 20
92.292950732
 10
117.0820410877
 20
92.1456218641
 10
117.1932506877
 20
92.0029116248
 10
117.3077316577
 20
91.8648543161
 10
117.4254597276
 20
91.7314156359
 10
117.5455602532
 20
91.6035870009
 10
117.668050858
 20
91.4814102633
 10
117.7929139185
 20
91.3648435707
 10
117.9192219198
 20
91.2547527825
 10
118.0469855863
 20
91.15118615
 10
118.1761941935
 20
91.0540954219
 10
118.3058880526
 20
90.964201703
 10
118.4297144095
 20
90.8855937463
  0
LWPOLYLINE
  5
23F
100
AcDbEntity
  8
0
100
AcDbPolyline
 62
7
  6
CONTINUOUS
 90
33
 70
0
 10
115.8851108848
 20
95.2111109577
 10
115.8881869092
 20
95.066903153
 10
115.8974075255
 20
94.9194994095
 10
115.9127500959
 20
94.769266016
 10
115.9341768182
 20
94.6165759676
 10
115.9616346762
 20
94.461809099
 10
115.9950554305
 20
94.3053511852
 10
116.0343561432
 20
94.1475911641
 10
116.0794392516
 20
93.9889212354
 10
116.1301924372
 20
93.8297369933
 10
116.1864895156
 20
93.6704342709
 10
116.2481905601
 20
93.5114090746
 10
116.3151417809
 20
93.3530577105
 10
116.387176467
 20
93.195774257
 10
116.4641156188
 20
93.0399493423
 10
116.5457680223
 20
92.8859701088
 10
116.6319305637
 20
92.7342194821
 10
116.7223890575
 20
92.5850745904
 10
116.8169189684
 20
92.4389056173
 10
116.9152854194
 20
92.2960757983
 10
117.0172437555
 20
92.156940427
 10
117.1225405436
 20
92.0218453827
 10
117.2309140926
 20
91.8911264628
 10
117.3420949048
 20
91.7651087806
 10
117.4558063688
 20
91.6441058776
 10
117.5717657216
 20
91.5284186389
 10
117.6896847159
 20
91.4183346262
 10
117.809270128
 20
91.3141275714
 10
117.9302246108
 20
91.2160565667
 10
118.052247479
 20
91.1243653942
 10
118.1750354038
 20
91.0392819733
 10
118.2982831054
 20
90.9610178352
 10
118.3602237979
 20
90.9243658267
  0
LINE
  5
240
100
AcDbEntity
  8
0
100
AcDbLine
 62
7
  6
CONTINUOUS
 10
120.4813049625
 20
94.4350735909
 11
120.4813049625
 21
91.1691924838
  0
LWPOLYLINE
  5
241
100
AcDbEntity
  8
0
100
AcDbPolyline
 62
7
  6
CONTINUOUS
 90
67
 70
0
 10
120.4813049625
 20
91.1691924838
 10
120.4774710684
 20
90.9881462557
 10
120.4661968256
 20
90.8126283311
 10
120.4474822342
 20
90.6426387101
 10
120.4212514782
 20
90.4778173213
 10
120.3875803735
 20
90.318524236
 10
120.3466963678
 20
90.1658396683
 10
120.2985503673
 20
90.0198087096
 10
120.2431914658
 20
89.8803862685
 10
120.1809943917
 20
89.7485172851
 10
120.111912652
 20
89.6242531831
 10
120.0359927396
 20
89.5075425388
 10
119.9537488626
 20
89.3991760203
 10
119.8651381685
 20
89.299210429
 10
119.7702035096
 20
89.2075889636
 10
119.6695876513
 20
89.1249318881
 10
119.5632521242
 20
89.0513000408
 10
119.4512353976
 20
88.9866325836
 10
119.3342956446
 20
88.9313672663
 10
119.2123994164
 20
88.8855678206
 10
119.0855801616
 20
88.8491705149
 10
118.9546963994
 20
88.8224219044
 10
118.8197204812
 20
88.8053874638
 10
118.6806800555
 20
88.7980017185
 10
118.5385165873
 20
88.8003147998
 10
118.3932088816
 20
88.812392553
 10
118.2447781333
 20
88.8341691328
 10
118.0942293918
 20
88.8654971355
 10
117.941548301
 20
88.9064413879
 10
117.7867492169
 20
88.9569370632
 10
117.6308802577
 20
89.0166422764
 10
117.473934171
 20
89.0856195241
 10
117.3159182091
 20
89.1638063098
 10
117.1579022463
 20
89.2506732591
 10
116.9998862808
 20
89.3462792781
 10
116.8418703145
 20
89.4505654608
 10
116.6849242271
 20
89.5628257146
 10
116.5290552732
 20
89.6831141598
 10
116.3742561983
 20
89.8113766762
 10
116.2215751181
 20
89.9467448101
 10
116.0710263845
 20
90.0892668153
 10
115.9225956458
 20
90.238894438
 10
115.7772879621
 20
90.3946144625
 10
115.6351245347
 20
90.5564682525
 10
115.4960841624
 20
90.7244144444
 10
115.3611083028
 20
90.8973157311
 10
115.2302246095
 20
91.0752056479
 10
115.1034054288
 20
91.2580506594
 10
114.981509258
 20
91.4446128525
 10
114.8645695341
 20
91.6349173482
 10
114.7525528199
 20
91.8289390254
 10
114.6462173019
 20
92.0253646075
 10
114.5456014441
 20
92.2242105289
 10
114.4506667824
 20
92.4254603552
 10
114.3620561107
 20
92.6277515063
 10
114.2798122933
 20
92.8310912838
 10
114.2038924659
 20
93.0354723861
 10
114.134810829
 20
93.2395103277
 10
114.07261388
 20
93.4432028363
 10
114.0172551214
 20
93.6465521844
 10
113.9691092622
 20
93.8481807031
 10
113.9282253974
 20
94.0480767773
 10
113.8945544318
 20
94.2462520221
 10
113.8683237888
 20
94.4413636152
 10
113.8496092763
 20
94.632963949
 10
113.8383350865
 20
94.8215006309
 10
113.8345012193
 20
95.006973661
  0
LWPOLYLINE
  5
242
100
AcDbEntity
  8
0
100
AcDbPolyline
 62
7
  6
CONTINUOUS
 90
17
 70
0
 10
120.4813049625
 20
92.1490515077
 10
120.4782291521
 20
92.0084006475
 10
120.4690090962
 20
91.8716483022
 10
120.4536673093
 20
91.7391346708
 10
120.4322414451
 20
91.6111890338
 10
120.4047844096
 20
91.4881302217
 10
120.3713644319
 20
91.3702656535
 10
120.3320644319
 20
91.2578886669
 10
120.2869818749
 20
91.1512787257
 10
120.236229005
 20
91.0507017617
 10
120.1799319652
 20
90.9564080021
 10
120.1182306058
 20
90.8686319117
 10
120.0512785679
 20
90.787592185
 10
119.9792423807
 20
90.7134903981
 10
119.9023010755
 20
90.6465107226
 10
119.8206460728
 20
90.5868197925
 10
119.7565157888
 20
90.5469724937
  0
LINE
  5
243
100
AcDbEntity
  8
0
100
AcDbLine
 62
250
  6
CONTINUOUS
 10
115.8851108848
 20
98.4769920649
 11
115.5315574942
 21
98.2728547682
  0
LINE
  5
244
100
AcDbEntity
  8
0
100
AcDbLine
 62
250
  6
CONTINUOUS
 10
115.8851108848
 20
95.2111109577
 11
115.5315574942
 21
95.006973661
  0
LWPOLYLINE
  5
245
100
AcDbEntity
  8
0
100
AcDbPolyline
 62
7
  6
CONTINUOUS
 90
49
 70
0
 10
119.7565157888
 20
90.5469724937
 10
119.7344804329
 20
90.5345660154
 10
119.6440183784
 20
90.4898792727
 10
119.5494848963
 20
90.4528706706
 10
119.4511149912
 20
90.423632177
 10
119.3491533059
 20
90.4022364753
 10
119.2438535971
 20
90.3887367481
 10
119.1354776734
 20
90.3831664727
 10
119.0242950482
 20
90.3855394165
 10
118.9105825277
 20
90.3958495495
 10
118.7946228932
 20
90.4140710761
 10
118.676704465
 20
90.440158537
 10
118.5571207475
 20
90.4740468221
 10
118.4361692137
 20
90.5156514169
 10
118.3141504586
 20
90.5648687114
 10
118.1913677538
 20
90.6215761878
 10
118.0681270045
 20
90.6856323248
 10
117.9447339306
 20
90.756877983
 10
117.8214932116
 20
90.8351372418
 10
117.6987105779
 20
90.9202161907
 10
117.5766919229
 20
91.0119031016
 10
117.455740485
 20
91.1099703047
 10
117.3361568472
 20
91.2141743023
 10
117.2182384937
 20
91.3242560866
 10
117.1022789317
 20
91.4399418343
 10
116.988566482
 20
91.5609440595
 10
116.8773839247
 20
91.6869620108
 10
116.7690080654
 20
91.8176820704
 10
116.6637084195
 20
91.9527792414
 10
116.5617467934
 20
92.09191772
 10
116.4633769369
 20
92.2347513023
 10
116.3688434931
 20
92.3809248001
 10
116.2783814684
 20
92.5300748678
 10
116.1922158479
 20
92.6818305964
 10
116.1105608519
 20
92.8358147343
 10
116.0336195473
 20
92.9916443778
 10
115.961583365
 20
93.1489318261
 10
115.894631336
 20
93.3072861687
 10
115.8329299909
 20
93.4663135227
 10
115.7766329804
 20
93.6256177442
 10
115.7258801532
 20
93.7848028696
 10
115.6807976484
 20
93.9434730078
 10
115.6414977115
 20
94.1012325911
 10
115.6080778037
 20
94.2576896027
 10
115.5806208383
 20
94.4124549569
 10
115.5591950399
 20
94.5651424399
 10
115.5438533084
 20
94.7153721278
 10
115.5346332905
 20
94.8627712658
 10
115.5315574942
 20
95.006973661
  0
LINE
  5
246
100
AcDbEntity
  8
0
100
AcDbLine
 62
250
  6
CONTINUOUS
 10
145.6543063727
 20
76.6346169613
 11
147.3513626476
 21
76.6346169613
  0
LINE
  5
247
100
AcDbEntity
  8
0
100
AcDbLine
 62
7
  6
CONTINUOUS
 10
129.744403796
 20
85.8207953112
 11
129.744403796
 21
89.0866764183
  0
LWPOLYLINE
  5
248
100
AcDbEntity
  8
0
100
AcDbPolyline
 62
7
  6
CONTINUOUS
 90
34
 70
0
 10
129.744403796
 20
89.0866764183
 10
129.7482376901
 20
89.2677226464
 10
129.7595119328
 20
89.443240571
 10
129.7782265243
 20
89.613230192
 10
129.8044572803
 20
89.7780515808
 10
129.838128385
 20
89.9373446661
 10
129.8790123907
 20
90.0900292338
 10
129.9271583912
 20
90.2360601925
 10
129.9825172927
 20
90.3754826335
 10
130.0447143668
 20
90.507351617
 10
130.1137961065
 20
90.631615719
 10
130.1897160188
 20
90.7483263633
 10
130.2719598958
 20
90.8566928818
 10
130.36057059
 20
90.9566584731
 10
130.4555052489
 20
91.0482799385
 10
130.5561211072
 20
91.130937014
 10
130.6624566343
 20
91.2045688613
 10
130.7744733608
 20
91.2692363185
 10
130.8914131139
 20
91.3245016358
 10
131.0133093421
 20
91.3703010815
 10
131.1401285969
 20
91.4066983872
 10
131.2710123591
 20
91.4334469977
 10
131.4059882773
 20
91.4504814383
 10
131.5450287029
 20
91.4578671836
 10
131.6871921712
 20
91.4555541023
 10
131.8324998769
 20
91.4434763491
 10
131.9809306252
 20
91.4216997693
 10
132.1314793666
 20
91.3903717666
 10
132.2841604575
 20
91.3494275142
 10
132.4389595415
 20
91.2989318389
 10
132.5948285008
 20
91.2392266257
 10
132.7517745875
 20
91.170249378
 10
132.9097905494
 20
91.0920625923
 10
133.0674844844
 20
91.0053815596
  0
LWPOLYLINE
  5
249
100
AcDbEntity
  8
0
100
AcDbPolyline
 62
7
  6
CONTINUOUS
 90
13
 70
0
 10
132.2250455509
 20
90.6522793945
 10
132.1580942814
 20
90.5712417919
 10
132.0963931736
 20
90.4834675815
 10
132.0400959994
 20
90.38917544
 10
131.9893426872
 20
90.2885997671
 10
131.9442594367
 20
90.1819906855
 10
131.904958576
 20
90.0696140827
 10
131.8715376745
 20
89.951749486
 10
131.8440796796
 20
89.8286900566
 10
131.8226528408
 20
89.7007427796
 10
131.8073101807
 20
89.5682262712
 10
131.7980895064
 20
89.4314698675
 10
131.7950134615
 20
89.290813715
  0
LWPOLYLINE
  5
24A
100
AcDbEntity
  8
0
100
AcDbPolyline
 62
7
  6
CONTINUOUS
 90
3
 70
0
 10
132.3527068988
 20
90.7748031061
 10
132.2970802712
 20
90.7263788285
 10
132.2250455509
 20
90.6522793945
  0
LWPOLYLINE
  5
24B
100
AcDbEntity
  8
0
100
AcDbPolyline
 62
7
  6
CONTINUOUS
 90
15
 70
0
 10
132.1662492445
 20
90.6887554323
 10
132.1882846005
 20
90.7011619106
 10
132.2787466549
 20
90.7458486534
 10
132.373280137
 20
90.7828572555
 10
132.4716500422
 20
90.8120957491
 10
132.5736117274
 20
90.8334914508
 10
132.6789114363
 20
90.846991178
 10
132.7872873599
 20
90.8525614534
 10
132.8984699851
 20
90.8501885096
 10
133.0121825056
 20
90.8398783765
 10
133.1281421401
 20
90.82165685
 10
133.2460605684
 20
90.7955693891
 10
133.3656442858
 20
90.761681104
 10
133.4865958196
 20
90.7200765091
 10
133.5241910563
 20
90.7049121532
  0
LWPOLYLINE
  5
24C
100
AcDbEntity
  8
0
100
AcDbPolyline
 62
7
  6
CONTINUOUS
 90
3
 70
0
 10
119.8046822963
 20
90.6277729906
 10
119.9030488271
 20
90.657011587
 10
119.9236108977
 20
90.6650615514
  0
LINE
  5
24D
100
AcDbEntity
  8
0
100
AcDbLine
 62
250
  6
CONTINUOUS
 10
145.6543063727
 20
79.9004980685
 11
147.3513626476
 21
79.9004980685
  0
LWPOLYLINE
  5
24E
100
AcDbEntity
  8
0
100
AcDbPolyline
 62
7
  6
CONTINUOUS
 90
14
 70
0
 10
150.1800289513
 20
72.5520091269
 10
150.241489328
 20
72.5174108483
 10
150.3647370318
 20
72.4533515158
 10
150.4875249599
 20
72.3966424037
 10
150.6095478337
 20
72.3474245096
 10
150.7305023275
 20
72.3058201892
 10
150.8500877543
 20
72.2719328852
 10
150.9680067687
 20
72.245846874
 10
151.0839661541
 20
72.2276270307
 10
151.1976776652
 20
72.2173186559
 10
151.3088585358
 20
72.2149473948
 10
151.4172321528
 20
72.2205191311
 10
151.5225290235
 20
72.2340199637
 10
151.6244874497
 20
72.2554162909
  0
LWPOLYLINE
  5
24F
100
AcDbEntity
  8
0
100
AcDbPolyline
 62
7
  6
CONTINUOUS
 90
14
 70
0
 10
134.2701263746
 20
81.7381874768
 10
134.3315867513
 20
81.7035891982
 10
134.4548344551
 20
81.6395298657
 10
134.5776223832
 20
81.5828207536
 10
134.699645257
 20
81.5336028594
 10
134.8205997508
 20
81.491998539
 10
134.9401851777
 20
81.4581112351
 10
135.058104192
 20
81.4320252239
 10
135.1740635774
 20
81.4138053806
 10
135.2877750885
 20
81.4034970058
 10
135.3989559591
 20
81.4011257446
 10
135.5073295761
 20
81.406697481
 10
135.6126264468
 20
81.4201983136
 10
135.714584873
 20
81.4415946408
  0
LWPOLYLINE
  5
250
100
AcDbEntity
  8
0
100
AcDbPolyline
 62
7
  6
CONTINUOUS
 90
14
 70
0
 10
118.3602237979
 20
90.9243658267
 10
118.4216841746
 20
90.8897675481
 10
118.5449318784
 20
90.8257082155
 10
118.6677198065
 20
90.7689991034
 10
118.7897426803
 20
90.7197812093
 10
118.9106971741
 20
90.6781768889
 10
119.030282601
 20
90.644289585
 10
119.1482016153
 20
90.6182035738
 10
119.2641610007
 20
90.5999837304
 10
119.3778725118
 20
90.5896753557
 10
119.4890533824
 20
90.5873040945
 10
119.5974269994
 20
90.5928758309
 10
119.7027238701
 20
90.6063766634
 10
119.8046822963
 20
90.6277729906
  0
LINE
  5
251
100
AcDbEntity
  8
0
100
AcDbLine
 62
7
  6
CONTINUOUS
 10
90.7780276448
 20
146.5344222741
 11
90.7784029523
 21
146.5337859126
  0
LWPOLYLINE
  5
252
100
AcDbEntity
  8
0
100
AcDbPolyline
 62
7
  6
CONTINUOUS
 90
31
 70
0
 10
131.7983318492
 20
86.0351373944
 10
131.8080713553
 20
85.8794398624
 10
131.8242319798
 20
85.7211498494
 10
131.846885557
 20
85.5598612399
 10
131.8759602526
 20
85.3959801492
 10
131.9112405637
 20
85.2307249237
 10
131.952772871
 20
85.0640853347
 10
132.0005107938
 20
84.8960716108
 10
132.0540996878
 20
84.7279327846
 10
132.1135832575
 20
84.5596679468
 10
132.1789177985
 20
84.3912780067
 10
132.2496175526
 20
84.2240147245
 10
132.3257223204
 20
84.0578869397
 10
132.4071923014
 20
83.8928858128
 10
132.4934223356
 20
83.7302365867
 10
132.584447743
 20
83.569956874
 10
132.6802332036
 20
83.412029062
 10
132.780067598
 20
83.2576255556
 10
132.8839811644
 20
83.1067723821
 10
132.9919436644
 20
82.9594435143
 10
133.1031532644
 20
82.8167332749
 10
133.2176342344
 20
82.6786759662
 10
133.3353623043
 20
82.5452372861
 10
133.4554628299
 20
82.417408651
 10
133.5779534347
 20
82.2952319134
 10
133.7028164952
 20
82.1786652208
 10
133.8291244965
 20
82.0685744326
 10
133.956888163
 20
81.9650078002
 10
134.0860967702
 20
81.867917072
 10
134.2157906293
 20
81.7780233532
 10
134.3396169862
 20
81.6994153964
  0
LWPOLYLINE
  5
253
100
AcDbEntity
  8
0
100
AcDbPolyline
 62
7
  6
CONTINUOUS
 90
33
 70
0
 10
131.7950134615
 20
86.0249326078
 10
131.7980894859
 20
85.8807248032
 10
131.8073101022
 20
85.7333210597
 10
131.8226526726
 20
85.5830876661
 10
131.8440793949
 20
85.4303976177
 10
131.8715372529
 20
85.2756307492
 10
131.9049580072
 20
85.1191728353
 10
131.9442587199
 20
84.9614128142
 10
131.9893418283
 20
84.8027428855
 10
132.0400950139
 20
84.6435586434
 10
132.0963920923
 20
84.484255921
 10
132.1580931368
 20
84.3252307247
 10
132.2250443576
 20
84.1668793606
 10
132.2970790437
 20
84.0095959072
 10
132.3740181955
 20
83.8537709924
 10
132.455670599
 20
83.6997917589
 10
132.5418331404
 20
83.5480411322
 10
132.6322916342
 20
83.3988962405
 10
132.7268215451
 20
83.2527272674
 10
132.8251879961
 20
83.1098974484
 10
132.9271463322
 20
82.9707620771
 10
133.0324431203
 20
82.8356670328
 10
133.1408166693
 20
82.704948113
 10
133.2519974815
 20
82.5789304307
 10
133.3657089455
 20
82.4579275277
 10
133.4816682983
 20
82.342240289
 10
133.5995872926
 20
82.2321562764
 10
133.7191727047
 20
82.1279492215
 10
133.8401271875
 20
82.0298782168
 10
133.9621500557
 20
81.9381870443
 10
134.0849379804
 20
81.8531036234
 10
134.2081856821
 20
81.7748394854
 10
134.2701263746
 20
81.7381874768
  0
LINE
  5
254
100
AcDbEntity
  8
0
100
AcDbLine
 62
7
  6
CONTINUOUS
 10
131.4414600709
 20
85.8207953112
 11
131.4414600709
 21
89.0866764183
  0
LINE
  5
255
100
AcDbEntity
  8
0
100
AcDbLine
 62
7
  6
CONTINUOUS
 10
131.7950134615
 20
89.290813715
 11
131.7950134615
 21
86.0249326078
  0
LINE
  5
256
100
AcDbEntity
  8
0
100
AcDbLine
 62
7
  6
CONTINUOUS
 10
136.3912075392
 20
85.2488952411
 11
136.3912075392
 21
81.9830141339
  0
LWPOLYLINE
  5
257
100
AcDbEntity
  8
0
100
AcDbPolyline
 62
7
  6
CONTINUOUS
 90
17
 70
0
 10
131.4414600709
 20
89.0866764183
 10
131.4445358813
 20
89.2273272786
 10
131.4537559372
 20
89.3640796239
 10
131.469097724
 20
89.4965932553
 10
131.4905235882
 20
89.6245388923
 10
131.5179806238
 20
89.7475977043
 10
131.5514006014
 20
89.8654622726
 10
131.5907006015
 20
89.9778392592
 10
131.6357831584
 20
90.0844492004
 10
131.6865360283
 20
90.1850261644
 10
131.7428330681
 20
90.279319924
 10
131.8045344275
 20
90.3670960143
 10
131.8714864654
 20
90.448135741
 10
131.9435226527
 20
90.522237528
 10
132.0204639578
 20
90.5892172035
 10
132.1021189605
 20
90.6489081336
 10
132.1662492445
 20
90.6887554323
  0
LWPOLYLINE
  5
258
100
AcDbEntity
  8
0
100
AcDbPolyline
 62
7
  6
CONTINUOUS
 90
17
 70
0
 10
136.3912075392
 20
82.9628731579
 10
136.3881317288
 20
82.8222222977
 10
136.3789116729
 20
82.6854699523
 10
136.363569886
 20
82.5529563209
 10
136.3421440218
 20
82.4250106839
 10
136.3146869863
 20
82.3019518719
 10
136.2812670086
 20
82.1840873036
 10
136.2419670086
 20
82.071710317
 10
136.1968844516
 20
81.9651003758
 10
136.1461315817
 20
81.8645234118
 10
136.0898345419
 20
81.7702296522
 10
136.0281331825
 20
81.6824535619
 10
135.9611811446
 20
81.6014138352
 10
135.8891449573
 20
81.5273120482
 10
135.8122036522
 20
81.4603323727
 10
135.7305486495
 20
81.4006414427
 10
135.6664183655
 20
81.3607941439
  0
LINE
  5
259
100
AcDbEntity
  8
0
100
AcDbLine
 62
250
  6
CONTINUOUS
 10
131.7950134615
 20
89.290813715
 11
131.4414600709
 21
89.0866764183
  0
LINE
  5
25A
100
AcDbEntity
  8
0
100
AcDbLine
 62
250
  6
CONTINUOUS
 10
131.7950134615
 20
86.0249326078
 11
131.4414600709
 21
85.8207953112
  0
LINE
  5
25B
100
AcDbEntity
  8
0
100
AcDbLine
 62
7
  6
CONTINUOUS
 10
175.3324752692
 20
96.5475715485
 11
176.7494344001
 21
96.8951898247
  0
LINE
  5
25C
100
AcDbEntity
  8
0
100
AcDbLine
 62
250
  6
CONTINUOUS
 10
129.744403796
 20
85.8207953112
 11
131.4414600709
 21
85.8207953112
  0
LWPOLYLINE
  5
25D
100
AcDbEntity
  8
0
100
AcDbPolyline
 62
7
  6
CONTINUOUS
 90
67
 70
0
 10
136.3912075392
 20
81.9830141339
 10
136.3873736451
 20
81.8019679058
 10
136.3760994023
 20
81.6264499813
 10
136.3573848109
 20
81.4564603602
 10
136.3311540549
 20
81.2916389714
 10
136.2974829502
 20
81.1323458861
 10
136.2565989445
 20
80.9796613184
 10
136.208452944
 20
80.8336303597
 10
136.1530940425
 20
80.6942079187
 10
136.0908969684
 20
80.5623389352
 10
136.0218152287
 20
80.4380748333
 10
135.9458953163
 20
80.3213641889
 10
135.8636514393
 20
80.2129976704
 10
135.7750407452
 20
80.1130320791
 10
135.6801060863
 20
80.0214106137
 10
135.5794902279
 20
79.9387535383
 10
135.4731547009
 20
79.865121691
 10
135.3611379743
 20
79.8004542337
 10
135.2441982213
 20
79.7451889164
 10
135.1223019931
 20
79.6993894707
 10
134.9954827383
 20
79.662992165
 10
134.8645989761
 20
79.6362435546
 10
134.7296230579
 20
79.619209114
 10
134.5905826322
 20
79.6118233686
 10
134.448419164
 20
79.61413645
 10
134.3031114583
 20
79.6262142031
 10
134.15468071
 20
79.647990783
 10
134.0041319685
 20
79.6793187856
 10
133.8514508777
 20
79.720263038
 10
133.6966517936
 20
79.7707587133
 10
133.5407828344
 20
79.8304639265
 10
133.3838367477
 20
79.8994411742
 10
133.2258207858
 20
79.9776279599
 10
133.067804823
 20
80.0644949093
 10
132.9097888575
 20
80.1601009283
 10
132.7517728912
 20
80.2643871109
 10
132.5948268038
 20
80.3766473647
 10
132.4389578499
 20
80.49693581
 10
132.284158775
 20
80.6251983264
 10
132.1314776948
 20
80.7605664602
 10
131.9809289612
 20
80.9030884654
 10
131.8324982225
 20
81.0527160881
 10
131.6871905388
 20
81.2084361126
 10
131.5450271114
 20
81.3702899027
 10
131.4059867391
 20
81.5382360946
 10
131.2710108795
 20
81.7111373812
 10
131.1401271862
 20
81.889027298
 10
131.0133080055
 20
82.0718723096
 10
130.8914118347
 20
82.2584345026
 10
130.7744721108
 20
82.4487389983
 10
130.6624553966
 20
82.6427606755
 10
130.5561198786
 20
82.8391862576
 10
130.4555040208
 20
83.0380321791
 10
130.3605693591
 20
83.2392820054
 10
130.2719586873
 20
83.4415731564
 10
130.18971487
 20
83.6449129339
 10
130.1137950426
 20
83.8492940362
 10
130.0447134057
 20
84.0533319778
 10
129.9825164567
 20
84.2570244865
 10
129.9271576981
 20
84.4603738345
 10
129.8790118389
 20
84.6620023533
 10
129.8381279741
 20
84.8618984274
 10
129.8044570085
 20
85.0600736723
 10
129.7782263655
 20
85.2551852653
 10
129.759511853
 20
85.4467855991
 10
129.7482376632
 20
85.635322281
 10
129.744403796
 20
85.8207953112
  0
LWPOLYLINE
  5
25E
100
AcDbEntity
  8
0
100
AcDbPolyline
 62
7
  6
CONTINUOUS
 90
49
 70
0
 10
135.6664183655
 20
81.3607941439
 10
135.6443830096
 20
81.3483876656
 10
135.5539209551
 20
81.3037009228
 10
135.459387473
 20
81.2666923207
 10
135.3610175679
 20
81.2374538271
 10
135.2590558826
 20
81.2160581254
 10
135.1537561738
 20
81.2025583982
 10
135.0453802501
 20
81.1969881228
 10
134.9341976249
 20
81.1993610666
 10
134.8204851044
 20
81.2096711997
 10
134.7045254699
 20
81.2278927262
 10
134.5866070417
 20
81.2539801871
 10
134.4670233242
 20
81.2878684722
 10
134.3460717904
 20
81.3294730671
 10
134.2240530353
 20
81.3786903615
 10
134.1012703305
 20
81.4353978379
 10
133.9780295812
 20
81.499453975
 10
133.8546365073
 20
81.5706996332
 10
133.7313957883
 20
81.648958892
 10
133.6086131546
 20
81.7340378409
 10
133.4865944996
 20
81.8257247517
 10
133.3656430617
 20
81.9237919548
 10
133.2460594238
 20
82.0279959525
 10
133.1281410704
 20
82.1380777367
 10
133.0121815084
 20
82.2537634845
 10
132.8984690587
 20
82.3747657097
 10
132.7872865014
 20
82.5007836609
 10
132.6789106421
 20
82.6315037205
 10
132.5736109962
 20
82.7666008916
 10
132.4716493701
 20
82.9057393701
 10
132.3732795136
 20
83.0485729524
 10
132.2787460698
 20
83.1947464502
 10
132.1882840451
 20
83.343896518
 10
132.1021184246
 20
83.4956522465
 10
132.0204634286
 20
83.6496363845
 10
131.9435221239
 20
83.8054660279
 10
131.8714859417
 20
83.9627534762
 10
131.8045339127
 20
84.1211078188
 10
131.7428325676
 20
84.2801351728
 10
131.6865355571
 20
84.4394393943
 10
131.6357827299
 20
84.5986245198
 10
131.590700225
 20
84.7572946579
 10
131.5514002882
 20
84.9150542412
 10
131.5179803804
 20
85.0715112528
 10
131.490523415
 20
85.226276607
 10
131.4690976166
 20
85.37896409
 10
131.4537558851
 20
85.5291937779
 10
131.4445358672
 20
85.6765929159
 10
131.4414600709
 20
85.8207953112
  0
LWPOLYLINE
  5
25F
100
AcDbEntity
  8
0
100
AcDbPolyline
 62
7
  6
CONTINUOUS
 90
3
 70
0
 10
135.714584873
 20
81.4415946408
 10
135.8129514038
 20
81.4708332371
 10
135.8335134744
 20
81.4788832015
  0
LINE
  5
260
100
AcDbEntity
  8
0
100
AcDbLine
 62
250
  6
CONTINUOUS
 10
129.744403796
 20
89.0866764183
 11
131.4414600709
 21
89.0866764183
  0
LWPOLYLINE
  5
261
100
AcDbEntity
  8
0
100
AcDbPolyline
 62
7
  6
CONTINUOUS
 90
34
 70
0
 10
117.1575819077
 20
100.1915599094
 10
117.3159199009
 20
100.0957679738
 10
117.4739358673
 20
99.9914817912
 10
117.6308819547
 20
99.8792215374
 10
117.7867509085
 20
99.7589330921
 10
117.9415499835
 20
99.6306705757
 10
118.0942310637
 20
99.4953024419
 10
118.2447797972
 20
99.3527804367
 10
118.393210536
 20
99.203152814
 10
118.5385182196
 20
99.0474327895
 10
118.6806816471
 20
98.8855789994
 10
118.8197220194
 20
98.7176328075
 10
118.9546978789
 20
98.5447315209
 10
119.0855815723
 20
98.3668416041
 10
119.2124007529
 20
98.1839965925
 10
119.3342969237
 20
97.9974343995
 10
119.4512366477
 20
97.8071299038
 10
119.5632533618
 20
97.6131082266
 10
119.6695888799
 20
97.4166826445
 10
119.7702047377
 20
97.217836723
 10
119.8651393994
 20
97.0165868967
 10
119.9537500711
 20
96.8142957457
 10
120.0359938885
 20
96.6109559682
 10
120.1119137159
 20
96.4065748659
 10
120.1809953528
 20
96.2025369243
 10
120.2431923018
 20
95.9988444156
 10
120.2985510603
 20
95.7954950676
 10
120.3466969196
 20
95.5938665488
 10
120.3875807844
 20
95.3939704747
 10
120.42125175
 20
95.1957952298
 10
120.4474823929
 20
95.0006836367
 10
120.4661969054
 20
94.809083303
 10
120.4774710953
 20
94.6205466211
 10
120.4813049625
 20
94.4350735909
  0
LWPOLYLINE
  5
262
100
AcDbEntity
  8
0
100
AcDbPolyline
 62
7
  6
CONTINUOUS
 90
34
 70
0
 10
133.0674844844
 20
91.0053815596
 10
133.2258224776
 20
90.9095896239
 10
133.383838444
 20
90.8053034413
 10
133.5407845314
 20
90.6930431875
 10
133.6966534852
 20
90.5727547423
 10
133.8514525602
 20
90.4444922259
 10
134.0041336404
 20
90.309124092
 10
134.1546823739
 20
90.1666020868
 10
134.3031131127
 20
90.0169744641
 10
134.4484207963
 20
89.8612544396
 10
134.5905842238
 20
89.6994006496
 10
134.7296245961
 20
89.5314544577
 10
134.8646004556
 20
89.358553171
 10
134.995484149
 20
89.1806632542
 10
135.1223033296
 20
88.9978182427
 10
135.2441995004
 20
88.8112560496
 10
135.3611392244
 20
88.6209515539
 10
135.4731559385
 20
88.4269298767
 10
135.5794914566
 20
88.2305042946
 10
135.6801073144
 20
88.0316583732
 10
135.7750419761
 20
87.8304085469
 10
135.8636526478
 20
87.6281173958
 10
135.9458964652
 20
87.4247776183
 10
136.0218162926
 20
87.220396516
 10
136.0908979295
 20
87.0163585744
 10
136.1530948785
 20
86.8126660658
 10
136.208453637
 20
86.6093167177
 10
136.2565994963
 20
86.407688199
 10
136.2974833611
 20
86.2077921248
 10
136.3311543267
 20
86.0096168799
 10
136.3573849696
 20
85.8145052869
 10
136.3760994821
 20
85.6229049531
 10
136.387373672
 20
85.4343682712
 10
136.3912075392
 20
85.2488952411
  0
LWPOLYLINE
  5
263
100
AcDbEntity
  8
0
100
AcDbPolyline
 62
7
  6
CONTINUOUS
 90
34
 70
0
 10
148.9773870611
 20
81.8192032097
 10
149.1357250543
 20
81.7234112741
 10
149.2937410207
 20
81.6191250914
 10
149.4506871081
 20
81.5068648377
 10
149.6065560619
 20
81.3865763924
 10
149.7613551369
 20
81.258313876
 10
149.9140362171
 20
81.1229457422
 10
150.0645849506
 20
80.9804237369
 10
150.2130156894
 20
80.8307961142
 10
150.358323373
 20
80.6750760898
 10
150.5004868005
 20
80.5132222997
 10
150.6395271728
 20
80.3452761078
 10
150.7745030323
 20
80.1723748212
 10
150.9053867257
 20
79.9944849043
 10
151.0322059063
 20
79.8116398928
 10
151.1541020771
 20
79.6250776997
 10
151.2710418011
 20
79.434773204
 10
151.3830585152
 20
79.2407515268
 10
151.4893940333
 20
79.0443259447
 10
151.5900098911
 20
78.8454800233
 10
151.6849445528
 20
78.644230197
 10
151.7735552245
 20
78.4419390459
 10
151.8557990419
 20
78.2385992684
 10
151.9317188693
 20
78.0342181662
 10
152.0008005062
 20
77.8301802246
 10
152.0629974552
 20
77.6264877159
 10
152.1183562137
 20
77.4231383679
 10
152.166502073
 20
77.2215098491
 10
152.2073859378
 20
77.021613775
 10
152.2410569034
 20
76.8234385301
 10
152.2672875463
 20
76.628326937
 10
152.2860020588
 20
76.4367266033
 10
152.2972762487
 20
76.2481899213
 10
152.3011101159
 20
76.0627168912
  0
LINE
  5
264
100
AcDbEntity
  8
0
100
AcDbLine
 62
7
  6
CONTINUOUS
 10
176.0630360525
 20
24.9435172889
 11
176.0633984827
 21
24.9428758512
  0
LINE
  5
265
100
AcDbEntity
  8
0
100
AcDbLine
 62
7
  6
CONTINUOUS
 10
145.6543063727
 20
76.6346169613
 11
145.6543063727
 21
79.9004980685
  0
LWPOLYLINE
  5
266
100
AcDbEntity
  8
0
100
AcDbPolyline
 62
7
  6
CONTINUOUS
 90
34
 70
0
 10
145.6543063727
 20
79.9004980685
 10
145.6581402668
 20
80.0815442965
 10
145.6694145095
 20
80.2570622211
 10
145.688129101
 20
80.4270518421
 10
145.714359857
 20
80.5918732309
 10
145.7480309617
 20
80.7511663163
 10
145.7889149674
 20
80.9038508839
 10
145.8370609679
 20
81.0498818426
 10
145.8924198694
 20
81.1893042837
 10
145.9546169434
 20
81.3211732671
 10
146.0236986832
 20
81.4454373691
 10
146.0996185955
 20
81.5621480134
 10
146.1818624725
 20
81.6705145319
 10
146.2704731667
 20
81.7704801232
 10
146.3654078256
 20
81.8621015887
 10
146.4660236839
 20
81.9447586641
 10
146.572359211
 20
82.0183905114
 10
146.6843759375
 20
82.0830579686
 10
146.8013156906
 20
82.1383232859
 10
146.9232119188
 20
82.1841227316
 10
147.0500311736
 20
82.2205200373
 10
147.1809149358
 20
82.2472686478
 10
147.315890854
 20
82.2643030884
 10
147.4549312796
 20
82.2716888337
 10
147.5970947479
 20
82.2693757524
 10
147.7424024536
 20
82.2572979992
 10
147.8908332019
 20
82.2355214194
 10
148.0413819433
 20
82.2041934167
 10
148.1940630342
 20
82.1632491643
 10
148.3488621182
 20
82.1127534891
 10
148.5047310775
 20
82.0530482758
 10
148.6616771642
 20
81.9840710281
 10
148.8196931261
 20
81.9058842424
 10
148.9773870611
 20
81.8192032097
  0
LINE
  5
267
100
AcDbEntity
  8
0
100
AcDbLine
 62
7
  6
CONTINUOUS
 10
176.0633984827
 20
98.1086853747
 11
180.1253314674
 21
100.4539792769
  0
LINE
  5
268
100
AcDbEntity
  8
0
100
AcDbLine
 62
250
  6
CONTINUOUS
 10
113.8345012193
 20
95.006973661
 11
115.5315574942
 21
95.006973661
  0
LWPOLYLINE
  5
269
100
AcDbEntity
  8
0
100
AcDbPolyline
 62
7
  6
CONTINUOUS
 90
31
 70
0
 10
147.7082344259
 20
76.8489590445
 10
147.717973932
 20
76.6932615126
 10
147.7341345565
 20
76.5349714995
 10
147.7567881337
 20
76.37368289
 10
147.7858628293
 20
76.2098017993
 10
147.8211431404
 20
76.0445465738
 10
147.8626754477
 20
75.8779069848
 10
147.9104133705
 20
75.7098932609
 10
147.9640022645
 20
75.5417544347
 10
148.0234858342
 20
75.3734895969
 10
148.0888203752
 20
75.2050996568
 10
148.1595201293
 20
75.0378363747
 10
148.2356248971
 20
74.8717085898
 10
148.317094878
 20
74.706707463
 10
148.4033249123
 20
74.5440582369
 10
148.4943503197
 20
74.3837785241
 10
148.5901357803
 20
74.2258507121
 10
148.6899701747
 20
74.0714472058
 10
148.7938837411
 20
73.9205940323
 10
148.9018462411
 20
73.7732651644
 10
149.0130558411
 20
73.630554925
 10
149.1275368111
 20
73.4924976163
 10
149.245264881
 20
73.3590589362
 10
149.3653654066
 20
73.2312303011
 10
149.4878560114
 20
73.1090535635
 10
149.6127190719
 20
72.992486871
 10
149.7390270732
 20
72.8823960828
 10
149.8667907397
 20
72.7788294503
 10
149.9959993469
 20
72.6817387222
 10
150.125693206
 20
72.5918450033
 10
150.2495195629
 20
72.5132370465
  0
LWPOLYLINE
  5
26A
100
AcDbEntity
  8
0
100
AcDbPolyline
 62
7
  6
CONTINUOUS
 90
33
 70
0
 10
147.7049160381
 20
76.838754258
 10
147.7079920626
 20
76.6945464533
 10
147.7172126789
 20
76.5471427098
 10
147.7325552493
 20
76.3969093163
 10
147.7539819716
 20
76.2442192679
 10
147.7814398296
 20
76.0894523993
 10
147.8148605839
 20
75.9329944854
 10
147.8541612966
 20
75.7752344643
 10
147.899244405
 20
75.6165645357
 10
147.9499975906
 20
75.4573802935
 10
148.006294669
 20
75.2980775711
 10
148.0679957135
 20
75.1390523748
 10
148.1349469343
 20
74.9807010107
 10
148.2069816204
 20
74.8234175573
 10
148.2839207722
 20
74.6675926426
 10
148.3655731757
 20
74.513613409
 10
148.4517357171
 20
74.3618627823
 10
148.5421942109
 20
74.2127178907
 10
148.6367241218
 20
74.0665489175
 10
148.7350905728
 20
73.9237190986
 10
148.8370489089
 20
73.7845837273
 10
148.942345697
 20
73.6494886829
 10
149.050719246
 20
73.5187697631
 10
149.1619000582
 20
73.3927520808
 10
149.2756115222
 20
73.2717491778
 10
149.391570875
 20
73.1560619391
 10
149.5094898693
 20
73.0459779265
 10
149.6290752814
 20
72.9417708716
 10
149.7500297642
 20
72.8436998669
 10
149.8720526324
 20
72.7520086944
 10
149.9948405571
 20
72.6669252736
 10
150.1180882588
 20
72.5886611355
 10
150.1800289513
 20
72.5520091269
  0
LINE
  5
26B
100
AcDbEntity
  8
0
100
AcDbLine
 62
7
  6
CONTINUOUS
 10
147.3513626476
 20
76.6346169613
 11
147.3513626476
 21
79.9004980685
  0
LINE
  5
26C
100
AcDbEntity
  8
0
100
AcDbLine
 62
7
  6
CONTINUOUS
 10
147.7049160381
 20
80.1046353651
 11
147.7049160381
 21
76.838754258
  0
LWPOLYLINE
  5
26D
100
AcDbEntity
  8
0
100
AcDbPolyline
 62
7
  6
CONTINUOUS
 90
17
 70
0
 10
147.3513626476
 20
79.9004980685
 10
147.354438458
 20
80.0411489287
 10
147.3636585139
 20
80.177901274
 10
147.3790003007
 20
80.3104149054
 10
147.4004261649
 20
80.4383605424
 10
147.4278832005
 20
80.5614193545
 10
147.4613031781
 20
80.6792839227
 10
147.5006031782
 20
80.7916609093
 10
147.5456857351
 20
80.8982708505
 10
147.596438605
 20
80.9988478145
 10
147.6527356448
 20
81.0931415741
 10
147.7144370042
 20
81.1809176645
 10
147.7813890421
 20
81.2619573912
 10
147.8534252294
 20
81.3360591781
 10
147.9303665345
 20
81.4030388536
 10
148.0120215372
 20
81.4627297837
 10
148.0761518212
 20
81.5025770825
  0
LWPOLYLINE
  5
26E
100
AcDbEntity
  8
0
100
AcDbPolyline
 62
7
  6
CONTINUOUS
 90
13
 70
0
 10
148.1349481276
 20
81.4661010446
 10
148.0679968581
 20
81.385063442
 10
148.0062957503
 20
81.2972892317
 10
147.9499985761
 20
81.2029970901
 10
147.8992452639
 20
81.1024214172
 10
147.8541620134
 20
80.9958123356
 10
147.8148611527
 20
80.8834357328
 10
147.7814402512
 20
80.7655711361
 10
147.7539822563
 20
80.6425117067
 10
147.7325554175
 20
80.5145644297
 10
147.7172127574
 20
80.3820479213
 10
147.7079920831
 20
80.2452915176
 10
147.7049160381
 20
80.1046353651
  0
LWPOLYLINE
  5
26F
100
AcDbEntity
  8
0
100
AcDbPolyline
 62
7
  6
CONTINUOUS
 90
3
 70
0
 10
148.2626094755
 20
81.5886247562
 10
148.2069828479
 20
81.5402004786
 10
148.1349481276
 20
81.4661010446
  0
LINE
  5
270
100
AcDbEntity
  8
0
100
AcDbLine
 62
250
  6
CONTINUOUS
 10
147.7049160381
 20
80.1046353651
 11
147.3513626476
 21
79.9004980685
  0
LINE
  5
271
100
AcDbEntity
  8
0
100
AcDbLine
 62
7
  6
CONTINUOUS
 10
176.770935752
 20
96.8831948773
 11
180.8328687367
 21
99.2284887795
  0
LINE
  5
272
100
AcDbEntity
  8
0
100
AcDbLine
 62
250
  6
CONTINUOUS
 10
147.7049160381
 20
76.838754258
 11
147.3513626476
 21
76.6346169613
  0
LWPOLYLINE
  5
273
100
AcDbEntity
  8
0
100
AcDbPolyline
 62
7
  6
CONTINUOUS
 90
15
 70
0
 10
148.0761518212
 20
81.5025770825
 10
148.0981871771
 20
81.5149835608
 10
148.1886492316
 20
81.5596703035
 10
148.2831827137
 20
81.5966789056
 10
148.3815526189
 20
81.6259173992
 10
148.4835143041
 20
81.647313101
 10
148.588814013
 20
81.6608128281
 10
148.6971899366
 20
81.6663831035
 10
148.8083725618
 20
81.6640101597
 10
148.9220850823
 20
81.6537000267
 10
149.0380447168
 20
81.6354785001
 10
149.1559631451
 20
81.6093910392
 10
149.2755468625
 20
81.5755027541
 10
149.3964983963
 20
81.5338981593
 10
149.434093633
 20
81.5187338033
  0
LINE
  5
274
100
AcDbEntity
  8
0
100
AcDbLine
 62
250
  6
CONTINUOUS
 10
113.8345012193
 20
98.2728547682
 11
115.5315574942
 21
98.2728547682
  0
LINE
  5
275
100
AcDbEntity
  8
0
100
AcDbLine
 62
7
  6
CONTINUOUS
 10
152.3011101159
 20
76.0627168912
 11
152.3011101159
 21
72.796835784
  0
LWPOLYLINE
  5
276
100
AcDbEntity
  8
0
100
AcDbPolyline
 62
7
  6
CONTINUOUS
 90
67
 70
0
 10
152.3011101159
 20
72.796835784
 10
152.2972762218
 20
72.6157895559
 10
152.286001979
 20
72.4402716314
 10
152.2672873876
 20
72.2702820104
 10
152.2410566316
 20
72.1054606215
 10
152.2073855269
 20
71.9461675362
 10
152.1665015212
 20
71.7934829685
 10
152.1183555207
 20
71.6474520099
 10
152.0629966192
 20
71.5080295688
 10
152.0007995451
 20
71.3761605853
 10
151.9317178054
 20
71.2518964834
 10
151.855797893
 20
71.135185839
 10
151.773554016
 20
71.0268193205
 10
151.6849433219
 20
70.9268537293
 10
151.590008663
 20
70.8352322638
 10
151.4893928046
 20
70.7525751884
 10
151.3830572776
 20
70.6789433411
 10
151.271040551
 20
70.6142758838
 10
151.154100798
 20
70.5590105666
 10
151.0322045697
 20
70.5132111209
 10
150.905385315
 20
70.4768138151
 10
150.7745015528
 20
70.4500652047
 10
150.6395256346
 20
70.4330307641
 10
150.5004852089
 20
70.4256450187
 10
150.3583217407
 20
70.4279581001
 10
150.213014035
 20
70.4400358532
 10
150.0645832867
 20
70.4618124331
 10
149.9140345452
 20
70.4931404357
 10
149.7613534544
 20
70.5340846882
 10
149.6065543703
 20
70.5845803634
 10
149.4506854111
 20
70.6442855766
 10
149.2937393244
 20
70.7132628244
 10
149.1357233625
 20
70.7914496101
 10
148.9777073997
 20
70.8783165594
 10
148.8196914342
 20
70.9739225784
 10
148.6616754679
 20
71.078208761
 10
148.5047293805
 20
71.1904690148
 10
148.3488604266
 20
71.3107574601
 10
148.1940613517
 20
71.4390199765
 10
148.0413802715
 20
71.5743881103
 10
147.8908315379
 20
71.7169101156
 10
147.7424007991
 20
71.8665377382
 10
147.5970931155
 20
72.0222577627
 10
147.4549296881
 20
72.1841115528
 10
147.3158893158
 20
72.3520577447
 10
147.1809134562
 20
72.5249590313
 10
147.0500297629
 20
72.7028489481
 10
146.9232105822
 20
72.8856939597
 10
146.8013144114
 20
73.0722561528
 10
146.6843746875
 20
73.2625606485
 10
146.5723579733
 20
73.4565823257
 10
146.4660224553
 20
73.6530079077
 10
146.3654065975
 20
73.8518538292
 10
146.2704719358
 20
74.0531036555
 10
146.181861264
 20
74.2553948065
 10
146.0996174467
 20
74.4587345841
 10
146.0236976193
 20
74.6631156863
 10
145.9546159824
 20
74.8671536279
 10
145.8924190334
 20
75.0708461366
 10
145.8370602748
 20
75.2741954846
 10
145.7889144156
 20
75.4758240034
 10
145.7480305507
 20
75.6757200775
 10
145.7143595852
 20
75.8738953224
 10
145.6881289422
 20
76.0690069155
 10
145.6694144297
 20
76.2606072492
 10
145.6581402399
 20
76.4491439312
 10
145.6543063727
 20
76.6346169613
  0
LWPOLYLINE
  5
277
100
AcDbEntity
  8
0
100
AcDbPolyline
 62
7
  6
CONTINUOUS
 90
17
 70
0
 10
152.3011101159
 20
73.776694808
 10
152.2980343055
 20
73.6360439478
 10
152.2888142496
 20
73.4992916025
 10
152.2734724627
 20
73.366777971
 10
152.2520465985
 20
73.2388323341
 10
152.224589563
 20
73.115773522
 10
152.1911695853
 20
72.9979089537
 10
152.1518695853
 20
72.8855319672
 10
152.1067870283
 20
72.778922026
 10
152.0560341584
 20
72.678345062
 10
151.9997371186
 20
72.5840513023
 10
151.9380357592
 20
72.496275212
 10
151.8710837213
 20
72.4152354853
 10
151.799047534
 20
72.3411336984
 10
151.7221062289
 20
72.2741540228
 10
151.6404512262
 20
72.2144630928
 10
151.5763209422
 20
72.174615794
  0
LWPOLYLINE
  5
278
100
AcDbEntity
  8
0
100
AcDbPolyline
 62
7
  6
CONTINUOUS
 90
49
 70
0
 10
151.5763209422
 20
72.174615794
 10
151.5542855863
 20
72.1622093157
 10
151.4638235318
 20
72.117522573
 10
151.3692900497
 20
72.0805139708
 10
151.2709201446
 20
72.0512754772
 10
151.1689584593
 20
72.0298797755
 10
151.0636587505
 20
72.0163800483
 10
150.9552828268
 20
72.0108097729
 10
150.8441002016
 20
72.0131827167
 10
150.7303876811
 20
72.0234928498
 10
150.6144280466
 20
72.0417143763
 10
150.4965096184
 20
72.0678018373
 10
150.3769259009
 20
72.1016901223
 10
150.2559743671
 20
72.1432947172
 10
150.133955612
 20
72.1925120116
 10
150.0111729072
 20
72.249219488
 10
149.8879321579
 20
72.3132756251
 10
149.7645390839
 20
72.3845212833
 10
149.641298365
 20
72.4627805421
 10
149.5185157313
 20
72.547859491
 10
149.3964970763
 20
72.6395464018
 10
149.2755456384
 20
72.7376136049
 10
149.1559620005
 20
72.8418176026
 10
149.0380436471
 20
72.9518993868
 10
148.9220840851
 20
73.0675851346
 10
148.8083716354
 20
73.1885873598
 10
148.6971890781
 20
73.3146053111
 10
148.5888132188
 20
73.4453253706
 10
148.4835135729
 20
73.5804225417
 10
148.3815519468
 20
73.7195610203
 10
148.2831820903
 20
73.8623946025
 10
148.1886486465
 20
74.0085681003
 10
148.0981866218
 20
74.1577181681
 10
148.0120210013
 20
74.3094738966
 10
147.9303660053
 20
74.4634580346
 10
147.8534247006
 20
74.6192876781
 10
147.7813885184
 20
74.7765751264
 10
147.7144364894
 20
74.9349294689
 10
147.6527351443
 20
75.0939568229
 10
147.5964381338
 20
75.2532610444
 10
147.5456853066
 20
75.4124461699
 10
147.5006028017
 20
75.5711163081
 10
147.4613028649
 20
75.7288758913
 10
147.4278829571
 20
75.8853329029
 10
147.4004259917
 20
76.0400982571
 10
147.3790001933
 20
76.1927857401
 10
147.3636584618
 20
76.343015428
 10
147.3544384439
 20
76.490414566
 10
147.3513626476
 20
76.6346169613
  0
LWPOLYLINE
  5
279
100
AcDbEntity
  8
0
100
AcDbPolyline
 62
7
  6
CONTINUOUS
 90
3
 70
0
 10
151.6244874497
 20
72.2554162909
 10
151.7228539805
 20
72.2846548873
 10
151.7434160511
 20
72.2927048516
  0
LINE
  5
27A
100
AcDbEntity
  8
0
100
AcDbLine
 62
7
  6
CONTINUOUS
 10
175.0534993351
 20
97.03077204
 11
176.0630360525
 21
98.0840666358
  0
LINE
  5
27B
100
AcDbEntity
  8
0
100
AcDbLine
 62
7
  6
CONTINUOUS
 10
176.7494344001
 20
96.8951898247
 11
176.770935752
 21
96.8831948773
  0
LINE
  5
27C
100
AcDbEntity
  8
0
100
AcDbLine
 62
7
  6
CONTINUOUS
 10
175.0534993351
 20
97.03077204
 11
91.0821120001
 21
145.5147986786
  0
LINE
  5
27D
100
AcDbEntity
  8
0
100
AcDbLine
 62
7
  6
CONTINUOUS
 10
176.0633984827
 20
98.1086853747
 11
91.4855649141
 21
146.942866468
  0
LINE
  5
27E
100
AcDbEntity
  8
0
100
AcDbLine
 62
7
  6
CONTINUOUS
 10
180.1253314674
 20
100.4539792769
 11
95.2733787013
 21
149.4464333593
  0
LINE
  5
27F
100
AcDbEntity
  8
0
100
AcDbLine
 62
7
  6
CONTINUOUS
 10
175.3324752692
 20
25.7159379492
 11
175.3324752692
 21
96.5475715485
  0
LINE
  5
280
100
AcDbEntity
  8
0
100
AcDbLine
 62
7
  6
CONTINUOUS
 10
176.770935752
 20
25.3513200451
 11
176.770935752
 21
96.8831948773
  0
LINE
  5
281
100
AcDbEntity
  8
0
100
AcDbLine
 62
7
  6
CONTINUOUS
 10
176.0633984827
 20
98.1086853747
 11
176.0630360525
 21
98.0840666358
  0
LINE
  5
282
100
AcDbEntity
  8
0
100
AcDbLine
 62
7
  6
CONTINUOUS
 10
175.3324752692
 20
96.5475715485
 11
175.0534993351
 21
97.03077204
  0
LINE
  5
283
100
AcDbEntity
  8
0
100
AcDbLine
 62
7
  6
CONTINUOUS
 10
176.7494344001
 20
96.8951898247
 11
176.0630360525
 21
98.0840666358
  0
LINE
  5
284
100
AcDbEntity
  8
0
100
AcDbLine
 62
7
  6
CONTINUOUS
 10
180.8328687367
 20
27.3800985594
 11
180.8328687367
 21
99.2284887795
  0
LINE
  5
285
100
AcDbEntity
  8
0
100
AcDbLine
 62
7
  6
CONTINUOUS
 10
180.1253314674
 20
100.4539792769
 11
180.8328687367
 21
99.2284887795
  0
LINE
  5
286
100
AcDbEntity
  8
0
100
AcDbLine
 62
7
  6
CONTINUOUS
 10
175.0534993351
 20
25.5548918736
 11
175.3324752692
 21
25.7159379492
  0
LINE
  5
287
100
AcDbEntity
  8
0
100
AcDbLine
 62
7
  6
CONTINUOUS
 10
176.0630360525
 20
24.9435172889
 11
176.7494344001
 21
25.3397584933
  0
LINE
  5
288
100
AcDbEntity
  8
0
100
AcDbLine
 62
7
  6
CONTINUOUS
 10
180.8328687367
 20
27.3800985594
 11
180.1253314674
 21
26.9716543655
  0
LINE
  5
289
100
AcDbEntity
  8
0
100
AcDbLine
 62
7
  6
CONTINUOUS
 10
176.770935752
 20
25.3513200451
 11
176.7494344001
 21
25.3397584933
  0
LINE
  5
28A
100
AcDbEntity
  8
0
100
AcDbLine
 62
7
  6
CONTINUOUS
 10
176.770935752
 20
25.3513200451
 11
180.8328687367
 21
27.3800985594
  0
LINE
  5
28B
100
AcDbEntity
  8
0
100
AcDbLine
 62
7
  6
CONTINUOUS
 10
176.0633984827
 20
24.9428758512
 11
180.1253314674
 21
26.9716543655
  0
ENDSEC
  0
SECTION
  2
OBJECTS
  0
DICTIONARY
  5
C
100
AcDbDictionary
280
0
281
1
  3
ACAD_GROUP
350
D
  3
ACAD_MLINESTYLE
350
17
  3
ACAD_LAYOUT
350
1A
  3
ACAD_PLOTSETTINGS
350
19
  3
ACAD_PLOTSTYLENAME
350
E
  0
DICTIONARY
  5
D
102
{ACAD_REACTORS
330
C
102
}
100
AcDbDictionary
280
0
281
1
  0
ACDBDICTIONARYWDFLT
  5
E
102
{ACAD_REACTORS
330
C
102
}
100
AcDbDictionary
281
1
  3
Normal
350
F
100
AcDbDictionaryWithDefault
340
F
  0
DICTIONARY
  5
17
102
{ACAD_REACTORS
330
C
102
}
100
AcDbDictionary
280
0
281
1
  3
Standard
350
18
  0
DICTIONARY
  5
19
102
{ACAD_REACTORS
330
C
102
}
100
AcDbDictionary
281
1
  0
DICTIONARY
  5
1A
102
{ACAD_REACTORS
330
C
102
}
100
AcDbDictionary
281
1
  3
Model
350
28C
  3
Layout1
350
28D
  0
ACDBPLACEHOLDER
  5
F
102
{ACAD_REACTORS
330
E
102
}
  0
MLINESTYLE
  5
18
102
{ACAD_REACTORS
330
17
102
}
100
AcDbMlineStyle
  2
STANDARD
 70
0
  3

 62
256
 51
90.0
 52
90.0
 71
2
 49
0.5
 62
256
  6
BYLAYER
 49
-0.5
 62
256
  6
BYLAYER
  0
LAYOUT
  5
28C
102
{ACAD_REACTORS
330
1A
102
}
100
AcDbPlotSettings
  1

  2
none_device
  4
ISO_A4_(297.00_x_210.00_MM)
  6

 40
0.0
 41
0.0
 42
0.0
 43
0.0
 44
297.0
 45
210.0
 46
0.0
 47
0.0
 48
0.0
 49
0.0
140
0.0
141
0.0
142
1.0
143
1.0
 70
1024
 72
1
 73
0
 74
0
  7

 75
0
147
1.0
148
0.0
149
0.0
100
AcDbLayout
  1
Model
 70
0
 71
0
 10
0.0
 20
0.0
 11
297.0
 21
210.0
 12
0.0
 22
0.0
 32
0.0
 14
0.0
 24
0.0
 34
0.0
 15
0.0
 25
0.0
 35
0.0
146
0.0
 13
0.0
 23
0.0
 33
0.0
 16
1.0
 26
0.0
 36
0.0
 17
0.0
 27
1.0
 37
0.0
 76
0
330
21C
345
0
346
0
  0
LAYOUT
  5
28D
102
{ACAD_REACTORS
330
1A
102
}
100
AcDbPlotSettings
  1

  2
none_device
  4
ISO_A4_(297.00_x_210.00_MM)
  6

 40
0.0
 41
0.0
 42
0.0
 43
0.0
 44
297.0
 45
210.0
 46
0.0
 47
0.0
 48
0.0
 49
0.0
140
0.0
141
0.0
142
1.0
143
1.0
 70
0
 72
1
 73
0
 74
0
  7

 75
0
147
1.0
148
0.0
149
0.0
100
AcDbLayout
  1
Layout1
 70
0
 71
1
 10
0.0
 20
0.0
 11
297.0
 21
210.0
 12
0.0
 22
0.0
 32
0.0
 14
0.0
 24
0.0
 34
0.0
 15
0.0
 25
0.0
 35
0.0
146
0.0
 13
0.0
 23
0.0
 33
0.0
 16
1.0
 26
0.0
 36
0.0
 17
0.0
 27
1.0
 37
0.0
 76
0
330
21D
345
0
346
0
  0
ENDSEC
  0
EOF
