  0
SECTION
  2
HEADER
  9
$ACADVER
  1
AC1024
  9
$DWGCODEPAGE
  3
ANSI_1252
  9
$EXTMAX
 10
297.0
 20
210.0
 30
0.0
  9
$EXTMIN
 10
0.0
 20
0.0
 30
0.0
  9
$LIMMIN
 10
0.0
 20
0.0
  9
$LIMMAX
 10
297.0
 20
210.0
  9
$VIEWCTR
 10
148.5
 20
105.0
  9
$VIEWSIZE
 40
210.0
  9
$CLAYER
  8
0
  9
$LTSCALE
 40
16.335
  9
$CELTYPE
  6
BYLAYER
  9
$DIMSCALE
 40
1.0
  9
$DIMASZ
 40
3.0
  9
$DIMEXO
 40
0.5
  9
$DIMDLI
 40
11.286
  9
$DIMEXE
 40
1.5
  9
$DIMCEN
 40
2.673
  9
$DIMLFAC
 40
1.0
  9
$DIMBLK
  1
_FILLED
  9
$DIMALT
 70
0
  9
$DIMALTF
 40
0.0393700787
  9
$DIMTXT
 40
3.0
  9
$DIMTOL
 70
1
  9
$DIMLIM
 70
0
  9
$DIMTFAC
 40
1.0
  9
$DIMTP
 40
0.01
  9
$DIMTM
 40
0.01
  9
$DIMGAP
 40
0.625
  9
$DIMDSEP
 70
44
  9
$AUNITS
 70
0
  9
$PDMODE
 70
3
  9
$PDSIZE
 40
3.0
  9
$HANDSEED
  5
389
  9
$TILEMODE
 70
1
  9
$MEASUREMENT
 70
1
  9
$INSUNITS
 70
4
  0
ENDSEC
  0
SECTION
  2
CLASSES
  0
CLASS
  1
ACDBDICTIONARYWDFLT
  2
AcDbDictionaryWithDefault
  3
AutoCAD 2000
 90
0
 91
1
280
0
281
0
  0
CLASS
  1
ACDBPLACEHOLDER
  2
AcDbPlaceHolder
  3
AutoCAD 2000
 90
0
 91
1
280
0
281
0
  0
CLASS
  1
LAYOUT
  2
AcDbLayout
  3
AutoCAD 2000
 90
0
 91
0
280
0
281
0
  0
ENDSEC
  0
SECTION
  2
TABLES
  0
TABLE
  2
VPORT
  5
8
100
AcDbSymbolTable
 70
2
  0
VPORT
  5
1F4
100
AcDbSymbolTableRecord
100
AcDbViewportTableRecord
  2
*ACTIVE
 70
0
 10
0.0
 20
0.0
 11
1.0
 21
1.0
 12
148.5
 22
105.0
 13
0.0
 23
0.0
 14
1.0
 24
1.0
 15
0.0
 25
0.0
 16
0.0
 26
0.0
 36
1.0
 17
0.0
 27
0.0
 37
0.0
 40
210.0
 41
1.4142857143
 42
50.0
 43
0.0
 44
0.0
 50
0.0
 51
0.0
 71
0
 72
100
 73
1
 74
1
 75
0
 76
0
 77
0
 78
0
  0
ENDTAB
  0
TABLE
  2
LTYPE
  5
5
100
AcDbSymbolTable
 70
6
  0
LTYPE
  5
14
100
AcDbSymbolTableRecord
100
AcDbLinetypeTableRecord
  2
BYBLOCK
 70
0
  3

 72
65
 73
0
 40
0.0
  0
LTYPE
  5
15
100
AcDbSymbolTableRecord
100
AcDbLinetypeTableRecord
  2
BYLAYER
 70
0
  3

 72
65
 73
0
 40
0.0
  0
LTYPE
  5
16
100
AcDbSymbolTableRecord
100
AcDbLinetypeTableRecord
  2
CONTINUOUS
 70
64
  3
Solid line
 72
65
 73
0
 40
0.0
  0
LTYPE
  5
1F5
100
AcDbSymbolTableRecord
100
AcDbLinetypeTableRecord
  2
CENTER
 70
64
  3
____ _ ____ _ ____ _ ____ _ ____ _ ____ _ ____
 72
65
 73
4
 40
0.6
 49
0.375
 74
0
 49
-0.075
 74
0
 49
0.075
 74
0
 49
-0.075
 74
0
  0
LTYPE
  5
1F6
100
AcDbSymbolTableRecord
100
AcDbLinetypeTableRecord
  2
HIDDEN
 70
64
  3
- - - - - - - - - - - - - - - - - - - -
 72
65
 73
2
 40
0.2
 49
0.1
 74
0
 49
-0.1
 74
0
  0
LTYPE
  5
1F7
100
AcDbSymbolTableRecord
100
AcDbLinetypeTableRecord
  2
PHANTOM
 70
64
  3
_____ _ _ _____ _ _ _____ _ _ _____
 72
65
 73
6
 40
0.8
 49
0.45
 74
0
 49
-0.05
 74
0
 49
0.1
 74
0
 49
-0.05
 74
0
 49
0.1
 74
0
 49
-0.05
 74
0
  0
LTYPE
  5
1F8
100
AcDbSymbolTableRecord
100
AcDbLinetypeTableRecord
  2
DOT
 70
64
  3
. . . . . . . . . . . . . . . . . . . .
 72
65
 73
2
 40
0.2
 49
0.1
 74
0
 49
-0.1
 74
0
  0
LTYPE
  5
1F9
100
AcDbSymbolTableRecord
100
AcDbLinetypeTableRecord
  2
DASHED
 70
64
  3
- - - - - - - - - - - - - - - - - - - -
 72
65
 73
2
 40
0.2
 49
0.1
 74
0
 49
-0.1
 74
0
  0
ENDTAB
  0
TABLE
  2
LAYER
  5
2
100
AcDbSymbolTable
 70
36
  0
LAYER
  5
10
100
AcDbSymbolTableRecord
100
AcDbLayerTableRecord
  2
0
 70
0
 62
7
  6
CONTINUOUS
370
-3
390
F
  0
LAYER
  5
1FA
100
AcDbSymbolTableRecord
100
AcDbLayerTableRecord
  2
DEFAULT_1
 70
0
 62
7
  6
CENTER
370
-3
390
F
  0
LAYER
  5
1FB
100
AcDbSymbolTableRecord
100
AcDbLayerTableRecord
  2
DEFAULT_2
 70
0
 62
7
  6
HIDDEN
370
-3
390
F
  0
LAYER
  5
1FC
100
AcDbSymbolTableRecord
100
AcDbLayerTableRecord
  2
DEFAULT_3
 70
0
 62
7
  6
PHANTOM
370
-3
390
F
  0
LAYER
  5
1FD
100
AcDbSymbolTableRecord
100
AcDbLayerTableRecord
  2
ASSI
 70
0
 62
7
  6
CONTINUOUS
370
-3
390
F
  0
LAYER
  5
1FE
100
AcDbSymbolTableRecord
100
AcDbLayerTableRecord
  2
COORDINATE
 70
0
 62
7
  6
CONTINUOUS
370
-3
390
F
  0
LAYER
  5
1FF
100
AcDbSymbolTableRecord
100
AcDbLayerTableRecord
  2
COORD_ORIGINE
 70
0
 62
7
  6
CONTINUOUS
370
-3
390
F
  0
LAYER
  5
200
100
AcDbSymbolTableRecord
100
AcDbLayerTableRecord
  2
COPY_PUBLISH
 70
0
 62
7
  6
CONTINUOUS
370
-3
390
F
  0
LAYER
  5
201
100
AcDbSymbolTableRecord
100
AcDbLayerTableRecord
  2
COSMETIC
 70
0
 62
7
  6
CONTINUOUS
370
-3
390
F
  0
LAYER
  5
202
100
AcDbSymbolTableRecord
100
AcDbLayerTableRecord
  2
COSMETICI
 70
0
 62
7
  6
CONTINUOUS
370
-3
390
F
  0
LAYER
  5
203
100
AcDbSymbolTableRecord
100
AcDbLayerTableRecord
  2
CURVA_TASSELLO
 70
0
 62
7
  6
CONTINUOUS
370
-3
390
F
  0
LAYER
  5
204
100
AcDbSymbolTableRecord
100
AcDbLayerTableRecord
  2
CURVE
 70
0
 62
7
  6
CONTINUOUS
370
-3
390
F
  0
LAYER
  5
205
100
AcDbSymbolTableRecord
100
AcDbLayerTableRecord
  2
DRAFT
 70
0
 62
7
  6
CONTINUOUS
370
-3
390
F
  0
LAYER
  5
206
100
AcDbSymbolTableRecord
100
AcDbLayerTableRecord
  2
IMPORT_IGES
 70
0
 62
7
  6
CONTINUOUS
370
-3
390
F
  0
LAYER
  5
207
100
AcDbSymbolTableRecord
100
AcDbLayerTableRecord
  2
INTFCLR_2
 70
0
 62
7
  6
CONTINUOUS
370
-3
390
F
  0
LAYER
  5
208
100
AcDbSymbolTableRecord
100
AcDbLayerTableRecord
  2
INTF_1
 70
0
 62
7
  6
CONTINUOUS
370
-3
390
F
  0
LAYER
  5
209
100
AcDbSymbolTableRecord
100
AcDbLayerTableRecord
  2
INTF_6
 70
0
 62
7
  6
CONTINUOUS
370
-3
390
F
  0
LAYER
  5
20A
100
AcDbSymbolTableRecord
100
AcDbLayerTableRecord
  2
INTF_7
 70
0
 62
7
  6
CONTINUOUS
370
-3
390
F
  0
LAYER
  5
20B
100
AcDbSymbolTableRecord
100
AcDbLayerTableRecord
  2
LINEA_CHIUSURA
 70
0
 62
7
  6
CONTINUOUS
370
-3
390
F
  0
LAYER
  5
20C
100
AcDbSymbolTableRecord
100
AcDbLayerTableRecord
  2
LIVELLO_1
 70
0
 62
7
  6
CONTINUOUS
370
-3
390
F
  0
LAYER
  5
20D
100
AcDbSymbolTableRecord
100
AcDbLayerTableRecord
  2
NOTE
 70
0
 62
7
  6
CONTINUOUS
370
-3
390
F
  0
LAYER
  5
20E
100
AcDbSymbolTableRecord
100
AcDbLayerTableRecord
  2
PIANI
 70
0
 62
7
  6
CONTINUOUS
370
-3
390
F
  0
LAYER
  5
20F
100
AcDbSymbolTableRecord
100
AcDbLayerTableRecord
  2
PIANI_ORIGINE
 70
0
 62
7
  6
CONTINUOUS
370
-3
390
F
  0
LAYER
  5
210
100
AcDbSymbolTableRecord
100
AcDbLayerTableRecord
  2
PIANI_RIFERIMENTO
 70
0
 62
7
  6
CONTINUOUS
370
-3
390
F
  0
LAYER
  5
211
100
AcDbSymbolTableRecord
100
AcDbLayerTableRecord
  2
PUNTI
 70
0
 62
7
  6
CONTINUOUS
370
-3
390
F
  0
LAYER
  5
212
100
AcDbSymbolTableRecord
100
AcDbLayerTableRecord
  2
RACCORDO
 70
0
 62
7
  6
CONTINUOUS
370
-3
390
F
  0
LAYER
  5
213
100
AcDbSymbolTableRecord
100
AcDbLayerTableRecord
  2
RGB__255__255__255__
 70
0
 62
7
  6
CONTINUOUS
370
-3
390
F
  0
LAYER
  5
214
100
AcDbSymbolTableRecord
100
AcDbLayerTableRecord
  2
RGB____0____0____0__
 70
0
 62
7
  6
CONTINUOUS
370
-3
390
F
  0
LAYER
  5
215
100
AcDbSymbolTableRecord
100
AcDbLayerTableRecord
  2
SIMBOLI
 70
0
 62
7
  6
CONTINUOUS
370
-3
390
F
  0
LAYER
  5
216
100
AcDbSymbolTableRecord
100
AcDbLayerTableRecord
  2
SMUSSO
 70
0
 62
7
  6
CONTINUOUS
370
-3
390
F
  0
LAYER
  5
217
100
AcDbSymbolTableRecord
100
AcDbLayerTableRecord
  2
SNAPLINE
 70
0
 62
7
  6
CONTINUOUS
370
-3
390
F
  0
LAYER
  5
218
100
AcDbSymbolTableRecord
100
AcDbLayerTableRecord
  2
SUPERFICI
 70
0
 62
7
  6
CONTINUOUS
370
-3
390
F
  0
LAYER
  5
219
100
AcDbSymbolTableRecord
100
AcDbLayerTableRecord
  2
TRASH
 70
0
 62
7
  6
CONTINUOUS
370
-3
390
F
  0
LAYER
  5
21A
100
AcDbSymbolTableRecord
100
AcDbLayerTableRecord
  2
WHITE
 70
0
 62
7
  6
CONTINUOUS
370
-3
390
F
  0
LAYER
  5
21B
100
AcDbSymbolTableRecord
100
AcDbLayerTableRecord
  2
XSEC_DATUMS
 70
0
 62
7
  6
CONTINUOUS
370
-3
390
F
  0
ENDTAB
  0
TABLE
  2
STYLE
  5
3
100
AcDbSymbolTable
 70
1
  0
STYLE
  5
11
100
AcDbSymbolTableRecord
100
AcDbTextStyleTableRecord
  2
STANDARD
 70
0
 40
0.0
 41
0.8
 50
0.0
 71
0
 42
0.2
  3
txt
  4

  0
STYLE
  5
21C
100
AcDbSymbolTableRecord
100
AcDbTextStyleTableRecord
  2
TEXTSTYLE_1
 70
0
 40
0.0
 41
0.8
 50
0.0
 71
0
 42
0.2
  3
gdt
  4

  0
ENDTAB
  0
TABLE
  2
VIEW
  5
6
100
AcDbSymbolTable
 70
0
  0
ENDTAB
  0
TABLE
  2
UCS
  5
7
100
AcDbSymbolTable
 70
0
  0
ENDTAB
  0
TABLE
  2
APPID
  5
9
100
AcDbSymbolTable
 70
1
  0
APPID
  5
21D
100
AcDbSymbolTableRecord
100
AcDbRegAppTableRecord
  2
ACAD
 70
0
  0
ENDTAB
  0
TABLE
  2
BLOCK_RECORD
  5
1
100
AcDbSymbolTable
 70
0
  0
BLOCK_RECORD
  5
21E
100
AcDbSymbolTableRecord
100
AcDbBlockTableRecord
  2
*Model_Space
  0
BLOCK_RECORD
  5
21F
100
AcDbSymbolTableRecord
100
AcDbBlockTableRecord
  2
*Paper_Space
  0
BLOCK_RECORD
  5
220
100
AcDbSymbolTableRecord
100
AcDbBlockTableRecord
  2
_FILLED
  0
ENDTAB
  0
TABLE
  2
DIMSTYLE
  5
A
100
AcDbSymbolTable
 70
1
100
AcDbDimStyleTable
 71
0
  0
DIMSTYLE
105
221
100
AcDbSymbolTableRecord
100
AcDbDimStyleTableRecord
  2
STANDARD
 70
0
  3

  4

 40
1.0
 41
3.0
 42
0.5
 43
0.38
 44
1.5
 45
0.0
 46
0.0
 47
0.01
 48
0.01
140
3.0
141
0.09
142
0.0
143
25.4
144
1.0
145
0.0
146
1.0
147
0.625
 71
1
 72
0
 73
0
 74
0
 75
0
 76
0
 77
1
 78
8
 79
2
170
0
171
1
172
0
173
0
174
0
175
0
176
0
177
0
178
0
270
2
179
2
271
2
272
2
273
2
274
2
275
0
280
0
281
0
282
0
283
1
284
8
285
0
286
0
287
3
288
0
340
11
278
44
341
220
342
220
343
220
344
220
  0
ENDTAB
  0
ENDSEC
  0
SECTION
  2
BLOCKS
  0
BLOCK
  5
20
100
AcDbEntity
  8
0
100
AcDbBlockBegin
  2
*Model_Space
 70
0
 10
0.0
 20
0.0
 30
0.0
  3
*Model_Space
  1

  0
ENDBLK
  5
21
100
AcDbEntity
  8
0
100
AcDbBlockEnd
  0
BLOCK
  5
1C
100
AcDbEntity
  8
0
100
AcDbBlockBegin
  2
*Paper_Space
 70
0
 10
0.0
 20
0.0
 30
0.0
  3
*Paper_Space
  1

  0
ENDBLK
  5
1D
100
AcDbEntity
  8
0
100
AcDbBlockEnd
  0
BLOCK
  5
222
100
AcDbEntity
  8
0
100
AcDbBlockBegin
  2
_FILLED
 70
64
 10
0.0
 20
0.0
  3
_FILLED
  1

  0
SOLID
  5
223
100
AcDbEntity
  8
0
  6
BYBLOCK
 62
0
100
AcDbTrace
 10
0.0
 20
0.0
 11
-1.0
 21
0.3166666667
 12
-1.0
 22
-0.3166666667
 13
-1.0
 23
-0.3166666667
  0
ENDBLK
  5
224
100
AcDbEntity
  8
0
  6
BYBLOCK
 62
0
100
AcDbBlockEnd
  0
ENDSEC
  0
SECTION
  2
ENTITIES
  0
LINE
  5
225
100
AcDbEntity
  8
ASSI
100
AcDbLine
 62
7
  6
CONTINUOUS
 10
-52.9823718343
 20
63.9328568438
 11
-49.1945580472
 21
66.4364237351
  0
LINE
  5
226
100
AcDbEntity
  8
ASSI
100
AcDbLine
 62
7
  6
CONTINUOUS
 10
-52.274834565
 20
64.3413010376
 11
-48.4870207779
 21
66.844867929
  0
LINE
  5
227
100
AcDbEntity
  8
ASSI
100
AcDbLine
 62
7
  6
CONTINUOUS
 10
-52.2955981792
 20
64.3284616867
 11
-52.274834565
 21
64.3413010376
  0
LINE
  5
228
100
AcDbEntity
  8
ASSI
100
AcDbLine
 62
7
  6
CONTINUOUS
 10
-49.1945580472
 20
66.4364237351
 11
-48.4870207779
 21
66.844867929
  0
LINE
  5
229
100
AcDbEntity
  8
ASSI
100
AcDbLine
 62
7
  6
CONTINUOUS
 10
-52.2955981792
 20
64.3284616867
 11
-52.9819965268
 21
63.9322204822
  0
LINE
  5
22A
100
AcDbEntity
  8
ASSI
100
AcDbLine
 62
7
  6
CONTINUOUS
 10
-52.678287479
 20
62.9132332483
 11
-52.9572634132
 21
62.7521871727
  0
LINE
  5
22B
100
AcDbEntity
  8
CURVE
100
AcDbLine
 62
250
  6
CONTINUOUS
 10
51.309792016
 20
-59.9718585674
 11
50.0513911947
 21
-60.2484813673
  0
LINE
  5
22C
100
AcDbEntity
  8
CURVE
100
AcDbLine
 62
250
  6
CONTINUOUS
 10
50.0513911947
 20
-59.8227443721
 11
51.8795823714
 21
-59.4944511796
  0
LINE
  5
22D
100
AcDbEntity
  8
ASSI
100
AcDbLine
 62
7
  6
CONTINUOUS
 10
-52.678287479
 20
62.9132332483
 11
-52.2955981792
 21
64.3284616867
  0
LINE
  5
22E
100
AcDbEntity
  8
CURVE
100
AcDbLine
 62
250
  6
CONTINUOUS
 10
50.5537317236
 20
-55.7637797996
 11
51.232196851
 21
-55.6106052197
  0
LINE
  5
22F
100
AcDbEntity
  8
CURVE
100
AcDbLine
 62
250
  6
CONTINUOUS
 10
51.5146105455
 20
-55.5456932806
 11
51.8795823714
 21
-55.4667420689
  0
LINE
  5
230
100
AcDbEntity
  8
CURVE
100
AcDbLine
 62
250
  6
CONTINUOUS
 10
51.8795823714
 20
-55.8881476894
 11
50.0513911947
 21
-56.2323122475
  0
LINE
  5
231
100
AcDbEntity
  8
CURVE
100
AcDbLine
 62
250
  6
CONTINUOUS
 10
51.0664084744
 20
-57.4312713859
 11
50.0513911947
 21
-57.551751076
  0
LINE
  5
232
100
AcDbEntity
  8
CURVE
100
AcDbLine
 62
250
  6
CONTINUOUS
 10
50.6907844819
 20
-57.0994193229
 11
51.8795823714
 21
-56.9658909041
  0
LINE
  5
233
100
AcDbEntity
  8
ASSI
100
AcDbLine
 62
7
  6
CONTINUOUS
 10
-52.9572634132
 20
-8.0794464266
 11
-52.9819965268
 21
-7.6232108491
  0
LINE
  5
234
100
AcDbEntity
  8
ASSI
100
AcDbLine
 62
7
  6
CONTINUOUS
 10
-52.9572634132
 20
62.7521871727
 11
-52.9819965268
 21
63.9322204822
  0
LINE
  5
235
100
AcDbEntity
  8
ASSI
100
AcDbLine
 62
7
  6
CONTINUOUS
 10
-52.9819965268
 20
-7.6232108491
 11
-52.9823718343
 21
-7.5990179884
  0
LINE
  5
236
100
AcDbEntity
  8
ASSI
100
AcDbLine
 62
7
  6
CONTINUOUS
 10
-52.9823718343
 20
63.9328568438
 11
-52.9823718343
 21
-7.5990179884
  0
LINE
  5
237
100
AcDbEntity
  8
ASSI
100
AcDbLine
 62
7
  6
CONTINUOUS
 10
-52.9572634132
 20
62.7521871727
 11
-52.9572634132
 21
-8.0794464266
  0
LINE
  5
238
100
AcDbEntity
  8
ASSI
100
AcDbLine
 62
7
  6
CONTINUOUS
 10
47.4819783668
 20
-66.071805831
 11
48.8989374977
 21
-66.4479852869
  0
LINE
  5
239
100
AcDbEntity
  8
ASSI
100
AcDbLine
 62
7
  6
CONTINUOUS
 10
-52.9572634132
 20
-8.0794464266
 11
-52.678287479
 21
-8.5626469181
  0
LINE
  5
23A
100
AcDbEntity
  8
ASSI
100
AcDbLine
 62
7
  6
CONTINUOUS
 10
-52.274834565
 20
-8.8245084858
 11
48.2129015803
 21
-66.844867929
  0
LINE
  5
23B
100
AcDbEntity
  8
ASSI
100
AcDbLine
 62
7
  6
CONTINUOUS
 10
-52.678287479
 20
-8.5626469181
 11
47.2030024326
 21
-66.2328519066
  0
LINE
  5
23C
100
AcDbEntity
  8
ASSI
100
AcDbLine
 62
7
  6
CONTINUOUS
 10
-52.274834565
 20
-8.8245084858
 11
-52.2955981792
 21
-8.8120876602
  0
LINE
  5
23D
100
AcDbEntity
  8
ASSI
100
AcDbLine
 62
7
  6
CONTINUOUS
 10
-52.678287479
 20
-8.5626469181
 11
-52.2955981792
 21
-8.8120876602
  0
LINE
  5
23E
100
AcDbEntity
  8
SMUSSO
100
AcDbLine
 62
7
  6
CONTINUOUS
 10
-29.9258982598
 20
12.4054082307
 11
-29.9258982598
 21
15.6712893379
  0
LINE
  5
23F
100
AcDbEntity
  8
ASSI
100
AcDbLine
 62
7
  6
CONTINUOUS
 10
-29.9258982598
 20
12.4054082307
 11
-29.9258982598
 21
15.6712893379
  0
LINE
  5
240
100
AcDbEntity
  8
SMUSSO
100
AcDbLine
 62
7
  6
CONTINUOUS
 10
-28.228841985
 20
12.4054082307
 11
-28.228841985
 21
15.6712893379
  0
LINE
  5
241
100
AcDbEntity
  8
ASSI
100
AcDbLine
 62
7
  6
CONTINUOUS
 10
-28.228841985
 20
12.4054082307
 11
-28.228841985
 21
15.6712893379
  0
LINE
  5
242
100
AcDbEntity
  8
SMUSSO
100
AcDbLine
 62
7
  6
CONTINUOUS
 10
-27.8752885944
 20
15.8754266345
 11
-27.8752885944
 21
12.6095455274
  0
LINE
  5
243
100
AcDbEntity
  8
ASSI
100
AcDbLine
 62
7
  6
CONTINUOUS
 10
-27.8752885944
 20
15.8754266345
 11
-27.8752885944
 21
12.6095455274
  0
LINE
  5
244
100
AcDbEntity
  8
SMUSSO
100
AcDbLine
 62
250
  6
CONTINUOUS
 10
-27.8752885944
 20
15.8754266345
 11
-28.228841985
 21
15.6712893379
  0
LINE
  5
245
100
AcDbEntity
  8
ASSI
100
AcDbLine
 62
250
  6
CONTINUOUS
 10
-27.8752885944
 20
15.8754266345
 11
-28.228841985
 21
15.6712893379
  0
LINE
  5
246
100
AcDbEntity
  8
ASSI
100
AcDbLine
 62
7
  6
CONTINUOUS
 10
47.2030024326
 20
-66.2328519066
 11
48.21253915
 21
-66.8442264913
  0
LINE
  5
247
100
AcDbEntity
  8
SMUSSO
100
AcDbLine
 62
7
  6
CONTINUOUS
 10
-23.2790945167
 20
11.8335081606
 11
-23.2790945167
 21
8.5676270534
  0
LINE
  5
248
100
AcDbEntity
  8
ASSI
100
AcDbLine
 62
7
  6
CONTINUOUS
 10
-23.2790945167
 20
11.8335081606
 11
-23.2790945167
 21
8.5676270534
  0
LINE
  5
249
100
AcDbEntity
  8
SMUSSO
100
AcDbLine
 62
250
  6
CONTINUOUS
 10
-27.8752885944
 20
12.6095455274
 11
-28.228841985
 21
12.4054082307
  0
LINE
  5
24A
100
AcDbEntity
  8
ASSI
100
AcDbLine
 62
250
  6
CONTINUOUS
 10
-27.8752885944
 20
12.6095455274
 11
-28.228841985
 21
12.4054082307
  0
LINE
  5
24B
100
AcDbEntity
  8
SMUSSO
100
AcDbLine
 62
7
  6
CONTINUOUS
 10
-14.0159956831
 20
3.2192298808
 11
-14.0159956831
 21
6.485110988
  0
LINE
  5
24C
100
AcDbEntity
  8
ASSI
100
AcDbLine
 62
7
  6
CONTINUOUS
 10
-14.0159956831
 20
3.2192298808
 11
-14.0159956831
 21
6.485110988
  0
LINE
  5
24D
100
AcDbEntity
  8
SMUSSO
100
AcDbLine
 62
7
  6
CONTINUOUS
 10
-12.3189394083
 20
3.2192298808
 11
-12.3189394083
 21
6.485110988
  0
LINE
  5
24E
100
AcDbEntity
  8
ASSI
100
AcDbLine
 62
7
  6
CONTINUOUS
 10
-12.3189394083
 20
3.2192298808
 11
-12.3189394083
 21
6.485110988
  0
LINE
  5
24F
100
AcDbEntity
  8
SMUSSO
100
AcDbLine
 62
7
  6
CONTINUOUS
 10
-11.9653860177
 20
6.6892482847
 11
-11.9653860177
 21
3.4233671775
  0
LINE
  5
250
100
AcDbEntity
  8
ASSI
100
AcDbLine
 62
7
  6
CONTINUOUS
 10
-11.9653860177
 20
6.6892482847
 11
-11.9653860177
 21
3.4233671775
  0
LINE
  5
251
100
AcDbEntity
  8
SMUSSO
100
AcDbLine
 62
250
  6
CONTINUOUS
 10
-11.9653860177
 20
6.6892482847
 11
-12.3189394083
 21
6.485110988
  0
LINE
  5
252
100
AcDbEntity
  8
ASSI
100
AcDbLine
 62
250
  6
CONTINUOUS
 10
-11.9653860177
 20
6.6892482847
 11
-12.3189394083
 21
6.485110988
  0
LINE
  5
253
100
AcDbEntity
  8
SMUSSO
100
AcDbLine
 62
250
  6
CONTINUOUS
 10
17.8038094703
 20
-15.1531268189
 11
19.5008657451
 21
-15.1531268189
  0
LINE
  5
254
100
AcDbEntity
  8
ASSI
100
AcDbLine
 62
250
  6
CONTINUOUS
 10
17.8038094703
 20
-15.1531268189
 11
19.5008657451
 21
-15.1531268189
  0
LINE
  5
255
100
AcDbEntity
  8
SMUSSO
100
AcDbLine
 62
250
  6
CONTINUOUS
 10
17.8038094703
 20
-11.8872457117
 11
19.5008657451
 21
-11.8872457117
  0
LINE
  5
256
100
AcDbEntity
  8
ASSI
100
AcDbLine
 62
250
  6
CONTINUOUS
 10
17.8038094703
 20
-11.8872457117
 11
19.5008657451
 21
-11.8872457117
  0
LINE
  5
257
100
AcDbEntity
  8
ASSI
100
AcDbLine
 62
7
  6
CONTINUOUS
 10
-52.9823718343
 20
63.9328568438
 11
-52.9819965268
 21
63.9322204822
  0
LINE
  5
258
100
AcDbEntity
  8
SMUSSO
100
AcDbLine
 62
7
  6
CONTINUOUS
 10
-7.36919194
 20
2.6473298107
 11
-7.36919194
 21
-0.6185512964
  0
LINE
  5
259
100
AcDbEntity
  8
ASSI
100
AcDbLine
 62
7
  6
CONTINUOUS
 10
-7.36919194
 20
2.6473298107
 11
-7.36919194
 21
-0.6185512964
  0
LINE
  5
25A
100
AcDbEntity
  8
SMUSSO
100
AcDbLine
 62
250
  6
CONTINUOUS
 10
-11.9653860177
 20
3.4233671775
 11
-12.3189394083
 21
3.2192298808
  0
LINE
  5
25B
100
AcDbEntity
  8
ASSI
100
AcDbLine
 62
250
  6
CONTINUOUS
 10
-11.9653860177
 20
3.4233671775
 11
-12.3189394083
 21
3.2192298808
  0
LINE
  5
25C
100
AcDbEntity
  8
ASSI
100
AcDbLine
 62
7
  6
CONTINUOUS
 10
47.4819783668
 20
4.7598277683
 11
48.8989374977
 21
5.1074460445
  0
LINE
  5
25D
100
AcDbEntity
  8
SMUSSO
100
AcDbLine
 62
250
  6
CONTINUOUS
 10
1.8939068936
 20
-5.966948469
 11
3.5909631684
 21
-5.966948469
  0
LINE
  5
25E
100
AcDbEntity
  8
ASSI
100
AcDbLine
 62
250
  6
CONTINUOUS
 10
1.8939068936
 20
-5.966948469
 11
3.5909631684
 21
-5.966948469
  0
LINE
  5
25F
100
AcDbEntity
  8
SMUSSO
100
AcDbLine
 62
250
  6
CONTINUOUS
 10
1.8939068936
 20
-2.7010673619
 11
3.5909631684
 21
-2.7010673619
  0
LINE
  5
260
100
AcDbEntity
  8
ASSI
100
AcDbLine
 62
250
  6
CONTINUOUS
 10
1.8939068936
 20
-2.7010673619
 11
3.5909631684
 21
-2.7010673619
  0
LINE
  5
261
100
AcDbEntity
  8
SMUSSO
100
AcDbLine
 62
7
  6
CONTINUOUS
 10
1.8939068936
 20
-5.966948469
 11
1.8939068936
 21
-2.7010673619
  0
LINE
  5
262
100
AcDbEntity
  8
ASSI
100
AcDbLine
 62
7
  6
CONTINUOUS
 10
1.8939068936
 20
-5.966948469
 11
1.8939068936
 21
-2.7010673619
  0
LINE
  5
263
100
AcDbEntity
  8
SMUSSO
100
AcDbLine
 62
7
  6
CONTINUOUS
 10
3.5909631684
 20
-5.966948469
 11
3.5909631684
 21
-2.7010673619
  0
LINE
  5
264
100
AcDbEntity
  8
ASSI
100
AcDbLine
 62
7
  6
CONTINUOUS
 10
3.5909631684
 20
-5.966948469
 11
3.5909631684
 21
-2.7010673619
  0
LINE
  5
265
100
AcDbEntity
  8
SMUSSO
100
AcDbLine
 62
7
  6
CONTINUOUS
 10
3.944516559
 20
-2.4969300652
 11
3.944516559
 21
-5.7628111724
  0
LINE
  5
266
100
AcDbEntity
  8
ASSI
100
AcDbLine
 62
7
  6
CONTINUOUS
 10
3.944516559
 20
-2.4969300652
 11
3.944516559
 21
-5.7628111724
  0
LINE
  5
267
100
AcDbEntity
  8
SMUSSO
100
AcDbLine
 62
250
  6
CONTINUOUS
 10
3.944516559
 20
-2.4969300652
 11
3.5909631684
 21
-2.7010673619
  0
LINE
  5
268
100
AcDbEntity
  8
ASSI
100
AcDbLine
 62
250
  6
CONTINUOUS
 10
3.944516559
 20
-2.4969300652
 11
3.5909631684
 21
-2.7010673619
  0
LINE
  5
269
100
AcDbEntity
  8
SMUSSO
100
AcDbLine
 62
250
  6
CONTINUOUS
 10
-14.0159956831
 20
3.2192298808
 11
-12.3189394083
 21
3.2192298808
  0
LINE
  5
26A
100
AcDbEntity
  8
ASSI
100
AcDbLine
 62
250
  6
CONTINUOUS
 10
-14.0159956831
 20
3.2192298808
 11
-12.3189394083
 21
3.2192298808
  0
LINE
  5
26B
100
AcDbEntity
  8
SMUSSO
100
AcDbLine
 62
7
  6
CONTINUOUS
 10
8.5407106367
 20
-6.5388485391
 11
8.5407106367
 21
-9.8047296463
  0
LINE
  5
26C
100
AcDbEntity
  8
ASSI
100
AcDbLine
 62
7
  6
CONTINUOUS
 10
8.5407106367
 20
-6.5388485391
 11
8.5407106367
 21
-9.8047296463
  0
LINE
  5
26D
100
AcDbEntity
  8
SMUSSO
100
AcDbLine
 62
250
  6
CONTINUOUS
 10
3.944516559
 20
-5.7628111724
 11
3.5909631684
 21
-5.966948469
  0
LINE
  5
26E
100
AcDbEntity
  8
ASSI
100
AcDbLine
 62
250
  6
CONTINUOUS
 10
3.944516559
 20
-5.7628111724
 11
3.5909631684
 21
-5.966948469
  0
LINE
  5
26F
100
AcDbEntity
  8
SMUSSO
100
AcDbLine
 62
250
  6
CONTINUOUS
 10
-14.0159956831
 20
6.485110988
 11
-12.3189394083
 21
6.485110988
  0
LINE
  5
270
100
AcDbEntity
  8
ASSI
100
AcDbLine
 62
250
  6
CONTINUOUS
 10
-14.0159956831
 20
6.485110988
 11
-12.3189394083
 21
6.485110988
  0
LINE
  5
271
100
AcDbEntity
  8
ASSI
100
AcDbLine
 62
7
  6
CONTINUOUS
 10
48.21253915
 20
-66.8442264913
 11
48.2129015803
 21
-66.844867929
  0
LINE
  5
272
100
AcDbEntity
  8
SMUSSO
100
AcDbLine
 62
7
  6
CONTINUOUS
 10
17.8038094703
 20
-15.1531268189
 11
17.8038094703
 21
-11.8872457117
  0
LINE
  5
273
100
AcDbEntity
  8
ASSI
100
AcDbLine
 62
7
  6
CONTINUOUS
 10
17.8038094703
 20
-15.1531268189
 11
17.8038094703
 21
-11.8872457117
  0
LINE
  5
274
100
AcDbEntity
  8
SMUSSO
100
AcDbLine
 62
250
  6
CONTINUOUS
 10
-29.9258982598
 20
12.4054082307
 11
-28.228841985
 21
12.4054082307
  0
LINE
  5
275
100
AcDbEntity
  8
ASSI
100
AcDbLine
 62
250
  6
CONTINUOUS
 10
-29.9258982598
 20
12.4054082307
 11
-28.228841985
 21
12.4054082307
  0
LINE
  5
276
100
AcDbEntity
  8
SMUSSO
100
AcDbLine
 62
250
  6
CONTINUOUS
 10
-29.9258982598
 20
15.6712893379
 11
-28.228841985
 21
15.6712893379
  0
LINE
  5
277
100
AcDbEntity
  8
ASSI
100
AcDbLine
 62
250
  6
CONTINUOUS
 10
-29.9258982598
 20
15.6712893379
 11
-28.228841985
 21
15.6712893379
  0
LINE
  5
278
100
AcDbEntity
  8
SMUSSO
100
AcDbLine
 62
7
  6
CONTINUOUS
 10
19.5008657451
 20
-15.1531268189
 11
19.5008657451
 21
-11.8872457117
  0
LINE
  5
279
100
AcDbEntity
  8
ASSI
100
AcDbLine
 62
7
  6
CONTINUOUS
 10
19.5008657451
 20
-15.1531268189
 11
19.5008657451
 21
-11.8872457117
  0
LINE
  5
27A
100
AcDbEntity
  8
SMUSSO
100
AcDbLine
 62
7
  6
CONTINUOUS
 10
19.8544191357
 20
-11.6831084151
 11
19.8544191357
 21
-14.9489895222
  0
LINE
  5
27B
100
AcDbEntity
  8
ASSI
100
AcDbLine
 62
7
  6
CONTINUOUS
 10
19.8544191357
 20
-11.6831084151
 11
19.8544191357
 21
-14.9489895222
  0
LINE
  5
27C
100
AcDbEntity
  8
ASSI
100
AcDbLine
 62
7
  6
CONTINUOUS
 10
48.2129015803
 20
6.3209415945
 11
52.274834565
 21
8.6662354967
  0
LINE
  5
27D
100
AcDbEntity
  8
SMUSSO
100
AcDbLine
 62
250
  6
CONTINUOUS
 10
19.8544191357
 20
-11.6831084151
 11
19.5008657451
 21
-11.8872457117
  0
LINE
  5
27E
100
AcDbEntity
  8
ASSI
100
AcDbLine
 62
250
  6
CONTINUOUS
 10
19.8544191357
 20
-11.6831084151
 11
19.5008657451
 21
-11.8872457117
  0
LINE
  5
27F
100
AcDbEntity
  8
ASSI
100
AcDbLine
 62
7
  6
CONTINUOUS
 10
48.9204388496
 20
5.0954510971
 11
52.9823718343
 21
7.4407449993
  0
LINE
  5
280
100
AcDbEntity
  8
SMUSSO
100
AcDbLine
 62
250
  6
CONTINUOUS
 10
19.8544191357
 20
-14.9489895222
 11
19.5008657451
 21
-15.1531268189
  0
LINE
  5
281
100
AcDbEntity
  8
ASSI
100
AcDbLine
 62
250
  6
CONTINUOUS
 10
19.8544191357
 20
-14.9489895222
 11
19.5008657451
 21
-15.1531268189
  0
LINE
  5
282
100
AcDbEntity
  8
SMUSSO
100
AcDbLine
 62
7
  6
CONTINUOUS
 10
24.4506132134
 20
-15.725026889
 11
24.4506132134
 21
-18.9909079962
  0
LINE
  5
283
100
AcDbEntity
  8
ASSI
100
AcDbLine
 62
7
  6
CONTINUOUS
 10
24.4506132134
 20
-15.725026889
 11
24.4506132134
 21
-18.9909079962
  0
LINE
  5
284
100
AcDbEntity
  8
ASSI
100
AcDbLine
 62
7
  6
CONTINUOUS
 10
48.8989374977
 20
5.1074460445
 11
48.9204388496
 21
5.0954510971
  0
LINE
  5
285
100
AcDbEntity
  8
ASSI
100
AcDbLine
 62
7
  6
CONTINUOUS
 10
47.2030024326
 20
5.2430282598
 11
-52.678287479
 21
62.9132332483
  0
LINE
  5
286
100
AcDbEntity
  8
ASSI
100
AcDbLine
 62
7
  6
CONTINUOUS
 10
47.2030024326
 20
5.2430282598
 11
48.21253915
 21
6.2963228556
  0
LINE
  5
287
100
AcDbEntity
  8
ASSI
100
AcDbLine
 62
7
  6
CONTINUOUS
 10
48.2129015803
 20
6.3209415945
 11
-52.274834565
 21
64.3413010376
  0
LINE
  5
288
100
AcDbEntity
  8
ASSI
100
AcDbLine
 62
7
  6
CONTINUOUS
 10
52.274834565
 20
8.6662354967
 11
-48.4870207779
 21
66.844867929
  0
LINE
  5
289
100
AcDbEntity
  8
ASSI
100
AcDbLine
 62
7
  6
CONTINUOUS
 10
47.4819783668
 20
4.7598277683
 11
47.2030024326
 21
5.2430282598
  0
LINE
  5
28A
100
AcDbEntity
  8
ASSI
100
AcDbLine
 62
7
  6
CONTINUOUS
 10
48.8989374977
 20
5.1074460445
 11
48.21253915
 21
6.2963228556
  0
LINE
  5
28B
100
AcDbEntity
  8
ASSI
100
AcDbLine
 62
7
  6
CONTINUOUS
 10
47.4819783668
 20
-66.071805831
 11
47.4819783668
 21
4.7598277683
  0
LINE
  5
28C
100
AcDbEntity
  8
ASSI
100
AcDbLine
 62
7
  6
CONTINUOUS
 10
48.9204388496
 20
-66.4364237351
 11
48.9204388496
 21
5.0954510971
  0
LINE
  5
28D
100
AcDbEntity
  8
CURVE
100
AcDbLine
 62
250
  6
CONTINUOUS
 10
50.051282223
 20
-59.2386740818
 11
50.051282223
 21
-59.664702557
  0
LINE
  5
28E
100
AcDbEntity
  8
CURVE
100
AcDbLine
 62
250
  6
CONTINUOUS
 10
50.0513911947
 20
-61.5012521318
 11
50.0513911947
 21
-61.0384539178
  0
LINE
  5
28F
100
AcDbEntity
  8
CURVE
100
AcDbLine
 62
250
  6
CONTINUOUS
 10
50.0513911947
 20
-60.2484813673
 11
50.0513911947
 21
-59.8227443721
  0
LINE
  5
290
100
AcDbEntity
  8
CURVE
100
AcDbLine
 62
250
  6
CONTINUOUS
 10
50.0513911947
 20
-58.8249842186
 11
50.0513911947
 21
-58.3993084586
  0
LINE
  5
291
100
AcDbEntity
  8
CURVE
100
AcDbLine
 62
250
  6
CONTINUOUS
 10
50.0513911947
 20
-57.551751076
 11
50.0513911947
 21
-57.1302376815
  0
LINE
  5
292
100
AcDbEntity
  8
CURVE
100
AcDbLine
 62
250
  6
CONTINUOUS
 10
50.0513911947
 20
-56.2323122475
 11
50.0513911947
 21
-55.820180913
  0
LINE
  5
293
100
AcDbEntity
  8
CURVE
100
AcDbLine
 62
250
  6
CONTINUOUS
 10
50.8647159796
 20
-53.9772899144
 11
50.8647159796
 21
-54.2207609056
  0
LINE
  5
294
100
AcDbEntity
  8
CURVE
100
AcDbLine
 62
250
  6
CONTINUOUS
 10
51.1641294674
 20
-54.04542348
 11
51.1641294674
 21
-53.8169972452
  0
LINE
  5
295
100
AcDbEntity
  8
CURVE
100
AcDbLine
 62
250
  6
CONTINUOUS
 10
51.232196851
 20
-55.6106052197
 11
51.232196851
 21
-55.2027129988
  0
LINE
  5
296
100
AcDbEntity
  8
CURVE
100
AcDbLine
 62
250
  6
CONTINUOUS
 10
51.5146105455
 20
-54.9655135842
 11
51.5146105455
 21
-55.5456932806
  0
LINE
  5
297
100
AcDbEntity
  8
CURVE
100
AcDbLine
 62
250
  6
CONTINUOUS
 10
51.8795823714
 20
-58.6803045772
 11
51.8795823714
 21
-58.2542761021
  0
LINE
  5
298
100
AcDbEntity
  8
CURVE
100
AcDbLine
 62
250
  6
CONTINUOUS
 10
51.8795823834
 20
-54.0845216818
 11
51.8795823834
 21
-53.6602075154
  0
LINE
  5
299
100
AcDbEntity
  8
CURVE
100
AcDbLine
 62
250
  6
CONTINUOUS
 10
51.8795823834
 20
-53.0078038228
 11
51.8795823834
 21
-52.5980140448
  0
LINE
  5
29A
100
AcDbEntity
  8
CURVE
100
AcDbLine
 62
250
  6
CONTINUOUS
 10
51.8795823714
 20
-54.2096244167
 11
51.8795823714
 21
-54.6586406125
  0
LINE
  5
29B
100
AcDbEntity
  8
CURVE
100
AcDbLine
 62
250
  6
CONTINUOUS
 10
51.8795823714
 20
-55.4667420689
 11
51.8795823714
 21
-55.8881476894
  0
LINE
  5
29C
100
AcDbEntity
  8
CURVE
100
AcDbLine
 62
250
  6
CONTINUOUS
 10
51.8795823714
 20
-55.955045998
 11
51.8795823714
 21
-56.3718148837
  0
LINE
  5
29D
100
AcDbEntity
  8
CURVE
100
AcDbLine
 62
250
  6
CONTINUOUS
 10
51.8795823714
 20
-56.9658909041
 11
51.8795823714
 21
-57.0256418319
  0
LINE
  5
29E
100
AcDbEntity
  8
CURVE
100
AcDbLine
 62
250
  6
CONTINUOUS
 10
51.8795823714
 20
-57.6173615192
 11
51.8795823714
 21
-58.0249320507
  0
LINE
  5
29F
100
AcDbEntity
  8
CURVE
100
AcDbLine
 62
250
  6
CONTINUOUS
 10
51.8795823714
 20
-59.4944511796
 11
51.8795823714
 21
-59.869888707
  0
LINE
  5
2A0
100
AcDbEntity
  8
ASSI
100
AcDbLine
 62
7
  6
CONTINUOUS
 10
48.2129015803
 20
6.3209415945
 11
48.21253915
 21
6.2963228556
  0
LINE
  5
2A1
100
AcDbEntity
  8
ASSI
100
AcDbLine
 62
7
  6
CONTINUOUS
 10
52.274834565
 20
8.6662354967
 11
52.9823718343
 21
7.4407449993
  0
LINE
  5
2A2
100
AcDbEntity
  8
ASSI
100
AcDbLine
 62
7
  6
CONTINUOUS
 10
52.9823718343
 20
-64.4076452208
 11
52.9823718343
 21
7.4407449993
  0
LINE
  5
2A3
100
AcDbEntity
  8
CURVE
100
AcDbLine
 62
7
  6
CONTINUOUS
 10
50.1107187044
 20
-53.9388361098
 11
50.6949142462
 21
-53.354640568
  0
LINE
  5
2A4
100
AcDbEntity
  8
CURVE
100
AcDbLine
 62
7
  6
CONTINUOUS
 10
50.0497808716
 20
-54.2097846566
 11
50.9024332816
 21
-53.3571322466
  0
LINE
  5
2A5
100
AcDbEntity
  8
CURVE
100
AcDbLine
 62
7
  6
CONTINUOUS
 10
50.0318082831
 20
-54.4377679592
 11
50.3612352866
 21
-54.1083409557
  0
LINE
  5
2A6
100
AcDbEntity
  8
CURVE
100
AcDbLine
 62
7
  6
CONTINUOUS
 10
50.7125222625
 20
-53.7570539798
 11
51.0153241087
 21
-53.4542521335
  0
LINE
  5
2A7
100
AcDbEntity
  8
CURVE
100
AcDbLine
 62
7
  6
CONTINUOUS
 10
51.0289809853
 20
-53.4405952569
 11
51.8311303964
 21
-52.6384458459
  0
LINE
  5
2A8
100
AcDbEntity
  8
CURVE
100
AcDbLine
 62
7
  6
CONTINUOUS
 10
50.033099001
 20
-54.6464879552
 11
50.3465214627
 21
-54.3330654936
  0
LINE
  5
2A9
100
AcDbEntity
  8
CURVE
100
AcDbLine
 62
7
  6
CONTINUOUS
 10
50.8418774963
 20
-53.83770946
 11
51.8795823834
 21
-52.8000045728
  0
LINE
  5
2AA
100
AcDbEntity
  8
CURVE
100
AcDbLine
 62
7
  6
CONTINUOUS
 10
50.0467292179
 20
-54.8428684523
 11
50.4403468868
 21
-54.4492507835
  0
LINE
  5
2AB
100
AcDbEntity
  8
CURVE
100
AcDbLine
 62
7
  6
CONTINUOUS
 10
50.8647159796
 20
-54.0248816907
 11
51.1832955273
 21
-53.706302143
  0
LINE
  5
2AC
100
AcDbEntity
  8
CURVE
100
AcDbLine
 62
7
  6
CONTINUOUS
 10
50.0691855817
 20
-55.0304228025
 11
51.1641294674
 21
-53.9354789169
  0
LINE
  5
2AD
100
AcDbEntity
  8
CURVE
100
AcDbLine
 62
7
  6
CONTINUOUS
 10
50.4616514826
 20
-54.8479676157
 11
51.3809211352
 21
-53.9286979631
  0
LINE
  5
2AE
100
AcDbEntity
  8
CURVE
100
AcDbLine
 62
7
  6
CONTINUOUS
 10
50.9166362354
 20
-54.6029935769
 11
51.835905888
 21
-53.6837239243
  0
LINE
  5
2AF
100
AcDbEntity
  8
CURVE
100
AcDbLine
 62
250
  6
CONTINUOUS
 10
51.0261991056
 20
-53.4487044033
 11
51.0153960915
 21
-53.4545209894
  0
LINE
  5
2B0
100
AcDbEntity
  8
CURVE
100
AcDbLine
 62
250
  6
CONTINUOUS
 10
51.8795823834
 20
-53.6602075154
 11
51.1641294674
 21
-54.04542348
  0
LINE
  5
2B1
100
AcDbEntity
  8
CURVE
100
AcDbLine
 62
250
  6
CONTINUOUS
 10
50.8647159796
 20
-54.2207609056
 11
50.3628419429
 21
-54.490981191
  0
LINE
  5
2B2
100
AcDbEntity
  8
CURVE
100
AcDbLine
 62
250
  6
CONTINUOUS
 10
50.0727508531
 20
-55.0573604741
 11
51.8795823834
 21
-54.0845216818
  0
LINE
  5
2B3
100
AcDbEntity
  8
CURVE
100
AcDbLine
 62
250
  6
CONTINUOUS
 10
50.6858083513
 20
-58.168179337
 11
51.8795823714
 21
-57.6173615192
  0
LINE
  5
2B4
100
AcDbEntity
  8
CURVE
100
AcDbLine
 62
250
  6
CONTINUOUS
 10
51.8795823714
 20
-58.0249320507
 11
50.0513911947
 21
-58.8249842186
  0
LINE
  5
2B5
100
AcDbEntity
  8
CURVE
100
AcDbLine
 62
7
  6
CONTINUOUS
 10
51.3716209882
 20
-54.3580195382
 11
51.8795823834
 21
-53.8500581429
  0
LINE
  5
2B6
100
AcDbEntity
  8
CURVE
100
AcDbLine
 62
7
  6
CONTINUOUS
 10
50.0513911947
 20
-55.8882600456
 11
50.6232746345
 21
-55.3163766059
  0
LINE
  5
2B7
100
AcDbEntity
  8
CURVE
100
AcDbLine
 62
7
  6
CONTINUOUS
 10
51.826605741
 20
-54.1130454994
 11
51.8795823834
 21
-54.0600688569
  0
LINE
  5
2B8
100
AcDbEntity
  8
CURVE
100
AcDbLine
 62
7
  6
CONTINUOUS
 10
50.0513911947
 20
-56.0982707596
 11
51.8795823714
 21
-54.270079583
  0
LINE
  5
2B9
100
AcDbEntity
  8
CURVE
100
AcDbLine
 62
7
  6
CONTINUOUS
 10
50.144978646
 20
-56.2146940223
 11
50.6081870472
 21
-55.7514856212
  0
LINE
  5
2BA
100
AcDbEntity
  8
CURVE
100
AcDbLine
 62
7
  6
CONTINUOUS
 10
50.7973882352
 20
-55.5622844331
 11
51.8795823714
 21
-54.480090297
  0
LINE
  5
2BB
100
AcDbEntity
  8
CURVE
100
AcDbLine
 62
7
  6
CONTINUOUS
 10
50.403693503
 20
-56.1659898794
 11
50.8794368279
 21
-55.6902465545
  0
LINE
  5
2BC
100
AcDbEntity
  8
CURVE
100
AcDbLine
 62
7
  6
CONTINUOUS
 10
51.232196851
 20
-55.3374865314
 11
51.5146105455
 21
-55.0550728368
  0
LINE
  5
2BD
100
AcDbEntity
  8
CURVE
100
AcDbLine
 62
7
  6
CONTINUOUS
 10
50.66240836
 20
-56.1172857364
 11
51.1506866087
 21
-55.6290074877
  0
LINE
  5
2BE
100
AcDbEntity
  8
CURVE
100
AcDbLine
 62
7
  6
CONTINUOUS
 10
51.232196851
 20
-55.5474972454
 11
51.5146105455
 21
-55.2650835508
  0
LINE
  5
2BF
100
AcDbEntity
  8
CURVE
100
AcDbLine
 62
7
  6
CONTINUOUS
 10
50.921123217
 20
-56.0685815934
 11
51.5146105455
 21
-55.4750942649
  0
LINE
  5
2C0
100
AcDbEntity
  8
CURVE
100
AcDbLine
 62
7
  6
CONTINUOUS
 10
50.0513911947
 20
-57.1483243297
 11
50.1020280651
 21
-57.0976874593
  0
LINE
  5
2C1
100
AcDbEntity
  8
CURVE
100
AcDbLine
 62
7
  6
CONTINUOUS
 10
51.179838074
 20
-56.0198774505
 11
51.6925045138
 21
-55.5072110106
  0
LINE
  5
2C2
100
AcDbEntity
  8
CURVE
100
AcDbLine
 62
7
  6
CONTINUOUS
 10
50.0513911947
 20
-57.3583350437
 11
50.6899913612
 21
-56.7197348772
  0
LINE
  5
2C3
100
AcDbEntity
  8
CURVE
100
AcDbLine
 62
7
  6
CONTINUOUS
 10
51.4385529309
 20
-55.9711733075
 11
51.8795823714
 21
-55.530143867
  0
LINE
  5
2C4
100
AcDbEntity
  8
CURVE
100
AcDbLine
 62
7
  6
CONTINUOUS
 10
50.0702209106
 20
-57.5495160418
 11
51.2779546574
 21
-56.3417822951
  0
LINE
  5
2C5
100
AcDbEntity
  8
CURVE
100
AcDbLine
 62
7
  6
CONTINUOUS
 10
51.6972677879
 20
-55.9224691645
 11
51.8795823714
 21
-55.7401545811
  0
LINE
  5
2C6
100
AcDbEntity
  8
CURVE
100
AcDbLine
 62
7
  6
CONTINUOUS
 10
50.3085166582
 20
-57.5212310082
 11
50.7353320222
 21
-57.0944156443
  0
LINE
  5
2C7
100
AcDbEntity
  8
CURVE
100
AcDbLine
 62
7
  6
CONTINUOUS
 10
50.7927149391
 20
-57.0370327273
 11
51.8659179535
 21
-55.963829713
  0
LINE
  5
2C8
100
AcDbEntity
  8
CURVE
100
AcDbLine
 62
7
  6
CONTINUOUS
 10
50.5468124058
 20
-57.4929459747
 11
50.9719164213
 21
-57.0678419592
  0
LINE
  5
2C9
100
AcDbEntity
  8
CURVE
100
AcDbLine
 62
7
  6
CONTINUOUS
 10
51.3340502366
 20
-56.7057081439
 11
51.8795823714
 21
-56.1601760091
  0
LINE
  5
2CA
100
AcDbEntity
  8
CURVE
100
AcDbLine
 62
7
  6
CONTINUOUS
 10
50.7851081533
 20
-57.4646609411
 11
51.2085008203
 21
-57.0412682741
  0
LINE
  5
2CB
100
AcDbEntity
  8
CURVE
100
AcDbLine
 62
7
  6
CONTINUOUS
 10
51.8753855341
 20
-56.3743835604
 11
51.8795823714
 21
-56.3701867231
  0
LINE
  5
2CC
100
AcDbEntity
  8
CURVE
100
AcDbLine
 62
7
  6
CONTINUOUS
 10
50.0513911947
 20
-58.4083886138
 11
50.2475698624
 21
-58.2122099461
  0
LINE
  5
2CD
100
AcDbEntity
  8
CURVE
100
AcDbLine
 62
7
  6
CONTINUOUS
 10
51.0234039009
 20
-57.4363759076
 11
51.4450852194
 21
-57.0146945891
  0
LINE
  5
2CE
100
AcDbEntity
  8
CURVE
100
AcDbLine
 62
7
  6
CONTINUOUS
 10
50.0513911947
 20
-58.6183993278
 11
51.6816696185
 21
-56.988120904
  0
LINE
  5
2CF
100
AcDbEntity
  8
CURVE
100
AcDbLine
 62
7
  6
CONTINUOUS
 10
50.0574828416
 20
-58.8223183949
 11
50.7337362553
 21
-58.1460649812
  0
LINE
  5
2D0
100
AcDbEntity
  8
CURVE
100
AcDbLine
 62
7
  6
CONTINUOUS
 10
51.287245494
 20
-57.5925557425
 11
51.8795823714
 21
-57.0002188651
  0
LINE
  5
2D1
100
AcDbEntity
  8
CURVE
100
AcDbLine
 62
7
  6
CONTINUOUS
 10
50.4309145771
 20
-58.6588973734
 11
51.1236622464
 21
-57.9661497042
  0
LINE
  5
2D2
100
AcDbEntity
  8
CURVE
100
AcDbLine
 62
7
  6
CONTINUOUS
 10
50.051282223
 20
-59.2485404415
 11
50.0726575288
 21
-59.2271651358
  0
LINE
  5
2D3
100
AcDbEntity
  8
CURVE
100
AcDbLine
 62
7
  6
CONTINUOUS
 10
50.8043463125
 20
-58.495476352
 11
51.5135882374
 21
-57.7862344271
  0
LINE
  5
2D4
100
AcDbEntity
  8
CURVE
100
AcDbLine
 62
7
  6
CONTINUOUS
 10
50.051282223
 20
-59.4585511555
 11
50.5276422816
 21
-58.982191097
  0
LINE
  5
2D5
100
AcDbEntity
  8
CURVE
100
AcDbLine
 62
7
  6
CONTINUOUS
 10
51.177778048
 20
-58.3320553306
 11
51.8795823714
 21
-57.6302510072
  0
LINE
  5
2D6
100
AcDbEntity
  8
CURVE
100
AcDbLine
 62
7
  6
CONTINUOUS
 10
50.0596433602
 20
-59.6602007324
 11
50.9826270344
 21
-58.7372170582
  0
LINE
  5
2D7
100
AcDbEntity
  8
CURVE
100
AcDbLine
 62
7
  6
CONTINUOUS
 10
51.5512097834
 20
-58.1686343091
 11
51.8795823714
 21
-57.8402617212
  0
LINE
  5
2D8
100
AcDbEntity
  8
CURVE
100
AcDbLine
 62
7
  6
CONTINUOUS
 10
50.0513911947
 20
-59.8784636119
 11
50.1193060953
 21
-59.8105487112
  0
LINE
  5
2D9
100
AcDbEntity
  8
CURVE
100
AcDbLine
 62
7
  6
CONTINUOUS
 10
50.514628113
 20
-59.4152266936
 11
51.4376117872
 21
-58.4922430194
  0
LINE
  5
2DA
100
AcDbEntity
  8
CURVE
100
AcDbLine
 62
7
  6
CONTINUOUS
 10
50.0513911947
 20
-60.0884743259
 11
50.3752833274
 21
-59.7645821932
  0
LINE
  5
2DB
100
AcDbEntity
  8
CURVE
100
AcDbLine
 62
7
  6
CONTINUOUS
 10
50.9696128658
 20
-59.1702526548
 11
51.8795823714
 21
-58.2602831492
  0
LINE
  5
2DC
100
AcDbEntity
  8
CURVE
100
AcDbLine
 62
7
  6
CONTINUOUS
 10
50.1154837505
 20
-60.2343924841
 11
50.6312605594
 21
-59.7186156751
  0
LINE
  5
2DD
100
AcDbEntity
  8
CURVE
100
AcDbLine
 62
7
  6
CONTINUOUS
 10
51.4245976186
 20
-58.925278616
 11
51.8795823714
 21
-58.4702938632
  0
LINE
  5
2DE
100
AcDbEntity
  8
CURVE
100
AcDbLine
 62
7
  6
CONTINUOUS
 10
50.3846664469
 20
-60.1752205017
 11
50.8872377915
 21
-59.6726491571
  0
LINE
  5
2DF
100
AcDbEntity
  8
CURVE
100
AcDbLine
 62
7
  6
CONTINUOUS
 10
50.6538491432
 20
-60.1160485194
 11
51.1432150236
 21
-59.6266826391
  0
LINE
  5
2E0
100
AcDbEntity
  8
CURVE
100
AcDbLine
 62
7
  6
CONTINUOUS
 10
50.9230318396
 20
-60.0568765371
 11
51.3991922556
 21
-59.580716121
  0
LINE
  5
2E1
100
AcDbEntity
  8
CURVE
100
AcDbLine
 62
7
  6
CONTINUOUS
 10
50.0513911947
 20
-61.1385278959
 11
50.7079583706
 21
-60.4819607201
  0
LINE
  5
2E2
100
AcDbEntity
  8
CURVE
100
AcDbLine
 62
7
  6
CONTINUOUS
 10
51.1922145359
 20
-59.9977045547
 11
51.6551694877
 21
-59.534749603
  0
LINE
  5
2E3
100
AcDbEntity
  8
CURVE
100
AcDbLine
 62
7
  6
CONTINUOUS
 10
50.0513911947
 20
-61.3485386099
 11
51.8795823714
 21
-59.5203474333
  0
LINE
  5
2E4
100
AcDbEntity
  8
CURVE
100
AcDbLine
 62
7
  6
CONTINUOUS
 10
50.5835835312
 20
-61.0263569875
 11
51.8795823714
 21
-59.7303581473
  0
LINE
  5
2E5
100
AcDbEntity
  8
CURVE
100
AcDbLine
 62
250
  6
CONTINUOUS
 10
51.8795823714
 20
-57.0256418319
 11
50.6858083513
 21
-58.168179337
  0
LINE
  5
2E6
100
AcDbEntity
  8
CURVE
100
AcDbLine
 62
250
  6
CONTINUOUS
 10
50.0513911947
 20
-58.3993084586
 11
51.0664084744
 21
-57.4312713859
  0
LINE
  5
2E7
100
AcDbEntity
  8
CURVE
100
AcDbLine
 62
250
  6
CONTINUOUS
 10
51.8795823714
 20
-59.869888707
 11
50.0513911947
 21
-61.5012521318
  0
LINE
  5
2E8
100
AcDbEntity
  8
CURVE
100
AcDbLine
 62
250
  6
CONTINUOUS
 10
50.0513911947
 20
-55.820180913
 11
51.8795823714
 21
-54.2096244167
  0
LINE
  5
2E9
100
AcDbEntity
  8
CURVE
100
AcDbLine
 62
250
  6
CONTINUOUS
 10
50.0513911947
 20
-61.0384539178
 11
51.309792016
 21
-59.9718585674
  0
LINE
  5
2EA
100
AcDbEntity
  8
CURVE
100
AcDbLine
 62
250
  6
CONTINUOUS
 10
51.8795823714
 20
-54.6586406125
 11
51.5146105455
 21
-54.9655135842
  0
LINE
  5
2EB
100
AcDbEntity
  8
CURVE
100
AcDbLine
 62
250
  6
CONTINUOUS
 10
51.232196851
 20
-55.2027129988
 11
50.5537317236
 21
-55.7637797996
  0
LINE
  5
2EC
100
AcDbEntity
  8
CURVE
100
AcDbLine
 62
250
  6
CONTINUOUS
 10
50.0513911947
 20
-57.1302376815
 11
51.8795823714
 21
-55.955045998
  0
LINE
  5
2ED
100
AcDbEntity
  8
CURVE
100
AcDbLine
 62
250
  6
CONTINUOUS
 10
51.8795823714
 20
-56.3718148837
 11
50.6907844819
 21
-57.0994193229
  0
LINE
  5
2EE
100
AcDbEntity
  8
ASSI
100
AcDbLine
 62
7
  6
CONTINUOUS
 10
47.2030024326
 20
-66.2328519066
 11
47.4819783668
 21
-66.071805831
  0
LINE
  5
2EF
100
AcDbEntity
  8
ASSI
100
AcDbLine
 62
7
  6
CONTINUOUS
 10
48.21253915
 20
-66.8442264913
 11
48.8989374977
 21
-66.4479852869
  0
LINE
  5
2F0
100
AcDbEntity
  8
ASSI
100
AcDbLine
 62
7
  6
CONTINUOUS
 10
52.9823718343
 20
-64.4076452208
 11
52.274834565
 21
-64.8160894147
  0
LINE
  5
2F1
100
AcDbEntity
  8
CURVE
100
AcDbLine
 62
250
  6
CONTINUOUS
 10
51.8795823714
 20
-58.2542761021
 11
50.051282223
 21
-59.2386740818
  0
LINE
  5
2F2
100
AcDbEntity
  8
CURVE
100
AcDbLine
 62
250
  6
CONTINUOUS
 10
50.051282223
 20
-59.664702557
 11
51.8795823714
 21
-58.6803045772
  0
LINE
  5
2F3
100
AcDbEntity
  8
ASSI
100
AcDbLine
 62
7
  6
CONTINUOUS
 10
48.9204388496
 20
-66.4364237351
 11
48.8989374977
 21
-66.4479852869
  0
LINE
  5
2F4
100
AcDbEntity
  8
ASSI
100
AcDbLine
 62
7
  6
CONTINUOUS
 10
48.9204388496
 20
-66.4364237351
 11
52.9823718343
 21
-64.4076452208
  0
LINE
  5
2F5
100
AcDbEntity
  8
ASSI
100
AcDbLine
 62
7
  6
CONTINUOUS
 10
48.2129015803
 20
-66.844867929
 11
52.274834565
 21
-64.8160894147
  0
ARC
  5
2F6
100
AcDbEntity
  8
SMUSSO
100
AcDbCircle
 62
7
  6
CONTINUOUS
 10
-24.1092569184
 20
12.7792265454
 40
3.7661244949
100
AcDbArc
 50
182.4266115244
 51
182.576778317
  0
ARC
  5
2F7
100
AcDbEntity
  8
ASSI
100
AcDbCircle
 62
7
  6
CONTINUOUS
 10
-24.1092569184
 20
12.7792265454
 40
3.7661244949
100
AcDbArc
 50
182.4266115244
 51
182.576778317
  0
ARC
  5
2F8
100
AcDbEntity
  8
SMUSSO
100
AcDbCircle
 62
7
  6
CONTINUOUS
 10
-8.1993543478
 20
3.5930481953
 40
3.7661244887
100
AcDbArc
 50
182.4266115243
 51
182.5767783171
  0
ARC
  5
2F9
100
AcDbEntity
  8
ASSI
100
AcDbCircle
 62
7
  6
CONTINUOUS
 10
-8.1993543478
 20
3.5930481953
 40
3.7661244887
100
AcDbArc
 50
182.4266115243
 51
182.5767783171
  0
ARC
  5
2FA
100
AcDbEntity
  8
SMUSSO
100
AcDbCircle
 62
7
  6
CONTINUOUS
 10
-24.7205549934
 20
15.8766713833
 40
3.1547338465
100
AcDbArc
 50
177.4673070629
 51
180.0226069311
  0
ARC
  5
2FB
100
AcDbEntity
  8
SMUSSO
100
AcDbCircle
 62
7
  6
CONTINUOUS
 10
-8.8106524168
 20
6.6904930334
 40
3.1547338465
100
AcDbArc
 50
177.4673070629
 51
180.0226069311
  0
ARC
  5
2FC
100
AcDbEntity
  8
ASSI
100
AcDbCircle
 62
7
  6
CONTINUOUS
 10
-24.7205549934
 20
15.8766713833
 40
3.1547338465
100
AcDbArc
 50
177.4673070629
 51
180.0226069311
  0
ARC
  5
2FD
100
AcDbEntity
  8
ASSI
100
AcDbCircle
 62
7
  6
CONTINUOUS
 10
-8.8106524168
 20
6.6904930334
 40
3.1547338465
100
AcDbArc
 50
177.4673070629
 51
180.0226069311
  0
ARC
  5
2FE
100
AcDbEntity
  8
SMUSSO
100
AcDbCircle
 62
7
  6
CONTINUOUS
 10
-24.834746203
 20
15.8813301381
 40
3.0404483399
100
AcDbArc
 50
177.0332282897
 51
177.4599230057
  0
ARC
  5
2FF
100
AcDbEntity
  8
ASSI
100
AcDbCircle
 62
7
  6
CONTINUOUS
 10
-24.834746203
 20
15.8813301381
 40
3.0404483399
100
AcDbArc
 50
177.0332282897
 51
177.4599230057
  0
ARC
  5
300
100
AcDbEntity
  8
SMUSSO
100
AcDbCircle
 62
7
  6
CONTINUOUS
 10
-8.9248436267
 20
6.6951517883
 40
3.0404483394
100
AcDbArc
 50
177.0332282897
 51
177.4599230057
  0
ARC
  5
301
100
AcDbEntity
  8
ASSI
100
AcDbCircle
 62
7
  6
CONTINUOUS
 10
-8.9248436267
 20
6.6951517883
 40
3.0404483394
100
AcDbArc
 50
177.0332282897
 51
177.4599230057
  0
ARC
  5
302
100
AcDbEntity
  8
SMUSSO
100
AcDbCircle
 62
7
  6
CONTINUOUS
 10
-26.4841582666
 20
16.3758493609
 40
1.290389395
100
AcDbArc
 50
138.1438941365
 51
138.5536836844
  0
ARC
  5
303
100
AcDbEntity
  8
SMUSSO
100
AcDbCircle
 62
7
  6
CONTINUOUS
 10
-10.5742556898
 20
7.189671011
 40
1.2903893951
100
AcDbArc
 50
138.1438941365
 51
138.5536836844
  0
ARC
  5
304
100
AcDbEntity
  8
ASSI
100
AcDbCircle
 62
7
  6
CONTINUOUS
 10
-26.4841582666
 20
16.3758493609
 40
1.290389395
100
AcDbArc
 50
138.1438941365
 51
138.5536836844
  0
ARC
  5
305
100
AcDbEntity
  8
ASSI
100
AcDbCircle
 62
7
  6
CONTINUOUS
 10
-10.5742556898
 20
7.189671011
 40
1.2903893951
100
AcDbArc
 50
138.1438941365
 51
138.5536836844
  0
ARC
  5
306
100
AcDbEntity
  8
SMUSSO
100
AcDbCircle
 62
7
  6
CONTINUOUS
 10
-26.5251478541
 20
16.4146102252
 40
1.2339966871
100
AcDbArc
 50
129.9833575211
 51
138.214431363
  0
ARC
  5
307
100
AcDbEntity
  8
SMUSSO
100
AcDbCircle
 62
7
  6
CONTINUOUS
 10
-10.6152452774
 20
7.2284318754
 40
1.2339966871
100
AcDbArc
 50
129.9833575211
 51
138.214431363
  0
ARC
  5
308
100
AcDbEntity
  8
ASSI
100
AcDbCircle
 62
7
  6
CONTINUOUS
 10
-26.5251478541
 20
16.4146102252
 40
1.2339966871
100
AcDbArc
 50
129.9833575211
 51
138.214431363
  0
ARC
  5
309
100
AcDbEntity
  8
ASSI
100
AcDbCircle
 62
7
  6
CONTINUOUS
 10
-10.6152452774
 20
7.2284318754
 40
1.2339966871
100
AcDbArc
 50
129.9833575211
 51
138.214431363
  0
ARC
  5
30A
100
AcDbEntity
  8
SMUSSO
100
AcDbCircle
 62
7
  6
CONTINUOUS
 10
-24.2574151751
 20
9.2210750571
 40
1.2323640814
100
AcDbArc
 50
284.1714910316
 51
289.9734264674
  0
ARC
  5
30B
100
AcDbEntity
  8
SMUSSO
100
AcDbCircle
 62
7
  6
CONTINUOUS
 10
-8.3475125984
 20
0.0348967072
 40
1.2323640813
100
AcDbArc
 50
284.1714910316
 51
289.9734264674
  0
ARC
  5
30C
100
AcDbEntity
  8
ASSI
100
AcDbCircle
 62
7
  6
CONTINUOUS
 10
-24.2574151751
 20
9.2210750571
 40
1.2323640814
100
AcDbArc
 50
284.1714910316
 51
289.9734264674
  0
ARC
  5
30D
100
AcDbEntity
  8
ASSI
100
AcDbCircle
 62
7
  6
CONTINUOUS
 10
-8.3475125984
 20
0.0348967072
 40
1.2323640813
100
AcDbArc
 50
284.1714910316
 51
289.9734264674
  0
ARC
  5
30E
100
AcDbEntity
  8
SMUSSO
100
AcDbCircle
 62
7
  6
CONTINUOUS
 10
23.6204508093
 20
-14.7793085043
 40
3.7661244925
100
AcDbArc
 50
182.4266115244
 51
182.5767783171
  0
ARC
  5
30F
100
AcDbEntity
  8
ASSI
100
AcDbCircle
 62
7
  6
CONTINUOUS
 10
23.6204508093
 20
-14.7793085043
 40
3.7661244925
100
AcDbArc
 50
182.4266115244
 51
182.5767783171
  0
ARC
  5
310
100
AcDbEntity
  8
SMUSSO
100
AcDbCircle
 62
7
  6
CONTINUOUS
 10
7.7105482298
 20
-5.5931301546
 40
3.7661244897
100
AcDbArc
 50
182.4266115243
 51
182.5767783171
  0
ARC
  5
311
100
AcDbEntity
  8
ASSI
100
AcDbCircle
 62
7
  6
CONTINUOUS
 10
7.7105482298
 20
-5.5931301546
 40
3.7661244897
100
AcDbArc
 50
182.4266115243
 51
182.5767783171
  0
ARC
  5
312
100
AcDbEntity
  8
SMUSSO
100
AcDbCircle
 62
7
  6
CONTINUOUS
 10
7.0992501599
 20
-2.4956853165
 40
3.1547338465
100
AcDbArc
 50
177.4673070629
 51
180.0226069311
  0
ARC
  5
313
100
AcDbEntity
  8
SMUSSO
100
AcDbCircle
 62
7
  6
CONTINUOUS
 10
23.0091527366
 20
-11.6818636663
 40
3.1547338465
100
AcDbArc
 50
177.4673070629
 51
180.0226069311
  0
ARC
  5
314
100
AcDbEntity
  8
ASSI
100
AcDbCircle
 62
7
  6
CONTINUOUS
 10
7.0992501599
 20
-2.4956853165
 40
3.1547338465
100
AcDbArc
 50
177.4673070629
 51
180.0226069311
  0
ARC
  5
315
100
AcDbEntity
  8
ASSI
100
AcDbCircle
 62
7
  6
CONTINUOUS
 10
23.0091527366
 20
-11.6818636663
 40
3.1547338465
100
AcDbArc
 50
177.4673070629
 51
180.0226069311
  0
ARC
  5
316
100
AcDbEntity
  8
SMUSSO
100
AcDbCircle
 62
7
  6
CONTINUOUS
 10
6.9850589503
 20
-2.4910265616
 40
3.0404483398
100
AcDbArc
 50
177.0332282897
 51
177.4599230057
  0
ARC
  5
317
100
AcDbEntity
  8
SMUSSO
100
AcDbCircle
 62
7
  6
CONTINUOUS
 10
22.8949615268
 20
-11.6772049115
 40
3.0404483396
100
AcDbArc
 50
177.0332282897
 51
177.4599230057
  0
ARC
  5
318
100
AcDbEntity
  8
ASSI
100
AcDbCircle
 62
7
  6
CONTINUOUS
 10
6.9850589503
 20
-2.4910265616
 40
3.0404483398
100
AcDbArc
 50
177.0332282897
 51
177.4599230057
  0
ARC
  5
319
100
AcDbEntity
  8
ASSI
100
AcDbCircle
 62
7
  6
CONTINUOUS
 10
22.8949615268
 20
-11.6772049115
 40
3.0404483396
100
AcDbArc
 50
177.0332282897
 51
177.4599230057
  0
ARC
  5
31A
100
AcDbEntity
  8
SMUSSO
100
AcDbCircle
 62
7
  6
CONTINUOUS
 10
5.3356468868
 20
-1.9965073388
 40
1.2903893949
100
AcDbArc
 50
138.1438941365
 51
138.5536836844
  0
ARC
  5
31B
100
AcDbEntity
  8
SMUSSO
100
AcDbCircle
 62
7
  6
CONTINUOUS
 10
21.2455494636
 20
-11.1826856888
 40
1.2903893951
100
AcDbArc
 50
138.1438941365
 51
138.5536836844
  0
ARC
  5
31C
100
AcDbEntity
  8
ASSI
100
AcDbCircle
 62
7
  6
CONTINUOUS
 10
5.3356468868
 20
-1.9965073388
 40
1.2903893949
100
AcDbArc
 50
138.1438941365
 51
138.5536836844
  0
ARC
  5
31D
100
AcDbEntity
  8
ASSI
100
AcDbCircle
 62
7
  6
CONTINUOUS
 10
21.2455494636
 20
-11.1826856888
 40
1.2903893951
100
AcDbArc
 50
138.1438941365
 51
138.5536836844
  0
ARC
  5
31E
100
AcDbEntity
  8
SMUSSO
100
AcDbCircle
 62
7
  6
CONTINUOUS
 10
5.2946572993
 20
-1.9577464745
 40
1.2339966871
100
AcDbArc
 50
129.9833575211
 51
138.214431363
  0
ARC
  5
31F
100
AcDbEntity
  8
SMUSSO
100
AcDbCircle
 62
7
  6
CONTINUOUS
 10
21.204559876
 20
-11.1439248244
 40
1.2339966871
100
AcDbArc
 50
129.9833575211
 51
138.214431363
  0
ARC
  5
320
100
AcDbEntity
  8
ASSI
100
AcDbCircle
 62
7
  6
CONTINUOUS
 10
5.2946572993
 20
-1.9577464745
 40
1.2339966871
100
AcDbArc
 50
129.9833575211
 51
138.214431363
  0
ARC
  5
321
100
AcDbEntity
  8
ASSI
100
AcDbCircle
 62
7
  6
CONTINUOUS
 10
21.204559876
 20
-11.1439248244
 40
1.2339966871
100
AcDbArc
 50
129.9833575211
 51
138.214431363
  0
ARC
  5
322
100
AcDbEntity
  8
SMUSSO
100
AcDbCircle
 62
7
  6
CONTINUOUS
 10
7.5623899783
 20
-9.1512816426
 40
1.2323640813
100
AcDbArc
 50
284.1714910316
 51
289.9734264674
  0
ARC
  5
323
100
AcDbEntity
  8
SMUSSO
100
AcDbCircle
 62
7
  6
CONTINUOUS
 10
23.472292555
 20
-18.3374599925
 40
1.2323640813
100
AcDbArc
 50
284.1714910316
 51
289.9734264674
  0
ARC
  5
324
100
AcDbEntity
  8
ASSI
100
AcDbCircle
 62
7
  6
CONTINUOUS
 10
7.5623899783
 20
-9.1512816426
 40
1.2323640813
100
AcDbArc
 50
284.1714910316
 51
289.9734264674
  0
ARC
  5
325
100
AcDbEntity
  8
ASSI
100
AcDbCircle
 62
7
  6
CONTINUOUS
 10
23.472292555
 20
-18.3374599925
 40
1.2323640813
100
AcDbArc
 50
284.1714910316
 51
289.9734264674
  0
SPLINE
  5
326
100
AcDbEntity
  8
SMUSSO
100
AcDbSpline
 62
7
  6
CONTINUOUS
 70
0
 71
3
 72
11
 73
7
 74
0
 42
0.0000001
 43
0.0000001
 44
0.0000000001
 40
0.0
 40
0.0
 40
0.0
 40
0.0
 40
0.2831435718
 40
0.5426266606
 40
0.7800701955
 40
1.0
 40
1.0
 40
1.0
 40
1.0
 10
-25.4001756816
 20
8.3228041453
 30
0.0
 10
-25.2768504614
 20
8.2516114577
 30
0.0
 10
-25.0312690422
 20
8.1300955412
 30
0.0
 10
-24.6547963296
 20
8.0130659255
 30
0.0
 10
-24.2941332784
 20
7.9724105663
 30
0.0
 10
-24.0629371697
 20
7.9991122002
 30
0.0
 10
-23.9557016593
 20
8.026215156
 30
0.0
  0
SPLINE
  5
327
100
AcDbEntity
  8
SMUSSO
100
AcDbSpline
 62
7
  6
CONTINUOUS
 70
0
 71
3
 72
15
 73
11
 74
0
 42
0.0000001
 43
0.0000001
 44
0.0000000001
 40
0.0
 40
0.0
 40
0.0
 40
0.0
 40
0.1141523952
 40
0.2373236326
 40
0.3669741648
 40
0.4999998196
 40
0.6330255942
 40
0.762676296
 40
0.8858445451
 40
1.0
 40
1.0
 40
1.0
 40
1.0
 10
-26.6028175711
 20
17.5899909845
 30
0.0
 10
-26.3752902005
 20
17.4586449021
 30
0.0
 10
-25.9258742387
 20
17.1436461731
 30
0.0
 10
-25.3075036476
 20
16.5651499315
 30
0.0
 10
-24.7376260003
 20
15.8813162779
 30
0.0
 10
-24.2377218852
 20
15.1177897227
 30
0.0
 10
-23.8263972812
 20
14.3031186438
 30
0.0
 10
-23.519069022
 20
13.467697948
 30
0.0
 10
-23.3272196099
 20
12.6429347578
 30
0.0
 10
-23.2790945157
 20
12.0962327269
 30
0.0
 10
-23.2790945167
 20
11.8335081606
 30
0.0
  0
SPLINE
  5
328
100
AcDbEntity
  8
SMUSSO
100
AcDbSpline
 62
7
  6
CONTINUOUS
 70
0
 71
3
 72
11
 73
7
 74
0
 42
0.0000001
 43
0.0000001
 44
0.0000000001
 40
0.0
 40
0.0
 40
0.0
 40
0.0
 40
0.2267805988
 40
0.4640561876
 40
0.7201179473
 40
1.0
 40
1.0
 40
1.0
 40
1.0
 10
-27.5040515591
 20
17.2733661831
 30
0.0
 10
-27.4123686575
 20
17.3262972244
 30
0.0
 10
-27.2087671509
 20
17.4089527204
 30
0.0
 10
-26.8718989552
 20
17.4505207744
 30
0.0
 10
-26.5103660849
 20
17.4122653552
 30
0.0
 10
-26.269725603
 20
17.3386426725
 30
0.0
 10
-26.1480491813
 20
17.2910474681
 30
0.0
  0
SPLINE
  5
329
100
AcDbEntity
  8
SMUSSO
100
AcDbSpline
 62
7
  6
CONTINUOUS
 70
0
 71
3
 72
11
 73
7
 74
0
 42
0.0000001
 43
0.0000001
 44
0.0000000001
 40
0.0
 40
0.0
 40
0.0
 40
0.0
 40
0.2238059521
 40
0.4631000142
 40
0.7212878536
 40
1.0
 40
1.0
 40
1.0
 40
1.0
 10
-27.4514034955
 20
17.2299813519
 30
0.0
 10
-27.5148720546
 20
17.1581080317
 30
0.0
 10
-27.6298130308
 20
16.9943383136
 30
0.0
 10
-27.7560017144
 20
16.7105558792
 30
0.0
 10
-27.8394709501
 20
16.3873247087
 30
0.0
 10
-27.8649383333
 20
16.1579429809
 30
0.0
 10
-27.8711194868
 20
16.0386940124
 30
0.0
  0
SPLINE
  5
32A
100
AcDbEntity
  8
SMUSSO
100
AcDbSpline
 62
7
  6
CONTINUOUS
 70
0
 71
3
 72
11
 73
7
 74
0
 42
0.0000001
 43
0.0000001
 44
0.0000000001
 40
0.0
 40
0.0
 40
0.0
 40
0.0
 40
0.2831435718
 40
0.5426266606
 40
0.7800701955
 40
1.0
 40
1.0
 40
1.0
 40
1.0
 10
-9.4902731049
 20
-0.8633742045
 30
0.0
 10
-9.3669478847
 20
-0.9345668921
 30
0.0
 10
-9.1213664655
 20
-1.0560828087
 30
0.0
 10
-8.7448937529
 20
-1.1731124244
 30
0.0
 10
-8.3842307018
 20
-1.2137677835
 30
0.0
 10
-8.153034593
 20
-1.1870661497
 30
0.0
 10
-8.0457990826
 20
-1.1599631939
 30
0.0
  0
SPLINE
  5
32B
100
AcDbEntity
  8
SMUSSO
100
AcDbSpline
 62
7
  6
CONTINUOUS
 70
0
 71
3
 72
15
 73
11
 74
0
 42
0.0000001
 43
0.0000001
 44
0.0000000001
 40
0.0
 40
0.0
 40
0.0
 40
0.0
 40
0.1141523952
 40
0.2373236326
 40
0.3669741648
 40
0.4999998196
 40
0.6330255942
 40
0.762676296
 40
0.8858445451
 40
1.0
 40
1.0
 40
1.0
 40
1.0
 10
-10.6929149944
 20
8.4038126346
 30
0.0
 10
-10.4653876238
 20
8.2724665522
 30
0.0
 10
-10.015971662
 20
7.9574678232
 30
0.0
 10
-9.3976010709
 20
7.3789715816
 30
0.0
 10
-8.8277234236
 20
6.695137928
 30
0.0
 10
-8.3278193085
 20
5.9316113729
 30
0.0
 10
-7.9164947045
 20
5.1169402939
 30
0.0
 10
-7.6091664453
 20
4.2815195981
 30
0.0
 10
-7.4173170332
 20
3.456756408
 30
0.0
 10
-7.369191939
 20
2.910054377
 30
0.0
 10
-7.36919194
 20
2.6473298107
 30
0.0
  0
SPLINE
  5
32C
100
AcDbEntity
  8
SMUSSO
100
AcDbSpline
 62
7
  6
CONTINUOUS
 70
0
 71
3
 72
11
 73
7
 74
0
 42
0.0000001
 43
0.0000001
 44
0.0000000001
 40
0.0
 40
0.0
 40
0.0
 40
0.0
 40
0.2267805988
 40
0.4640561876
 40
0.7201179473
 40
1.0
 40
1.0
 40
1.0
 40
1.0
 10
-11.5941489824
 20
8.0871878332
 30
0.0
 10
-11.5024660808
 20
8.1401188745
 30
0.0
 10
-11.2988645742
 20
8.2227743705
 30
0.0
 10
-10.9619963786
 20
8.2643424245
 30
0.0
 10
-10.6004635082
 20
8.2260870053
 30
0.0
 10
-10.3598230263
 20
8.1524643226
 30
0.0
 10
-10.2381466046
 20
8.1048691182
 30
0.0
  0
SPLINE
  5
32D
100
AcDbEntity
  8
SMUSSO
100
AcDbSpline
 62
7
  6
CONTINUOUS
 70
0
 71
3
 72
11
 73
7
 74
0
 42
0.0000001
 43
0.0000001
 44
0.0000000001
 40
0.0
 40
0.0
 40
0.0
 40
0.0
 40
0.2238059521
 40
0.4631000142
 40
0.7212878536
 40
1.0
 40
1.0
 40
1.0
 40
1.0
 10
-11.5415009188
 20
8.043803002
 30
0.0
 10
-11.6049694779
 20
7.9719296818
 30
0.0
 10
-11.7199104541
 20
7.8081599638
 30
0.0
 10
-11.8460991377
 20
7.5243775294
 30
0.0
 10
-11.9295683734
 20
7.2011463588
 30
0.0
 10
-11.9550357566
 20
6.971764631
 30
0.0
 10
-11.9612169101
 20
6.8525156625
 30
0.0
  0
SPLINE
  5
32E
100
AcDbEntity
  8
SMUSSO
100
AcDbSpline
 62
7
  6
CONTINUOUS
 70
0
 71
3
 72
11
 73
7
 74
0
 42
0.0000001
 43
0.0000001
 44
0.0000000001
 40
0.0
 40
0.0
 40
0.0
 40
0.0
 40
0.2831435718
 40
0.5426266606
 40
0.7800701955
 40
1.0
 40
1.0
 40
1.0
 40
1.0
 10
6.4196294718
 20
-10.0495525544
 30
0.0
 10
6.542954692
 20
-10.120745242
 30
0.0
 10
6.7885361112
 20
-10.2422611586
 30
0.0
 10
7.1650088238
 20
-10.3592907743
 30
0.0
 10
7.5256718749
 20
-10.3999461334
 30
0.0
 10
7.7568679837
 20
-10.3732444995
 30
0.0
 10
7.8641034941
 20
-10.3461415438
 30
0.0
  0
SPLINE
  5
32F
100
AcDbEntity
  8
SMUSSO
100
AcDbSpline
 62
7
  6
CONTINUOUS
 70
0
 71
3
 72
15
 73
11
 74
0
 42
0.0000001
 43
0.0000001
 44
0.0000000001
 40
0.0
 40
0.0
 40
0.0
 40
0.0
 40
0.1141523952
 40
0.2373236326
 40
0.3669741648
 40
0.4999998196
 40
0.6330255942
 40
0.762676296
 40
0.8858445451
 40
1.0
 40
1.0
 40
1.0
 40
1.0
 10
5.2169875823
 20
-0.7823657153
 30
0.0
 10
5.4445149529
 20
-0.9137117976
 30
0.0
 10
5.8939309147
 20
-1.2287105266
 30
0.0
 10
6.5123015058
 20
-1.8072067683
 30
0.0
 10
7.0821791531
 20
-2.4910404218
 30
0.0
 10
7.5820832682
 20
-3.254566977
 30
0.0
 10
7.9934078722
 20
-4.069238056
 30
0.0
 10
8.3007361313
 20
-4.9046587517
 30
0.0
 10
8.4925855435
 20
-5.7294219419
 30
0.0
 10
8.5407106377
 20
-6.2761239729
 30
0.0
 10
8.5407106367
 20
-6.5388485391
 30
0.0
  0
SPLINE
  5
330
100
AcDbEntity
  8
SMUSSO
100
AcDbSpline
 62
7
  6
CONTINUOUS
 70
0
 71
3
 72
11
 73
7
 74
0
 42
0.0000001
 43
0.0000001
 44
0.0000000001
 40
0.0
 40
0.0
 40
0.0
 40
0.0
 40
0.2267805988
 40
0.4640561876
 40
0.7201179473
 40
1.0
 40
1.0
 40
1.0
 40
1.0
 10
4.3157535943
 20
-1.0989905167
 30
0.0
 10
4.4074364959
 20
-1.0460594753
 30
0.0
 10
4.6110380025
 20
-0.9634039794
 30
0.0
 10
4.9479061981
 20
-0.9218359253
 30
0.0
 10
5.3094390685
 20
-0.9600913446
 30
0.0
 10
5.5500795504
 20
-1.0337140272
 30
0.0
 10
5.6717559721
 20
-1.0813092317
 30
0.0
  0
SPLINE
  5
331
100
AcDbEntity
  8
SMUSSO
100
AcDbSpline
 62
7
  6
CONTINUOUS
 70
0
 71
3
 72
11
 73
7
 74
0
 42
0.0000001
 43
0.0000001
 44
0.0000000001
 40
0.0
 40
0.0
 40
0.0
 40
0.0
 40
0.2238059521
 40
0.4631000142
 40
0.7212878536
 40
1.0
 40
1.0
 40
1.0
 40
1.0
 10
4.3684016579
 20
-1.1423753479
 30
0.0
 10
4.3049330988
 20
-1.2142486681
 30
0.0
 10
4.1899921226
 20
-1.3780183861
 30
0.0
 10
4.063803439
 20
-1.6618008205
 30
0.0
 10
3.9803342033
 20
-1.9850319911
 30
0.0
 10
3.95486682
 20
-2.2144137189
 30
0.0
 10
3.9486856666
 20
-2.3336626874
 30
0.0
  0
SPLINE
  5
332
100
AcDbEntity
  8
SMUSSO
100
AcDbSpline
 62
7
  6
CONTINUOUS
 70
0
 71
3
 72
11
 73
7
 74
0
 42
0.0000001
 43
0.0000001
 44
0.0000000001
 40
0.0
 40
0.0
 40
0.0
 40
0.0
 40
0.2831435718
 40
0.5426266606
 40
0.7800701955
 40
1.0
 40
1.0
 40
1.0
 40
1.0
 10
22.3295320485
 20
-19.2357309043
 30
0.0
 10
22.4528572687
 20
-19.3069235919
 30
0.0
 10
22.6984386879
 20
-19.4284395085
 30
0.0
 10
23.0749114005
 20
-19.5454691241
 30
0.0
 10
23.4355744516
 20
-19.5861244833
 30
0.0
 10
23.6667705604
 20
-19.5594228494
 30
0.0
 10
23.7740060708
 20
-19.5323198937
 30
0.0
  0
SPLINE
  5
333
100
AcDbEntity
  8
SMUSSO
100
AcDbSpline
 62
7
  6
CONTINUOUS
 70
0
 71
3
 72
15
 73
11
 74
0
 42
0.0000001
 43
0.0000001
 44
0.0000000001
 40
0.0
 40
0.0
 40
0.0
 40
0.0
 40
0.1141523952
 40
0.2373236326
 40
0.3669741648
 40
0.4999998196
 40
0.6330255942
 40
0.762676296
 40
0.8858445451
 40
1.0
 40
1.0
 40
1.0
 40
1.0
 10
21.1268901589
 20
-9.9685440651
 30
0.0
 10
21.3544175296
 20
-10.0998901475
 30
0.0
 10
21.8038334914
 20
-10.4148888765
 30
0.0
 10
22.4222040825
 20
-10.9933851182
 30
0.0
 10
22.9920817298
 20
-11.6772187717
 30
0.0
 10
23.4919858449
 20
-12.4407453269
 30
0.0
 10
23.9033104489
 20
-13.2554164059
 30
0.0
 10
24.210638708
 20
-14.0908371016
 30
0.0
 10
24.4024881202
 20
-14.9156002918
 30
0.0
 10
24.4506132144
 20
-15.4623023227
 30
0.0
 10
24.4506132134
 20
-15.725026889
 30
0.0
  0
SPLINE
  5
334
100
AcDbEntity
  8
SMUSSO
100
AcDbSpline
 62
7
  6
CONTINUOUS
 70
0
 71
3
 72
11
 73
7
 74
0
 42
0.0000001
 43
0.0000001
 44
0.0000000001
 40
0.0
 40
0.0
 40
0.0
 40
0.0
 40
0.2267805988
 40
0.4640561876
 40
0.7201179473
 40
1.0
 40
1.0
 40
1.0
 40
1.0
 10
20.225656171
 20
-10.2851688666
 30
0.0
 10
20.3173390726
 20
-10.2322378252
 30
0.0
 10
20.5209405792
 20
-10.1495823292
 30
0.0
 10
20.8578087748
 20
-10.1080142752
 30
0.0
 10
21.2193416452
 20
-10.1462696944
 30
0.0
 10
21.4599821271
 20
-10.2198923771
 30
0.0
 10
21.5816585488
 20
-10.2674875815
 30
0.0
  0
SPLINE
  5
335
100
AcDbEntity
  8
SMUSSO
100
AcDbSpline
 62
7
  6
CONTINUOUS
 70
0
 71
3
 72
11
 73
7
 74
0
 42
0.0000001
 43
0.0000001
 44
0.0000000001
 40
0.0
 40
0.0
 40
0.0
 40
0.0
 40
0.2238059521
 40
0.4631000142
 40
0.7212878536
 40
1.0
 40
1.0
 40
1.0
 40
1.0
 10
20.2783042346
 20
-10.3285536978
 30
0.0
 10
20.2148356755
 20
-10.400427018
 30
0.0
 10
20.0998946993
 20
-10.564196736
 30
0.0
 10
19.9737060157
 20
-10.8479791704
 30
0.0
 10
19.89023678
 20
-11.171210341
 30
0.0
 10
19.8647693967
 20
-11.4005920687
 30
0.0
 10
19.8585882433
 20
-11.5198410373
 30
0.0
  0
SPLINE
  5
336
100
AcDbEntity
  8
SMUSSO
100
AcDbSpline
 62
7
  6
CONTINUOUS
 70
0
 71
3
 72
15
 73
11
 74
0
 42
0.0000001
 43
0.0000001
 44
0.0000000001
 40
0.0
 40
0.0
 40
0.0
 40
0.0
 40
0.1158428874
 40
0.239705165
 40
0.3692167928
 40
0.50154642
 40
0.6336643369
 40
0.7625559317
 40
0.8854389441
 40
1.0
 40
1.0
 40
1.0
 40
1.0
 10
19.8581343465
 20
-14.9486263315
 30
0.0
 10
19.8671429913
 20
-15.1488069229
 30
0.0
 10
19.9185221113
 20
-15.5619084292
 30
0.0
 10
20.0789297824
 20
-16.1815963278
 30
0.0
 10
20.3201592212
 20
-16.8051688709
 30
0.0
 10
20.6340979124
 20
-17.411472629
 30
0.0
 10
21.0101155093
 20
-17.9800810002
 30
0.0
 10
21.4355738725
 20
-18.4918130165
 30
0.0
 10
21.8960130585
 20
-18.9293307465
 30
0.0
 10
22.2297693736
 20
-19.1716266592
 30
0.0
 10
22.3990183483
 20
-19.2747019216
 30
0.0
  0
SPLINE
  5
337
100
AcDbEntity
  8
SMUSSO
100
AcDbSpline
 62
7
  6
CONTINUOUS
 70
0
 71
3
 72
15
 73
11
 74
0
 42
0.0000001
 43
0.0000001
 44
0.0000000001
 40
0.0
 40
0.0
 40
0.0
 40
0.0
 40
0.1158428874
 40
0.239705165
 40
0.3692167928
 40
0.50154642
 40
0.6336643369
 40
0.7625559317
 40
0.8854389441
 40
1.0
 40
1.0
 40
1.0
 40
1.0
 10
3.9482317698
 20
-5.7624479817
 30
0.0
 10
3.9572404146
 20
-5.9626285731
 30
0.0
 10
4.0086195346
 20
-6.3757300793
 30
0.0
 10
4.1690272057
 20
-6.995417978
 30
0.0
 10
4.4102566445
 20
-7.618990521
 30
0.0
 10
4.7241953357
 20
-8.2252942792
 30
0.0
 10
5.1002129326
 20
-8.7939026503
 30
0.0
 10
5.5256712958
 20
-9.3056346666
 30
0.0
 10
5.9861104818
 20
-9.7431523966
 30
0.0
 10
6.3198667969
 20
-9.9854483093
 30
0.0
 10
6.4891157716
 20
-10.0885235717
 30
0.0
  0
SPLINE
  5
338
100
AcDbEntity
  8
SMUSSO
100
AcDbSpline
 62
7
  6
CONTINUOUS
 70
0
 71
3
 72
15
 73
11
 74
0
 42
0.0000001
 43
0.0000001
 44
0.0000000001
 40
0.0
 40
0.0
 40
0.0
 40
0.0
 40
0.1158428874
 40
0.239705165
 40
0.3692167928
 40
0.50154642
 40
0.6336643369
 40
0.7625559317
 40
0.8854389441
 40
1.0
 40
1.0
 40
1.0
 40
1.0
 10
-11.9616708069
 20
3.4237303682
 30
0.0
 10
-11.9526621621
 20
3.2235497768
 30
0.0
 10
-11.9012830421
 20
2.8104482706
 30
0.0
 10
-11.740875371
 20
2.1907603719
 30
0.0
 10
-11.4996459322
 20
1.5671878288
 30
0.0
 10
-11.185707241
 20
0.9608840707
 30
0.0
 10
-10.8096896441
 20
0.3922756996
 30
0.0
 10
-10.3842312808
 20
-0.1194563167
 30
0.0
 10
-9.9237920949
 20
-0.5569740468
 30
0.0
 10
-9.5900357798
 20
-0.7992699594
 30
0.0
 10
-9.4207868051
 20
-0.9023452219
 30
0.0
  0
SPLINE
  5
339
100
AcDbEntity
  8
SMUSSO
100
AcDbSpline
 62
7
  6
CONTINUOUS
 70
0
 71
3
 72
15
 73
11
 74
0
 42
0.0000001
 43
0.0000001
 44
0.0000000001
 40
0.0
 40
0.0
 40
0.0
 40
0.0
 40
0.1158428874
 40
0.239705165
 40
0.3692167928
 40
0.50154642
 40
0.6336643369
 40
0.7625559317
 40
0.8854389441
 40
1.0
 40
1.0
 40
1.0
 40
1.0
 10
-27.8715733836
 20
12.6099087181
 30
0.0
 10
-27.8625647388
 20
12.4097281267
 30
0.0
 10
-27.8111856188
 20
11.9966266205
 30
0.0
 10
-27.6507779477
 20
11.3769387218
 30
0.0
 10
-27.4095485089
 20
10.7533661787
 30
0.0
 10
-27.0956098177
 20
10.1470624206
 30
0.0
 10
-26.7195922208
 20
9.5784540495
 30
0.0
 10
-26.2941338575
 20
9.0667220332
 30
0.0
 10
-25.8336946716
 20
8.6292043031
 30
0.0
 10
-25.4999383565
 20
8.3869083905
 30
0.0
 10
-25.3306893818
 20
8.283833128
 30
0.0
  0
SPLINE
  5
33A
100
AcDbEntity
  8
SMUSSO
100
AcDbSpline
 62
7
  6
CONTINUOUS
 70
0
 71
3
 72
12
 73
8
 74
0
 42
0.0000001
 43
0.0000001
 44
0.0000000001
 40
0.0
 40
0.0
 40
0.0
 40
0.0
 40
0.2895888118
 40
0.5486306883
 40
0.7816356825
 40
0.891837135
 40
1.0
 40
1.0
 40
1.0
 40
1.0
 10
-23.2790945167
 20
9.5474860774
 30
0.0
 10
-23.2790945162
 20
9.3701008299
 30
0.0
 10
-23.3059652544
 20
9.0328361395
 30
0.0
 10
-23.44234416
 20
8.5697266893
 30
0.0
 10
-23.6382892615
 20
8.2501840785
 30
0.0
 10
-23.8361979001
 20
8.0555418909
 30
0.0
 10
-23.946506487
 20
7.9785353806
 30
0.0
 10
-24.0038849425
 20
7.9454092322
 30
0.0
  0
SPLINE
  5
33B
100
AcDbEntity
  8
SMUSSO
100
AcDbSpline
 62
7
  6
CONTINUOUS
 70
0
 71
3
 72
12
 73
8
 74
0
 42
0.0000001
 43
0.0000001
 44
0.0000000001
 40
0.0
 40
0.0
 40
0.0
 40
0.0
 40
0.2895888118
 40
0.5486306883
 40
0.7816356825
 40
0.891837135
 40
1.0
 40
1.0
 40
1.0
 40
1.0
 10
-7.36919194
 20
0.3613077275
 30
0.0
 10
-7.3691919395
 20
0.1839224801
 30
0.0
 10
-7.3960626777
 20
-0.1533422103
 30
0.0
 10
-7.5324415833
 20
-0.6164516606
 30
0.0
 10
-7.7283866848
 20
-0.9359942714
 30
0.0
 10
-7.9262953234
 20
-1.130636459
 30
0.0
 10
-8.0366039103
 20
-1.2076429693
 30
0.0
 10
-8.0939823659
 20
-1.2407691176
 30
0.0
  0
SPLINE
  5
33C
100
AcDbEntity
  8
SMUSSO
100
AcDbSpline
 62
7
  6
CONTINUOUS
 70
0
 71
3
 72
12
 73
8
 74
0
 42
0.0000001
 43
0.0000001
 44
0.0000000001
 40
0.0
 40
0.0
 40
0.0
 40
0.0
 40
0.2895888118
 40
0.5486306883
 40
0.7816356825
 40
0.891837135
 40
1.0
 40
1.0
 40
1.0
 40
1.0
 10
8.5407106367
 20
-8.8248706223
 30
0.0
 10
8.5407106372
 20
-9.0022558698
 30
0.0
 10
8.513839899
 20
-9.3395205602
 30
0.0
 10
8.3774609934
 20
-9.8026300105
 30
0.0
 10
8.1815158919
 20
-10.1221726212
 30
0.0
 10
7.9836072533
 20
-10.3168148088
 30
0.0
 10
7.8732986664
 20
-10.3938213191
 30
0.0
 10
7.8159202108
 20
-10.4269474675
 30
0.0
  0
SPLINE
  5
33D
100
AcDbEntity
  8
SMUSSO
100
AcDbSpline
 62
7
  6
CONTINUOUS
 70
0
 71
3
 72
12
 73
8
 74
0
 42
0.0000001
 43
0.0000001
 44
0.0000000001
 40
0.0
 40
0.0
 40
0.0
 40
0.0
 40
0.2895888118
 40
0.5486306883
 40
0.7816356825
 40
0.891837135
 40
1.0
 40
1.0
 40
1.0
 40
1.0
 10
24.4506132134
 20
-18.0110489722
 30
0.0
 10
24.4506132139
 20
-18.1884342197
 30
0.0
 10
24.4237424757
 20
-18.5256989101
 30
0.0
 10
24.2873635701
 20
-18.9888083603
 30
0.0
 10
24.0914184686
 20
-19.3083509711
 30
0.0
 10
23.89350983
 20
-19.5029931587
 30
0.0
 10
23.7832012431
 20
-19.579999669
 30
0.0
 10
23.7258227875
 20
-19.6131258174
 30
0.0
  0
SPLINE
  5
33E
100
AcDbEntity
  8
SMUSSO
100
AcDbSpline
 62
7
  6
CONTINUOUS
 70
0
 71
3
 72
19
 73
15
 74
0
 42
0.0000001
 43
0.0000001
 44
0.0000000001
 40
0.0
 40
0.0
 40
0.0
 40
0.0
 40
0.0428399581
 40
0.0874488158
 40
0.1352609847
 40
0.1872025448
 40
0.243684761
 40
0.3046810671
 40
0.3698207668
 40
0.438472956
 40
0.5827574426
 40
0.7298491869
 40
0.8713790236
 40
1.0
 40
1.0
 40
1.0
 40
1.0
 10
-8.0939823659
 20
-1.2407691176
 30
0.0
 10
-8.1802707389
 20
-1.2905857504
 30
0.0
 10
-8.3704731855
 20
-1.3696525945
 30
0.0
 10
-8.6844556372
 20
-1.4156684342
 30
0.0
 10
-9.0216235192
 20
-1.3908488707
 30
0.0
 10
-9.3744941216
 20
-1.2970917542
 30
0.0
 10
-9.7361394673
 20
-1.1372586234
 30
0.0
 10
-10.0993516685
 20
-0.9150430442
 30
0.0
 10
-10.4567899369
 20
-0.6352244297
 30
0.0
 10
-10.9232306948
 20
-0.1859010729
 30
0.0
 10
-11.4415282576
 20
0.4778197365
 30
0.0
 10
-11.9228792364
 20
1.3674129363
 30
0.0
 10
-12.235239514
 20
2.2910692097
 30
0.0
 10
-12.3189394072
 20
2.9200860213
 30
0.0
 10
-12.3189394083
 20
3.2192298808
 30
0.0
  0
SPLINE
  5
33F
100
AcDbEntity
  8
SMUSSO
100
AcDbSpline
 62
7
  6
CONTINUOUS
 70
0
 71
3
 72
19
 73
15
 74
0
 42
0.0000001
 43
0.0000001
 44
0.0000000001
 40
0.0
 40
0.0
 40
0.0
 40
0.0
 40
0.0428399581
 40
0.0874488158
 40
0.1352609847
 40
0.1872025448
 40
0.243684761
 40
0.3046810671
 40
0.3698207668
 40
0.438472956
 40
0.5827574426
 40
0.7298491869
 40
0.8713790236
 40
1.0
 40
1.0
 40
1.0
 40
1.0
 10
-24.0038849425
 20
7.9454092322
 30
0.0
 10
-24.0901733156
 20
7.8955925995
 30
0.0
 10
-24.2803757622
 20
7.8165257554
 30
0.0
 10
-24.5943582139
 20
7.7705099156
 30
0.0
 10
-24.9315260959
 20
7.7953294792
 30
0.0
 10
-25.2843966983
 20
7.8890865957
 30
0.0
 10
-25.646042044
 20
8.0489197265
 30
0.0
 10
-26.0092542452
 20
8.2711353057
 30
0.0
 10
-26.3666925136
 20
8.5509539202
 30
0.0
 10
-26.8331332715
 20
9.000277277
 30
0.0
 10
-27.3514308343
 20
9.6639980864
 30
0.0
 10
-27.8327818131
 20
10.5535912862
 30
0.0
 10
-28.1451420907
 20
11.4772475595
 30
0.0
 10
-28.2288419839
 20
12.1062643712
 30
0.0
 10
-28.228841985
 20
12.4054082307
 30
0.0
  0
SPLINE
  5
340
100
AcDbEntity
  8
SMUSSO
100
AcDbSpline
 62
7
  6
CONTINUOUS
 70
0
 71
3
 72
27
 73
23
 74
0
 42
0.0000001
 43
0.0000001
 44
0.0000000001
 40
0.0
 40
0.0
 40
0.0
 40
0.0
 40
0.0603444252
 40
0.1143243825
 40
0.1392307118
 40
0.1630058338
 40
0.1859697513
 40
0.2085088351
 40
0.231048116
 40
0.2540125308
 40
0.2777887162
 40
0.3026963095
 40
0.3566805832
 40
0.4170269456
 40
0.4835768936
 40
0.5553836836
 40
0.6309668489
 40
0.7085168953
 40
0.786066521
 40
0.8616483522
 40
0.9334511417
 40
1.0
 40
1.0
 40
1.0
 40
1.0
 10
24.4506132134
 20
-18.9909079962
 30
0.0
 10
24.4506132141
 20
-19.2291231719
 30
0.0
 10
24.4147442084
 20
-19.6817894414
 30
0.0
 10
24.2574307251
 20
-20.2142977516
 30
0.0
 10
24.066539773
 20
-20.5731965221
 30
0.0
 10
23.8981868289
 20
-20.801835339
 30
0.0
 10
23.7023814331
 20
-20.9945099743
 30
0.0
 10
23.4810360115
 20
-21.1489644591
 30
0.0
 10
23.2365847941
 20
-21.2633943922
 30
0.0
 10
22.9718103597
 20
-21.3366139421
 30
0.0
 10
22.6896099398
 20
-21.3680658599
 30
0.0
 10
22.2833369813
 20
-21.3538978474
 30
0.0
 10
21.7433865223
 20
-21.2237722835
 30
0.0
 10
21.0952923702
 20
-20.9151617082
 30
0.0
 10
20.4504437055
 20
-20.4631325651
 30
0.0
 10
19.831964309
 20
-19.8845072956
 30
0.0
 10
19.2621879323
 20
-19.200717967
 30
0.0
 10
18.7623230427
 20
-18.4372098869
 30
0.0
 10
18.3510477768
 20
-17.6225828839
 30
0.0
 10
18.0437544634
 20
-16.7872113007
 30
0.0
 10
17.8519284219
 20
-15.9625006923
 30
0.0
 10
17.8038094693
 20
-15.4158345656
 30
0.0
 10
17.8038094703
 20
-15.1531268189
 30
0.0
  0
SPLINE
  5
341
100
AcDbEntity
  8
SMUSSO
100
AcDbSpline
 62
7
  6
CONTINUOUS
 70
0
 71
3
 72
19
 73
15
 74
0
 42
0.0000001
 43
0.0000001
 44
0.0000000001
 40
0.0
 40
0.0
 40
0.0
 40
0.0
 40
0.0428399581
 40
0.0874488158
 40
0.1352609847
 40
0.1872025448
 40
0.243684761
 40
0.3046810671
 40
0.3698207668
 40
0.438472956
 40
0.5827574426
 40
0.7298491869
 40
0.8713790236
 40
1.0
 40
1.0
 40
1.0
 40
1.0
 10
7.8159202108
 20
-10.4269474675
 30
0.0
 10
7.7296318378
 20
-10.4767641003
 30
0.0
 10
7.5394293912
 20
-10.5558309443
 30
0.0
 10
7.2254469395
 20
-10.6018467841
 30
0.0
 10
6.8882790575
 20
-10.5770272205
 30
0.0
 10
6.5354084551
 20
-10.483270104
 30
0.0
 10
6.1737631094
 20
-10.3234369733
 30
0.0
 10
5.8105509082
 20
-10.1012213941
 30
0.0
 10
5.4531126398
 20
-9.8214027795
 30
0.0
 10
4.9866718819
 20
-9.3720794228
 30
0.0
 10
4.4683743191
 20
-8.7083586134
 30
0.0
 10
3.9870233403
 20
-7.8187654135
 30
0.0
 10
3.6746630627
 20
-6.8951091402
 30
0.0
 10
3.5909631695
 20
-6.2660923286
 30
0.0
 10
3.5909631684
 20
-5.966948469
 30
0.0
  0
SPLINE
  5
342
100
AcDbEntity
  8
SMUSSO
100
AcDbSpline
 62
7
  6
CONTINUOUS
 70
0
 71
3
 72
19
 73
15
 74
0
 42
0.0000001
 43
0.0000001
 44
0.0000000001
 40
0.0
 40
0.0
 40
0.0
 40
0.0
 40
0.1447039392
 40
0.2741470186
 40
0.3338722085
 40
0.390884769
 40
0.4459518973
 40
0.4999999291
 40
0.5540479239
 40
0.6091147637
 40
0.6661275512
 40
0.725852787
 40
0.8552990156
 40
1.0
 40
1.0
 40
1.0
 40
1.0
 10
17.8038094703
 20
-11.8872457117
 30
0.0
 10
17.8038094696
 20
-11.6490443625
 30
0.0
 10
17.8396745185
 20
-11.1964030391
 30
0.0
 10
17.9969687325
 20
-10.663920923
 30
0.0
 10
18.1878365453
 20
-10.3050327895
 30
0.0
 10
18.3561694908
 20
-10.0763965752
 30
0.0
 10
18.5519520224
 20
-9.8837192188
 30
0.0
 10
18.7732723389
 20
-9.7292564084
 30
0.0
 10
19.0176966523
 20
-9.6148122276
 30
0.0
 10
19.2824439892
 20
-9.5415732857
 30
0.0
 10
19.5646142477
 20
-9.5100945878
 30
0.0
 10
19.9708601146
 20
-9.524229989
 30
0.0
 10
20.5106592547
 20
-9.6542127418
 30
0.0
 10
20.9205993145
 20
-9.849457319
 30
0.0
 10
21.1268901589
 20
-9.9685440651
 30
0.0
  0
SPLINE
  5
343
100
AcDbEntity
  8
SMUSSO
100
AcDbSpline
 62
7
  6
CONTINUOUS
 70
0
 71
3
 72
27
 73
23
 74
0
 42
0.0000001
 43
0.0000001
 44
0.0000000001
 40
0.0
 40
0.0
 40
0.0
 40
0.0
 40
0.0603444252
 40
0.1143243825
 40
0.1392307118
 40
0.1630058338
 40
0.1859697513
 40
0.2085088351
 40
0.231048116
 40
0.2540125308
 40
0.2777887162
 40
0.3026963095
 40
0.3566805832
 40
0.4170269456
 40
0.4835768936
 40
0.5553836836
 40
0.6309668489
 40
0.7085168953
 40
0.786066521
 40
0.8616483522
 40
0.9334511417
 40
1.0
 40
1.0
 40
1.0
 40
1.0
 10
8.5407106367
 20
-9.8047296463
 30
0.0
 10
8.5407106374
 20
-10.0429448221
 30
0.0
 10
8.5048416317
 20
-10.4956110915
 30
0.0
 10
8.3475281484
 20
-11.0281194017
 30
0.0
 10
8.1566371963
 20
-11.3870181722
 30
0.0
 10
7.9882842522
 20
-11.6156569892
 30
0.0
 10
7.7924788564
 20
-11.8083316244
 30
0.0
 10
7.5711334348
 20
-11.9627861092
 30
0.0
 10
7.3266822174
 20
-12.0772160423
 30
0.0
 10
7.061907783
 20
-12.1504355922
 30
0.0
 10
6.7797073631
 20
-12.18188751
 30
0.0
 10
6.3734344046
 20
-12.1677194975
 30
0.0
 10
5.8334839457
 20
-12.0375939336
 30
0.0
 10
5.1853897935
 20
-11.7289833584
 30
0.0
 10
4.5405411288
 20
-11.2769542152
 30
0.0
 10
3.9220617323
 20
-10.6983289457
 30
0.0
 10
3.3522853556
 20
-10.0145396172
 30
0.0
 10
2.852420466
 20
-9.251031537
 30
0.0
 10
2.4411452001
 20
-8.436404534
 30
0.0
 10
2.1338518867
 20
-7.6010329508
 30
0.0
 10
1.9420258452
 20
-6.7763223424
 30
0.0
 10
1.8939068926
 20
-6.2296562157
 30
0.0
 10
1.8939068936
 20
-5.966948469
 30
0.0
  0
SPLINE
  5
344
100
AcDbEntity
  8
SMUSSO
100
AcDbSpline
 62
7
  6
CONTINUOUS
 70
0
 71
3
 72
19
 73
15
 74
0
 42
0.0000001
 43
0.0000001
 44
0.0000000001
 40
0.0
 40
0.0
 40
0.0
 40
0.0
 40
0.0428399581
 40
0.0874488158
 40
0.1352609847
 40
0.1872025448
 40
0.243684761
 40
0.3046810671
 40
0.3698207668
 40
0.438472956
 40
0.5827574426
 40
0.7298491869
 40
0.8713790236
 40
1.0
 40
1.0
 40
1.0
 40
1.0
 10
23.7258227875
 20
-19.6131258174
 30
0.0
 10
23.6395344145
 20
-19.6629424502
 30
0.0
 10
23.4493319679
 20
-19.7420092942
 30
0.0
 10
23.1353495162
 20
-19.788025134
 30
0.0
 10
22.7981816342
 20
-19.7632055704
 30
0.0
 10
22.4453110318
 20
-19.6694484539
 30
0.0
 10
22.0836656861
 20
-19.5096153231
 30
0.0
 10
21.7204534849
 20
-19.287399744
 30
0.0
 10
21.3630152165
 20
-19.0075811294
 30
0.0
 10
20.8965744586
 20
-18.5582577726
 30
0.0
 10
20.3782768958
 20
-17.8945369633
 30
0.0
 10
19.896925917
 20
-17.0049437634
 30
0.0
 10
19.5845656394
 20
-16.0812874901
 30
0.0
 10
19.5008657462
 20
-15.4522706784
 30
0.0
 10
19.5008657451
 20
-15.1531268189
 30
0.0
  0
SPLINE
  5
345
100
AcDbEntity
  8
SMUSSO
100
AcDbSpline
 62
7
  6
CONTINUOUS
 70
0
 71
3
 72
19
 73
15
 74
0
 42
0.0000001
 43
0.0000001
 44
0.0000000001
 40
0.0
 40
0.0
 40
0.0
 40
0.0
 40
0.1447039392
 40
0.2741470186
 40
0.3338722085
 40
0.390884769
 40
0.4459518973
 40
0.4999999291
 40
0.5540479239
 40
0.6091147637
 40
0.6661275512
 40
0.725852787
 40
0.8552990156
 40
1.0
 40
1.0
 40
1.0
 40
1.0
 10
1.8939068936
 20
-2.7010673619
 30
0.0
 10
1.8939068929
 20
-2.4628660126
 30
0.0
 10
1.9297719418
 20
-2.0102246892
 30
0.0
 10
2.0870661558
 20
-1.4777425731
 30
0.0
 10
2.2779339686
 20
-1.1188544396
 30
0.0
 10
2.4462669141
 20
-0.8902182253
 30
0.0
 10
2.6420494457
 20
-0.697540869
 30
0.0
 10
2.8633697622
 20
-0.5430780585
 30
0.0
 10
3.1077940756
 20
-0.4286338777
 30
0.0
 10
3.3725414125
 20
-0.3553949359
 30
0.0
 10
3.654711671
 20
-0.3239162379
 30
0.0
 10
4.0609575379
 20
-0.3380516391
 30
0.0
 10
4.600756678
 20
-0.4680343919
 30
0.0
 10
5.0106967378
 20
-0.6632789691
 30
0.0
 10
5.2169875823
 20
-0.7823657153
 30
0.0
  0
SPLINE
  5
346
100
AcDbEntity
  8
SMUSSO
100
AcDbSpline
 62
7
  6
CONTINUOUS
 70
0
 71
3
 72
15
 73
11
 74
0
 42
0.0000001
 43
0.0000001
 44
0.0000000001
 40
0.0
 40
0.0
 40
0.0
 40
0.0
 40
0.1141562538
 40
0.2373233739
 40
0.3669744829
 40
0.500000178
 40
0.6330258497
 40
0.7626765554
 40
0.8858475902
 40
1.0
 40
1.0
 40
1.0
 40
1.0
 10
-27.8752885944
 20
12.6095455274
 30
0.0
 10
-27.8752885954
 20
12.4138982448
 30
0.0
 10
-27.8394527735
 20
12.0067798959
 30
0.0
 10
-27.6965782979
 20
11.3925966068
 30
0.0
 10
-27.4677265289
 20
10.770473096
 30
0.0
 10
-27.1614165018
 20
10.1638042719
 30
0.0
 10
-26.789145398
 20
9.5952225893
 30
0.0
 10
-26.3647735477
 20
9.0859804407
 30
0.0
 10
-25.9042812552
 20
8.6551891971
 30
0.0
 10
-25.569610943
 20
8.4206150523
 30
0.0
 10
-25.4001756816
 20
8.3228041453
 30
0.0
  0
SPLINE
  5
347
100
AcDbEntity
  8
SMUSSO
100
AcDbSpline
 62
7
  6
CONTINUOUS
 70
0
 71
3
 72
27
 73
23
 74
0
 42
0.0000001
 43
0.0000001
 44
0.0000000001
 40
0.0
 40
0.0
 40
0.0
 40
0.0
 40
0.0603444252
 40
0.1143243825
 40
0.1392307118
 40
0.1630058338
 40
0.1859697513
 40
0.2085088351
 40
0.231048116
 40
0.2540125308
 40
0.2777887162
 40
0.3026963095
 40
0.3566805832
 40
0.4170269456
 40
0.4835768936
 40
0.5553836836
 40
0.6309668489
 40
0.7085168953
 40
0.786066521
 40
0.8616483522
 40
0.9334511417
 40
1.0
 40
1.0
 40
1.0
 40
1.0
 10
-7.36919194
 20
-0.6185512964
 30
0.0
 10
-7.3691919393
 20
-0.8567664722
 30
0.0
 10
-7.405060945
 20
-1.3094327416
 30
0.0
 10
-7.5623744283
 20
-1.8419410518
 30
0.0
 10
-7.7532653804
 20
-2.2008398223
 30
0.0
 10
-7.9216183245
 20
-2.4294786393
 30
0.0
 10
-8.1174237203
 20
-2.6221532746
 30
0.0
 10
-8.3387691419
 20
-2.7766077594
 30
0.0
 10
-8.5832203592
 20
-2.8910376924
 30
0.0
 10
-8.8479947937
 20
-2.9642572423
 30
0.0
 10
-9.1301952136
 20
-2.9957091602
 30
0.0
 10
-9.5364681721
 20
-2.9815411477
 30
0.0
 10
-10.076418631
 20
-2.8514155837
 30
0.0
 10
-10.7245127832
 20
-2.5428050085
 30
0.0
 10
-11.3693614479
 20
-2.0907758653
 30
0.0
 10
-11.9878408444
 20
-1.5121505958
 30
0.0
 10
-12.5576172211
 20
-0.8283612673
 30
0.0
 10
-13.0574821107
 20
-0.0648531871
 30
0.0
 10
-13.4687573766
 20
0.7497738159
 30
0.0
 10
-13.77605069
 20
1.5851453991
 30
0.0
 10
-13.9678767315
 20
2.4098560075
 30
0.0
 10
-14.0159956841
 20
2.9565221341
 30
0.0
 10
-14.0159956831
 20
3.2192298808
 30
0.0
  0
SPLINE
  5
348
100
AcDbEntity
  8
SMUSSO
100
AcDbSpline
 62
7
  6
CONTINUOUS
 70
0
 71
3
 72
12
 73
8
 74
0
 42
0.0000001
 43
0.0000001
 44
0.0000000001
 40
0.0
 40
0.0
 40
0.0
 40
0.0
 40
0.2895888118
 40
0.5486306883
 40
0.7816356825
 40
0.891837135
 40
1.0
 40
1.0
 40
1.0
 40
1.0
 10
-28.228841985
 20
15.6712893379
 30
0.0
 10
-28.2288419845
 20
15.8486745853
 30
0.0
 10
-28.2019712478
 20
16.1859392758
 30
0.0
 10
-28.0655923415
 20
16.649048726
 30
0.0
 10
-27.8696472402
 20
16.9685913368
 30
0.0
 10
-27.6717386016
 20
17.1632335244
 30
0.0
 10
-27.5614300146
 20
17.2402400347
 30
0.0
 10
-27.5040515591
 20
17.2733661831
 30
0.0
  0
SPLINE
  5
349
100
AcDbEntity
  8
SMUSSO
100
AcDbSpline
 62
7
  6
CONTINUOUS
 70
0
 71
3
 72
19
 73
15
 74
0
 42
0.0000001
 43
0.0000001
 44
0.0000000001
 40
0.0
 40
0.0
 40
0.0
 40
0.0
 40
0.1447039392
 40
0.2741470186
 40
0.3338722085
 40
0.390884769
 40
0.4459518973
 40
0.4999999291
 40
0.5540479239
 40
0.6091147637
 40
0.6661275512
 40
0.725852787
 40
0.8552990156
 40
1.0
 40
1.0
 40
1.0
 40
1.0
 10
-14.0159956831
 20
6.485110988
 30
0.0
 10
-14.0159956838
 20
6.7233123372
 30
0.0
 10
-13.9801306349
 20
7.1759536606
 30
0.0
 10
-13.8228364209
 20
7.7084357768
 30
0.0
 10
-13.6319686081
 20
8.0673239103
 30
0.0
 10
-13.4636356626
 20
8.2959601245
 30
0.0
 10
-13.267853131
 20
8.4886374809
 30
0.0
 10
-13.0465328145
 20
8.6431002914
 30
0.0
 10
-12.8021085011
 20
8.7575444722
 30
0.0
 10
-12.5373611642
 20
8.830783414
 30
0.0
 10
-12.2551909057
 20
8.862262112
 30
0.0
 10
-11.8489450388
 20
8.8481267108
 30
0.0
 10
-11.3091458987
 20
8.718143958
 30
0.0
 10
-10.8992058389
 20
8.5228993808
 30
0.0
 10
-10.6929149944
 20
8.4038126346
 30
0.0
  0
SPLINE
  5
34A
100
AcDbEntity
  8
SMUSSO
100
AcDbSpline
 62
7
  6
CONTINUOUS
 70
0
 71
3
 72
15
 73
11
 74
0
 42
0.0000001
 43
0.0000001
 44
0.0000000001
 40
0.0
 40
0.0
 40
0.0
 40
0.0
 40
0.1141562538
 40
0.2373233739
 40
0.3669744829
 40
0.500000178
 40
0.6330258497
 40
0.7626765554
 40
0.8858475902
 40
1.0
 40
1.0
 40
1.0
 40
1.0
 10
-11.9653860177
 20
3.4233671775
 30
0.0
 10
-11.9653860187
 20
3.2277198949
 30
0.0
 10
-11.9295501968
 20
2.820601546
 30
0.0
 10
-11.7866757212
 20
2.2064182569
 30
0.0
 10
-11.5578239522
 20
1.5842947461
 30
0.0
 10
-11.2515139252
 20
0.9776259221
 30
0.0
 10
-10.8792428213
 20
0.4090442395
 30
0.0
 10
-10.454870971
 20
-0.1001979092
 30
0.0
 10
-9.9943786785
 20
-0.5309891527
 30
0.0
 10
-9.6597083663
 20
-0.7655632976
 30
0.0
 10
-9.4902731049
 20
-0.8633742045
 30
0.0
  0
SPLINE
  5
34B
100
AcDbEntity
  8
SMUSSO
100
AcDbSpline
 62
7
  6
CONTINUOUS
 70
0
 71
3
 72
27
 73
23
 74
0
 42
0.0000001
 43
0.0000001
 44
0.0000000001
 40
0.0
 40
0.0
 40
0.0
 40
0.0
 40
0.0603444252
 40
0.1143243825
 40
0.1392307118
 40
0.1630058338
 40
0.1859697513
 40
0.2085088351
 40
0.231048116
 40
0.2540125308
 40
0.2777887162
 40
0.3026963095
 40
0.3566805832
 40
0.4170269456
 40
0.4835768936
 40
0.5553836836
 40
0.6309668489
 40
0.7085168953
 40
0.786066521
 40
0.8616483522
 40
0.9334511417
 40
1.0
 40
1.0
 40
1.0
 40
1.0
 10
-23.2790945167
 20
8.5676270534
 30
0.0
 10
-23.279094516
 20
8.3294118777
 30
0.0
 10
-23.3149635217
 20
7.8767456083
 30
0.0
 10
-23.472277005
 20
7.344237298
 30
0.0
 10
-23.6631679571
 20
6.9853385275
 30
0.0
 10
-23.8315209012
 20
6.7566997106
 30
0.0
 10
-24.027326297
 20
6.5640250753
 30
0.0
 10
-24.2486717186
 20
6.4095705905
 30
0.0
 10
-24.4931229359
 20
6.2951406574
 30
0.0
 10
-24.7578973704
 20
6.2219211076
 30
0.0
 10
-25.0400977903
 20
6.1904691897
 30
0.0
 10
-25.4463707488
 20
6.2046372022
 30
0.0
 10
-25.9863212077
 20
6.3347627661
 30
0.0
 10
-26.6344153599
 20
6.6433733414
 30
0.0
 10
-27.2792640246
 20
7.0954024846
 30
0.0
 10
-27.8977434211
 20
7.6740277541
 30
0.0
 10
-28.4675197978
 20
8.3578170826
 30
0.0
 10
-28.9673846874
 20
9.1213251627
 30
0.0
 10
-29.3786599533
 20
9.9359521657
 30
0.0
 10
-29.6859532667
 20
10.7713237489
 30
0.0
 10
-29.8777793082
 20
11.5960343573
 30
0.0
 10
-29.9258982608
 20
12.142700484
 30
0.0
 10
-29.9258982598
 20
12.4054082307
 30
0.0
  0
SPLINE
  5
34C
100
AcDbEntity
  8
SMUSSO
100
AcDbSpline
 62
7
  6
CONTINUOUS
 70
0
 71
3
 72
12
 73
8
 74
0
 42
0.0000001
 43
0.0000001
 44
0.0000000001
 40
0.0
 40
0.0
 40
0.0
 40
0.0
 40
0.2895888118
 40
0.5486306883
 40
0.7816356825
 40
0.891837135
 40
1.0
 40
1.0
 40
1.0
 40
1.0
 10
-12.3189394083
 20
6.485110988
 30
0.0
 10
-12.3189394078
 20
6.6624962355
 30
0.0
 10
-12.2920686711
 20
6.9997609259
 30
0.0
 10
-12.1556897648
 20
7.4628703761
 30
0.0
 10
-11.9597446635
 20
7.7824129869
 30
0.0
 10
-11.7618360249
 20
7.9770551745
 30
0.0
 10
-11.6515274379
 20
8.0540616848
 30
0.0
 10
-11.5941489824
 20
8.0871878332
 30
0.0
  0
SPLINE
  5
34D
100
AcDbEntity
  8
SMUSSO
100
AcDbSpline
 62
7
  6
CONTINUOUS
 70
0
 71
3
 72
15
 73
11
 74
0
 42
0.0000001
 43
0.0000001
 44
0.0000000001
 40
0.0
 40
0.0
 40
0.0
 40
0.0
 40
0.1141562538
 40
0.2373233739
 40
0.3669744829
 40
0.500000178
 40
0.6330258497
 40
0.7626765554
 40
0.8858475902
 40
1.0
 40
1.0
 40
1.0
 40
1.0
 10
3.944516559
 20
-5.7628111724
 30
0.0
 10
3.944516558
 20
-5.9584584549
 30
0.0
 10
3.9803523799
 20
-6.3655768038
 30
0.0
 10
4.1232268555
 20
-6.979760093
 30
0.0
 10
4.3520786245
 20
-7.6018836037
 30
0.0
 10
4.6583886515
 20
-8.2085524278
 30
0.0
 10
5.0306597554
 20
-8.7771341104
 30
0.0
 10
5.4550316057
 20
-9.2863762591
 30
0.0
 10
5.9155238982
 20
-9.7171675026
 30
0.0
 10
6.2501942104
 20
-9.9517416475
 30
0.0
 10
6.4196294718
 20
-10.0495525544
 30
0.0
  0
SPLINE
  5
34E
100
AcDbEntity
  8
SMUSSO
100
AcDbSpline
 62
7
  6
CONTINUOUS
 70
0
 71
3
 72
19
 73
15
 74
0
 42
0.0000001
 43
0.0000001
 44
0.0000000001
 40
0.0
 40
0.0
 40
0.0
 40
0.0
 40
0.1447039392
 40
0.2741470186
 40
0.3338722085
 40
0.390884769
 40
0.4459518973
 40
0.4999999291
 40
0.5540479239
 40
0.6091147637
 40
0.6661275512
 40
0.725852787
 40
0.8552990156
 40
1.0
 40
1.0
 40
1.0
 40
1.0
 10
-29.9258982598
 20
15.6712893379
 30
0.0
 10
-29.9258982605
 20
15.9094906871
 30
0.0
 10
-29.8900332116
 20
16.3621320105
 30
0.0
 10
-29.7327389976
 20
16.8946141266
 30
0.0
 10
-29.5418711848
 20
17.2535022601
 30
0.0
 10
-29.3735382393
 20
17.4821384744
 30
0.0
 10
-29.1777557077
 20
17.6748158308
 30
0.0
 10
-28.9564353912
 20
17.8292786413
 30
0.0
 10
-28.7120110778
 20
17.943722822
 30
0.0
 10
-28.4472637409
 20
18.0169617639
 30
0.0
 10
-28.1650934824
 20
18.0484404619
 30
0.0
 10
-27.7588476155
 20
18.0343050606
 30
0.0
 10
-27.2190484754
 20
17.9043223079
 30
0.0
 10
-26.8091084156
 20
17.7090777307
 30
0.0
 10
-26.6028175711
 20
17.5899909845
 30
0.0
  0
SPLINE
  5
34F
100
AcDbEntity
  8
SMUSSO
100
AcDbSpline
 62
7
  6
CONTINUOUS
 70
0
 71
3
 72
12
 73
8
 74
0
 42
0.0000001
 43
0.0000001
 44
0.0000000001
 40
0.0
 40
0.0
 40
0.0
 40
0.0
 40
0.2895888118
 40
0.5486306883
 40
0.7816356825
 40
0.891837135
 40
1.0
 40
1.0
 40
1.0
 40
1.0
 10
3.5909631684
 20
-2.7010673619
 30
0.0
 10
3.5909631689
 20
-2.5236821144
 30
0.0
 10
3.6178339056
 20
-2.186417424
 30
0.0
 10
3.7542128119
 20
-1.7233079738
 30
0.0
 10
3.9501579132
 20
-1.403765363
 30
0.0
 10
4.1480665518
 20
-1.2091231754
 30
0.0
 10
4.2583751388
 20
-1.132116665
 30
0.0
 10
4.3157535943
 20
-1.0989905167
 30
0.0
  0
SPLINE
  5
350
100
AcDbEntity
  8
SMUSSO
100
AcDbSpline
 62
7
  6
CONTINUOUS
 70
0
 71
3
 72
15
 73
11
 74
0
 42
0.0000001
 43
0.0000001
 44
0.0000000001
 40
0.0
 40
0.0
 40
0.0
 40
0.0
 40
0.1141562538
 40
0.2373233739
 40
0.3669744829
 40
0.500000178
 40
0.6330258497
 40
0.7626765554
 40
0.8858475902
 40
1.0
 40
1.0
 40
1.0
 40
1.0
 10
19.8544191357
 20
-14.9489895222
 30
0.0
 10
19.8544191347
 20
-15.1446368048
 30
0.0
 10
19.8902549566
 20
-15.5517551537
 30
0.0
 10
20.0331294322
 20
-16.1659384428
 30
0.0
 10
20.2619812012
 20
-16.7880619536
 30
0.0
 10
20.5682912282
 20
-17.3947307777
 30
0.0
 10
20.940562332
 20
-17.9633124603
 30
0.0
 10
21.3649341824
 20
-18.472554609
 30
0.0
 10
21.8254264749
 20
-18.9033458525
 30
0.0
 10
22.1600967871
 20
-19.1379199974
 30
0.0
 10
22.3295320485
 20
-19.2357309043
 30
0.0
  0
SPLINE
  5
351
100
AcDbEntity
  8
SMUSSO
100
AcDbSpline
 62
7
  6
CONTINUOUS
 70
0
 71
3
 72
12
 73
8
 74
0
 42
0.0000001
 43
0.0000001
 44
0.0000000001
 40
0.0
 40
0.0
 40
0.0
 40
0.0
 40
0.2895888118
 40
0.5486306883
 40
0.7816356825
 40
0.891837135
 40
1.0
 40
1.0
 40
1.0
 40
1.0
 10
19.5008657451
 20
-11.8872457117
 30
0.0
 10
19.5008657456
 20
-11.7098604643
 30
0.0
 10
19.5277364823
 20
-11.3725957738
 30
0.0
 10
19.6641153886
 20
-10.9094863236
 30
0.0
 10
19.8600604899
 20
-10.5899437128
 30
0.0
 10
20.0579691285
 20
-10.3953015252
 30
0.0
 10
20.1682777155
 20
-10.3182950149
 30
0.0
 10
20.225656171
 20
-10.2851688666
 30
0.0
  0
SPLINE
  5
352
100
AcDbEntity
  8
ASSI
100
AcDbSpline
 62
7
  6
CONTINUOUS
 70
0
 71
3
 72
15
 73
11
 74
0
 42
0.0000001
 43
0.0000001
 44
0.0000000001
 40
0.0
 40
0.0
 40
0.0
 40
0.0
 40
0.1158428874
 40
0.239705165
 40
0.3692167928
 40
0.50154642
 40
0.6336643369
 40
0.7625559317
 40
0.8854389441
 40
1.0
 40
1.0
 40
1.0
 40
1.0
 10
19.8581343465
 20
-14.9486263315
 30
0.0
 10
19.8671429913
 20
-15.1488069229
 30
0.0
 10
19.9185221113
 20
-15.5619084292
 30
0.0
 10
20.0789297824
 20
-16.1815963278
 30
0.0
 10
20.3201592212
 20
-16.8051688709
 30
0.0
 10
20.6340979124
 20
-17.411472629
 30
0.0
 10
21.0101155093
 20
-17.9800810002
 30
0.0
 10
21.4355738725
 20
-18.4918130165
 30
0.0
 10
21.8960130585
 20
-18.9293307465
 30
0.0
 10
22.2297693736
 20
-19.1716266592
 30
0.0
 10
22.3990183483
 20
-19.2747019216
 30
0.0
  0
SPLINE
  5
353
100
AcDbEntity
  8
ASSI
100
AcDbSpline
 62
7
  6
CONTINUOUS
 70
0
 71
3
 72
15
 73
11
 74
0
 42
0.0000001
 43
0.0000001
 44
0.0000000001
 40
0.0
 40
0.0
 40
0.0
 40
0.0
 40
0.1158428874
 40
0.239705165
 40
0.3692167928
 40
0.50154642
 40
0.6336643369
 40
0.7625559317
 40
0.8854389441
 40
1.0
 40
1.0
 40
1.0
 40
1.0
 10
3.9482317698
 20
-5.7624479817
 30
0.0
 10
3.9572404146
 20
-5.9626285731
 30
0.0
 10
4.0086195346
 20
-6.3757300793
 30
0.0
 10
4.1690272057
 20
-6.995417978
 30
0.0
 10
4.4102566445
 20
-7.618990521
 30
0.0
 10
4.7241953357
 20
-8.2252942792
 30
0.0
 10
5.1002129326
 20
-8.7939026503
 30
0.0
 10
5.5256712958
 20
-9.3056346666
 30
0.0
 10
5.9861104818
 20
-9.7431523966
 30
0.0
 10
6.3198667969
 20
-9.9854483093
 30
0.0
 10
6.4891157716
 20
-10.0885235717
 30
0.0
  0
SPLINE
  5
354
100
AcDbEntity
  8
ASSI
100
AcDbSpline
 62
7
  6
CONTINUOUS
 70
0
 71
3
 72
15
 73
11
 74
0
 42
0.0000001
 43
0.0000001
 44
0.0000000001
 40
0.0
 40
0.0
 40
0.0
 40
0.0
 40
0.1158428874
 40
0.239705165
 40
0.3692167928
 40
0.50154642
 40
0.6336643369
 40
0.7625559317
 40
0.8854389441
 40
1.0
 40
1.0
 40
1.0
 40
1.0
 10
-11.9616708069
 20
3.4237303682
 30
0.0
 10
-11.9526621621
 20
3.2235497768
 30
0.0
 10
-11.9012830421
 20
2.8104482706
 30
0.0
 10
-11.740875371
 20
2.1907603719
 30
0.0
 10
-11.4996459322
 20
1.5671878288
 30
0.0
 10
-11.185707241
 20
0.9608840707
 30
0.0
 10
-10.8096896441
 20
0.3922756996
 30
0.0
 10
-10.3842312808
 20
-0.1194563167
 30
0.0
 10
-9.9237920949
 20
-0.5569740468
 30
0.0
 10
-9.5900357798
 20
-0.7992699594
 30
0.0
 10
-9.4207868051
 20
-0.9023452219
 30
0.0
  0
SPLINE
  5
355
100
AcDbEntity
  8
ASSI
100
AcDbSpline
 62
7
  6
CONTINUOUS
 70
0
 71
3
 72
15
 73
11
 74
0
 42
0.0000001
 43
0.0000001
 44
0.0000000001
 40
0.0
 40
0.0
 40
0.0
 40
0.0
 40
0.1158428874
 40
0.239705165
 40
0.3692167928
 40
0.50154642
 40
0.6336643369
 40
0.7625559317
 40
0.8854389441
 40
1.0
 40
1.0
 40
1.0
 40
1.0
 10
-27.8715733836
 20
12.6099087181
 30
0.0
 10
-27.8625647388
 20
12.4097281267
 30
0.0
 10
-27.8111856188
 20
11.9966266205
 30
0.0
 10
-27.6507779477
 20
11.3769387218
 30
0.0
 10
-27.4095485089
 20
10.7533661787
 30
0.0
 10
-27.0956098177
 20
10.1470624206
 30
0.0
 10
-26.7195922208
 20
9.5784540495
 30
0.0
 10
-26.2941338575
 20
9.0667220332
 30
0.0
 10
-25.8336946716
 20
8.6292043031
 30
0.0
 10
-25.4999383565
 20
8.3869083905
 30
0.0
 10
-25.3306893818
 20
8.283833128
 30
0.0
  0
SPLINE
  5
356
100
AcDbEntity
  8
ASSI
100
AcDbSpline
 62
7
  6
CONTINUOUS
 70
0
 71
3
 72
11
 73
7
 74
0
 42
0.0000001
 43
0.0000001
 44
0.0000000001
 40
0.0
 40
0.0
 40
0.0
 40
0.0
 40
0.2831435718
 40
0.5426266606
 40
0.7800701955
 40
1.0
 40
1.0
 40
1.0
 40
1.0
 10
-25.4001756816
 20
8.3228041453
 30
0.0
 10
-25.2768504614
 20
8.2516114577
 30
0.0
 10
-25.0312690422
 20
8.1300955412
 30
0.0
 10
-24.6547963296
 20
8.0130659255
 30
0.0
 10
-24.2941332784
 20
7.9724105663
 30
0.0
 10
-24.0629371697
 20
7.9991122002
 30
0.0
 10
-23.9557016593
 20
8.026215156
 30
0.0
  0
SPLINE
  5
357
100
AcDbEntity
  8
ASSI
100
AcDbSpline
 62
7
  6
CONTINUOUS
 70
0
 71
3
 72
15
 73
11
 74
0
 42
0.0000001
 43
0.0000001
 44
0.0000000001
 40
0.0
 40
0.0
 40
0.0
 40
0.0
 40
0.1141523952
 40
0.2373236326
 40
0.3669741648
 40
0.4999998196
 40
0.6330255942
 40
0.762676296
 40
0.8858445451
 40
1.0
 40
1.0
 40
1.0
 40
1.0
 10
-26.6028175711
 20
17.5899909845
 30
0.0
 10
-26.3752902005
 20
17.4586449021
 30
0.0
 10
-25.9258742387
 20
17.1436461731
 30
0.0
 10
-25.3075036476
 20
16.5651499315
 30
0.0
 10
-24.7376260003
 20
15.8813162779
 30
0.0
 10
-24.2377218852
 20
15.1177897227
 30
0.0
 10
-23.8263972812
 20
14.3031186438
 30
0.0
 10
-23.519069022
 20
13.467697948
 30
0.0
 10
-23.3272196099
 20
12.6429347578
 30
0.0
 10
-23.2790945157
 20
12.0962327269
 30
0.0
 10
-23.2790945167
 20
11.8335081606
 30
0.0
  0
SPLINE
  5
358
100
AcDbEntity
  8
ASSI
100
AcDbSpline
 62
7
  6
CONTINUOUS
 70
0
 71
3
 72
11
 73
7
 74
0
 42
0.0000001
 43
0.0000001
 44
0.0000000001
 40
0.0
 40
0.0
 40
0.0
 40
0.0
 40
0.2267805988
 40
0.4640561876
 40
0.7201179473
 40
1.0
 40
1.0
 40
1.0
 40
1.0
 10
-27.5040515591
 20
17.2733661831
 30
0.0
 10
-27.4123686575
 20
17.3262972244
 30
0.0
 10
-27.2087671509
 20
17.4089527204
 30
0.0
 10
-26.8718989552
 20
17.4505207744
 30
0.0
 10
-26.5103660849
 20
17.4122653552
 30
0.0
 10
-26.269725603
 20
17.3386426725
 30
0.0
 10
-26.1480491813
 20
17.2910474681
 30
0.0
  0
SPLINE
  5
359
100
AcDbEntity
  8
ASSI
100
AcDbSpline
 62
7
  6
CONTINUOUS
 70
0
 71
3
 72
11
 73
7
 74
0
 42
0.0000001
 43
0.0000001
 44
0.0000000001
 40
0.0
 40
0.0
 40
0.0
 40
0.0
 40
0.2238059521
 40
0.4631000142
 40
0.7212878536
 40
1.0
 40
1.0
 40
1.0
 40
1.0
 10
-27.4514034955
 20
17.2299813519
 30
0.0
 10
-27.5148720546
 20
17.1581080317
 30
0.0
 10
-27.6298130308
 20
16.9943383136
 30
0.0
 10
-27.7560017144
 20
16.7105558792
 30
0.0
 10
-27.8394709501
 20
16.3873247087
 30
0.0
 10
-27.8649383333
 20
16.1579429809
 30
0.0
 10
-27.8711194868
 20
16.0386940124
 30
0.0
  0
SPLINE
  5
35A
100
AcDbEntity
  8
ASSI
100
AcDbSpline
 62
7
  6
CONTINUOUS
 70
0
 71
3
 72
11
 73
7
 74
0
 42
0.0000001
 43
0.0000001
 44
0.0000000001
 40
0.0
 40
0.0
 40
0.0
 40
0.0
 40
0.2831435718
 40
0.5426266606
 40
0.7800701955
 40
1.0
 40
1.0
 40
1.0
 40
1.0
 10
-9.4902731049
 20
-0.8633742045
 30
0.0
 10
-9.3669478847
 20
-0.9345668921
 30
0.0
 10
-9.1213664655
 20
-1.0560828087
 30
0.0
 10
-8.7448937529
 20
-1.1731124244
 30
0.0
 10
-8.3842307018
 20
-1.2137677835
 30
0.0
 10
-8.153034593
 20
-1.1870661497
 30
0.0
 10
-8.0457990826
 20
-1.1599631939
 30
0.0
  0
SPLINE
  5
35B
100
AcDbEntity
  8
ASSI
100
AcDbSpline
 62
7
  6
CONTINUOUS
 70
0
 71
3
 72
15
 73
11
 74
0
 42
0.0000001
 43
0.0000001
 44
0.0000000001
 40
0.0
 40
0.0
 40
0.0
 40
0.0
 40
0.1141523952
 40
0.2373236326
 40
0.3669741648
 40
0.4999998196
 40
0.6330255942
 40
0.762676296
 40
0.8858445451
 40
1.0
 40
1.0
 40
1.0
 40
1.0
 10
-10.6929149944
 20
8.4038126346
 30
0.0
 10
-10.4653876238
 20
8.2724665522
 30
0.0
 10
-10.015971662
 20
7.9574678232
 30
0.0
 10
-9.3976010709
 20
7.3789715816
 30
0.0
 10
-8.8277234236
 20
6.695137928
 30
0.0
 10
-8.3278193085
 20
5.9316113729
 30
0.0
 10
-7.9164947045
 20
5.1169402939
 30
0.0
 10
-7.6091664453
 20
4.2815195981
 30
0.0
 10
-7.4173170332
 20
3.456756408
 30
0.0
 10
-7.369191939
 20
2.910054377
 30
0.0
 10
-7.36919194
 20
2.6473298107
 30
0.0
  0
SPLINE
  5
35C
100
AcDbEntity
  8
ASSI
100
AcDbSpline
 62
7
  6
CONTINUOUS
 70
0
 71
3
 72
11
 73
7
 74
0
 42
0.0000001
 43
0.0000001
 44
0.0000000001
 40
0.0
 40
0.0
 40
0.0
 40
0.0
 40
0.2267805988
 40
0.4640561876
 40
0.7201179473
 40
1.0
 40
1.0
 40
1.0
 40
1.0
 10
-11.5941489824
 20
8.0871878332
 30
0.0
 10
-11.5024660808
 20
8.1401188745
 30
0.0
 10
-11.2988645742
 20
8.2227743705
 30
0.0
 10
-10.9619963786
 20
8.2643424245
 30
0.0
 10
-10.6004635082
 20
8.2260870053
 30
0.0
 10
-10.3598230263
 20
8.1524643226
 30
0.0
 10
-10.2381466046
 20
8.1048691182
 30
0.0
  0
SPLINE
  5
35D
100
AcDbEntity
  8
ASSI
100
AcDbSpline
 62
7
  6
CONTINUOUS
 70
0
 71
3
 72
11
 73
7
 74
0
 42
0.0000001
 43
0.0000001
 44
0.0000000001
 40
0.0
 40
0.0
 40
0.0
 40
0.0
 40
0.2238059521
 40
0.4631000142
 40
0.7212878536
 40
1.0
 40
1.0
 40
1.0
 40
1.0
 10
-11.5415009188
 20
8.043803002
 30
0.0
 10
-11.6049694779
 20
7.9719296818
 30
0.0
 10
-11.7199104541
 20
7.8081599638
 30
0.0
 10
-11.8460991377
 20
7.5243775294
 30
0.0
 10
-11.9295683734
 20
7.2011463588
 30
0.0
 10
-11.9550357566
 20
6.971764631
 30
0.0
 10
-11.9612169101
 20
6.8525156625
 30
0.0
  0
SPLINE
  5
35E
100
AcDbEntity
  8
ASSI
100
AcDbSpline
 62
7
  6
CONTINUOUS
 70
0
 71
3
 72
11
 73
7
 74
0
 42
0.0000001
 43
0.0000001
 44
0.0000000001
 40
0.0
 40
0.0
 40
0.0
 40
0.0
 40
0.2831435718
 40
0.5426266606
 40
0.7800701955
 40
1.0
 40
1.0
 40
1.0
 40
1.0
 10
6.4196294718
 20
-10.0495525544
 30
0.0
 10
6.542954692
 20
-10.120745242
 30
0.0
 10
6.7885361112
 20
-10.2422611586
 30
0.0
 10
7.1650088238
 20
-10.3592907743
 30
0.0
 10
7.5256718749
 20
-10.3999461334
 30
0.0
 10
7.7568679837
 20
-10.3732444995
 30
0.0
 10
7.8641034941
 20
-10.3461415438
 30
0.0
  0
SPLINE
  5
35F
100
AcDbEntity
  8
ASSI
100
AcDbSpline
 62
7
  6
CONTINUOUS
 70
0
 71
3
 72
15
 73
11
 74
0
 42
0.0000001
 43
0.0000001
 44
0.0000000001
 40
0.0
 40
0.0
 40
0.0
 40
0.0
 40
0.1141523952
 40
0.2373236326
 40
0.3669741648
 40
0.4999998196
 40
0.6330255942
 40
0.762676296
 40
0.8858445451
 40
1.0
 40
1.0
 40
1.0
 40
1.0
 10
5.2169875823
 20
-0.7823657153
 30
0.0
 10
5.4445149529
 20
-0.9137117976
 30
0.0
 10
5.8939309147
 20
-1.2287105266
 30
0.0
 10
6.5123015058
 20
-1.8072067683
 30
0.0
 10
7.0821791531
 20
-2.4910404218
 30
0.0
 10
7.5820832682
 20
-3.254566977
 30
0.0
 10
7.9934078722
 20
-4.069238056
 30
0.0
 10
8.3007361313
 20
-4.9046587517
 30
0.0
 10
8.4925855435
 20
-5.7294219419
 30
0.0
 10
8.5407106377
 20
-6.2761239729
 30
0.0
 10
8.5407106367
 20
-6.5388485391
 30
0.0
  0
SPLINE
  5
360
100
AcDbEntity
  8
ASSI
100
AcDbSpline
 62
7
  6
CONTINUOUS
 70
0
 71
3
 72
11
 73
7
 74
0
 42
0.0000001
 43
0.0000001
 44
0.0000000001
 40
0.0
 40
0.0
 40
0.0
 40
0.0
 40
0.2267805988
 40
0.4640561876
 40
0.7201179473
 40
1.0
 40
1.0
 40
1.0
 40
1.0
 10
4.3157535943
 20
-1.0989905167
 30
0.0
 10
4.4074364959
 20
-1.0460594753
 30
0.0
 10
4.6110380025
 20
-0.9634039794
 30
0.0
 10
4.9479061981
 20
-0.9218359253
 30
0.0
 10
5.3094390685
 20
-0.9600913446
 30
0.0
 10
5.5500795504
 20
-1.0337140272
 30
0.0
 10
5.6717559721
 20
-1.0813092317
 30
0.0
  0
SPLINE
  5
361
100
AcDbEntity
  8
ASSI
100
AcDbSpline
 62
7
  6
CONTINUOUS
 70
0
 71
3
 72
11
 73
7
 74
0
 42
0.0000001
 43
0.0000001
 44
0.0000000001
 40
0.0
 40
0.0
 40
0.0
 40
0.0
 40
0.2238059521
 40
0.4631000142
 40
0.7212878536
 40
1.0
 40
1.0
 40
1.0
 40
1.0
 10
4.3684016579
 20
-1.1423753479
 30
0.0
 10
4.3049330988
 20
-1.2142486681
 30
0.0
 10
4.1899921226
 20
-1.3780183861
 30
0.0
 10
4.063803439
 20
-1.6618008205
 30
0.0
 10
3.9803342033
 20
-1.9850319911
 30
0.0
 10
3.95486682
 20
-2.2144137189
 30
0.0
 10
3.9486856666
 20
-2.3336626874
 30
0.0
  0
SPLINE
  5
362
100
AcDbEntity
  8
ASSI
100
AcDbSpline
 62
7
  6
CONTINUOUS
 70
0
 71
3
 72
11
 73
7
 74
0
 42
0.0000001
 43
0.0000001
 44
0.0000000001
 40
0.0
 40
0.0
 40
0.0
 40
0.0
 40
0.2831435718
 40
0.5426266606
 40
0.7800701955
 40
1.0
 40
1.0
 40
1.0
 40
1.0
 10
22.3295320485
 20
-19.2357309043
 30
0.0
 10
22.4528572687
 20
-19.3069235919
 30
0.0
 10
22.6984386879
 20
-19.4284395085
 30
0.0
 10
23.0749114005
 20
-19.5454691241
 30
0.0
 10
23.4355744516
 20
-19.5861244833
 30
0.0
 10
23.6667705604
 20
-19.5594228494
 30
0.0
 10
23.7740060708
 20
-19.5323198937
 30
0.0
  0
SPLINE
  5
363
100
AcDbEntity
  8
ASSI
100
AcDbSpline
 62
7
  6
CONTINUOUS
 70
0
 71
3
 72
15
 73
11
 74
0
 42
0.0000001
 43
0.0000001
 44
0.0000000001
 40
0.0
 40
0.0
 40
0.0
 40
0.0
 40
0.1141523952
 40
0.2373236326
 40
0.3669741648
 40
0.4999998196
 40
0.6330255942
 40
0.762676296
 40
0.8858445451
 40
1.0
 40
1.0
 40
1.0
 40
1.0
 10
21.1268901589
 20
-9.9685440651
 30
0.0
 10
21.3544175296
 20
-10.0998901475
 30
0.0
 10
21.8038334914
 20
-10.4148888765
 30
0.0
 10
22.4222040825
 20
-10.9933851182
 30
0.0
 10
22.9920817298
 20
-11.6772187717
 30
0.0
 10
23.4919858449
 20
-12.4407453269
 30
0.0
 10
23.9033104489
 20
-13.2554164059
 30
0.0
 10
24.210638708
 20
-14.0908371016
 30
0.0
 10
24.4024881202
 20
-14.9156002918
 30
0.0
 10
24.4506132144
 20
-15.4623023227
 30
0.0
 10
24.4506132134
 20
-15.725026889
 30
0.0
  0
SPLINE
  5
364
100
AcDbEntity
  8
ASSI
100
AcDbSpline
 62
7
  6
CONTINUOUS
 70
0
 71
3
 72
11
 73
7
 74
0
 42
0.0000001
 43
0.0000001
 44
0.0000000001
 40
0.0
 40
0.0
 40
0.0
 40
0.0
 40
0.2267805988
 40
0.4640561876
 40
0.7201179473
 40
1.0
 40
1.0
 40
1.0
 40
1.0
 10
20.225656171
 20
-10.2851688666
 30
0.0
 10
20.3173390726
 20
-10.2322378252
 30
0.0
 10
20.5209405792
 20
-10.1495823292
 30
0.0
 10
20.8578087748
 20
-10.1080142752
 30
0.0
 10
21.2193416452
 20
-10.1462696944
 30
0.0
 10
21.4599821271
 20
-10.2198923771
 30
0.0
 10
21.5816585488
 20
-10.2674875815
 30
0.0
  0
SPLINE
  5
365
100
AcDbEntity
  8
ASSI
100
AcDbSpline
 62
7
  6
CONTINUOUS
 70
0
 71
3
 72
11
 73
7
 74
0
 42
0.0000001
 43
0.0000001
 44
0.0000000001
 40
0.0
 40
0.0
 40
0.0
 40
0.0
 40
0.2238059521
 40
0.4631000142
 40
0.7212878536
 40
1.0
 40
1.0
 40
1.0
 40
1.0
 10
20.2783042346
 20
-10.3285536978
 30
0.0
 10
20.2148356755
 20
-10.400427018
 30
0.0
 10
20.0998946993
 20
-10.564196736
 30
0.0
 10
19.9737060157
 20
-10.8479791704
 30
0.0
 10
19.89023678
 20
-11.171210341
 30
0.0
 10
19.8647693967
 20
-11.4005920687
 30
0.0
 10
19.8585882433
 20
-11.5198410373
 30
0.0
  0
SPLINE
  5
366
100
AcDbEntity
  8
ASSI
100
AcDbSpline
 62
7
  6
CONTINUOUS
 70
0
 71
3
 72
12
 73
8
 74
0
 42
0.0000001
 43
0.0000001
 44
0.0000000001
 40
0.0
 40
0.0
 40
0.0
 40
0.0
 40
0.2895888118
 40
0.5486306883
 40
0.7816356825
 40
0.891837135
 40
1.0
 40
1.0
 40
1.0
 40
1.0
 10
24.4506132134
 20
-18.0110489722
 30
0.0
 10
24.4506132139
 20
-18.1884342197
 30
0.0
 10
24.4237424757
 20
-18.5256989101
 30
0.0
 10
24.2873635701
 20
-18.9888083603
 30
0.0
 10
24.0914184686
 20
-19.3083509711
 30
0.0
 10
23.89350983
 20
-19.5029931587
 30
0.0
 10
23.7832012431
 20
-19.579999669
 30
0.0
 10
23.7258227875
 20
-19.6131258174
 30
0.0
  0
SPLINE
  5
367
100
AcDbEntity
  8
ASSI
100
AcDbSpline
 62
7
  6
CONTINUOUS
 70
0
 71
3
 72
12
 73
8
 74
0
 42
0.0000001
 43
0.0000001
 44
0.0000000001
 40
0.0
 40
0.0
 40
0.0
 40
0.0
 40
0.2895888118
 40
0.5486306883
 40
0.7816356825
 40
0.891837135
 40
1.0
 40
1.0
 40
1.0
 40
1.0
 10
8.5407106367
 20
-8.8248706223
 30
0.0
 10
8.5407106372
 20
-9.0022558698
 30
0.0
 10
8.513839899
 20
-9.3395205602
 30
0.0
 10
8.3774609934
 20
-9.8026300105
 30
0.0
 10
8.1815158919
 20
-10.1221726212
 30
0.0
 10
7.9836072533
 20
-10.3168148088
 30
0.0
 10
7.8732986664
 20
-10.3938213191
 30
0.0
 10
7.8159202108
 20
-10.4269474675
 30
0.0
  0
SPLINE
  5
368
100
AcDbEntity
  8
ASSI
100
AcDbSpline
 62
7
  6
CONTINUOUS
 70
0
 71
3
 72
12
 73
8
 74
0
 42
0.0000001
 43
0.0000001
 44
0.0000000001
 40
0.0
 40
0.0
 40
0.0
 40
0.0
 40
0.2895888118
 40
0.5486306883
 40
0.7816356825
 40
0.891837135
 40
1.0
 40
1.0
 40
1.0
 40
1.0
 10
-23.2790945167
 20
9.5474860774
 30
0.0
 10
-23.2790945162
 20
9.3701008299
 30
0.0
 10
-23.3059652544
 20
9.0328361395
 30
0.0
 10
-23.44234416
 20
8.5697266893
 30
0.0
 10
-23.6382892615
 20
8.2501840785
 30
0.0
 10
-23.8361979001
 20
8.0555418909
 30
0.0
 10
-23.946506487
 20
7.9785353806
 30
0.0
 10
-24.0038849425
 20
7.9454092322
 30
0.0
  0
SPLINE
  5
369
100
AcDbEntity
  8
ASSI
100
AcDbSpline
 62
7
  6
CONTINUOUS
 70
0
 71
3
 72
12
 73
8
 74
0
 42
0.0000001
 43
0.0000001
 44
0.0000000001
 40
0.0
 40
0.0
 40
0.0
 40
0.0
 40
0.2895888118
 40
0.5486306883
 40
0.7816356825
 40
0.891837135
 40
1.0
 40
1.0
 40
1.0
 40
1.0
 10
-7.36919194
 20
0.3613077275
 30
0.0
 10
-7.3691919395
 20
0.1839224801
 30
0.0
 10
-7.3960626777
 20
-0.1533422103
 30
0.0
 10
-7.5324415833
 20
-0.6164516606
 30
0.0
 10
-7.7283866848
 20
-0.9359942714
 30
0.0
 10
-7.9262953234
 20
-1.130636459
 30
0.0
 10
-8.0366039103
 20
-1.2076429693
 30
0.0
 10
-8.0939823659
 20
-1.2407691176
 30
0.0
  0
SPLINE
  5
36A
100
AcDbEntity
  8
ASSI
100
AcDbSpline
 62
7
  6
CONTINUOUS
 70
0
 71
3
 72
27
 73
23
 74
0
 42
0.0000001
 43
0.0000001
 44
0.0000000001
 40
0.0
 40
0.0
 40
0.0
 40
0.0
 40
0.0603444252
 40
0.1143243825
 40
0.1392307118
 40
0.1630058338
 40
0.1859697513
 40
0.2085088351
 40
0.231048116
 40
0.2540125308
 40
0.2777887162
 40
0.3026963095
 40
0.3566805832
 40
0.4170269456
 40
0.4835768936
 40
0.5553836836
 40
0.6309668489
 40
0.7085168953
 40
0.786066521
 40
0.8616483522
 40
0.9334511417
 40
1.0
 40
1.0
 40
1.0
 40
1.0
 10
24.4506132134
 20
-18.9909079962
 30
0.0
 10
24.4506132141
 20
-19.2291231719
 30
0.0
 10
24.4147442084
 20
-19.6817894414
 30
0.0
 10
24.2574307251
 20
-20.2142977516
 30
0.0
 10
24.066539773
 20
-20.5731965221
 30
0.0
 10
23.8981868289
 20
-20.801835339
 30
0.0
 10
23.7023814331
 20
-20.9945099743
 30
0.0
 10
23.4810360115
 20
-21.1489644591
 30
0.0
 10
23.2365847941
 20
-21.2633943922
 30
0.0
 10
22.9718103597
 20
-21.3366139421
 30
0.0
 10
22.6896099398
 20
-21.3680658599
 30
0.0
 10
22.2833369813
 20
-21.3538978474
 30
0.0
 10
21.7433865223
 20
-21.2237722835
 30
0.0
 10
21.0952923702
 20
-20.9151617082
 30
0.0
 10
20.4504437055
 20
-20.4631325651
 30
0.0
 10
19.831964309
 20
-19.8845072956
 30
0.0
 10
19.2621879323
 20
-19.200717967
 30
0.0
 10
18.7623230427
 20
-18.4372098869
 30
0.0
 10
18.3510477768
 20
-17.6225828839
 30
0.0
 10
18.0437544634
 20
-16.7872113007
 30
0.0
 10
17.8519284219
 20
-15.9625006923
 30
0.0
 10
17.8038094693
 20
-15.4158345656
 30
0.0
 10
17.8038094703
 20
-15.1531268189
 30
0.0
  0
SPLINE
  5
36B
100
AcDbEntity
  8
ASSI
100
AcDbSpline
 62
7
  6
CONTINUOUS
 70
0
 71
3
 72
12
 73
8
 74
0
 42
0.0000001
 43
0.0000001
 44
0.0000000001
 40
0.0
 40
0.0
 40
0.0
 40
0.0
 40
0.2895888118
 40
0.5486306883
 40
0.7816356825
 40
0.891837135
 40
1.0
 40
1.0
 40
1.0
 40
1.0
 10
19.5008657451
 20
-11.8872457117
 30
0.0
 10
19.5008657456
 20
-11.7098604643
 30
0.0
 10
19.5277364823
 20
-11.3725957738
 30
0.0
 10
19.6641153886
 20
-10.9094863236
 30
0.0
 10
19.8600604899
 20
-10.5899437128
 30
0.0
 10
20.0579691285
 20
-10.3953015252
 30
0.0
 10
20.1682777155
 20
-10.3182950149
 30
0.0
 10
20.225656171
 20
-10.2851688666
 30
0.0
  0
SPLINE
  5
36C
100
AcDbEntity
  8
ASSI
100
AcDbSpline
 62
7
  6
CONTINUOUS
 70
0
 71
3
 72
15
 73
11
 74
0
 42
0.0000001
 43
0.0000001
 44
0.0000000001
 40
0.0
 40
0.0
 40
0.0
 40
0.0
 40
0.1141562538
 40
0.2373233739
 40
0.3669744829
 40
0.500000178
 40
0.6330258497
 40
0.7626765554
 40
0.8858475902
 40
1.0
 40
1.0
 40
1.0
 40
1.0
 10
19.8544191357
 20
-14.9489895222
 30
0.0
 10
19.8544191347
 20
-15.1446368048
 30
0.0
 10
19.8902549566
 20
-15.5517551537
 30
0.0
 10
20.0331294322
 20
-16.1659384428
 30
0.0
 10
20.2619812012
 20
-16.7880619536
 30
0.0
 10
20.5682912282
 20
-17.3947307777
 30
0.0
 10
20.940562332
 20
-17.9633124603
 30
0.0
 10
21.3649341824
 20
-18.472554609
 30
0.0
 10
21.8254264749
 20
-18.9033458525
 30
0.0
 10
22.1600967871
 20
-19.1379199974
 30
0.0
 10
22.3295320485
 20
-19.2357309043
 30
0.0
  0
SPLINE
  5
36D
100
AcDbEntity
  8
ASSI
100
AcDbSpline
 62
7
  6
CONTINUOUS
 70
0
 71
3
 72
19
 73
15
 74
0
 42
0.0000001
 43
0.0000001
 44
0.0000000001
 40
0.0
 40
0.0
 40
0.0
 40
0.0
 40
0.0428399581
 40
0.0874488158
 40
0.1352609847
 40
0.1872025448
 40
0.243684761
 40
0.3046810671
 40
0.3698207668
 40
0.438472956
 40
0.5827574426
 40
0.7298491869
 40
0.8713790236
 40
1.0
 40
1.0
 40
1.0
 40
1.0
 10
-24.0038849425
 20
7.9454092322
 30
0.0
 10
-24.0901733156
 20
7.8955925995
 30
0.0
 10
-24.2803757622
 20
7.8165257554
 30
0.0
 10
-24.5943582139
 20
7.7705099156
 30
0.0
 10
-24.9315260959
 20
7.7953294792
 30
0.0
 10
-25.2843966983
 20
7.8890865957
 30
0.0
 10
-25.646042044
 20
8.0489197265
 30
0.0
 10
-26.0092542452
 20
8.2711353057
 30
0.0
 10
-26.3666925136
 20
8.5509539202
 30
0.0
 10
-26.8331332715
 20
9.000277277
 30
0.0
 10
-27.3514308343
 20
9.6639980864
 30
0.0
 10
-27.8327818131
 20
10.5535912862
 30
0.0
 10
-28.1451420907
 20
11.4772475595
 30
0.0
 10
-28.2288419839
 20
12.1062643712
 30
0.0
 10
-28.228841985
 20
12.4054082307
 30
0.0
  0
SPLINE
  5
36E
100
AcDbEntity
  8
ASSI
100
AcDbSpline
 62
7
  6
CONTINUOUS
 70
0
 71
3
 72
19
 73
15
 74
0
 42
0.0000001
 43
0.0000001
 44
0.0000000001
 40
0.0
 40
0.0
 40
0.0
 40
0.0
 40
0.1447039392
 40
0.2741470186
 40
0.3338722085
 40
0.390884769
 40
0.4459518973
 40
0.4999999291
 40
0.5540479239
 40
0.6091147637
 40
0.6661275512
 40
0.725852787
 40
0.8552990156
 40
1.0
 40
1.0
 40
1.0
 40
1.0
 10
17.8038094703
 20
-11.8872457117
 30
0.0
 10
17.8038094696
 20
-11.6490443625
 30
0.0
 10
17.8396745185
 20
-11.1964030391
 30
0.0
 10
17.9969687325
 20
-10.663920923
 30
0.0
 10
18.1878365453
 20
-10.3050327895
 30
0.0
 10
18.3561694908
 20
-10.0763965752
 30
0.0
 10
18.5519520224
 20
-9.8837192188
 30
0.0
 10
18.7732723389
 20
-9.7292564084
 30
0.0
 10
19.0176966523
 20
-9.6148122276
 30
0.0
 10
19.2824439892
 20
-9.5415732857
 30
0.0
 10
19.5646142477
 20
-9.5100945878
 30
0.0
 10
19.9708601146
 20
-9.524229989
 30
0.0
 10
20.5106592547
 20
-9.6542127418
 30
0.0
 10
20.9205993145
 20
-9.849457319
 30
0.0
 10
21.1268901589
 20
-9.9685440651
 30
0.0
  0
SPLINE
  5
36F
100
AcDbEntity
  8
ASSI
100
AcDbSpline
 62
7
  6
CONTINUOUS
 70
0
 71
3
 72
27
 73
23
 74
0
 42
0.0000001
 43
0.0000001
 44
0.0000000001
 40
0.0
 40
0.0
 40
0.0
 40
0.0
 40
0.0603444252
 40
0.1143243825
 40
0.1392307118
 40
0.1630058338
 40
0.1859697513
 40
0.2085088351
 40
0.231048116
 40
0.2540125308
 40
0.2777887162
 40
0.3026963095
 40
0.3566805832
 40
0.4170269456
 40
0.4835768936
 40
0.5553836836
 40
0.6309668489
 40
0.7085168953
 40
0.786066521
 40
0.8616483522
 40
0.9334511417
 40
1.0
 40
1.0
 40
1.0
 40
1.0
 10
8.5407106367
 20
-9.8047296463
 30
0.0
 10
8.5407106374
 20
-10.0429448221
 30
0.0
 10
8.5048416317
 20
-10.4956110915
 30
0.0
 10
8.3475281484
 20
-11.0281194017
 30
0.0
 10
8.1566371963
 20
-11.3870181722
 30
0.0
 10
7.9882842522
 20
-11.6156569892
 30
0.0
 10
7.7924788564
 20
-11.8083316244
 30
0.0
 10
7.5711334348
 20
-11.9627861092
 30
0.0
 10
7.3266822174
 20
-12.0772160423
 30
0.0
 10
7.061907783
 20
-12.1504355922
 30
0.0
 10
6.7797073631
 20
-12.18188751
 30
0.0
 10
6.3734344046
 20
-12.1677194975
 30
0.0
 10
5.8334839457
 20
-12.0375939336
 30
0.0
 10
5.1853897935
 20
-11.7289833584
 30
0.0
 10
4.5405411288
 20
-11.2769542152
 30
0.0
 10
3.9220617323
 20
-10.6983289457
 30
0.0
 10
3.3522853556
 20
-10.0145396172
 30
0.0
 10
2.852420466
 20
-9.251031537
 30
0.0
 10
2.4411452001
 20
-8.436404534
 30
0.0
 10
2.1338518867
 20
-7.6010329508
 30
0.0
 10
1.9420258452
 20
-6.7763223424
 30
0.0
 10
1.8939068926
 20
-6.2296562157
 30
0.0
 10
1.8939068936
 20
-5.966948469
 30
0.0
  0
SPLINE
  5
370
100
AcDbEntity
  8
ASSI
100
AcDbSpline
 62
7
  6
CONTINUOUS
 70
0
 71
3
 72
19
 73
15
 74
0
 42
0.0000001
 43
0.0000001
 44
0.0000000001
 40
0.0
 40
0.0
 40
0.0
 40
0.0
 40
0.0428399581
 40
0.0874488158
 40
0.1352609847
 40
0.1872025448
 40
0.243684761
 40
0.3046810671
 40
0.3698207668
 40
0.438472956
 40
0.5827574426
 40
0.7298491869
 40
0.8713790236
 40
1.0
 40
1.0
 40
1.0
 40
1.0
 10
-8.0939823659
 20
-1.2407691176
 30
0.0
 10
-8.1802707389
 20
-1.2905857504
 30
0.0
 10
-8.3704731855
 20
-1.3696525945
 30
0.0
 10
-8.6844556372
 20
-1.4156684342
 30
0.0
 10
-9.0216235192
 20
-1.3908488707
 30
0.0
 10
-9.3744941216
 20
-1.2970917542
 30
0.0
 10
-9.7361394673
 20
-1.1372586234
 30
0.0
 10
-10.0993516685
 20
-0.9150430442
 30
0.0
 10
-10.4567899369
 20
-0.6352244297
 30
0.0
 10
-10.9232306948
 20
-0.1859010729
 30
0.0
 10
-11.4415282576
 20
0.4778197365
 30
0.0
 10
-11.9228792364
 20
1.3674129363
 30
0.0
 10
-12.235239514
 20
2.2910692097
 30
0.0
 10
-12.3189394072
 20
2.9200860213
 30
0.0
 10
-12.3189394083
 20
3.2192298808
 30
0.0
  0
SPLINE
  5
371
100
AcDbEntity
  8
ASSI
100
AcDbSpline
 62
7
  6
CONTINUOUS
 70
0
 71
3
 72
19
 73
15
 74
0
 42
0.0000001
 43
0.0000001
 44
0.0000000001
 40
0.0
 40
0.0
 40
0.0
 40
0.0
 40
0.1447039392
 40
0.2741470186
 40
0.3338722085
 40
0.390884769
 40
0.4459518973
 40
0.4999999291
 40
0.5540479239
 40
0.6091147637
 40
0.6661275512
 40
0.725852787
 40
0.8552990156
 40
1.0
 40
1.0
 40
1.0
 40
1.0
 10
1.8939068936
 20
-2.7010673619
 30
0.0
 10
1.8939068929
 20
-2.4628660126
 30
0.0
 10
1.9297719418
 20
-2.0102246892
 30
0.0
 10
2.0870661558
 20
-1.4777425731
 30
0.0
 10
2.2779339686
 20
-1.1188544396
 30
0.0
 10
2.4462669141
 20
-0.8902182253
 30
0.0
 10
2.6420494457
 20
-0.697540869
 30
0.0
 10
2.8633697622
 20
-0.5430780585
 30
0.0
 10
3.1077940756
 20
-0.4286338777
 30
0.0
 10
3.3725414125
 20
-0.3553949359
 30
0.0
 10
3.654711671
 20
-0.3239162379
 30
0.0
 10
4.0609575379
 20
-0.3380516391
 30
0.0
 10
4.600756678
 20
-0.4680343919
 30
0.0
 10
5.0106967378
 20
-0.6632789691
 30
0.0
 10
5.2169875823
 20
-0.7823657153
 30
0.0
  0
SPLINE
  5
372
100
AcDbEntity
  8
ASSI
100
AcDbSpline
 62
7
  6
CONTINUOUS
 70
0
 71
3
 72
12
 73
8
 74
0
 42
0.0000001
 43
0.0000001
 44
0.0000000001
 40
0.0
 40
0.0
 40
0.0
 40
0.0
 40
0.2895888118
 40
0.5486306883
 40
0.7816356825
 40
0.891837135
 40
1.0
 40
1.0
 40
1.0
 40
1.0
 10
3.5909631684
 20
-2.7010673619
 30
0.0
 10
3.5909631689
 20
-2.5236821144
 30
0.0
 10
3.6178339056
 20
-2.186417424
 30
0.0
 10
3.7542128119
 20
-1.7233079738
 30
0.0
 10
3.9501579132
 20
-1.403765363
 30
0.0
 10
4.1480665518
 20
-1.2091231754
 30
0.0
 10
4.2583751388
 20
-1.132116665
 30
0.0
 10
4.3157535943
 20
-1.0989905167
 30
0.0
  0
SPLINE
  5
373
100
AcDbEntity
  8
ASSI
100
AcDbSpline
 62
7
  6
CONTINUOUS
 70
0
 71
3
 72
15
 73
11
 74
0
 42
0.0000001
 43
0.0000001
 44
0.0000000001
 40
0.0
 40
0.0
 40
0.0
 40
0.0
 40
0.1141562538
 40
0.2373233739
 40
0.3669744829
 40
0.500000178
 40
0.6330258497
 40
0.7626765554
 40
0.8858475902
 40
1.0
 40
1.0
 40
1.0
 40
1.0
 10
-27.8752885944
 20
12.6095455274
 30
0.0
 10
-27.8752885954
 20
12.4138982448
 30
0.0
 10
-27.8394527735
 20
12.0067798959
 30
0.0
 10
-27.6965782979
 20
11.3925966068
 30
0.0
 10
-27.4677265289
 20
10.770473096
 30
0.0
 10
-27.1614165018
 20
10.1638042719
 30
0.0
 10
-26.789145398
 20
9.5952225893
 30
0.0
 10
-26.3647735477
 20
9.0859804407
 30
0.0
 10
-25.9042812552
 20
8.6551891971
 30
0.0
 10
-25.569610943
 20
8.4206150523
 30
0.0
 10
-25.4001756816
 20
8.3228041453
 30
0.0
  0
SPLINE
  5
374
100
AcDbEntity
  8
ASSI
100
AcDbSpline
 62
7
  6
CONTINUOUS
 70
0
 71
3
 72
27
 73
23
 74
0
 42
0.0000001
 43
0.0000001
 44
0.0000000001
 40
0.0
 40
0.0
 40
0.0
 40
0.0
 40
0.0603444252
 40
0.1143243825
 40
0.1392307118
 40
0.1630058338
 40
0.1859697513
 40
0.2085088351
 40
0.231048116
 40
0.2540125308
 40
0.2777887162
 40
0.3026963095
 40
0.3566805832
 40
0.4170269456
 40
0.4835768936
 40
0.5553836836
 40
0.6309668489
 40
0.7085168953
 40
0.786066521
 40
0.8616483522
 40
0.9334511417
 40
1.0
 40
1.0
 40
1.0
 40
1.0
 10
-7.36919194
 20
-0.6185512964
 30
0.0
 10
-7.3691919393
 20
-0.8567664722
 30
0.0
 10
-7.405060945
 20
-1.3094327416
 30
0.0
 10
-7.5623744283
 20
-1.8419410518
 30
0.0
 10
-7.7532653804
 20
-2.2008398223
 30
0.0
 10
-7.9216183245
 20
-2.4294786393
 30
0.0
 10
-8.1174237203
 20
-2.6221532746
 30
0.0
 10
-8.3387691419
 20
-2.7766077594
 30
0.0
 10
-8.5832203592
 20
-2.8910376924
 30
0.0
 10
-8.8479947937
 20
-2.9642572423
 30
0.0
 10
-9.1301952136
 20
-2.9957091602
 30
0.0
 10
-9.5364681721
 20
-2.9815411477
 30
0.0
 10
-10.076418631
 20
-2.8514155837
 30
0.0
 10
-10.7245127832
 20
-2.5428050085
 30
0.0
 10
-11.3693614479
 20
-2.0907758653
 30
0.0
 10
-11.9878408444
 20
-1.5121505958
 30
0.0
 10
-12.5576172211
 20
-0.8283612673
 30
0.0
 10
-13.0574821107
 20
-0.0648531871
 30
0.0
 10
-13.4687573766
 20
0.7497738159
 30
0.0
 10
-13.77605069
 20
1.5851453991
 30
0.0
 10
-13.9678767315
 20
2.4098560075
 30
0.0
 10
-14.0159956841
 20
2.9565221341
 30
0.0
 10
-14.0159956831
 20
3.2192298808
 30
0.0
  0
SPLINE
  5
375
100
AcDbEntity
  8
ASSI
100
AcDbSpline
 62
7
  6
CONTINUOUS
 70
0
 71
3
 72
15
 73
11
 74
0
 42
0.0000001
 43
0.0000001
 44
0.0000000001
 40
0.0
 40
0.0
 40
0.0
 40
0.0
 40
0.1141562538
 40
0.2373233739
 40
0.3669744829
 40
0.500000178
 40
0.6330258497
 40
0.7626765554
 40
0.8858475902
 40
1.0
 40
1.0
 40
1.0
 40
1.0
 10
3.944516559
 20
-5.7628111724
 30
0.0
 10
3.944516558
 20
-5.9584584549
 30
0.0
 10
3.9803523799
 20
-6.3655768038
 30
0.0
 10
4.1232268555
 20
-6.979760093
 30
0.0
 10
4.3520786245
 20
-7.6018836037
 30
0.0
 10
4.6583886515
 20
-8.2085524278
 30
0.0
 10
5.0306597554
 20
-8.7771341104
 30
0.0
 10
5.4550316057
 20
-9.2863762591
 30
0.0
 10
5.9155238982
 20
-9.7171675026
 30
0.0
 10
6.2501942104
 20
-9.9517416475
 30
0.0
 10
6.4196294718
 20
-10.0495525544
 30
0.0
  0
SPLINE
  5
376
100
AcDbEntity
  8
ASSI
100
AcDbSpline
 62
7
  6
CONTINUOUS
 70
0
 71
3
 72
19
 73
15
 74
0
 42
0.0000001
 43
0.0000001
 44
0.0000000001
 40
0.0
 40
0.0
 40
0.0
 40
0.0
 40
0.0428399581
 40
0.0874488158
 40
0.1352609847
 40
0.1872025448
 40
0.243684761
 40
0.3046810671
 40
0.3698207668
 40
0.438472956
 40
0.5827574426
 40
0.7298491869
 40
0.8713790236
 40
1.0
 40
1.0
 40
1.0
 40
1.0
 10
7.8159202108
 20
-10.4269474675
 30
0.0
 10
7.7296318378
 20
-10.4767641003
 30
0.0
 10
7.5394293912
 20
-10.5558309443
 30
0.0
 10
7.2254469395
 20
-10.6018467841
 30
0.0
 10
6.8882790575
 20
-10.5770272205
 30
0.0
 10
6.5354084551
 20
-10.483270104
 30
0.0
 10
6.1737631094
 20
-10.3234369733
 30
0.0
 10
5.8105509082
 20
-10.1012213941
 30
0.0
 10
5.4531126398
 20
-9.8214027795
 30
0.0
 10
4.9866718819
 20
-9.3720794228
 30
0.0
 10
4.4683743191
 20
-8.7083586134
 30
0.0
 10
3.9870233403
 20
-7.8187654135
 30
0.0
 10
3.6746630627
 20
-6.8951091402
 30
0.0
 10
3.5909631695
 20
-6.2660923286
 30
0.0
 10
3.5909631684
 20
-5.966948469
 30
0.0
  0
SPLINE
  5
377
100
AcDbEntity
  8
ASSI
100
AcDbSpline
 62
7
  6
CONTINUOUS
 70
0
 71
3
 72
19
 73
15
 74
0
 42
0.0000001
 43
0.0000001
 44
0.0000000001
 40
0.0
 40
0.0
 40
0.0
 40
0.0
 40
0.1447039392
 40
0.2741470186
 40
0.3338722085
 40
0.390884769
 40
0.4459518973
 40
0.4999999291
 40
0.5540479239
 40
0.6091147637
 40
0.6661275512
 40
0.725852787
 40
0.8552990156
 40
1.0
 40
1.0
 40
1.0
 40
1.0
 10
-14.0159956831
 20
6.485110988
 30
0.0
 10
-14.0159956838
 20
6.7233123372
 30
0.0
 10
-13.9801306349
 20
7.1759536606
 30
0.0
 10
-13.8228364209
 20
7.7084357768
 30
0.0
 10
-13.6319686081
 20
8.0673239103
 30
0.0
 10
-13.4636356626
 20
8.2959601245
 30
0.0
 10
-13.267853131
 20
8.4886374809
 30
0.0
 10
-13.0465328145
 20
8.6431002914
 30
0.0
 10
-12.8021085011
 20
8.7575444722
 30
0.0
 10
-12.5373611642
 20
8.830783414
 30
0.0
 10
-12.2551909057
 20
8.862262112
 30
0.0
 10
-11.8489450388
 20
8.8481267108
 30
0.0
 10
-11.3091458987
 20
8.718143958
 30
0.0
 10
-10.8992058389
 20
8.5228993808
 30
0.0
 10
-10.6929149944
 20
8.4038126346
 30
0.0
  0
SPLINE
  5
378
100
AcDbEntity
  8
ASSI
100
AcDbSpline
 62
7
  6
CONTINUOUS
 70
0
 71
3
 72
27
 73
23
 74
0
 42
0.0000001
 43
0.0000001
 44
0.0000000001
 40
0.0
 40
0.0
 40
0.0
 40
0.0
 40
0.0603444252
 40
0.1143243825
 40
0.1392307118
 40
0.1630058338
 40
0.1859697513
 40
0.2085088351
 40
0.231048116
 40
0.2540125308
 40
0.2777887162
 40
0.3026963095
 40
0.3566805832
 40
0.4170269456
 40
0.4835768936
 40
0.5553836836
 40
0.6309668489
 40
0.7085168953
 40
0.786066521
 40
0.8616483522
 40
0.9334511417
 40
1.0
 40
1.0
 40
1.0
 40
1.0
 10
-23.2790945167
 20
8.5676270534
 30
0.0
 10
-23.279094516
 20
8.3294118777
 30
0.0
 10
-23.3149635217
 20
7.8767456083
 30
0.0
 10
-23.472277005
 20
7.344237298
 30
0.0
 10
-23.6631679571
 20
6.9853385275
 30
0.0
 10
-23.8315209012
 20
6.7566997106
 30
0.0
 10
-24.027326297
 20
6.5640250753
 30
0.0
 10
-24.2486717186
 20
6.4095705905
 30
0.0
 10
-24.4931229359
 20
6.2951406574
 30
0.0
 10
-24.7578973704
 20
6.2219211076
 30
0.0
 10
-25.0400977903
 20
6.1904691897
 30
0.0
 10
-25.4463707488
 20
6.2046372022
 30
0.0
 10
-25.9863212077
 20
6.3347627661
 30
0.0
 10
-26.6344153599
 20
6.6433733414
 30
0.0
 10
-27.2792640246
 20
7.0954024846
 30
0.0
 10
-27.8977434211
 20
7.6740277541
 30
0.0
 10
-28.4675197978
 20
8.3578170826
 30
0.0
 10
-28.9673846874
 20
9.1213251627
 30
0.0
 10
-29.3786599533
 20
9.9359521657
 30
0.0
 10
-29.6859532667
 20
10.7713237489
 30
0.0
 10
-29.8777793082
 20
11.5960343573
 30
0.0
 10
-29.9258982608
 20
12.142700484
 30
0.0
 10
-29.9258982598
 20
12.4054082307
 30
0.0
  0
SPLINE
  5
379
100
AcDbEntity
  8
ASSI
100
AcDbSpline
 62
7
  6
CONTINUOUS
 70
0
 71
3
 72
19
 73
15
 74
0
 42
0.0000001
 43
0.0000001
 44
0.0000000001
 40
0.0
 40
0.0
 40
0.0
 40
0.0
 40
0.0428399581
 40
0.0874488158
 40
0.1352609847
 40
0.1872025448
 40
0.243684761
 40
0.3046810671
 40
0.3698207668
 40
0.438472956
 40
0.5827574426
 40
0.7298491869
 40
0.8713790236
 40
1.0
 40
1.0
 40
1.0
 40
1.0
 10
23.7258227875
 20
-19.6131258174
 30
0.0
 10
23.6395344145
 20
-19.6629424502
 30
0.0
 10
23.4493319679
 20
-19.7420092942
 30
0.0
 10
23.1353495162
 20
-19.788025134
 30
0.0
 10
22.7981816342
 20
-19.7632055704
 30
0.0
 10
22.4453110318
 20
-19.6694484539
 30
0.0
 10
22.0836656861
 20
-19.5096153231
 30
0.0
 10
21.7204534849
 20
-19.287399744
 30
0.0
 10
21.3630152165
 20
-19.0075811294
 30
0.0
 10
20.8965744586
 20
-18.5582577726
 30
0.0
 10
20.3782768958
 20
-17.8945369633
 30
0.0
 10
19.896925917
 20
-17.0049437634
 30
0.0
 10
19.5845656394
 20
-16.0812874901
 30
0.0
 10
19.5008657462
 20
-15.4522706784
 30
0.0
 10
19.5008657451
 20
-15.1531268189
 30
0.0
  0
SPLINE
  5
37A
100
AcDbEntity
  8
ASSI
100
AcDbSpline
 62
7
  6
CONTINUOUS
 70
0
 71
3
 72
12
 73
8
 74
0
 42
0.0000001
 43
0.0000001
 44
0.0000000001
 40
0.0
 40
0.0
 40
0.0
 40
0.0
 40
0.2895888118
 40
0.5486306883
 40
0.7816356825
 40
0.891837135
 40
1.0
 40
1.0
 40
1.0
 40
1.0
 10
-28.228841985
 20
15.6712893379
 30
0.0
 10
-28.2288419845
 20
15.8486745853
 30
0.0
 10
-28.2019712478
 20
16.1859392758
 30
0.0
 10
-28.0655923415
 20
16.649048726
 30
0.0
 10
-27.8696472402
 20
16.9685913368
 30
0.0
 10
-27.6717386016
 20
17.1632335244
 30
0.0
 10
-27.5614300146
 20
17.2402400347
 30
0.0
 10
-27.5040515591
 20
17.2733661831
 30
0.0
  0
SPLINE
  5
37B
100
AcDbEntity
  8
ASSI
100
AcDbSpline
 62
7
  6
CONTINUOUS
 70
0
 71
3
 72
12
 73
8
 74
0
 42
0.0000001
 43
0.0000001
 44
0.0000000001
 40
0.0
 40
0.0
 40
0.0
 40
0.0
 40
0.2895888118
 40
0.5486306883
 40
0.7816356825
 40
0.891837135
 40
1.0
 40
1.0
 40
1.0
 40
1.0
 10
-12.3189394083
 20
6.485110988
 30
0.0
 10
-12.3189394078
 20
6.6624962355
 30
0.0
 10
-12.2920686711
 20
6.9997609259
 30
0.0
 10
-12.1556897648
 20
7.4628703761
 30
0.0
 10
-11.9597446635
 20
7.7824129869
 30
0.0
 10
-11.7618360249
 20
7.9770551745
 30
0.0
 10
-11.6515274379
 20
8.0540616848
 30
0.0
 10
-11.5941489824
 20
8.0871878332
 30
0.0
  0
SPLINE
  5
37C
100
AcDbEntity
  8
ASSI
100
AcDbSpline
 62
7
  6
CONTINUOUS
 70
0
 71
3
 72
19
 73
15
 74
0
 42
0.0000001
 43
0.0000001
 44
0.0000000001
 40
0.0
 40
0.0
 40
0.0
 40
0.0
 40
0.1447039392
 40
0.2741470186
 40
0.3338722085
 40
0.390884769
 40
0.4459518973
 40
0.4999999291
 40
0.5540479239
 40
0.6091147637
 40
0.6661275512
 40
0.725852787
 40
0.8552990156
 40
1.0
 40
1.0
 40
1.0
 40
1.0
 10
-29.9258982598
 20
15.6712893379
 30
0.0
 10
-29.9258982605
 20
15.9094906871
 30
0.0
 10
-29.8900332116
 20
16.3621320105
 30
0.0
 10
-29.7327389976
 20
16.8946141266
 30
0.0
 10
-29.5418711848
 20
17.2535022601
 30
0.0
 10
-29.3735382393
 20
17.4821384744
 30
0.0
 10
-29.1777557077
 20
17.6748158308
 30
0.0
 10
-28.9564353912
 20
17.8292786413
 30
0.0
 10
-28.7120110778
 20
17.943722822
 30
0.0
 10
-28.4472637409
 20
18.0169617639
 30
0.0
 10
-28.1650934824
 20
18.0484404619
 30
0.0
 10
-27.7588476155
 20
18.0343050606
 30
0.0
 10
-27.2190484754
 20
17.9043223079
 30
0.0
 10
-26.8091084156
 20
17.7090777307
 30
0.0
 10
-26.6028175711
 20
17.5899909845
 30
0.0
  0
SPLINE
  5
37D
100
AcDbEntity
  8
ASSI
100
AcDbSpline
 62
7
  6
CONTINUOUS
 70
0
 71
3
 72
15
 73
11
 74
0
 42
0.0000001
 43
0.0000001
 44
0.0000000001
 40
0.0
 40
0.0
 40
0.0
 40
0.0
 40
0.1141562538
 40
0.2373233739
 40
0.3669744829
 40
0.500000178
 40
0.6330258497
 40
0.7626765554
 40
0.8858475902
 40
1.0
 40
1.0
 40
1.0
 40
1.0
 10
-11.9653860177
 20
3.4233671775
 30
0.0
 10
-11.9653860187
 20
3.2277198949
 30
0.0
 10
-11.9295501968
 20
2.820601546
 30
0.0
 10
-11.7866757212
 20
2.2064182569
 30
0.0
 10
-11.5578239522
 20
1.5842947461
 30
0.0
 10
-11.2515139252
 20
0.9776259221
 30
0.0
 10
-10.8792428213
 20
0.4090442395
 30
0.0
 10
-10.454870971
 20
-0.1001979092
 30
0.0
 10
-9.9943786785
 20
-0.5309891527
 30
0.0
 10
-9.6597083663
 20
-0.7655632976
 30
0.0
 10
-9.4902731049
 20
-0.8633742045
 30
0.0
  0
SPLINE
  5
37E
100
AcDbEntity
  8
CURVE
100
AcDbSpline
 62
250
  6
CONTINUOUS
 70
0
 71
3
 72
9
 73
5
 74
0
 42
0.0000001
 43
0.0000001
 44
0.0000000001
 40
0.0
 40
0.0
 40
0.0
 40
0.0
 40
0.2957417834
 40
1.0
 40
1.0
 40
1.0
 40
1.0
 10
50.091998863
 20
-53.9956240342
 30
0.0
 10
50.0602383583
 20
-54.1108677204
 30
0.0
 10
50.0084668427
 20
-54.4915077569
 30
0.0
 10
50.04035281
 20
-54.8289551375
 30
0.0
 10
50.0727508531
 20
-55.0573604741
 30
0.0
  0
SPLINE
  5
37F
100
AcDbEntity
  8
CURVE
100
AcDbSpline
 62
250
  6
CONTINUOUS
 70
0
 71
3
 72
17
 73
13
 74
0
 42
0.0000001
 43
0.0000001
 44
0.0000000001
 40
0.0
 40
0.0
 40
0.0
 40
0.0
 40
0.0559780952
 40
0.1687540387
 40
0.321006234
 40
0.4122750837
 40
0.516613223
 40
0.6013931059
 40
0.6776022439
 40
0.8103422694
 40
0.9200404832
 40
1.0
 40
1.0
 40
1.0
 40
1.0
 10
51.0153960915
 20
-53.4545209894
 30
0.0
 10
51.012676352
 20
-53.4324542753
 30
0.0
 10
50.9704797627
 20
-53.3953608989
 30
0.0
 10
50.8900412917
 20
-53.339477936
 30
0.0
 10
50.7662187542
 20
-53.3331092019
 30
0.0
 10
50.6370438205
 20
-53.3701233287
 30
0.0
 10
50.529831322
 20
-53.4247922075
 30
0.0
 10
50.429695718
 20
-53.4948168599
 30
0.0
 10
50.3232938273
 20
-53.5911496595
 30
0.0
 10
50.2190176548
 20
-53.7206262174
 30
0.0
 10
50.1374709486
 20
-53.8680717628
 30
0.0
 10
50.1023006011
 20
-53.958197749
 30
0.0
 10
50.091998863
 20
-53.9956240342
 30
0.0
  0
SPLINE
  5
380
100
AcDbEntity
  8
CURVE
100
AcDbSpline
 62
250
  6
CONTINUOUS
 70
0
 71
3
 72
9
 73
5
 74
0
 42
0.0000001
 43
0.0000001
 44
0.0000000001
 40
0.0
 40
0.0
 40
0.0
 40
0.0
 40
0.2426586216
 40
1.0
 40
1.0
 40
1.0
 40
1.0
 10
51.3847686923
 20
-53.0100746935
 30
0.0
 10
51.3515473898
 20
-53.0380655898
 30
0.0
 10
51.2173916743
 20
-53.1488930007
 30
0.0
 10
51.0660022652
 20
-53.3158363946
 30
0.0
 10
51.0261991056
 20
-53.4487044033
 30
0.0
  0
SPLINE
  5
381
100
AcDbEntity
  8
CURVE
100
AcDbSpline
 62
250
  6
CONTINUOUS
 70
0
 71
3
 72
9
 73
5
 74
0
 42
0.0000001
 43
0.0000001
 44
0.0000000001
 40
0.0
 40
0.0
 40
0.0
 40
0.0
 40
0.1980141723
 40
1.0
 40
1.0
 40
1.0
 40
1.0
 10
51.8795823834
 20
-52.5980140448
 30
0.0
 10
51.8469870713
 20
-52.6254471974
 30
0.0
 10
51.6820060631
 20
-52.7626500461
 30
0.0
 10
51.5167560501
 20
-52.8988654512
 30
0.0
 10
51.3847686923
 20
-53.0100746935
 30
0.0
  0
SPLINE
  5
382
100
AcDbEntity
  8
CURVE
100
AcDbSpline
 62
250
  6
CONTINUOUS
 70
0
 71
3
 72
9
 73
5
 74
0
 42
0.0000001
 43
0.0000001
 44
0.0000000001
 40
0.0
 40
0.0
 40
0.0
 40
0.0
 40
0.5586214172
 40
1.0
 40
1.0
 40
1.0
 40
1.0
 10
51.3252150205
 20
-53.4925794314
 30
0.0
 10
51.4261339054
 20
-53.3959161078
 30
0.0
 10
51.6130071934
 20
-53.239636443
 30
0.0
 10
51.7977189718
 20
-53.0781561662
 30
0.0
 10
51.8795823834
 20
-53.0078038228
 30
0.0
  0
SPLINE
  5
383
100
AcDbEntity
  8
CURVE
100
AcDbSpline
 62
250
  6
CONTINUOUS
 70
0
 71
3
 72
9
 73
5
 74
0
 42
0.0000001
 43
0.0000001
 44
0.0000000001
 40
0.0
 40
0.0
 40
0.0
 40
0.0
 40
0.3559141631
 40
1.0
 40
1.0
 40
1.0
 40
1.0
 10
51.1641294674
 20
-53.8169972452
 30
0.0
 10
51.1641294674
 20
-53.7798719462
 30
0.0
 10
51.1842664291
 20
-53.6622302233
 30
0.0
 10
51.2688716315
 20
-53.5465218724
 30
0.0
 10
51.3252150205
 20
-53.4925794314
 30
0.0
  0
SPLINE
  5
384
100
AcDbEntity
  8
CURVE
100
AcDbSpline
 62
250
  6
CONTINUOUS
 70
0
 71
3
 72
9
 73
5
 74
0
 42
0.0000001
 43
0.0000001
 44
0.0000000001
 40
0.0
 40
0.0
 40
0.0
 40
0.0
 40
0.5206208722
 40
1.0
 40
1.0
 40
1.0
 40
1.0
 10
50.5806159014
 20
-53.7993170701
 30
0.0
 10
50.6596496391
 20
-53.7554020811
 30
0.0
 10
50.8322980616
 20
-53.7247758084
 30
0.0
 10
50.8630907542
 20
-53.896933117
 30
0.0
 10
50.8647159796
 20
-53.9772899144
 30
0.0
  0
SPLINE
  5
385
100
AcDbEntity
  8
CURVE
100
AcDbSpline
 62
250
  6
CONTINUOUS
 70
0
 71
3
 72
9
 73
5
 74
0
 42
0.0000001
 43
0.0000001
 44
0.0000000001
 40
0.0
 40
0.0
 40
0.0
 40
0.0
 40
0.5013510385
 40
1.0
 40
1.0
 40
1.0
 40
1.0
 10
50.352080057
 20
-54.1630207984
 30
0.0
 10
50.3585735259
 20
-54.0970852277
 30
0.0
 10
50.4078280827
 20
-53.9442746042
 30
0.0
 10
50.5246204575
 20
-53.8304440016
 30
0.0
 10
50.5806159014
 20
-53.7993170701
 30
0.0
  0
SPLINE
  5
386
100
AcDbEntity
  8
CURVE
100
AcDbSpline
 62
250
  6
CONTINUOUS
 70
0
 71
3
 72
9
 73
5
 74
0
 42
0.0000001
 43
0.0000001
 44
0.0000000001
 40
0.0
 40
0.0
 40
0.0
 40
0.0
 40
0.2703953699
 40
1.0
 40
1.0
 40
1.0
 40
1.0
 10
50.3628419429
 20
-54.490981191
 30
0.0
 10
50.3582970789
 20
-54.463693305
 30
0.0
 10
50.3433493835
 20
-54.3614290331
 30
0.0
 10
50.343673881
 20
-54.2483971608
 30
0.0
 10
50.352080057
 20
-54.1630207984
 30
0.0
  0
ENDSEC
  0
SECTION
  2
OBJECTS
  0
DICTIONARY
  5
C
100
AcDbDictionary
280
0
281
1
  3
ACAD_GROUP
350
D
  3
ACAD_MLINESTYLE
350
17
  3
ACAD_LAYOUT
350
1A
  3
ACAD_PLOTSETTINGS
350
19
  3
ACAD_PLOTSTYLENAME
350
E
  0
DICTIONARY
  5
D
102
{ACAD_REACTORS
330
C
102
}
100
AcDbDictionary
280
0
281
1
  0
ACDBDICTIONARYWDFLT
  5
E
102
{ACAD_REACTORS
330
C
102
}
100
AcDbDictionary
281
1
  3
Normal
350
F
100
AcDbDictionaryWithDefault
340
F
  0
DICTIONARY
  5
17
102
{ACAD_REACTORS
330
C
102
}
100
AcDbDictionary
280
0
281
1
  3
Standard
350
18
  0
DICTIONARY
  5
19
102
{ACAD_REACTORS
330
C
102
}
100
AcDbDictionary
281
1
  0
DICTIONARY
  5
1A
102
{ACAD_REACTORS
330
C
102
}
100
AcDbDictionary
281
1
  3
Model
350
387
  3
Layout1
350
388
  0
ACDBPLACEHOLDER
  5
F
102
{ACAD_REACTORS
330
E
102
}
  0
MLINESTYLE
  5
18
102
{ACAD_REACTORS
330
17
102
}
100
AcDbMlineStyle
  2
STANDARD
 70
0
  3

 62
256
 51
90.0
 52
90.0
 71
2
 49
0.5
 62
256
  6
BYLAYER
 49
-0.5
 62
256
  6
BYLAYER
  0
LAYOUT
  5
387
102
{ACAD_REACTORS
330
1A
102
}
100
AcDbPlotSettings
  1

  2
none_device
  4
ISO_A4_(297.00_x_210.00_MM)
  6

 40
0.0
 41
0.0
 42
0.0
 43
0.0
 44
297.0
 45
210.0
 46
0.0
 47
0.0
 48
0.0
 49
0.0
140
0.0
141
0.0
142
1.0
143
1.0
 70
1024
 72
1
 73
0
 74
0
  7

 75
0
147
1.0
148
0.0
149
0.0
100
AcDbLayout
  1
Model
 70
0
 71
0
 10
0.0
 20
0.0
 11
297.0
 21
210.0
 12
0.0
 22
0.0
 32
0.0
 14
0.0
 24
0.0
 34
0.0
 15
0.0
 25
0.0
 35
0.0
146
0.0
 13
0.0
 23
0.0
 33
0.0
 16
1.0
 26
0.0
 36
0.0
 17
0.0
 27
1.0
 37
0.0
 76
0
330
21E
345
0
346
0
  0
LAYOUT
  5
388
102
{ACAD_REACTORS
330
1A
102
}
100
AcDbPlotSettings
  1

  2
none_device
  4
ISO_A4_(297.00_x_210.00_MM)
  6

 40
0.0
 41
0.0
 42
0.0
 43
0.0
 44
297.0
 45
210.0
 46
0.0
 47
0.0
 48
0.0
 49
0.0
140
0.0
141
0.0
142
1.0
143
1.0
 70
0
 72
1
 73
0
 74
0
  7

 75
0
147
1.0
148
0.0
149
0.0
100
AcDbLayout
  1
Layout1
 70
0
 71
1
 10
0.0
 20
0.0
 11
297.0
 21
210.0
 12
0.0
 22
0.0
 32
0.0
 14
0.0
 24
0.0
 34
0.0
 15
0.0
 25
0.0
 35
0.0
146
0.0
 13
0.0
 23
0.0
 33
0.0
 16
1.0
 26
0.0
 36
0.0
 17
0.0
 27
1.0
 37
0.0
 76
0
330
21F
345
0
346
0
  0
ENDSEC
  0
EOF
