  0
SECTION
  2
HEADER
  9
$ACADVER
  1
AC1024
  9
$DWGCODEPAGE
  3
ANSI_1252
  9
$EXTMAX
 10
297.0
 20
210.0
 30
0.0
  9
$EXTMIN
 10
0.0
 20
0.0
 30
0.0
  9
$LIMMIN
 10
0.0
 20
0.0
  9
$LIMMAX
 10
297.0
 20
210.0
  9
$VIEWCTR
 10
148.5
 20
105.0
  9
$VIEWSIZE
 40
210.0
  9
$CLAYER
  8
0
  9
$LTSCALE
 40
16.335
  9
$CELTYPE
  6
BYLAYER
  9
$DIMSCALE
 40
1.0
  9
$DIMASZ
 40
3.0
  9
$DIMEXO
 40
0.5
  9
$DIMDLI
 40
11.286
  9
$DIMEXE
 40
1.5
  9
$DIMCEN
 40
2.673
  9
$DIMLFAC
 40
1.0
  9
$DIMBLK
  1
_FILLED
  9
$DIMALT
 70
0
  9
$DIMALTF
 40
0.0393700787
  9
$DIMTXT
 40
3.0
  9
$DIMTOL
 70
1
  9
$DIMLIM
 70
0
  9
$DIMTFAC
 40
1.0
  9
$DIMTP
 40
0.01
  9
$DIMTM
 40
0.01
  9
$DIMGAP
 40
0.625
  9
$DIMDSEP
 70
44
  9
$AUNITS
 70
0
  9
$PDMODE
 70
3
  9
$PDSIZE
 40
3.0
  9
$HANDSEED
  5
376
  9
$TILEMODE
 70
1
  9
$MEASUREMENT
 70
1
  9
$INSUNITS
 70
4
  0
ENDSEC
  0
SECTION
  2
CLASSES
  0
CLASS
  1
ACDBDICTIONARYWDFLT
  2
AcDbDictionaryWithDefault
  3
AutoCAD 2000
 90
0
 91
1
280
0
281
0
  0
CLASS
  1
ACDBPLACEHOLDER
  2
AcDbPlaceHolder
  3
AutoCAD 2000
 90
0
 91
1
280
0
281
0
  0
CLASS
  1
LAYOUT
  2
AcDbLayout
  3
AutoCAD 2000
 90
0
 91
0
280
0
281
0
  0
ENDSEC
  0
SECTION
  2
TABLES
  0
TABLE
  2
VPORT
  5
8
100
AcDbSymbolTable
 70
2
  0
VPORT
  5
1F4
100
AcDbSymbolTableRecord
100
AcDbViewportTableRecord
  2
*ACTIVE
 70
0
 10
0.0
 20
0.0
 11
1.0
 21
1.0
 12
148.5
 22
105.0
 13
0.0
 23
0.0
 14
1.0
 24
1.0
 15
0.0
 25
0.0
 16
0.0
 26
0.0
 36
1.0
 17
0.0
 27
0.0
 37
0.0
 40
210.0
 41
1.4142857143
 42
50.0
 43
0.0
 44
0.0
 50
0.0
 51
0.0
 71
0
 72
100
 73
1
 74
1
 75
0
 76
0
 77
0
 78
0
  0
ENDTAB
  0
TABLE
  2
LTYPE
  5
5
100
AcDbSymbolTable
 70
6
  0
LTYPE
  5
14
100
AcDbSymbolTableRecord
100
AcDbLinetypeTableRecord
  2
BYBLOCK
 70
0
  3

 72
65
 73
0
 40
0.0
  0
LTYPE
  5
15
100
AcDbSymbolTableRecord
100
AcDbLinetypeTableRecord
  2
BYLAYER
 70
0
  3

 72
65
 73
0
 40
0.0
  0
LTYPE
  5
16
100
AcDbSymbolTableRecord
100
AcDbLinetypeTableRecord
  2
CONTINUOUS
 70
64
  3
Solid line
 72
65
 73
0
 40
0.0
  0
LTYPE
  5
1F5
100
AcDbSymbolTableRecord
100
AcDbLinetypeTableRecord
  2
CENTER
 70
64
  3
____ _ ____ _ ____ _ ____ _ ____ _ ____ _ ____
 72
65
 73
4
 40
0.6
 49
0.375
 74
0
 49
-0.075
 74
0
 49
0.075
 74
0
 49
-0.075
 74
0
  0
LTYPE
  5
1F6
100
AcDbSymbolTableRecord
100
AcDbLinetypeTableRecord
  2
HIDDEN
 70
64
  3
- - - - - - - - - - - - - - - - - - - -
 72
65
 73
2
 40
0.2
 49
0.1
 74
0
 49
-0.1
 74
0
  0
LTYPE
  5
1F7
100
AcDbSymbolTableRecord
100
AcDbLinetypeTableRecord
  2
PHANTOM
 70
64
  3
_____ _ _ _____ _ _ _____ _ _ _____
 72
65
 73
6
 40
0.8
 49
0.45
 74
0
 49
-0.05
 74
0
 49
0.1
 74
0
 49
-0.05
 74
0
 49
0.1
 74
0
 49
-0.05
 74
0
  0
LTYPE
  5
1F8
100
AcDbSymbolTableRecord
100
AcDbLinetypeTableRecord
  2
DOT
 70
64
  3
. . . . . . . . . . . . . . . . . . . .
 72
65
 73
2
 40
0.2
 49
0.1
 74
0
 49
-0.1
 74
0
  0
LTYPE
  5
1F9
100
AcDbSymbolTableRecord
100
AcDbLinetypeTableRecord
  2
DASHED
 70
64
  3
- - - - - - - - - - - - - - - - - - - -
 72
65
 73
2
 40
0.2
 49
0.1
 74
0
 49
-0.1
 74
0
  0
ENDTAB
  0
TABLE
  2
LAYER
  5
2
100
AcDbSymbolTable
 70
36
  0
LAYER
  5
10
100
AcDbSymbolTableRecord
100
AcDbLayerTableRecord
  2
0
 70
0
 62
7
  6
CONTINUOUS
370
-3
390
F
  0
LAYER
  5
1FA
100
AcDbSymbolTableRecord
100
AcDbLayerTableRecord
  2
DEFAULT_1
 70
0
 62
7
  6
CENTER
370
-3
390
F
  0
LAYER
  5
1FB
100
AcDbSymbolTableRecord
100
AcDbLayerTableRecord
  2
DEFAULT_2
 70
0
 62
7
  6
HIDDEN
370
-3
390
F
  0
LAYER
  5
1FC
100
AcDbSymbolTableRecord
100
AcDbLayerTableRecord
  2
DEFAULT_3
 70
0
 62
7
  6
PHANTOM
370
-3
390
F
  0
LAYER
  5
1FD
100
AcDbSymbolTableRecord
100
AcDbLayerTableRecord
  2
ASSI
 70
0
 62
7
  6
CONTINUOUS
370
-3
390
F
  0
LAYER
  5
1FE
100
AcDbSymbolTableRecord
100
AcDbLayerTableRecord
  2
COORDINATE
 70
0
 62
7
  6
CONTINUOUS
370
-3
390
F
  0
LAYER
  5
1FF
100
AcDbSymbolTableRecord
100
AcDbLayerTableRecord
  2
COORD_ORIGINE
 70
0
 62
7
  6
CONTINUOUS
370
-3
390
F
  0
LAYER
  5
200
100
AcDbSymbolTableRecord
100
AcDbLayerTableRecord
  2
COPY_PUBLISH
 70
0
 62
7
  6
CONTINUOUS
370
-3
390
F
  0
LAYER
  5
201
100
AcDbSymbolTableRecord
100
AcDbLayerTableRecord
  2
COSMETIC
 70
0
 62
7
  6
CONTINUOUS
370
-3
390
F
  0
LAYER
  5
202
100
AcDbSymbolTableRecord
100
AcDbLayerTableRecord
  2
COSMETICI
 70
0
 62
7
  6
CONTINUOUS
370
-3
390
F
  0
LAYER
  5
203
100
AcDbSymbolTableRecord
100
AcDbLayerTableRecord
  2
CURVA_TASSELLO
 70
0
 62
7
  6
CONTINUOUS
370
-3
390
F
  0
LAYER
  5
204
100
AcDbSymbolTableRecord
100
AcDbLayerTableRecord
  2
CURVE
 70
0
 62
7
  6
CONTINUOUS
370
-3
390
F
  0
LAYER
  5
205
100
AcDbSymbolTableRecord
100
AcDbLayerTableRecord
  2
DRAFT
 70
0
 62
7
  6
CONTINUOUS
370
-3
390
F
  0
LAYER
  5
206
100
AcDbSymbolTableRecord
100
AcDbLayerTableRecord
  2
IMPORT_IGES
 70
0
 62
7
  6
CONTINUOUS
370
-3
390
F
  0
LAYER
  5
207
100
AcDbSymbolTableRecord
100
AcDbLayerTableRecord
  2
INTFCLR_2
 70
0
 62
7
  6
CONTINUOUS
370
-3
390
F
  0
LAYER
  5
208
100
AcDbSymbolTableRecord
100
AcDbLayerTableRecord
  2
INTF_1
 70
0
 62
7
  6
CONTINUOUS
370
-3
390
F
  0
LAYER
  5
209
100
AcDbSymbolTableRecord
100
AcDbLayerTableRecord
  2
INTF_6
 70
0
 62
7
  6
CONTINUOUS
370
-3
390
F
  0
LAYER
  5
20A
100
AcDbSymbolTableRecord
100
AcDbLayerTableRecord
  2
INTF_7
 70
0
 62
7
  6
CONTINUOUS
370
-3
390
F
  0
LAYER
  5
20B
100
AcDbSymbolTableRecord
100
AcDbLayerTableRecord
  2
LINEA_CHIUSURA
 70
0
 62
7
  6
CONTINUOUS
370
-3
390
F
  0
LAYER
  5
20C
100
AcDbSymbolTableRecord
100
AcDbLayerTableRecord
  2
LIVELLO_1
 70
0
 62
7
  6
CONTINUOUS
370
-3
390
F
  0
LAYER
  5
20D
100
AcDbSymbolTableRecord
100
AcDbLayerTableRecord
  2
NOTE
 70
0
 62
7
  6
CONTINUOUS
370
-3
390
F
  0
LAYER
  5
20E
100
AcDbSymbolTableRecord
100
AcDbLayerTableRecord
  2
PIANI
 70
0
 62
7
  6
CONTINUOUS
370
-3
390
F
  0
LAYER
  5
20F
100
AcDbSymbolTableRecord
100
AcDbLayerTableRecord
  2
PIANI_ORIGINE
 70
0
 62
7
  6
CONTINUOUS
370
-3
390
F
  0
LAYER
  5
210
100
AcDbSymbolTableRecord
100
AcDbLayerTableRecord
  2
PIANI_RIFERIMENTO
 70
0
 62
7
  6
CONTINUOUS
370
-3
390
F
  0
LAYER
  5
211
100
AcDbSymbolTableRecord
100
AcDbLayerTableRecord
  2
PUNTI
 70
0
 62
7
  6
CONTINUOUS
370
-3
390
F
  0
LAYER
  5
212
100
AcDbSymbolTableRecord
100
AcDbLayerTableRecord
  2
RACCORDO
 70
0
 62
7
  6
CONTINUOUS
370
-3
390
F
  0
LAYER
  5
213
100
AcDbSymbolTableRecord
100
AcDbLayerTableRecord
  2
RGB__255__255__255__
 70
0
 62
7
  6
CONTINUOUS
370
-3
390
F
  0
LAYER
  5
214
100
AcDbSymbolTableRecord
100
AcDbLayerTableRecord
  2
RGB____0____0____0__
 70
0
 62
7
  6
CONTINUOUS
370
-3
390
F
  0
LAYER
  5
215
100
AcDbSymbolTableRecord
100
AcDbLayerTableRecord
  2
SIMBOLI
 70
0
 62
7
  6
CONTINUOUS
370
-3
390
F
  0
LAYER
  5
216
100
AcDbSymbolTableRecord
100
AcDbLayerTableRecord
  2
SMUSSO
 70
0
 62
7
  6
CONTINUOUS
370
-3
390
F
  0
LAYER
  5
217
100
AcDbSymbolTableRecord
100
AcDbLayerTableRecord
  2
SNAPLINE
 70
0
 62
7
  6
CONTINUOUS
370
-3
390
F
  0
LAYER
  5
218
100
AcDbSymbolTableRecord
100
AcDbLayerTableRecord
  2
SUPERFICI
 70
0
 62
7
  6
CONTINUOUS
370
-3
390
F
  0
LAYER
  5
219
100
AcDbSymbolTableRecord
100
AcDbLayerTableRecord
  2
TRASH
 70
0
 62
7
  6
CONTINUOUS
370
-3
390
F
  0
LAYER
  5
21A
100
AcDbSymbolTableRecord
100
AcDbLayerTableRecord
  2
WHITE
 70
0
 62
7
  6
CONTINUOUS
370
-3
390
F
  0
LAYER
  5
21B
100
AcDbSymbolTableRecord
100
AcDbLayerTableRecord
  2
XSEC_DATUMS
 70
0
 62
7
  6
CONTINUOUS
370
-3
390
F
  0
ENDTAB
  0
TABLE
  2
STYLE
  5
3
100
AcDbSymbolTable
 70
1
  0
STYLE
  5
11
100
AcDbSymbolTableRecord
100
AcDbTextStyleTableRecord
  2
STANDARD
 70
0
 40
0.0
 41
0.8
 50
0.0
 71
0
 42
0.2
  3
txt
  4

  0
STYLE
  5
21C
100
AcDbSymbolTableRecord
100
AcDbTextStyleTableRecord
  2
TEXTSTYLE_1
 70
0
 40
0.0
 41
0.8
 50
0.0
 71
0
 42
0.2
  3
gdt
  4

  0
ENDTAB
  0
TABLE
  2
VIEW
  5
6
100
AcDbSymbolTable
 70
0
  0
ENDTAB
  0
TABLE
  2
UCS
  5
7
100
AcDbSymbolTable
 70
0
  0
ENDTAB
  0
TABLE
  2
APPID
  5
9
100
AcDbSymbolTable
 70
1
  0
APPID
  5
21D
100
AcDbSymbolTableRecord
100
AcDbRegAppTableRecord
  2
ACAD
 70
0
  0
ENDTAB
  0
TABLE
  2
BLOCK_RECORD
  5
1
100
AcDbSymbolTable
 70
0
  0
BLOCK_RECORD
  5
21E
100
AcDbSymbolTableRecord
100
AcDbBlockTableRecord
  2
*Model_Space
  0
BLOCK_RECORD
  5
21F
100
AcDbSymbolTableRecord
100
AcDbBlockTableRecord
  2
*Paper_Space
  0
BLOCK_RECORD
  5
220
100
AcDbSymbolTableRecord
100
AcDbBlockTableRecord
  2
_FILLED
  0
ENDTAB
  0
TABLE
  2
DIMSTYLE
  5
A
100
AcDbSymbolTable
 70
1
100
AcDbDimStyleTable
 71
0
  0
DIMSTYLE
105
221
100
AcDbSymbolTableRecord
100
AcDbDimStyleTableRecord
  2
STANDARD
 70
0
  3

  4

 40
1.0
 41
3.0
 42
0.5
 43
0.38
 44
1.5
 45
0.0
 46
0.0
 47
0.01
 48
0.01
140
3.0
141
0.09
142
0.0
143
25.4
144
1.0
145
0.0
146
1.0
147
0.625
 71
1
 72
0
 73
0
 74
0
 75
0
 76
0
 77
1
 78
8
 79
2
170
0
171
1
172
0
173
0
174
0
175
0
176
0
177
0
178
0
270
2
179
2
271
2
272
2
273
2
274
2
275
0
280
0
281
0
282
0
283
1
284
8
285
0
286
0
287
3
288
0
340
11
278
44
341
220
342
220
343
220
344
220
  0
ENDTAB
  0
ENDSEC
  0
SECTION
  2
BLOCKS
  0
BLOCK
  5
20
100
AcDbEntity
  8
0
100
AcDbBlockBegin
  2
*Model_Space
 70
0
 10
0.0
 20
0.0
 30
0.0
  3
*Model_Space
  1

  0
ENDBLK
  5
21
100
AcDbEntity
  8
0
100
AcDbBlockEnd
  0
BLOCK
  5
1C
100
AcDbEntity
  8
0
100
AcDbBlockBegin
  2
*Paper_Space
 70
0
 10
0.0
 20
0.0
 30
0.0
  3
*Paper_Space
  1

  0
ENDBLK
  5
1D
100
AcDbEntity
  8
0
100
AcDbBlockEnd
  0
BLOCK
  5
222
100
AcDbEntity
  8
0
100
AcDbBlockBegin
  2
_FILLED
 70
64
 10
0.0
 20
0.0
  3
_FILLED
  1

  0
SOLID
  5
223
100
AcDbEntity
  8
0
  6
BYBLOCK
 62
0
100
AcDbTrace
 10
0.0
 20
0.0
 11
-1.0
 21
0.3166666667
 12
-1.0
 22
-0.3166666667
 13
-1.0
 23
-0.3166666667
  0
ENDBLK
  5
224
100
AcDbEntity
  8
0
  6
BYBLOCK
 62
0
100
AcDbBlockEnd
  0
ENDSEC
  0
SECTION
  2
ENTITIES
  0
LINE
  5
225
100
AcDbEntity
  8
ASSI
100
AcDbLine
 62
7
  6
CONTINUOUS
 10
-52.9823718343
 20
63.9328568438
 11
-49.1945580472
 21
66.4364237351
  0
LINE
  5
226
100
AcDbEntity
  8
ASSI
100
AcDbLine
 62
7
  6
CONTINUOUS
 10
-52.274834565
 20
64.3413010376
 11
-48.4870207779
 21
66.844867929
  0
LINE
  5
227
100
AcDbEntity
  8
ASSI
100
AcDbLine
 62
7
  6
CONTINUOUS
 10
-52.2955981792
 20
64.3284616867
 11
-52.274834565
 21
64.3413010376
  0
LINE
  5
228
100
AcDbEntity
  8
ASSI
100
AcDbLine
 62
7
  6
CONTINUOUS
 10
-49.1945580472
 20
66.4364237351
 11
-48.4870207779
 21
66.844867929
  0
LINE
  5
229
100
AcDbEntity
  8
ASSI
100
AcDbLine
 62
7
  6
CONTINUOUS
 10
-52.2955981792
 20
64.3284616867
 11
-52.9819965268
 21
63.9322204822
  0
LINE
  5
22A
100
AcDbEntity
  8
ASSI
100
AcDbLine
 62
7
  6
CONTINUOUS
 10
-52.678287479
 20
62.9132332483
 11
-52.9572634132
 21
62.7521871727
  0
LINE
  5
22B
100
AcDbEntity
  8
ASSI
100
AcDbLine
 62
7
  6
CONTINUOUS
 10
-52.678287479
 20
62.9132332483
 11
-52.2955981792
 21
64.3284616867
  0
LINE
  5
22C
100
AcDbEntity
  8
ASSI
100
AcDbLine
 62
7
  6
CONTINUOUS
 10
-52.9572634132
 20
-8.0794464266
 11
-52.9819965268
 21
-7.6232108491
  0
LINE
  5
22D
100
AcDbEntity
  8
ASSI
100
AcDbLine
 62
7
  6
CONTINUOUS
 10
-52.9572634132
 20
62.7521871727
 11
-52.9819965268
 21
63.9322204822
  0
LINE
  5
22E
100
AcDbEntity
  8
ASSI
100
AcDbLine
 62
7
  6
CONTINUOUS
 10
-52.9819965268
 20
-7.6232108491
 11
-52.9823718343
 21
-7.5990179884
  0
LINE
  5
22F
100
AcDbEntity
  8
ASSI
100
AcDbLine
 62
7
  6
CONTINUOUS
 10
-52.9823718343
 20
63.9328568438
 11
-52.9823718343
 21
-7.5990179884
  0
LINE
  5
230
100
AcDbEntity
  8
ASSI
100
AcDbLine
 62
7
  6
CONTINUOUS
 10
-52.9572634132
 20
62.7521871727
 11
-52.9572634132
 21
-8.0794464266
  0
LINE
  5
231
100
AcDbEntity
  8
ASSI
100
AcDbLine
 62
7
  6
CONTINUOUS
 10
47.4819783668
 20
-66.071805831
 11
48.8989374977
 21
-66.4479852869
  0
LINE
  5
232
100
AcDbEntity
  8
ASSI
100
AcDbLine
 62
7
  6
CONTINUOUS
 10
-52.9572634132
 20
-8.0794464266
 11
-52.678287479
 21
-8.5626469181
  0
LWPOLYLINE
  5
233
100
AcDbEntity
  8
CURVE
100
AcDbPolyline
 62
250
  6
CONTINUOUS
 90
73
 70
0
 10
45.0665625359
 20
-61.6945482387
 10
45.070234735
 20
-61.6958144696
 10
45.0737962867
 20
-61.6965038513
 10
45.0772664155
 20
-61.6967512501
 10
45.0806643459
 20
-61.6966915324
 10
45.0840093024
 20
-61.6964595646
 10
45.0943331746
 20
-61.6953976247
 10
45.104352063
 20
-61.6938766268
 10
45.1140967096
 20
-61.6918093916
 10
45.1239399584
 20
-61.6890224233
 10
45.1335236461
 20
-61.6856187415
 10
45.1428500721
 20
-61.6816628123
 10
45.1519215361
 20
-61.6772191016
 10
45.1626780219
 20
-61.6711913006
 10
45.1730464364
 20
-61.6645294793
 10
45.1830171679
 20
-61.6572336961
 10
45.192580605
 20
-61.6493040094
 10
45.2010446863
 20
-61.6414174183
 10
45.2091443633
 20
-61.6330013451
 10
45.2168710051
 20
-61.6240672092
 10
45.2242159805
 20
-61.61462643
 10
45.2311706587
 20
-61.6046904269
 10
45.2385343796
 20
-61.5929078504
 10
45.2453844749
 20
-61.5805287101
 10
45.2517144934
 20
-61.5675715236
 10
45.257517984
 20
-61.5540548084
 10
45.2627884954
 20
-61.5399970818
 10
45.2672483687
 20
-61.5263210051
 10
45.2712359273
 20
-61.5122074572
 10
45.2747545653
 20
-61.4976797404
 10
45.2778076771
 20
-61.4827611568
 10
45.2803986569
 20
-61.4674750085
 10
45.2825308991
 20
-61.4518445977
 10
45.2843576759
 20
-61.4342232535
 10
45.2856471523
 20
-61.4162378301
 10
45.2864165587
 20
-61.3979151235
 10
45.2866808679
 20
-61.3778847389
 10
45.2863713858
 20
-61.3575221773
 10
45.2854946541
 20
-61.3368535984
 10
45.2843751995
 20
-61.3199732201
 10
45.2828747853
 20
-61.302915928
 10
45.2809773597
 20
-61.2856869393
 10
45.2788081339
 20
-61.2692660558
 10
45.276265119
 20
-61.252705387
 10
45.2733428258
 20
-61.2360135864
 10
45.2696509083
 20
-61.2173526296
 10
45.2654833653
 20
-61.1985634196
 10
45.2608382281
 20
-61.179668477
 10
45.2557135281
 20
-61.1606903225
 10
45.2501072965
 20
-61.1416514766
 10
45.2445776622
 20
-61.1242651901
 10
45.2386521742
 20
-61.1068658781
 10
45.2323366318
 20
-61.0894722241
 10
45.2256368345
 20
-61.0721029118
 10
45.2185585815
 20
-61.0547766247
 10
45.2099885499
 20
-61.0349949063
 10
45.2009415771
 20
-61.0153204768
 10
45.1914302601
 20
-60.9957795616
 10
45.1814671959
 20
-60.976398386
 10
45.1712328436
 20
-60.9575037893
 10
45.1605881758
 20
-60.938811659
 10
45.1495482888
 20
-60.9203443141
 10
45.1381282788
 20
-60.9021240738
 10
45.126343242
 20
-60.884173257
 10
45.1142082748
 20
-60.866514183
 10
45.1017384733
 20
-60.8491691707
 10
45.0924457678
 20
-60.8367418303
 10
45.0829825268
 20
-60.8245308485
 10
45.073348092
 20
-60.8125738639
 10
45.0635418051
 20
-60.8009085155
 10
45.053563008
 20
-60.789572442
 10
45.0434110423
 20
-60.7786032822
 10
45.0330852499
 20
-60.7680386749
  0
LWPOLYLINE
  5
234
100
AcDbEntity
  8
CURVE
100
AcDbPolyline
 62
250
  6
CONTINUOUS
 90
23
 70
0
 10
44.5444101921
 20
-60.7519702586
 10
44.5562198881
 20
-60.7565176673
 10
44.5680505119
 20
-60.7611915226
 10
44.5799008584
 20
-60.766002754
 10
44.5917697227
 20
-60.7709622906
 10
44.6036558998
 20
-60.7760810617
 10
44.6155581847
 20
-60.7813699966
 10
44.6274753725
 20
-60.7868400245
 10
44.6394062583
 20
-60.7925020747
 10
44.651349637
 20
-60.7983670764
 10
44.6633043037
 20
-60.8044459588
 10
44.6752690534
 20
-60.8107496513
 10
44.6865113638
 20
-60.8168804599
 10
44.6977588392
 20
-60.8232129597
 10
44.7090088171
 20
-60.8297410012
 10
44.7202586351
 20
-60.8364584347
 10
44.7315056309
 20
-60.8433591107
 10
44.742747142
 20
-60.8504368794
 10
44.7539805059
 20
-60.8576855913
 10
44.7652030604
 20
-60.8650990967
 10
44.7764121428
 20
-60.8726712462
 10
44.7876050909
 20
-60.8803958899
 10
44.7987792422
 20
-60.8882668783
  0
LINE
  5
235
100
AcDbEntity
  8
ASSI
100
AcDbLine
 62
7
  6
CONTINUOUS
 10
-52.274834565
 20
-8.8245084858
 11
48.2129015803
 21
-66.844867929
  0
LINE
  5
236
100
AcDbEntity
  8
ASSI
100
AcDbLine
 62
7
  6
CONTINUOUS
 10
-52.678287479
 20
-8.5626469181
 11
47.2030024326
 21
-66.2328519066
  0
LINE
  5
237
100
AcDbEntity
  8
ASSI
100
AcDbLine
 62
7
  6
CONTINUOUS
 10
-52.274834565
 20
-8.8245084858
 11
-52.2955981792
 21
-8.8120876602
  0
LINE
  5
238
100
AcDbEntity
  8
ASSI
100
AcDbLine
 62
7
  6
CONTINUOUS
 10
-52.678287479
 20
-8.5626469181
 11
-52.2955981792
 21
-8.8120876602
  0
LINE
  5
239
100
AcDbEntity
  8
SMUSSO
100
AcDbLine
 62
7
  6
CONTINUOUS
 10
-29.9258982598
 20
12.4054082307
 11
-29.9258982598
 21
15.6712893379
  0
LINE
  5
23A
100
AcDbEntity
  8
ASSI
100
AcDbLine
 62
7
  6
CONTINUOUS
 10
-29.9258982598
 20
12.4054082307
 11
-29.9258982598
 21
15.6712893379
  0
LINE
  5
23B
100
AcDbEntity
  8
SMUSSO
100
AcDbLine
 62
7
  6
CONTINUOUS
 10
-28.228841985
 20
12.4054082307
 11
-28.228841985
 21
15.6712893379
  0
LINE
  5
23C
100
AcDbEntity
  8
ASSI
100
AcDbLine
 62
7
  6
CONTINUOUS
 10
-28.228841985
 20
12.4054082307
 11
-28.228841985
 21
15.6712893379
  0
LINE
  5
23D
100
AcDbEntity
  8
SMUSSO
100
AcDbLine
 62
7
  6
CONTINUOUS
 10
-27.8752885944
 20
15.8754266345
 11
-27.8752885944
 21
12.6095455274
  0
LINE
  5
23E
100
AcDbEntity
  8
ASSI
100
AcDbLine
 62
7
  6
CONTINUOUS
 10
-27.8752885944
 20
15.8754266345
 11
-27.8752885944
 21
12.6095455274
  0
LWPOLYLINE
  5
23F
100
AcDbEntity
  8
SMUSSO
100
AcDbPolyline
 62
7
  6
CONTINUOUS
 90
36
 70
0
 10
-29.9258982598
 20
15.6712893379
 10
-29.922395556
 20
15.8445156046
 10
-29.9120782219
 20
16.0127277139
 10
-29.8949462576
 20
16.1759256657
 10
-29.8709360969
 20
16.3344269388
 10
-29.8401113061
 20
16.4879140545
 10
-29.8026625832
 20
16.6354345762
 10
-29.7585486697
 20
16.77695127
 10
-29.7078108242
 20
16.91250137
 10
-29.650763521
 20
17.0412441411
 10
-29.5873674905
 20
17.1631371687
 10
-29.5176620023
 20
17.2782228675
 10
-29.4420793398
 20
17.3857877477
 10
-29.3605831361
 20
17.4857848797
 10
-29.2732097579
 20
17.5782611931
 10
-29.1805005887
 20
17.6626439857
 10
-29.0824225722
 20
17.7388830486
 10
-28.9790087647
 20
17.8070285907
 10
-28.8708997175
 20
17.8666585369
 10
-28.7580661972
 20
17.9177201034
 10
-28.6405374372
 20
17.960266074
 10
-28.5190416901
 20
17.9940327247
 10
-28.3935542652
 20
18.0189655279
 10
-28.264099853
 20
18.0351190111
 10
-28.1314807783
 20
18.0423930327
 10
-27.9956774342
 20
18.0407324321
 10
-27.8567094274
 20
18.0301923699
 10
-27.715437903
 20
18.0108381856
 10
-27.5718485831
 20
17.9826151591
 10
-27.4259557456
 20
17.9455780106
 10
-27.2786633683
 20
17.8999562403
 10
-27.1299627467
 20
17.8456965462
 10
-26.9798625853
 20
17.7828522304
 10
-26.8292929764
 20
17.7118126983
 10
-26.6782509833
 20
17.6325270482
 10
-26.6028175688
 20
17.5899632129
  0
LWPOLYLINE
  5
240
100
AcDbEntity
  8
ASSI
100
AcDbPolyline
 62
7
  6
CONTINUOUS
 90
36
 70
0
 10
-29.9258982598
 20
15.6712893379
 10
-29.922395556
 20
15.8445156046
 10
-29.9120782219
 20
16.0127277139
 10
-29.8949462576
 20
16.1759256657
 10
-29.8709360969
 20
16.3344269388
 10
-29.8401113061
 20
16.4879140545
 10
-29.8026625832
 20
16.6354345762
 10
-29.7585486697
 20
16.77695127
 10
-29.7078108242
 20
16.91250137
 10
-29.650763521
 20
17.0412441411
 10
-29.5873674905
 20
17.1631371687
 10
-29.5176620023
 20
17.2782228675
 10
-29.4420793398
 20
17.3857877477
 10
-29.3605831361
 20
17.4857848797
 10
-29.2732097579
 20
17.5782611931
 10
-29.1805005887
 20
17.6626439857
 10
-29.0824225722
 20
17.7388830486
 10
-28.9790087647
 20
17.8070285907
 10
-28.8708997175
 20
17.8666585369
 10
-28.7580661972
 20
17.9177201034
 10
-28.6405374372
 20
17.960266074
 10
-28.5190416901
 20
17.9940327247
 10
-28.3935542652
 20
18.0189655279
 10
-28.264099853
 20
18.0351190111
 10
-28.1314807783
 20
18.0423930327
 10
-27.9956774342
 20
18.0407324321
 10
-27.8567094274
 20
18.0301923699
 10
-27.715437903
 20
18.0108381856
 10
-27.5718485831
 20
17.9826151591
 10
-27.4259557456
 20
17.9455780106
 10
-27.2786633683
 20
17.8999562403
 10
-27.1299627467
 20
17.8456965462
 10
-26.9798625853
 20
17.7828522304
 10
-26.8292929764
 20
17.7118126983
 10
-26.6782509833
 20
17.6325270482
 10
-26.6028175688
 20
17.5899632129
  0
LWPOLYLINE
  5
241
100
AcDbEntity
  8
SMUSSO
100
AcDbPolyline
 62
7
  6
CONTINUOUS
 90
17
 70
0
 10
-28.228841985
 20
15.6712893379
 10
-28.2257661246
 20
15.811941326
 10
-28.2165459379
 20
15.9486945251
 10
-28.2012039685
 20
16.0812087482
 10
-28.1797779026
 20
16.2091547133
 10
-28.1523206732
 20
16.3322136273
 10
-28.1189005231
 20
16.450078141
 10
-28.0796003934
 20
16.5624549321
 10
-28.0345177691
 20
16.6690645593
 10
-27.9837648879
 20
16.7696411585
 10
-27.9274679118
 20
16.8639345037
 10
-27.8657666939
 20
16.95171016
 10
-27.7988148219
 20
17.0327495185
 10
-27.7267788166
 20
17.106851003
 10
-27.6498377068
 20
17.1738304355
 10
-27.5681828415
 20
17.2335212224
 10
-27.5040528113
 20
17.2733683519
  0
LWPOLYLINE
  5
242
100
AcDbEntity
  8
ASSI
100
AcDbPolyline
 62
7
  6
CONTINUOUS
 90
17
 70
0
 10
-28.228841985
 20
15.6712893379
 10
-28.2257661246
 20
15.811941326
 10
-28.2165459379
 20
15.9486945251
 10
-28.2012039685
 20
16.0812087482
 10
-28.1797779026
 20
16.2091547133
 10
-28.1523206732
 20
16.3322136273
 10
-28.1189005231
 20
16.450078141
 10
-28.0796003934
 20
16.5624549321
 10
-28.0345177691
 20
16.6690645593
 10
-27.9837648879
 20
16.7696411585
 10
-27.9274679118
 20
16.8639345037
 10
-27.8657666939
 20
16.95171016
 10
-27.7988148219
 20
17.0327495185
 10
-27.7267788166
 20
17.106851003
 10
-27.6498377068
 20
17.1738304355
 10
-27.5681828415
 20
17.2335212224
 10
-27.5040528113
 20
17.2733683519
  0
LINE
  5
243
100
AcDbEntity
  8
SMUSSO
100
AcDbLine
 62
7
  6
CONTINUOUS
 10
-27.8722126397
 20
16.016080749
 11
-27.8752885944
 21
15.8754266345
  0
LINE
  5
244
100
AcDbEntity
  8
ASSI
100
AcDbLine
 62
7
  6
CONTINUOUS
 10
-27.8722126397
 20
16.016080749
 11
-27.8752885944
 21
15.8754266345
  0
LINE
  5
245
100
AcDbEntity
  8
SMUSSO
100
AcDbLine
 62
7
  6
CONTINUOUS
 10
-27.8629922386
 20
16.1528352061
 11
-27.8722126397
 21
16.016080749
  0
LINE
  5
246
100
AcDbEntity
  8
ASSI
100
AcDbLine
 62
7
  6
CONTINUOUS
 10
-27.8629922386
 20
16.1528352061
 11
-27.8722126397
 21
16.016080749
  0
LWPOLYLINE
  5
247
100
AcDbEntity
  8
SMUSSO
100
AcDbPolyline
 62
7
  6
CONTINUOUS
 90
11
 70
0
 10
-27.4452699056
 20
17.2368773559
 10
-27.5122193567
 20
17.1558395135
 10
-27.5739185194
 20
17.0680656313
 10
-27.6302138605
 20
16.9737741533
 10
-27.6809654973
 20
16.8731994372
 10
-27.7260472251
 20
16.766591652
 10
-27.7653468
 20
16.6542164903
 10
-27.798766668
 20
16.536353356
 10
-27.8262238382
 20
16.4132954696
 10
-27.847650037
 20
16.2853498765
 10
-27.8629922386
 20
16.1528352061
  0
LWPOLYLINE
  5
248
100
AcDbEntity
  8
ASSI
100
AcDbPolyline
 62
7
  6
CONTINUOUS
 90
11
 70
0
 10
-27.4452699056
 20
17.2368773559
 10
-27.5122193567
 20
17.1558395135
 10
-27.5739185194
 20
17.0680656313
 10
-27.6302138605
 20
16.9737741533
 10
-27.6809654973
 20
16.8731994372
 10
-27.7260472251
 20
16.766591652
 10
-27.7653468
 20
16.6542164903
 10
-27.798766668
 20
16.536353356
 10
-27.8262238382
 20
16.4132954696
 10
-27.847650037
 20
16.2853498765
 10
-27.8629922386
 20
16.1528352061
  0
LWPOLYLINE
  5
249
100
AcDbEntity
  8
SMUSSO
100
AcDbPolyline
 62
7
  6
CONTINUOUS
 90
3
 70
0
 10
-27.3175962801
 20
17.3594155739
 10
-27.3732367306
 20
17.3109775941
 10
-27.4452699056
 20
17.2368773559
  0
LWPOLYLINE
  5
24A
100
AcDbEntity
  8
ASSI
100
AcDbPolyline
 62
7
  6
CONTINUOUS
 90
3
 70
0
 10
-27.3175962801
 20
17.3594155739
 10
-27.3732367306
 20
17.3109775941
 10
-27.4452699056
 20
17.2368773559
  0
LINE
  5
24B
100
AcDbEntity
  8
SMUSSO
100
AcDbLine
 62
250
  6
CONTINUOUS
 10
-27.8752885944
 20
15.8754266345
 11
-28.228841985
 21
15.6712893379
  0
LINE
  5
24C
100
AcDbEntity
  8
ASSI
100
AcDbLine
 62
250
  6
CONTINUOUS
 10
-27.8752885944
 20
15.8754266345
 11
-28.228841985
 21
15.6712893379
  0
LWPOLYLINE
  5
24D
100
AcDbEntity
  8
SMUSSO
100
AcDbPolyline
 62
7
  6
CONTINUOUS
 90
15
 70
0
 10
-27.5040528113
 20
17.2733683519
 10
-27.4820172169
 20
17.2857749611
 10
-27.3915550858
 20
17.3304617121
 10
-27.297021506
 20
17.3674703168
 10
-27.1986514852
 20
17.3967088022
 10
-27.0966896611
 20
17.4181044827
 10
-26.9913898678
 20
17.4316041647
 10
-26.8830139602
 20
17.4371743837
 10
-26.7718314184
 20
17.4348013924
 10
-26.6581190096
 20
17.4244912289
 10
-26.5421595181
 20
17.4062696942
 10
-26.4242412619
 20
17.3801822516
 10
-26.3046576933
 20
17.3462939995
 10
-26.1837062674
 20
17.3046894403
 10
-26.1479481889
 20
17.2902661189
  0
LWPOLYLINE
  5
24E
100
AcDbEntity
  8
ASSI
100
AcDbPolyline
 62
7
  6
CONTINUOUS
 90
15
 70
0
 10
-27.5040528113
 20
17.2733683519
 10
-27.4820172169
 20
17.2857749611
 10
-27.3915550858
 20
17.3304617121
 10
-27.297021506
 20
17.3674703168
 10
-27.1986514852
 20
17.3967088022
 10
-27.0966896611
 20
17.4181044827
 10
-26.9913898678
 20
17.4316041647
 10
-26.8830139602
 20
17.4371743837
 10
-26.7718314184
 20
17.4348013924
 10
-26.6581190096
 20
17.4244912289
 10
-26.5421595181
 20
17.4062696942
 10
-26.4242412619
 20
17.3801822516
 10
-26.3046576933
 20
17.3462939995
 10
-26.1837062674
 20
17.3046894403
 10
-26.1479481889
 20
17.2902661189
  0
LINE
  5
24F
100
AcDbEntity
  8
CURVE
100
AcDbLine
 62
250
  6
CONTINUOUS
 10
44.2317883316
 20
-62.0615692207
 11
44.5551765806
 21
-62.2482895427
  0
LINE
  5
250
100
AcDbEntity
  8
CURVE
100
AcDbLine
 62
250
  6
CONTINUOUS
 10
45.0524017606
 20
-62.5353811299
 11
45.3647203425
 21
-62.7157099649
  0
LINE
  5
251
100
AcDbEntity
  8
CURVE
100
AcDbLine
 62
250
  6
CONTINUOUS
 10
44.136442082
 20
-62.006517151
 11
43.794227602
 21
-61.8089267992
  0
LINE
  5
252
100
AcDbEntity
  8
CURVE
100
AcDbLine
 62
250
  6
CONTINUOUS
 10
43.1783384317
 20
-61.4533201112
 11
42.8571665056
 21
-61.2678794663
  0
LINE
  5
253
100
AcDbEntity
  8
CURVE
100
AcDbLine
 62
250
  6
CONTINUOUS
 10
42.8061809439
 20
-61.2384410419
 11
42.4885432721
 21
-61.0550410312
  0
LINE
  5
254
100
AcDbEntity
  8
CURVE
100
AcDbLine
 62
250
  6
CONTINUOUS
 10
42.0357713049
 20
-60.7936161719
 11
41.9902334283
 21
-60.7673231726
  0
LINE
  5
255
100
AcDbEntity
  8
CURVE
100
AcDbLine
 62
250
  6
CONTINUOUS
 10
41.539257849
 20
-60.5069355252
 11
41.2286309049
 21
-60.3275834208
  0
LINE
  5
256
100
AcDbEntity
  8
CURVE
100
AcDbLine
 62
250
  6
CONTINUOUS
 10
40.1086464107
 20
-59.6809184105
 11
39.822508863
 21
-59.5157061766
  0
LINE
  5
257
100
AcDbEntity
  8
CURVE
100
AcDbLine
 62
250
  6
CONTINUOUS
 10
40.7291424825
 20
-60.0391850657
 11
41.053837551
 21
-60.2266599289
  0
LINE
  5
258
100
AcDbEntity
  8
CURVE
100
AcDbLine
 62
250
  6
CONTINUOUS
 10
43.7101144257
 20
-61.4017991351
 11
43.2679341096
 21
-61.1464897624
  0
LINE
  5
259
100
AcDbEntity
  8
CURVE
100
AcDbLine
 62
250
  6
CONTINUOUS
 10
43.3343523098
 20
-60.9073847155
 11
43.6452244516
 21
-61.0868783941
  0
LINE
  5
25A
100
AcDbEntity
  8
CURVE
100
AcDbLine
 62
250
  6
CONTINUOUS
 10
44.5551765806
 20
-61.5454016648
 11
44.7292701319
 21
-61.6459210994
  0
LINE
  5
25B
100
AcDbEntity
  8
CURVE
100
AcDbLine
 62
250
  6
CONTINUOUS
 10
44.7299700054
 20
-61.3521701158
 11
44.5444101921
 21
-61.2450302052
  0
LINE
  5
25C
100
AcDbEntity
  8
CURVE
100
AcDbLine
 62
250
  6
CONTINUOUS
 10
39.3293837279
 20
-57.4348987735
 11
39.6821024471
 21
-57.6385541414
  0
LINE
  5
25D
100
AcDbEntity
  8
CURVE
100
AcDbLine
 62
250
  6
CONTINUOUS
 10
40.2841746168
 20
-57.9861830665
 11
40.6086481926
 21
-58.1735300425
  0
LINE
  5
25E
100
AcDbEntity
  8
CURVE
100
AcDbLine
 62
250
  6
CONTINUOUS
 10
41.3690839898
 20
-58.6125961413
 11
41.6935101558
 21
-58.7999157436
  0
LINE
  5
25F
100
AcDbEntity
  8
CURVE
100
AcDbLine
 62
250
  6
CONTINUOUS
 10
42.3394704885
 20
-59.1728851439
 11
42.6607239002
 21
-59.3583728375
  0
LINE
  5
260
100
AcDbEntity
  8
CURVE
100
AcDbLine
 62
250
  6
CONTINUOUS
 10
43.3450721154
 20
-59.7535069201
 11
43.6591747922
 21
-59.9348658691
  0
LINE
  5
261
100
AcDbEntity
  8
CURVE
100
AcDbLine
 62
250
  6
CONTINUOUS
 10
41.053837551
 20
-58.4304690245
 11
40.7291424825
 21
-58.2429941613
  0
LWPOLYLINE
  5
262
100
AcDbEntity
  8
CURVE
100
AcDbPolyline
 62
250
  6
CONTINUOUS
 90
46
 70
0
 10
44.7292701319
 20
-61.6459210994
 10
44.7345815773
 20
-61.6490742527
 10
44.7399014391
 20
-61.652405037
 10
44.7452238321
 20
-61.6559100374
 10
44.750542871
 20
-61.6595858389
 10
44.7558526705
 20
-61.6634290266
 10
44.7611473455
 20
-61.6674361857
 10
44.7664210106
 20
-61.6716039011
 10
44.7716677806
 20
-61.6759287581
 10
44.7768817702
 20
-61.6804073417
 10
44.7820570941
 20
-61.685036237
 10
44.7871878672
 20
-61.689812029
 10
44.7922682041
 20
-61.6947313029
 10
44.7972922196
 20
-61.6997906437
 10
44.8022540284
 20
-61.7049866366
 10
44.8071477452
 20
-61.7103158666
 10
44.8119674849
 20
-61.7157749188
 10
44.816587667
 20
-61.7212155338
 10
44.8211296754
 20
-61.7267705515
 10
44.8255911647
 20
-61.7324343523
 10
44.82996979
 20
-61.7382013163
 10
44.834263206
 20
-61.7440658239
 10
44.8384690676
 20
-61.7500222553
 10
44.8425850296
 20
-61.7560649907
 10
44.8466087468
 20
-61.7621884104
 10
44.8505378742
 20
-61.7683868946
 10
44.8543700665
 20
-61.7746548236
 10
44.8581029786
 20
-61.7809865776
 10
44.8617342654
 20
-61.7873765369
 10
44.8652615817
 20
-61.7938190817
 10
44.8689487937
 20
-61.8008230136
 10
44.8725137349
 20
-61.8078762205
 10
44.8759578984
 20
-61.8149733038
 10
44.8792827778
 20
-61.8221088646
 10
44.8824898662
 20
-61.8292775043
 10
44.8855806572
 20
-61.8364738242
 10
44.888556644
 20
-61.8436924253
 10
44.89141932
 20
-61.8509279091
 10
44.8941701785
 20
-61.8581748767
 10
44.896810713
 20
-61.8654279294
 10
44.8993424167
 20
-61.8726816684
 10
44.901766783
 20
-61.8799306951
 10
44.9040853053
 20
-61.8871696106
 10
44.906299477
 20
-61.8943930162
 10
44.9084107913
 20
-61.9015955131
 10
44.9104207417
 20
-61.9087717027
  0
LINE
  5
263
100
AcDbEntity
  8
ASSI
100
AcDbLine
 62
7
  6
CONTINUOUS
 10
47.2030024326
 20
-66.2328519066
 11
48.21253915
 21
-66.8442264913
  0
LWPOLYLINE
  5
264
100
AcDbEntity
  8
SMUSSO
100
AcDbPolyline
 62
7
  6
CONTINUOUS
 90
31
 70
0
 10
-27.8719702783
 20
12.6197523268
 10
-27.862231033
 20
12.464056944
 10
-27.8460708586
 20
12.3057692164
 10
-27.8234179116
 20
12.1444830325
 10
-27.7943440355
 20
11.9806045038
 10
-27.7590647603
 20
11.8153519647
 10
-27.7175337368
 20
11.6487152642
 10
-27.6697973142
 20
11.4807045533
 10
-27.6162100706
 20
11.3125686203
 10
-27.5567284017
 20
11.144306686
 10
-27.4913959119
 20
10.9759195296
 10
-27.4206979916
 20
10.8086582762
 10
-27.3445947833
 20
10.642531537
 10
-27.2631261446
 20
10.4775307009
 10
-27.1768970392
 20
10.3148810586
 10
-27.0858720189
 20
10.1546000541
 10
-26.9900865318
 20
9.9966702436
 10
-26.8902518857
 20
9.8422645859
 10
-26.7863378564
 20
9.6914092127
 10
-26.6783746681
 20
9.5440779925
 10
-26.5671643016
 20
9.4013654897
 10
-26.4526825667
 20
9.2633061145
 10
-26.3349536536
 20
9.1298654568
 10
-26.2148521125
 20
9.002034851
 10
-26.0923602962
 20
8.8798561067
 10
-25.9674958519
 20
8.7632874143
 10
-25.8411862726
 20
8.6531946795
 10
-25.7134207904
 20
8.5496261237
 10
-25.584210173
 20
8.4525335254
 10
-25.4545142172
 20
8.3626381255
 10
-25.3306846927
 20
8.2840280814
  0
LWPOLYLINE
  5
265
100
AcDbEntity
  8
ASSI
100
AcDbPolyline
 62
7
  6
CONTINUOUS
 90
31
 70
0
 10
-27.8719702783
 20
12.6197523268
 10
-27.862231033
 20
12.464056944
 10
-27.8460708586
 20
12.3057692164
 10
-27.8234179116
 20
12.1444830325
 10
-27.7943440355
 20
11.9806045038
 10
-27.7590647603
 20
11.8153519647
 10
-27.7175337368
 20
11.6487152642
 10
-27.6697973142
 20
11.4807045533
 10
-27.6162100706
 20
11.3125686203
 10
-27.5567284017
 20
11.144306686
 10
-27.4913959119
 20
10.9759195296
 10
-27.4206979916
 20
10.8086582762
 10
-27.3445947833
 20
10.642531537
 10
-27.2631261446
 20
10.4775307009
 10
-27.1768970392
 20
10.3148810586
 10
-27.0858720189
 20
10.1546000541
 10
-26.9900865318
 20
9.9966702436
 10
-26.8902518857
 20
9.8422645859
 10
-26.7863378564
 20
9.6914092127
 10
-26.6783746681
 20
9.5440779925
 10
-26.5671643016
 20
9.4013654897
 10
-26.4526825667
 20
9.2633061145
 10
-26.3349536536
 20
9.1298654568
 10
-26.2148521125
 20
9.002034851
 10
-26.0923602962
 20
8.8798561067
 10
-25.9674958519
 20
8.7632874143
 10
-25.8411862726
 20
8.6531946795
 10
-25.7134207904
 20
8.5496261237
 10
-25.584210173
 20
8.4525335254
 10
-25.4545142172
 20
8.3626381255
 10
-25.3306846927
 20
8.2840280814
  0
LWPOLYLINE
  5
266
100
AcDbEntity
  8
SMUSSO
100
AcDbPolyline
 62
7
  6
CONTINUOUS
 90
33
 70
0
 10
-27.8752885944
 20
12.6095455274
 10
-27.8722126554
 20
12.465339749
 10
-27.862992297
 20
12.3179381399
 10
-27.8476501587
 20
12.1677069748
 10
-27.8262240375
 20
12.015019195
 10
-27.7987669525
 20
11.8602546576
 10
-27.7653471697
 20
11.7037992408
 10
-27.7260476709
 20
11.5460419895
 10
-27.6809660052
 20
11.3873749675
 10
-27.6302144175
 20
11.2281935061
 10
-27.5739191066
 20
11.0688935064
 10
-27.5122199535
 20
10.9098708657
 10
-27.4452705054
 20
10.7515213653
 10
-27.3732373318
 20
10.5942389235
 10
-27.2962994323
 20
10.4384143316
 10
-27.2146479424
 20
10.2844347124
 10
-27.1284858243
 20
10.1326828583
 10
-27.0380272952
 20
9.983536097
 10
-26.943497127
 20
9.8373650817
 10
-26.8451302412
 20
9.6945331442
 10
-26.7431712388
 20
9.5553955257
 10
-26.6378736962
 20
9.4202983153
 10
-26.5294994016
 20
9.2895774211
 10
-26.4183177809
 20
9.1635578563
 10
-26.3046053426
 20
9.0425530534
 10
-26.1886448283
 20
8.9268638956
 10
-26.0707245145
 20
8.8167779941
 10
-25.9511375897
 20
8.7125690691
 10
-25.8301813709
 20
8.6144962148
 10
-25.7081565892
 20
8.5228032776
 10
-25.5853666551
 20
8.4377182557
 10
-25.4621168463
 20
8.3594526913
 10
-25.4001756813
 20
8.3228003964
  0
LWPOLYLINE
  5
267
100
AcDbEntity
  8
ASSI
100
AcDbPolyline
 62
7
  6
CONTINUOUS
 90
33
 70
0
 10
-27.8752885944
 20
12.6095455274
 10
-27.8722126554
 20
12.465339749
 10
-27.862992297
 20
12.3179381399
 10
-27.8476501587
 20
12.1677069748
 10
-27.8262240375
 20
12.015019195
 10
-27.7987669525
 20
11.8602546576
 10
-27.7653471697
 20
11.7037992408
 10
-27.7260476709
 20
11.5460419895
 10
-27.6809660052
 20
11.3873749675
 10
-27.6302144175
 20
11.2281935061
 10
-27.5739191066
 20
11.0688935064
 10
-27.5122199535
 20
10.9098708657
 10
-27.4452705054
 20
10.7515213653
 10
-27.3732373318
 20
10.5942389235
 10
-27.2962994323
 20
10.4384143316
 10
-27.2146479424
 20
10.2844347124
 10
-27.1284858243
 20
10.1326828583
 10
-27.0380272952
 20
9.983536097
 10
-26.943497127
 20
9.8373650817
 10
-26.8451302412
 20
9.6945331442
 10
-26.7431712388
 20
9.5553955257
 10
-26.6378736962
 20
9.4202983153
 10
-26.5294994016
 20
9.2895774211
 10
-26.4183177809
 20
9.1635578563
 10
-26.3046053426
 20
9.0425530534
 10
-26.1886448283
 20
8.9268638956
 10
-26.0707245145
 20
8.8167779941
 10
-25.9511375897
 20
8.7125690691
 10
-25.8301813709
 20
8.6144962148
 10
-25.7081565892
 20
8.5228032776
 10
-25.5853666551
 20
8.4377182557
 10
-25.4621168463
 20
8.3594526913
 10
-25.4001756813
 20
8.3228003964
  0
LINE
  5
268
100
AcDbEntity
  8
SMUSSO
100
AcDbLine
 62
7
  6
CONTINUOUS
 10
-23.2790945167
 20
11.8335081606
 11
-23.2790945167
 21
8.5676270534
  0
LINE
  5
269
100
AcDbEntity
  8
ASSI
100
AcDbLine
 62
7
  6
CONTINUOUS
 10
-23.2790945167
 20
11.8335081606
 11
-23.2790945167
 21
8.5676270534
  0
LWPOLYLINE
  5
26A
100
AcDbEntity
  8
SMUSSO
100
AcDbPolyline
 62
7
  6
CONTINUOUS
 90
70
 70
0
 10
-23.2790945167
 20
8.5676270534
 10
-23.2825972205
 20
8.3944007867
 10
-23.2929145546
 20
8.2261886774
 10
-23.3100465189
 20
8.0629907256
 10
-23.3340566796
 20
7.9044894525
 10
-23.3648814704
 20
7.7510023368
 10
-23.4023301933
 20
7.6034818151
 10
-23.4464441068
 20
7.4619651213
 10
-23.4971819523
 20
7.3264150214
 10
-23.5542292555
 20
7.1976722502
 10
-23.617625286
 20
7.0757792226
 10
-23.6873307742
 20
6.9606935238
 10
-23.7629134367
 20
6.8531286437
 10
-23.8444096404
 20
6.7531315116
 10
-23.9317830186
 20
6.6606551982
 10
-24.0244921878
 20
6.5762724056
 10
-24.1225702043
 20
6.5000333427
 10
-24.2259840118
 20
6.4318878006
 10
-24.334093059
 20
6.3722578544
 10
-24.4469265793
 20
6.3211962879
 10
-24.5644553393
 20
6.2786503173
 10
-24.6859510864
 20
6.2448836666
 10
-24.8114385113
 20
6.2199508634
 10
-24.9408929235
 20
6.2037973802
 10
-25.0735119982
 20
6.1965233586
 10
-25.2093153423
 20
6.1981839592
 10
-25.3482833491
 20
6.2087240214
 10
-25.4895548735
 20
6.2280782057
 10
-25.6331441934
 20
6.2563012322
 10
-25.7790370309
 20
6.2933383807
 10
-25.9263294082
 20
6.3389601511
 10
-26.0750300298
 20
6.3932198451
 10
-26.2251301912
 20
6.4560641609
 10
-26.3756998001
 20
6.527103693
 10
-26.5267417932
 20
6.6063893431
 10
-26.6782532338
 20
6.6938702094
 10
-26.8292952198
 20
6.7890041806
 10
-26.9798648123
 20
6.8918387653
 10
-27.1299649501
 20
7.0023264548
 10
-27.2786655479
 20
7.1197826123
 10
-27.4259579034
 20
7.2442504892
 10
-27.5718507187
 20
7.3756868341
 10
-27.7154400146
 20
7.5132772559
 10
-27.8567115166
 20
7.6570599919
 10
-27.9956794992
 20
7.8069968048
 10
-28.1314828062
 20
7.962158591
 10
-28.2641018272
 20
8.1225778673
 10
-28.3935561726
 20
8.2882221169
 10
-28.5190435179
 20
8.4580646864
 10
-28.6405391641
 20
8.632131576
 10
-28.7580678101
 20
8.8103967855
 10
-28.8709012282
 20
8.9917556609
 10
-28.9790101916
 20
9.1762272321
 10
-29.082423927
 20
9.3637924693
 10
-29.1805018868
 20
9.5532896282
 10
-29.2732110274
 20
9.7447307771
 10
-29.3605843923
 20
9.9381038478
 10
-29.4420805642
 20
10.1322108912
 10
-29.5176631658
 20
10.327056834
 10
-29.5873685744
 20
10.5226367497
 10
-29.6507645043
 20
10.7177379095
 10
-29.7078116775
 20
10.9123573632
 10
-29.758549372
 20
11.1064980611
 10
-29.8026631372
 20
11.2989561247
 10
-29.8401117133
 20
11.4897211207
 10
-29.87093636
 20
11.6788034825
 10
-29.8949464052
 20
11.8650306322
 10
-29.9120782916
 20
12.0480117105
 10
-29.9223955764
 20
12.2281375766
 10
-29.9258982598
 20
12.4054082307
  0
LWPOLYLINE
  5
26B
100
AcDbEntity
  8
ASSI
100
AcDbPolyline
 62
7
  6
CONTINUOUS
 90
70
 70
0
 10
-23.2790945167
 20
8.5676270534
 10
-23.2825972205
 20
8.3944007867
 10
-23.2929145546
 20
8.2261886774
 10
-23.3100465189
 20
8.0629907256
 10
-23.3340566796
 20
7.9044894525
 10
-23.3648814704
 20
7.7510023368
 10
-23.4023301933
 20
7.6034818151
 10
-23.4464441068
 20
7.4619651213
 10
-23.4971819523
 20
7.3264150214
 10
-23.5542292555
 20
7.1976722502
 10
-23.617625286
 20
7.0757792226
 10
-23.6873307742
 20
6.9606935238
 10
-23.7629134367
 20
6.8531286437
 10
-23.8444096404
 20
6.7531315116
 10
-23.9317830186
 20
6.6606551982
 10
-24.0244921878
 20
6.5762724056
 10
-24.1225702043
 20
6.5000333427
 10
-24.2259840118
 20
6.4318878006
 10
-24.334093059
 20
6.3722578544
 10
-24.4469265793
 20
6.3211962879
 10
-24.5644553393
 20
6.2786503173
 10
-24.6859510864
 20
6.2448836666
 10
-24.8114385113
 20
6.2199508634
 10
-24.9408929235
 20
6.2037973802
 10
-25.0735119982
 20
6.1965233586
 10
-25.2093153423
 20
6.1981839592
 10
-25.3482833491
 20
6.2087240214
 10
-25.4895548735
 20
6.2280782057
 10
-25.6331441934
 20
6.2563012322
 10
-25.7790370309
 20
6.2933383807
 10
-25.9263294082
 20
6.3389601511
 10
-26.0750300298
 20
6.3932198451
 10
-26.2251301912
 20
6.4560641609
 10
-26.3756998001
 20
6.527103693
 10
-26.5267417932
 20
6.6063893431
 10
-26.6782532338
 20
6.6938702094
 10
-26.8292952198
 20
6.7890041806
 10
-26.9798648123
 20
6.8918387653
 10
-27.1299649501
 20
7.0023264548
 10
-27.2786655479
 20
7.1197826123
 10
-27.4259579034
 20
7.2442504892
 10
-27.5718507187
 20
7.3756868341
 10
-27.7154400146
 20
7.5132772559
 10
-27.8567115166
 20
7.6570599919
 10
-27.9956794992
 20
7.8069968048
 10
-28.1314828062
 20
7.962158591
 10
-28.2641018272
 20
8.1225778673
 10
-28.3935561726
 20
8.2882221169
 10
-28.5190435179
 20
8.4580646864
 10
-28.6405391641
 20
8.632131576
 10
-28.7580678101
 20
8.8103967855
 10
-28.8709012282
 20
8.9917556609
 10
-28.9790101916
 20
9.1762272321
 10
-29.082423927
 20
9.3637924693
 10
-29.1805018868
 20
9.5532896282
 10
-29.2732110274
 20
9.7447307771
 10
-29.3605843923
 20
9.9381038478
 10
-29.4420805642
 20
10.1322108912
 10
-29.5176631658
 20
10.327056834
 10
-29.5873685744
 20
10.5226367497
 10
-29.6507645043
 20
10.7177379095
 10
-29.7078116775
 20
10.9123573632
 10
-29.758549372
 20
11.1064980611
 10
-29.8026631372
 20
11.2989561247
 10
-29.8401117133
 20
11.4897211207
 10
-29.87093636
 20
11.6788034825
 10
-29.8949464052
 20
11.8650306322
 10
-29.9120782916
 20
12.0480117105
 10
-29.9223955764
 20
12.2281375766
 10
-29.9258982598
 20
12.4054082307
  0
LWPOLYLINE
  5
26C
100
AcDbEntity
  8
SMUSSO
100
AcDbPolyline
 62
7
  6
CONTINUOUS
 90
17
 70
0
 10
-23.2790945167
 20
9.5474860774
 10
-23.2821703771
 20
9.4068340893
 10
-23.2913905637
 20
9.2700808902
 10
-23.3067325331
 20
9.1375666671
 10
-23.3281585991
 20
9.009620702
 10
-23.3556158285
 20
8.886561788
 10
-23.3890359786
 20
8.7686972744
 10
-23.4283361082
 20
8.6563204832
 10
-23.4734187326
 20
8.549710856
 10
-23.5241716137
 20
8.4491342568
 10
-23.5804685899
 20
8.3548409116
 10
-23.6421698077
 20
8.2670652553
 10
-23.7091216797
 20
8.1860258968
 10
-23.781157685
 20
8.1119244123
 10
-23.8580987949
 20
8.0449449798
 10
-23.9397536602
 20
7.9852541929
 10
-24.0038836903
 20
7.9454070634
  0
LWPOLYLINE
  5
26D
100
AcDbEntity
  8
ASSI
100
AcDbPolyline
 62
7
  6
CONTINUOUS
 90
17
 70
0
 10
-23.2790945167
 20
9.5474860774
 10
-23.2821703771
 20
9.4068340893
 10
-23.2913905637
 20
9.2700808902
 10
-23.3067325331
 20
9.1375666671
 10
-23.3281585991
 20
9.009620702
 10
-23.3556158285
 20
8.886561788
 10
-23.3890359786
 20
8.7686972744
 10
-23.4283361082
 20
8.6563204832
 10
-23.4734187326
 20
8.549710856
 10
-23.5241716137
 20
8.4491342568
 10
-23.5804685899
 20
8.3548409116
 10
-23.6421698077
 20
8.2670652553
 10
-23.7091216797
 20
8.1860258968
 10
-23.781157685
 20
8.1119244123
 10
-23.8580987949
 20
8.0449449798
 10
-23.9397536602
 20
7.9852541929
 10
-24.0038836903
 20
7.9454070634
  0
LINE
  5
26E
100
AcDbEntity
  8
SMUSSO
100
AcDbLine
 62
250
  6
CONTINUOUS
 10
-27.8752885944
 20
12.6095455274
 11
-28.228841985
 21
12.4054082307
  0
LINE
  5
26F
100
AcDbEntity
  8
ASSI
100
AcDbLine
 62
250
  6
CONTINUOUS
 10
-27.8752885944
 20
12.6095455274
 11
-28.228841985
 21
12.4054082307
  0
LWPOLYLINE
  5
270
100
AcDbEntity
  8
CURVE
100
AcDbPolyline
 62
250
  6
CONTINUOUS
 90
49
 70
0
 10
44.7987792422
 20
-60.8882668783
 10
44.8047300965
 20
-60.8925932972
 10
44.8106813565
 20
-60.8971056857
 10
44.8166264677
 20
-60.901799737
 10
44.8225588756
 20
-60.9066711446
 10
44.8284720257
 20
-60.9117156019
 10
44.8343593635
 20
-60.9169288021
 10
44.8402143344
 20
-60.9223064387
 10
44.8460303841
 20
-60.927844205
 10
44.8518009579
 20
-60.9335377944
 10
44.8575195014
 20
-60.9393829003
 10
44.8631794601
 20
-60.945375216
 10
44.8687742794
 20
-60.9515104348
 10
44.8742974049
 20
-60.9577842502
 10
44.879742282
 20
-60.9641923556
 10
44.8851023562
 20
-60.9707304442
 10
44.8903710731
 20
-60.9773942094
 10
44.8955418782
 20
-60.9841793446
 10
44.9006082168
 20
-60.9910815432
 10
44.9055635345
 20
-60.9980964986
 10
44.9104012769
 20
-61.005219904
 10
44.9151148894
 20
-61.0124474529
 10
44.9196978174
 20
-61.0197748386
 10
44.9241435066
 20
-61.0271977545
 10
44.9284454023
 20
-61.0347118939
 10
44.9325757507
 20
-61.0422709306
 10
44.9365554843
 20
-61.0499067454
 10
44.9403827201
 20
-61.0576101339
 10
44.9440555751
 20
-61.0653718916
 10
44.9475721662
 20
-61.0731828142
 10
44.9509306103
 20
-61.0810336971
 10
44.9541290243
 20
-61.0889153361
 10
44.9571655252
 20
-61.0968185266
 10
44.96003823
 20
-61.1047340642
 10
44.9627452555
 20
-61.1126527445
 10
44.9652847187
 20
-61.1205653631
 10
44.9676547365
 20
-61.1284627155
 10
44.9698534259
 20
-61.1363355973
 10
44.9718789039
 20
-61.1441748041
 10
44.9737292872
 20
-61.1519711314
 10
44.975402693
 20
-61.1597153748
 10
44.976897238
 20
-61.16739833
 10
44.9782110393
 20
-61.1750107923
 10
44.9793422138
 20
-61.1825435576
 10
44.9802888784
 20
-61.1899874212
 10
44.98104915
 20
-61.1973331788
 10
44.9816211456
 20
-61.2045716259
 10
44.9820029822
 20
-61.2116935582
 10
44.9821927766
 20
-61.2186897711
  0
LWPOLYLINE
  5
271
100
AcDbEntity
  8
SMUSSO
100
AcDbPolyline
 62
7
  6
CONTINUOUS
 90
49
 70
0
 10
-24.0038836903
 20
7.9454070634
 10
-24.0259192847
 20
7.9330004543
 10
-24.1163814159
 20
7.8883137032
 10
-24.2109149957
 20
7.8513050985
 10
-24.3092850165
 20
7.8220666131
 10
-24.4112468405
 20
7.8006709326
 10
-24.5165466339
 20
7.7871712507
 10
-24.6249225414
 20
7.7816010316
 10
-24.7361050832
 20
7.7839740229
 10
-24.849817492
 20
7.7942841864
 10
-24.9657769835
 20
7.8125057211
 10
-25.0836952398
 20
7.8385931637
 10
-25.2032788084
 20
7.8724814158
 10
-25.3242302343
 20
7.914085975
 10
-25.4462489088
 20
7.9633032327
 10
-25.5690315669
 20
8.0200106796
 10
-25.6922723281
 20
8.0840668141
 10
-25.8156654489
 20
8.1553124923
 10
-25.9389061826
 20
8.2335717551
 10
-26.0616887753
 20
8.3186506695
 10
-26.1837073582
 20
8.4103375167
 10
-26.3046586982
 20
8.5084046255
 10
-26.4242421976
 20
8.6126084801
 10
-26.5421603907
 20
8.7226900822
 10
-26.6581198234
 20
8.8383756579
 10
-26.7718321782
 20
8.9593777297
 10
-26.8830146705
 20
9.0853955469
 10
-26.9913905307
 20
9.2161155415
 10
-27.0966902774
 20
9.3512127761
 10
-27.1986520572
 20
9.490351405
 10
-27.2970220383
 20
9.6331851171
 10
-27.3915555809
 20
9.7793587231
 10
-27.482017679
 20
9.9285088723
 10
-27.5681832802
 20
10.0802645265
 10
-27.649838134
 20
10.2342483404
 10
-27.7267792385
 20
10.3900774902
 10
-27.7988152392
 20
10.547364409
 10
-27.8657671089
 20
10.7057181871
 10
-27.9274683225
 20
10.8647449474
 10
-27.9837652816
 20
11.0240486927
 10
-28.0345181347
 20
11.1832334883
 10
-28.079600722
 20
11.3419034196
 10
-28.1189008014
 20
11.4996629858
 10
-28.1523208918
 20
11.6561201664
 10
-28.1797780595
 20
11.8108858698
 10
-28.2012040664
 20
11.9635739383
 10
-28.2165459856
 20
12.1138044545
 10
-28.2257661375
 20
12.2612046234
 10
-28.228841985
 20
12.4054082307
  0
LWPOLYLINE
  5
272
100
AcDbEntity
  8
ASSI
100
AcDbPolyline
 62
7
  6
CONTINUOUS
 90
49
 70
0
 10
-24.0038836903
 20
7.9454070634
 10
-24.0259192847
 20
7.9330004543
 10
-24.1163814159
 20
7.8883137032
 10
-24.2109149957
 20
7.8513050985
 10
-24.3092850165
 20
7.8220666131
 10
-24.4112468405
 20
7.8006709326
 10
-24.5165466339
 20
7.7871712507
 10
-24.6249225414
 20
7.7816010316
 10
-24.7361050832
 20
7.7839740229
 10
-24.849817492
 20
7.7942841864
 10
-24.9657769835
 20
7.8125057211
 10
-25.0836952398
 20
7.8385931637
 10
-25.2032788084
 20
7.8724814158
 10
-25.3242302343
 20
7.914085975
 10
-25.4462489088
 20
7.9633032327
 10
-25.5690315669
 20
8.0200106796
 10
-25.6922723281
 20
8.0840668141
 10
-25.8156654489
 20
8.1553124923
 10
-25.9389061826
 20
8.2335717551
 10
-26.0616887753
 20
8.3186506695
 10
-26.1837073582
 20
8.4103375167
 10
-26.3046586982
 20
8.5084046255
 10
-26.4242421976
 20
8.6126084801
 10
-26.5421603907
 20
8.7226900822
 10
-26.6581198234
 20
8.8383756579
 10
-26.7718321782
 20
8.9593777297
 10
-26.8830146705
 20
9.0853955469
 10
-26.9913905307
 20
9.2161155415
 10
-27.0966902774
 20
9.3512127761
 10
-27.1986520572
 20
9.490351405
 10
-27.2970220383
 20
9.6331851171
 10
-27.3915555809
 20
9.7793587231
 10
-27.482017679
 20
9.9285088723
 10
-27.5681832802
 20
10.0802645265
 10
-27.649838134
 20
10.2342483404
 10
-27.7267792385
 20
10.3900774902
 10
-27.7988152392
 20
10.547364409
 10
-27.8657671089
 20
10.7057181871
 10
-27.9274683225
 20
10.8647449474
 10
-27.9837652816
 20
11.0240486927
 10
-28.0345181347
 20
11.1832334883
 10
-28.079600722
 20
11.3419034196
 10
-28.1189008014
 20
11.4996629858
 10
-28.1523208918
 20
11.6561201664
 10
-28.1797780595
 20
11.8108858698
 10
-28.2012040664
 20
11.9635739383
 10
-28.2165459856
 20
12.1138044545
 10
-28.2257661375
 20
12.2612046234
 10
-28.228841985
 20
12.4054082307
  0
LWPOLYLINE
  5
273
100
AcDbEntity
  8
SMUSSO
100
AcDbPolyline
 62
7
  6
CONTINUOUS
 90
31
 70
0
 10
-11.9620677016
 20
3.4335739769
 10
-11.9523284563
 20
3.2778785941
 10
-11.9361682819
 20
3.1195908665
 10
-11.9135153349
 20
2.9583046826
 10
-11.8844414588
 20
2.7944261539
 10
-11.8491621836
 20
2.6291736148
 10
-11.8076311601
 20
2.4625369143
 10
-11.7598947375
 20
2.2945262034
 10
-11.7063074939
 20
2.1263902704
 10
-11.646825825
 20
1.9581283362
 10
-11.5814933352
 20
1.7897411797
 10
-11.5107954149
 20
1.6224799263
 10
-11.4346922066
 20
1.4563531872
 10
-11.3532235679
 20
1.291352351
 10
-11.2669944625
 20
1.1287027087
 10
-11.1759694422
 20
0.9684217043
 10
-11.0801839551
 20
0.8104918937
 10
-10.980349309
 20
0.6560862361
 10
-10.8764352797
 20
0.5052308629
 10
-10.7684720914
 20
0.3578996426
 10
-10.6572617249
 20
0.2151871399
 10
-10.54277999
 20
0.0771277646
 10
-10.4250510769
 20
-0.0563128931
 10
-10.3049495358
 20
-0.1841434989
 10
-10.1824577195
 20
-0.3063222432
 10
-10.0575932752
 20
-0.4228909355
 10
-9.9312836959
 20
-0.5329836704
 10
-9.8035182137
 20
-0.6365522262
 10
-9.6743075963
 20
-0.7336448245
 10
-9.5446116405
 20
-0.8235402244
 10
-9.420782116
 20
-0.9021502685
  0
LWPOLYLINE
  5
274
100
AcDbEntity
  8
ASSI
100
AcDbPolyline
 62
7
  6
CONTINUOUS
 90
31
 70
0
 10
-11.9620677016
 20
3.4335739769
 10
-11.9523284563
 20
3.2778785941
 10
-11.9361682819
 20
3.1195908665
 10
-11.9135153349
 20
2.9583046826
 10
-11.8844414588
 20
2.7944261539
 10
-11.8491621836
 20
2.6291736148
 10
-11.8076311601
 20
2.4625369143
 10
-11.7598947375
 20
2.2945262034
 10
-11.7063074939
 20
2.1263902704
 10
-11.646825825
 20
1.9581283362
 10
-11.5814933352
 20
1.7897411797
 10
-11.5107954149
 20
1.6224799263
 10
-11.4346922066
 20
1.4563531872
 10
-11.3532235679
 20
1.291352351
 10
-11.2669944625
 20
1.1287027087
 10
-11.1759694422
 20
0.9684217043
 10
-11.0801839551
 20
0.8104918937
 10
-10.980349309
 20
0.6560862361
 10
-10.8764352797
 20
0.5052308629
 10
-10.7684720914
 20
0.3578996426
 10
-10.6572617249
 20
0.2151871399
 10
-10.54277999
 20
0.0771277646
 10
-10.4250510769
 20
-0.0563128931
 10
-10.3049495358
 20
-0.1841434989
 10
-10.1824577195
 20
-0.3063222432
 10
-10.0575932752
 20
-0.4228909355
 10
-9.9312836959
 20
-0.5329836704
 10
-9.8035182137
 20
-0.6365522262
 10
-9.6743075963
 20
-0.7336448245
 10
-9.5446116405
 20
-0.8235402244
 10
-9.420782116
 20
-0.9021502685
  0
LWPOLYLINE
  5
275
100
AcDbEntity
  8
SMUSSO
100
AcDbPolyline
 62
7
  6
CONTINUOUS
 90
33
 70
0
 10
-11.9653860177
 20
3.4233671775
 10
-11.9623100787
 20
3.2791613992
 10
-11.9530897203
 20
3.1317597901
 10
-11.937747582
 20
2.9815286249
 10
-11.9163214608
 20
2.8288408451
 10
-11.8888643758
 20
2.6740763077
 10
-11.855444593
 20
2.517620891
 10
-11.8161450942
 20
2.3598636396
 10
-11.7710634285
 20
2.2011966176
 10
-11.7203118408
 20
2.0420151562
 10
-11.6640165299
 20
1.8827151565
 10
-11.6023173768
 20
1.7236925158
 10
-11.5353679287
 20
1.5653430154
 10
-11.4633347551
 20
1.4080605736
 10
-11.3863968556
 20
1.2522359817
 10
-11.3047453657
 20
1.0982563625
 10
-11.2185832476
 20
0.9465045084
 10
-11.1281247185
 20
0.7973577471
 10
-11.0335945503
 20
0.6511867318
 10
-10.9352276645
 20
0.5083547943
 10
-10.8332686621
 20
0.3692171758
 10
-10.7279711195
 20
0.2341199654
 10
-10.6195968249
 20
0.1033990712
 10
-10.5084152042
 20
-0.0226204935
 10
-10.3947027659
 20
-0.1436252965
 10
-10.2787422516
 20
-0.2593144543
 10
-10.1608219378
 20
-0.3694003558
 10
-10.041235013
 20
-0.4736092807
 10
-9.9202787942
 20
-0.5716821351
 10
-9.7982540125
 20
-0.6633750723
 10
-9.6754640784
 20
-0.7484600941
 10
-9.5522142696
 20
-0.8267256586
 10
-9.4902731046
 20
-0.8633779535
  0
LWPOLYLINE
  5
276
100
AcDbEntity
  8
ASSI
100
AcDbPolyline
 62
7
  6
CONTINUOUS
 90
33
 70
0
 10
-11.9653860177
 20
3.4233671775
 10
-11.9623100787
 20
3.2791613992
 10
-11.9530897203
 20
3.1317597901
 10
-11.937747582
 20
2.9815286249
 10
-11.9163214608
 20
2.8288408451
 10
-11.8888643758
 20
2.6740763077
 10
-11.855444593
 20
2.517620891
 10
-11.8161450942
 20
2.3598636396
 10
-11.7710634285
 20
2.2011966176
 10
-11.7203118408
 20
2.0420151562
 10
-11.6640165299
 20
1.8827151565
 10
-11.6023173768
 20
1.7236925158
 10
-11.5353679287
 20
1.5653430154
 10
-11.4633347551
 20
1.4080605736
 10
-11.3863968556
 20
1.2522359817
 10
-11.3047453657
 20
1.0982563625
 10
-11.2185832476
 20
0.9465045084
 10
-11.1281247185
 20
0.7973577471
 10
-11.0335945503
 20
0.6511867318
 10
-10.9352276645
 20
0.5083547943
 10
-10.8332686621
 20
0.3692171758
 10
-10.7279711195
 20
0.2341199654
 10
-10.6195968249
 20
0.1033990712
 10
-10.5084152042
 20
-0.0226204935
 10
-10.3947027659
 20
-0.1436252965
 10
-10.2787422516
 20
-0.2593144543
 10
-10.1608219378
 20
-0.3694003558
 10
-10.041235013
 20
-0.4736092807
 10
-9.9202787942
 20
-0.5716821351
 10
-9.7982540125
 20
-0.6633750723
 10
-9.6754640784
 20
-0.7484600941
 10
-9.5522142696
 20
-0.8267256586
 10
-9.4902731046
 20
-0.8633779535
  0
LINE
  5
277
100
AcDbEntity
  8
SMUSSO
100
AcDbLine
 62
7
  6
CONTINUOUS
 10
-14.0159956831
 20
3.2192298808
 11
-14.0159956831
 21
6.485110988
  0
LINE
  5
278
100
AcDbEntity
  8
ASSI
100
AcDbLine
 62
7
  6
CONTINUOUS
 10
-14.0159956831
 20
3.2192298808
 11
-14.0159956831
 21
6.485110988
  0
LINE
  5
279
100
AcDbEntity
  8
SMUSSO
100
AcDbLine
 62
7
  6
CONTINUOUS
 10
-12.3189394083
 20
3.2192298808
 11
-12.3189394083
 21
6.485110988
  0
LINE
  5
27A
100
AcDbEntity
  8
ASSI
100
AcDbLine
 62
7
  6
CONTINUOUS
 10
-12.3189394083
 20
3.2192298808
 11
-12.3189394083
 21
6.485110988
  0
LINE
  5
27B
100
AcDbEntity
  8
SMUSSO
100
AcDbLine
 62
7
  6
CONTINUOUS
 10
-11.9653860177
 20
6.6892482847
 11
-11.9653860177
 21
3.4233671775
  0
LINE
  5
27C
100
AcDbEntity
  8
ASSI
100
AcDbLine
 62
7
  6
CONTINUOUS
 10
-11.9653860177
 20
6.6892482847
 11
-11.9653860177
 21
3.4233671775
  0
LWPOLYLINE
  5
27D
100
AcDbEntity
  8
SMUSSO
100
AcDbPolyline
 62
7
  6
CONTINUOUS
 90
36
 70
0
 10
-14.0159956831
 20
6.485110988
 10
-14.0124929793
 20
6.6583372548
 10
-14.0021756452
 20
6.826549364
 10
-13.9850436809
 20
6.9897473158
 10
-13.9610335202
 20
7.148248589
 10
-13.9302087294
 20
7.3017357046
 10
-13.8927600065
 20
7.4492562263
 10
-13.848646093
 20
7.5907729202
 10
-13.7979082475
 20
7.7263230201
 10
-13.7408609443
 20
7.8550657913
 10
-13.6774649138
 20
7.9769588188
 10
-13.6077594256
 20
8.0920445177
 10
-13.5321767631
 20
8.1996093978
 10
-13.4506805594
 20
8.2996065299
 10
-13.3633071812
 20
8.3920828432
 10
-13.270598012
 20
8.4764656358
 10
-13.1725199955
 20
8.5527046987
 10
-13.069106188
 20
8.6208502408
 10
-12.9609971408
 20
8.680480187
 10
-12.8481636205
 20
8.7315417536
 10
-12.7306348605
 20
8.7740877242
 10
-12.6091391134
 20
8.8078543748
 10
-12.4836516885
 20
8.832787178
 10
-12.3541972763
 20
8.8489406613
 10
-12.2215782016
 20
8.8562146828
 10
-12.0857748575
 20
8.8545540823
 10
-11.9468068507
 20
8.84401402
 10
-11.8055353263
 20
8.8246598357
 10
-11.6619460064
 20
8.7964368092
 10
-11.5160531689
 20
8.7593996607
 10
-11.3687607916
 20
8.7137778904
 10
-11.22006017
 20
8.6595181964
 10
-11.0699600086
 20
8.5966738805
 10
-10.9193903997
 20
8.5256343485
 10
-10.7683484066
 20
8.4463486983
 10
-10.6929149921
 20
8.403784863
  0
LWPOLYLINE
  5
27E
100
AcDbEntity
  8
ASSI
100
AcDbPolyline
 62
7
  6
CONTINUOUS
 90
36
 70
0
 10
-14.0159956831
 20
6.485110988
 10
-14.0124929793
 20
6.6583372548
 10
-14.0021756452
 20
6.826549364
 10
-13.9850436809
 20
6.9897473158
 10
-13.9610335202
 20
7.148248589
 10
-13.9302087294
 20
7.3017357046
 10
-13.8927600065
 20
7.4492562263
 10
-13.848646093
 20
7.5907729202
 10
-13.7979082475
 20
7.7263230201
 10
-13.7408609443
 20
7.8550657913
 10
-13.6774649138
 20
7.9769588188
 10
-13.6077594256
 20
8.0920445177
 10
-13.5321767631
 20
8.1996093978
 10
-13.4506805594
 20
8.2996065299
 10
-13.3633071812
 20
8.3920828432
 10
-13.270598012
 20
8.4764656358
 10
-13.1725199955
 20
8.5527046987
 10
-13.069106188
 20
8.6208502408
 10
-12.9609971408
 20
8.680480187
 10
-12.8481636205
 20
8.7315417536
 10
-12.7306348605
 20
8.7740877242
 10
-12.6091391134
 20
8.8078543748
 10
-12.4836516885
 20
8.832787178
 10
-12.3541972763
 20
8.8489406613
 10
-12.2215782016
 20
8.8562146828
 10
-12.0857748575
 20
8.8545540823
 10
-11.9468068507
 20
8.84401402
 10
-11.8055353263
 20
8.8246598357
 10
-11.6619460064
 20
8.7964368092
 10
-11.5160531689
 20
8.7593996607
 10
-11.3687607916
 20
8.7137778904
 10
-11.22006017
 20
8.6595181964
 10
-11.0699600086
 20
8.5966738805
 10
-10.9193903997
 20
8.5256343485
 10
-10.7683484066
 20
8.4463486983
 10
-10.6929149921
 20
8.403784863
  0
LWPOLYLINE
  5
27F
100
AcDbEntity
  8
SMUSSO
100
AcDbPolyline
 62
7
  6
CONTINUOUS
 90
17
 70
0
 10
-12.3189394083
 20
6.485110988
 10
-12.3158635479
 20
6.6257629762
 10
-12.3066433612
 20
6.7625161752
 10
-12.2913013918
 20
6.8950303984
 10
-12.2698753259
 20
7.0229763634
 10
-12.2424180965
 20
7.1460352774
 10
-12.2089979464
 20
7.2638997911
 10
-12.1696978167
 20
7.3762765822
 10
-12.1246151924
 20
7.4828862094
 10
-12.0738623112
 20
7.5834628086
 10
-12.0175653351
 20
7.6777561539
 10
-11.9558641172
 20
7.7655318101
 10
-11.8889122452
 20
7.8465711686
 10
-11.8168762399
 20
7.9206726531
 10
-11.7399351301
 20
7.9876520857
 10
-11.6582802648
 20
8.0473428726
 10
-11.5941502346
 20
8.087190002
  0
LWPOLYLINE
  5
280
100
AcDbEntity
  8
ASSI
100
AcDbPolyline
 62
7
  6
CONTINUOUS
 90
17
 70
0
 10
-12.3189394083
 20
6.485110988
 10
-12.3158635479
 20
6.6257629762
 10
-12.3066433612
 20
6.7625161752
 10
-12.2913013918
 20
6.8950303984
 10
-12.2698753259
 20
7.0229763634
 10
-12.2424180965
 20
7.1460352774
 10
-12.2089979464
 20
7.2638997911
 10
-12.1696978167
 20
7.3762765822
 10
-12.1246151924
 20
7.4828862094
 10
-12.0738623112
 20
7.5834628086
 10
-12.0175653351
 20
7.6777561539
 10
-11.9558641172
 20
7.7655318101
 10
-11.8889122452
 20
7.8465711686
 10
-11.8168762399
 20
7.9206726531
 10
-11.7399351301
 20
7.9876520857
 10
-11.6582802648
 20
8.0473428726
 10
-11.5941502346
 20
8.087190002
  0
LINE
  5
281
100
AcDbEntity
  8
SMUSSO
100
AcDbLine
 62
7
  6
CONTINUOUS
 10
-11.962310063
 20
6.8299023992
 11
-11.9653860177
 21
6.6892482847
  0
LINE
  5
282
100
AcDbEntity
  8
ASSI
100
AcDbLine
 62
7
  6
CONTINUOUS
 10
-11.962310063
 20
6.8299023992
 11
-11.9653860177
 21
6.6892482847
  0
LINE
  5
283
100
AcDbEntity
  8
SMUSSO
100
AcDbLine
 62
7
  6
CONTINUOUS
 10
-11.9530896619
 20
6.9666568562
 11
-11.962310063
 21
6.8299023992
  0
LINE
  5
284
100
AcDbEntity
  8
ASSI
100
AcDbLine
 62
7
  6
CONTINUOUS
 10
-11.9530896619
 20
6.9666568562
 11
-11.962310063
 21
6.8299023992
  0
LWPOLYLINE
  5
285
100
AcDbEntity
  8
SMUSSO
100
AcDbPolyline
 62
7
  6
CONTINUOUS
 90
11
 70
0
 10
-11.5353673289
 20
8.050699006
 10
-11.60231678
 20
7.9696611636
 10
-11.6640159427
 20
7.8818872814
 10
-11.7203112838
 20
7.7875958034
 10
-11.7710629206
 20
7.6870210873
 10
-11.8161446484
 20
7.5804133021
 10
-11.8554442233
 20
7.4680381405
 10
-11.8888640913
 20
7.3501750062
 10
-11.9163212615
 20
7.2271171198
 10
-11.9377474603
 20
7.0991715266
 10
-11.9530896619
 20
6.9666568562
  0
LWPOLYLINE
  5
286
100
AcDbEntity
  8
ASSI
100
AcDbPolyline
 62
7
  6
CONTINUOUS
 90
11
 70
0
 10
-11.5353673289
 20
8.050699006
 10
-11.60231678
 20
7.9696611636
 10
-11.6640159427
 20
7.8818872814
 10
-11.7203112838
 20
7.7875958034
 10
-11.7710629206
 20
7.6870210873
 10
-11.8161446484
 20
7.5804133021
 10
-11.8554442233
 20
7.4680381405
 10
-11.8888640913
 20
7.3501750062
 10
-11.9163212615
 20
7.2271171198
 10
-11.9377474603
 20
7.0991715266
 10
-11.9530896619
 20
6.9666568562
  0
LWPOLYLINE
  5
287
100
AcDbEntity
  8
SMUSSO
100
AcDbPolyline
 62
7
  6
CONTINUOUS
 90
3
 70
0
 10
-11.4076937035
 20
8.173237224
 10
-11.4633341539
 20
8.1247992443
 10
-11.5353673289
 20
8.050699006
  0
LWPOLYLINE
  5
288
100
AcDbEntity
  8
ASSI
100
AcDbPolyline
 62
7
  6
CONTINUOUS
 90
3
 70
0
 10
-11.4076937035
 20
8.173237224
 10
-11.4633341539
 20
8.1247992443
 10
-11.5353673289
 20
8.050699006
  0
LINE
  5
289
100
AcDbEntity
  8
SMUSSO
100
AcDbLine
 62
250
  6
CONTINUOUS
 10
-11.9653860177
 20
6.6892482847
 11
-12.3189394083
 21
6.485110988
  0
LINE
  5
28A
100
AcDbEntity
  8
ASSI
100
AcDbLine
 62
250
  6
CONTINUOUS
 10
-11.9653860177
 20
6.6892482847
 11
-12.3189394083
 21
6.485110988
  0
LWPOLYLINE
  5
28B
100
AcDbEntity
  8
SMUSSO
100
AcDbPolyline
 62
7
  6
CONTINUOUS
 90
15
 70
0
 10
-11.5941502346
 20
8.087190002
 10
-11.5721146402
 20
8.0995966112
 10
-11.4816525091
 20
8.1442833622
 10
-11.3871189293
 20
8.181291967
 10
-11.2887489085
 20
8.2105304524
 10
-11.1867870844
 20
8.2319261329
 10
-11.0814872911
 20
8.2454258148
 10
-10.9731113836
 20
8.2509960338
 10
-10.8619288417
 20
8.2486230425
 10
-10.7482164329
 20
8.2383128791
 10
-10.6322569414
 20
8.2200913443
 10
-10.5143386852
 20
8.1940039018
 10
-10.3947551166
 20
8.1601156496
 10
-10.2738036907
 20
8.1185110905
 10
-10.2380456122
 20
8.104087769
  0
LWPOLYLINE
  5
28C
100
AcDbEntity
  8
ASSI
100
AcDbPolyline
 62
7
  6
CONTINUOUS
 90
15
 70
0
 10
-11.5941502346
 20
8.087190002
 10
-11.5721146402
 20
8.0995966112
 10
-11.4816525091
 20
8.1442833622
 10
-11.3871189293
 20
8.181291967
 10
-11.2887489085
 20
8.2105304524
 10
-11.1867870844
 20
8.2319261329
 10
-11.0814872911
 20
8.2454258148
 10
-10.9731113836
 20
8.2509960338
 10
-10.8619288417
 20
8.2486230425
 10
-10.7482164329
 20
8.2383128791
 10
-10.6322569414
 20
8.2200913443
 10
-10.5143386852
 20
8.1940039018
 10
-10.3947551166
 20
8.1601156496
 10
-10.2738036907
 20
8.1185110905
 10
-10.2380456122
 20
8.104087769
  0
LWPOLYLINE
  5
28D
100
AcDbEntity
  8
SMUSSO
100
AcDbPolyline
 62
7
  6
CONTINUOUS
 90
3
 70
0
 10
-23.9557001522
 20
8.0262118652
 10
-23.8573332461
 20
8.0554521346
 10
-23.8367895639
 20
8.0634952736
  0
LWPOLYLINE
  5
28E
100
AcDbEntity
  8
ASSI
100
AcDbPolyline
 62
7
  6
CONTINUOUS
 90
3
 70
0
 10
-23.9557001522
 20
8.0262118652
 10
-23.8573332461
 20
8.0554521346
 10
-23.8367895639
 20
8.0634952736
  0
LINE
  5
28F
100
AcDbEntity
  8
SMUSSO
100
AcDbLine
 62
250
  6
CONTINUOUS
 10
17.8038094703
 20
-15.1531268189
 11
19.5008657451
 21
-15.1531268189
  0
LINE
  5
290
100
AcDbEntity
  8
ASSI
100
AcDbLine
 62
250
  6
CONTINUOUS
 10
17.8038094703
 20
-15.1531268189
 11
19.5008657451
 21
-15.1531268189
  0
LINE
  5
291
100
AcDbEntity
  8
SMUSSO
100
AcDbLine
 62
250
  6
CONTINUOUS
 10
17.8038094703
 20
-11.8872457117
 11
19.5008657451
 21
-11.8872457117
  0
LINE
  5
292
100
AcDbEntity
  8
ASSI
100
AcDbLine
 62
250
  6
CONTINUOUS
 10
17.8038094703
 20
-11.8872457117
 11
19.5008657451
 21
-11.8872457117
  0
LWPOLYLINE
  5
293
100
AcDbEntity
  8
CURVE
100
AcDbPolyline
 62
250
  6
CONTINUOUS
 90
30
 70
0
 10
45.0330852499
 20
-60.7680386749
 10
45.0142886639
 20
-60.7497112285
 10
44.9953095556
 20
-60.7319118606
 10
44.9761645532
 20
-60.7146219325
 10
44.9568702848
 20
-60.6978228053
 10
44.9374433784
 20
-60.68149584
 10
44.9179004621
 20
-60.6656223978
 10
44.8982581639
 20
-60.6501838397
 10
44.8785331119
 20
-60.6351615268
 10
44.8587419342
 20
-60.6205368203
 10
44.8389012588
 20
-60.6062910812
 10
44.8190277139
 20
-60.5924056707
 10
44.7991379274
 20
-60.5788619497
 10
44.7699033728
 20
-60.5595414282
 10
44.7406708829
 20
-60.5408791838
 10
44.7114416875
 20
-60.5228357281
 10
44.6822170166
 20
-60.5053715732
 10
44.6529980999
 20
-60.4884472306
 10
44.6237861672
 20
-60.4720232122
 10
44.5945824485
 20
-60.4560600298
 10
44.5653881734
 20
-60.4405181951
 10
44.5281863079
 20
-60.4212627116
 10
44.4910067264
 20
-60.4026020738
 10
44.453854366
 20
-60.3845105273
 10
44.4167341639
 20
-60.3669623175
 10
44.3796510574
 20
-60.3499316897
 10
44.3426099838
 20
-60.3333928894
 10
44.3056158801
 20
-60.3173201619
 10
44.2686736836
 20
-60.3016877528
 10
44.2317883316
 20
-60.2864699073
  0
LINE
  5
294
100
AcDbEntity
  8
ASSI
100
AcDbLine
 62
7
  6
CONTINUOUS
 10
-52.9823718343
 20
63.9328568438
 11
-52.9819965268
 21
63.9322204822
  0
LINE
  5
295
100
AcDbEntity
  8
SMUSSO
100
AcDbLine
 62
7
  6
CONTINUOUS
 10
-7.36919194
 20
2.6473298107
 11
-7.36919194
 21
-0.6185512964
  0
LINE
  5
296
100
AcDbEntity
  8
ASSI
100
AcDbLine
 62
7
  6
CONTINUOUS
 10
-7.36919194
 20
2.6473298107
 11
-7.36919194
 21
-0.6185512964
  0
LWPOLYLINE
  5
297
100
AcDbEntity
  8
SMUSSO
100
AcDbPolyline
 62
7
  6
CONTINUOUS
 90
70
 70
0
 10
-7.36919194
 20
-0.6185512964
 10
-7.3726946438
 20
-0.7917775632
 10
-7.3830119779
 20
-0.9599896725
 10
-7.4001439423
 20
-1.1231876242
 10
-7.4241541029
 20
-1.2816888974
 10
-7.4549788937
 20
-1.435176013
 10
-7.4924276166
 20
-1.5826965347
 10
-7.5365415301
 20
-1.7242132286
 10
-7.5872793756
 20
-1.8597633285
 10
-7.6443266788
 20
-1.9885060997
 10
-7.7077227093
 20
-2.1103991273
 10
-7.7774281975
 20
-2.2254848261
 10
-7.85301086
 20
-2.3330497062
 10
-7.9345070637
 20
-2.4330468383
 10
-8.0218804419
 20
-2.5255231516
 10
-8.1145896111
 20
-2.6099059442
 10
-8.2126676276
 20
-2.6861450071
 10
-8.3160814351
 20
-2.7542905493
 10
-8.4241904823
 20
-2.8139204954
 10
-8.5370240026
 20
-2.864982062
 10
-8.6545527626
 20
-2.9075280326
 10
-8.7760485097
 20
-2.9412946832
 10
-8.9015359347
 20
-2.9662274865
 10
-9.0309903468
 20
-2.9823809697
 10
-9.1636094215
 20
-2.9896549913
 10
-9.2994127656
 20
-2.9879943907
 10
-9.4383807724
 20
-2.9774543284
 10
-9.5796522968
 20
-2.9581001441
 10
-9.7232416167
 20
-2.9298771177
 10
-9.8691344542
 20
-2.8928399692
 10
-10.0164268315
 20
-2.8472181988
 10
-10.1651274531
 20
-2.7929585048
 10
-10.3152276145
 20
-2.7301141889
 10
-10.4657972234
 20
-2.6590746569
 10
-10.6168392165
 20
-2.5797890068
 10
-10.7683506571
 20
-2.4923081405
 10
-10.9193926431
 20
-2.3971741693
 10
-11.0699622356
 20
-2.2943395846
 10
-11.2200623734
 20
-2.1838518951
 10
-11.3687629712
 20
-2.0663957375
 10
-11.5160553267
 20
-1.9419278606
 10
-11.661948142
 20
-1.8104915157
 10
-11.8055374379
 20
-1.672901094
 10
-11.9468089399
 20
-1.529118358
 10
-12.0857769225
 20
-1.3791815451
 10
-12.2215802295
 20
-1.2240197589
 10
-12.3541992505
 20
-1.0636004826
 10
-12.4836535959
 20
-0.8979562329
 10
-12.6091409412
 20
-0.7281136634
 10
-12.7306365874
 20
-0.5540467738
 10
-12.8481652334
 20
-0.3757815644
 10
-12.9609986515
 20
-0.194422689
 10
-13.0691076149
 20
-0.0099511177
 10
-13.1725213503
 20
0.1776141194
 10
-13.2705993101
 20
0.3671112784
 10
-13.3633084507
 20
0.5585524273
 10
-13.4506818156
 20
0.7519254979
 10
-13.5321779875
 20
0.9460325413
 10
-13.6077605891
 20
1.1408784842
 10
-13.6774659977
 20
1.3364583998
 10
-13.7408619276
 20
1.5315595596
 10
-13.7979091008
 20
1.7261790134
 10
-13.8486467953
 20
1.9203197112
 10
-13.8927605605
 20
2.1127777749
 10
-13.9302091366
 20
2.3035427709
 10
-13.9610337833
 20
2.4926251326
 10
-13.9850438285
 20
2.6788522823
 10
-14.0021757149
 20
2.8618333606
 10
-14.0124929997
 20
3.0419592268
 10
-14.0159956831
 20
3.2192298808
  0
LWPOLYLINE
  5
298
100
AcDbEntity
  8
ASSI
100
AcDbPolyline
 62
7
  6
CONTINUOUS
 90
70
 70
0
 10
-7.36919194
 20
-0.6185512964
 10
-7.3726946438
 20
-0.7917775632
 10
-7.3830119779
 20
-0.9599896725
 10
-7.4001439423
 20
-1.1231876242
 10
-7.4241541029
 20
-1.2816888974
 10
-7.4549788937
 20
-1.435176013
 10
-7.4924276166
 20
-1.5826965347
 10
-7.5365415301
 20
-1.7242132286
 10
-7.5872793756
 20
-1.8597633285
 10
-7.6443266788
 20
-1.9885060997
 10
-7.7077227093
 20
-2.1103991273
 10
-7.7774281975
 20
-2.2254848261
 10
-7.85301086
 20
-2.3330497062
 10
-7.9345070637
 20
-2.4330468383
 10
-8.0218804419
 20
-2.5255231516
 10
-8.1145896111
 20
-2.6099059442
 10
-8.2126676276
 20
-2.6861450071
 10
-8.3160814351
 20
-2.7542905493
 10
-8.4241904823
 20
-2.8139204954
 10
-8.5370240026
 20
-2.864982062
 10
-8.6545527626
 20
-2.9075280326
 10
-8.7760485097
 20
-2.9412946832
 10
-8.9015359347
 20
-2.9662274865
 10
-9.0309903468
 20
-2.9823809697
 10
-9.1636094215
 20
-2.9896549913
 10
-9.2994127656
 20
-2.9879943907
 10
-9.4383807724
 20
-2.9774543284
 10
-9.5796522968
 20
-2.9581001441
 10
-9.7232416167
 20
-2.9298771177
 10
-9.8691344542
 20
-2.8928399692
 10
-10.0164268315
 20
-2.8472181988
 10
-10.1651274531
 20
-2.7929585048
 10
-10.3152276145
 20
-2.7301141889
 10
-10.4657972234
 20
-2.6590746569
 10
-10.6168392165
 20
-2.5797890068
 10
-10.7683506571
 20
-2.4923081405
 10
-10.9193926431
 20
-2.3971741693
 10
-11.0699622356
 20
-2.2943395846
 10
-11.2200623734
 20
-2.1838518951
 10
-11.3687629712
 20
-2.0663957375
 10
-11.5160553267
 20
-1.9419278606
 10
-11.661948142
 20
-1.8104915157
 10
-11.8055374379
 20
-1.672901094
 10
-11.9468089399
 20
-1.529118358
 10
-12.0857769225
 20
-1.3791815451
 10
-12.2215802295
 20
-1.2240197589
 10
-12.3541992505
 20
-1.0636004826
 10
-12.4836535959
 20
-0.8979562329
 10
-12.6091409412
 20
-0.7281136634
 10
-12.7306365874
 20
-0.5540467738
 10
-12.8481652334
 20
-0.3757815644
 10
-12.9609986515
 20
-0.194422689
 10
-13.0691076149
 20
-0.0099511177
 10
-13.1725213503
 20
0.1776141194
 10
-13.2705993101
 20
0.3671112784
 10
-13.3633084507
 20
0.5585524273
 10
-13.4506818156
 20
0.7519254979
 10
-13.5321779875
 20
0.9460325413
 10
-13.6077605891
 20
1.1408784842
 10
-13.6774659977
 20
1.3364583998
 10
-13.7408619276
 20
1.5315595596
 10
-13.7979091008
 20
1.7261790134
 10
-13.8486467953
 20
1.9203197112
 10
-13.8927605605
 20
2.1127777749
 10
-13.9302091366
 20
2.3035427709
 10
-13.9610337833
 20
2.4926251326
 10
-13.9850438285
 20
2.6788522823
 10
-14.0021757149
 20
2.8618333606
 10
-14.0124929997
 20
3.0419592268
 10
-14.0159956831
 20
3.2192298808
  0
LWPOLYLINE
  5
299
100
AcDbEntity
  8
SMUSSO
100
AcDbPolyline
 62
7
  6
CONTINUOUS
 90
17
 70
0
 10
-7.36919194
 20
0.3613077275
 10
-7.3722678004
 20
0.2206557394
 10
-7.381487987
 20
0.0839025404
 10
-7.3968299564
 20
-0.0486116828
 10
-7.4182560224
 20
-0.1765576478
 10
-7.4457132518
 20
-0.2996165618
 10
-7.4791334019
 20
-0.4174810755
 10
-7.5184335315
 20
-0.5298578667
 10
-7.5635161559
 20
-0.6364674938
 10
-7.614269037
 20
-0.737044093
 10
-7.6705660132
 20
-0.8313374383
 10
-7.732267231
 20
-0.9191130946
 10
-7.799219103
 20
-1.000152453
 10
-7.8712551083
 20
-1.0742539376
 10
-7.9481962182
 20
-1.1412333701
 10
-8.0298510835
 20
-1.200924157
 10
-8.0939811136
 20
-1.2407712865
  0
LWPOLYLINE
  5
29A
100
AcDbEntity
  8
ASSI
100
AcDbPolyline
 62
7
  6
CONTINUOUS
 90
17
 70
0
 10
-7.36919194
 20
0.3613077275
 10
-7.3722678004
 20
0.2206557394
 10
-7.381487987
 20
0.0839025404
 10
-7.3968299564
 20
-0.0486116828
 10
-7.4182560224
 20
-0.1765576478
 10
-7.4457132518
 20
-0.2996165618
 10
-7.4791334019
 20
-0.4174810755
 10
-7.5184335315
 20
-0.5298578667
 10
-7.5635161559
 20
-0.6364674938
 10
-7.614269037
 20
-0.737044093
 10
-7.6705660132
 20
-0.8313374383
 10
-7.732267231
 20
-0.9191130946
 10
-7.799219103
 20
-1.000152453
 10
-7.8712551083
 20
-1.0742539376
 10
-7.9481962182
 20
-1.1412333701
 10
-8.0298510835
 20
-1.200924157
 10
-8.0939811136
 20
-1.2407712865
  0
LINE
  5
29B
100
AcDbEntity
  8
SMUSSO
100
AcDbLine
 62
250
  6
CONTINUOUS
 10
-11.9653860177
 20
3.4233671775
 11
-12.3189394083
 21
3.2192298808
  0
LINE
  5
29C
100
AcDbEntity
  8
ASSI
100
AcDbLine
 62
250
  6
CONTINUOUS
 10
-11.9653860177
 20
3.4233671775
 11
-12.3189394083
 21
3.2192298808
  0
LINE
  5
29D
100
AcDbEntity
  8
ASSI
100
AcDbLine
 62
7
  6
CONTINUOUS
 10
47.4819783668
 20
4.7598277683
 11
48.8989374977
 21
5.1074460445
  0
LINE
  5
29E
100
AcDbEntity
  8
SMUSSO
100
AcDbLine
 62
250
  6
CONTINUOUS
 10
1.8939068936
 20
-5.966948469
 11
3.5909631684
 21
-5.966948469
  0
LINE
  5
29F
100
AcDbEntity
  8
ASSI
100
AcDbLine
 62
250
  6
CONTINUOUS
 10
1.8939068936
 20
-5.966948469
 11
3.5909631684
 21
-5.966948469
  0
LWPOLYLINE
  5
2A0
100
AcDbEntity
  8
SMUSSO
100
AcDbPolyline
 62
7
  6
CONTINUOUS
 90
14
 70
0
 10
22.3295320488
 20
-19.2357346533
 10
22.3909941268
 20
-19.2703338652
 10
22.5142439361
 20
-19.334394133
 10
22.6370338713
 20
-19.3911038921
 10
22.7590586545
 20
-19.4403221575
 10
22.8800148741
 20
-19.4819265565
 10
22.9996017981
 20
-19.515813659
 10
23.1175221106
 20
-19.5418992257
 10
23.2334826255
 20
-19.5601184107
 10
23.3471950661
 20
-19.5704259306
 10
23.4583766909
 20
-19.5727961659
 10
23.5667509948
 20
-19.5672232436
 10
23.6720485542
 20
-19.5537210494
 10
23.7740075779
 20
-19.5323231844
  0
LWPOLYLINE
  5
2A1
100
AcDbEntity
  8
ASSI
100
AcDbPolyline
 62
7
  6
CONTINUOUS
 90
14
 70
0
 10
22.3295320488
 20
-19.2357346533
 10
22.3909941268
 20
-19.2703338652
 10
22.5142439361
 20
-19.334394133
 10
22.6370338713
 20
-19.3911038921
 10
22.7590586545
 20
-19.4403221575
 10
22.8800148741
 20
-19.4819265565
 10
22.9996017981
 20
-19.515813659
 10
23.1175221106
 20
-19.5418992257
 10
23.2334826255
 20
-19.5601184107
 10
23.3471950661
 20
-19.5704259306
 10
23.4583766909
 20
-19.5727961659
 10
23.5667509948
 20
-19.5672232436
 10
23.6720485542
 20
-19.5537210494
 10
23.7740075779
 20
-19.5323231844
  0
LWPOLYLINE
  5
2A2
100
AcDbEntity
  8
SMUSSO
100
AcDbPolyline
 62
7
  6
CONTINUOUS
 90
14
 70
0
 10
6.4196294721
 20
-10.0495563034
 10
6.4810915501
 20
-10.0841555153
 10
6.6043413594
 20
-10.1482157831
 10
6.7271312946
 20
-10.2049255422
 10
6.8491560778
 20
-10.2541438076
 10
6.9701122974
 20
-10.2957482067
 10
7.0896992214
 20
-10.3296353092
 10
7.2076195339
 20
-10.3557208758
 10
7.3235800488
 20
-10.3739400608
 10
7.4372924894
 20
-10.3842475808
 10
7.5484741142
 20
-10.386617816
 10
7.6568484181
 20
-10.3810448937
 10
7.7621459775
 20
-10.3675426995
 10
7.8641050012
 20
-10.3461448346
  0
LWPOLYLINE
  5
2A3
100
AcDbEntity
  8
ASSI
100
AcDbPolyline
 62
7
  6
CONTINUOUS
 90
14
 70
0
 10
6.4196294721
 20
-10.0495563034
 10
6.4810915501
 20
-10.0841555153
 10
6.6043413594
 20
-10.1482157831
 10
6.7271312946
 20
-10.2049255422
 10
6.8491560778
 20
-10.2541438076
 10
6.9701122974
 20
-10.2957482067
 10
7.0896992214
 20
-10.3296353092
 10
7.2076195339
 20
-10.3557208758
 10
7.3235800488
 20
-10.3739400608
 10
7.4372924894
 20
-10.3842475808
 10
7.5484741142
 20
-10.386617816
 10
7.6568484181
 20
-10.3810448937
 10
7.7621459775
 20
-10.3675426995
 10
7.8641050012
 20
-10.3461448346
  0
LWPOLYLINE
  5
2A4
100
AcDbEntity
  8
SMUSSO
100
AcDbPolyline
 62
7
  6
CONTINUOUS
 90
14
 70
0
 10
-9.4902731046
 20
-0.8633779535
 10
-9.4288110266
 20
-0.8979771654
 10
-9.3055612173
 20
-0.9620374332
 10
-9.1827712821
 20
-1.0187471923
 10
-9.0607464989
 20
-1.0679654577
 10
-8.9397902793
 20
-1.1095698568
 10
-8.8202033553
 20
-1.1434569593
 10
-8.7022830428
 20
-1.1695425259
 10
-8.5863225279
 20
-1.1877617109
 10
-8.4726100873
 20
-1.1980692309
 10
-8.3614284625
 20
-1.2004394661
 10
-8.2530541586
 20
-1.1948665439
 10
-8.1477565991
 20
-1.1813643497
 10
-8.0457975755
 20
-1.1599664847
  0
LWPOLYLINE
  5
2A5
100
AcDbEntity
  8
ASSI
100
AcDbPolyline
 62
7
  6
CONTINUOUS
 90
14
 70
0
 10
-9.4902731046
 20
-0.8633779535
 10
-9.4288110266
 20
-0.8979771654
 10
-9.3055612173
 20
-0.9620374332
 10
-9.1827712821
 20
-1.0187471923
 10
-9.0607464989
 20
-1.0679654577
 10
-8.9397902793
 20
-1.1095698568
 10
-8.8202033553
 20
-1.1434569593
 10
-8.7022830428
 20
-1.1695425259
 10
-8.5863225279
 20
-1.1877617109
 10
-8.4726100873
 20
-1.1980692309
 10
-8.3614284625
 20
-1.2004394661
 10
-8.2530541586
 20
-1.1948665439
 10
-8.1477565991
 20
-1.1813643497
 10
-8.0457975755
 20
-1.1599664847
  0
LWPOLYLINE
  5
2A6
100
AcDbEntity
  8
SMUSSO
100
AcDbPolyline
 62
7
  6
CONTINUOUS
 90
14
 70
0
 10
-25.4001756813
 20
8.3228003964
 10
-25.3387136033
 20
8.2882011844
 10
-25.215463794
 20
8.2241409167
 10
-25.0926738588
 20
8.1674311575
 10
-24.9706490756
 20
8.1182128922
 10
-24.849692856
 20
8.0766084931
 10
-24.730105932
 20
8.0427213906
 10
-24.6121856195
 20
8.0166358239
 10
-24.4962251046
 20
7.998416639
 10
-24.382512664
 20
7.988109119
 10
-24.2713310392
 20
7.9857388838
 10
-24.1629567353
 20
7.991311806
 10
-24.0576591758
 20
8.0048140002
 10
-23.9557001522
 20
8.0262118652
  0
LWPOLYLINE
  5
2A7
100
AcDbEntity
  8
ASSI
100
AcDbPolyline
 62
7
  6
CONTINUOUS
 90
14
 70
0
 10
-25.4001756813
 20
8.3228003964
 10
-25.3387136033
 20
8.2882011844
 10
-25.215463794
 20
8.2241409167
 10
-25.0926738588
 20
8.1674311575
 10
-24.9706490756
 20
8.1182128922
 10
-24.849692856
 20
8.0766084931
 10
-24.730105932
 20
8.0427213906
 10
-24.6121856195
 20
8.0166358239
 10
-24.4962251046
 20
7.998416639
 10
-24.382512664
 20
7.988109119
 10
-24.2713310392
 20
7.9857388838
 10
-24.1629567353
 20
7.991311806
 10
-24.0576591758
 20
8.0048140002
 10
-23.9557001522
 20
8.0262118652
  0
LWPOLYLINE
  5
2A8
100
AcDbEntity
  8
SMUSSO
100
AcDbPolyline
 62
7
  6
CONTINUOUS
 90
49
 70
0
 10
-8.0939811136
 20
-1.2407712865
 10
-8.116016708
 20
-1.2531778956
 10
-8.2064788392
 20
-1.2978646467
 10
-8.301012419
 20
-1.3348732514
 10
-8.3993824398
 20
-1.3641117368
 10
-8.5013442638
 20
-1.3855074173
 10
-8.6066440572
 20
-1.3990070992
 10
-8.7150199647
 20
-1.4045773182
 10
-8.8262025066
 20
-1.402204327
 10
-8.9399149153
 20
-1.3918941635
 10
-9.0558744068
 20
-1.3736726288
 10
-9.1737926631
 20
-1.3475851862
 10
-9.2933762317
 20
-1.3136969341
 10
-9.4143276576
 20
-1.2720923749
 10
-9.5363463321
 20
-1.2228751172
 10
-9.6591289902
 20
-1.1661676702
 10
-9.7823697514
 20
-1.1021115358
 10
-9.9057628722
 20
-1.0308658576
 10
-10.0290036059
 20
-0.9526065948
 10
-10.1517861986
 20
-0.8675276804
 10
-10.2738047815
 20
-0.7758408332
 10
-10.3947561215
 20
-0.6777737244
 10
-10.5143396209
 20
-0.5735698698
 10
-10.632257814
 20
-0.4634882677
 10
-10.7482172467
 20
-0.3478026919
 10
-10.8619296015
 20
-0.2268006201
 10
-10.9731120938
 20
-0.100782803
 10
-11.081487954
 20
0.0299371916
 10
-11.1867877007
 20
0.1650344262
 10
-11.2887494805
 20
0.3041730551
 10
-11.3871194616
 20
0.4470067672
 10
-11.4816530043
 20
0.5931803733
 10
-11.5721151023
 20
0.7423305225
 10
-11.6582807035
 20
0.8940861767
 10
-11.7399355573
 20
1.0480699905
 10
-11.8168766618
 20
1.2038991404
 10
-11.8889126625
 20
1.3611860591
 10
-11.9558645322
 20
1.5195398372
 10
-12.0175657458
 20
1.6785665975
 10
-12.0738627049
 20
1.8378703429
 10
-12.124615558
 20
1.9970551384
 10
-12.1696981453
 20
2.1557250698
 10
-12.2089982247
 20
2.3134846359
 10
-12.2424183151
 20
2.4699418165
 10
-12.2698754828
 20
2.62470752
 10
-12.2913014897
 20
2.7773955884
 10
-12.3066434089
 20
2.9276261046
 10
-12.3158635608
 20
3.0750262735
 10
-12.3189394083
 20
3.2192298808
  0
LWPOLYLINE
  5
2A9
100
AcDbEntity
  8
ASSI
100
AcDbPolyline
 62
7
  6
CONTINUOUS
 90
49
 70
0
 10
-8.0939811136
 20
-1.2407712865
 10
-8.116016708
 20
-1.2531778956
 10
-8.2064788392
 20
-1.2978646467
 10
-8.301012419
 20
-1.3348732514
 10
-8.3993824398
 20
-1.3641117368
 10
-8.5013442638
 20
-1.3855074173
 10
-8.6066440572
 20
-1.3990070992
 10
-8.7150199647
 20
-1.4045773182
 10
-8.8262025066
 20
-1.402204327
 10
-8.9399149153
 20
-1.3918941635
 10
-9.0558744068
 20
-1.3736726288
 10
-9.1737926631
 20
-1.3475851862
 10
-9.2933762317
 20
-1.3136969341
 10
-9.4143276576
 20
-1.2720923749
 10
-9.5363463321
 20
-1.2228751172
 10
-9.6591289902
 20
-1.1661676702
 10
-9.7823697514
 20
-1.1021115358
 10
-9.9057628722
 20
-1.0308658576
 10
-10.0290036059
 20
-0.9526065948
 10
-10.1517861986
 20
-0.8675276804
 10
-10.2738047815
 20
-0.7758408332
 10
-10.3947561215
 20
-0.6777737244
 10
-10.5143396209
 20
-0.5735698698
 10
-10.632257814
 20
-0.4634882677
 10
-10.7482172467
 20
-0.3478026919
 10
-10.8619296015
 20
-0.2268006201
 10
-10.9731120938
 20
-0.100782803
 10
-11.081487954
 20
0.0299371916
 10
-11.1867877007
 20
0.1650344262
 10
-11.2887494805
 20
0.3041730551
 10
-11.3871194616
 20
0.4470067672
 10
-11.4816530043
 20
0.5931803733
 10
-11.5721151023
 20
0.7423305225
 10
-11.6582807035
 20
0.8940861767
 10
-11.7399355573
 20
1.0480699905
 10
-11.8168766618
 20
1.2038991404
 10
-11.8889126625
 20
1.3611860591
 10
-11.9558645322
 20
1.5195398372
 10
-12.0175657458
 20
1.6785665975
 10
-12.0738627049
 20
1.8378703429
 10
-12.124615558
 20
1.9970551384
 10
-12.1696981453
 20
2.1557250698
 10
-12.2089982247
 20
2.3134846359
 10
-12.2424183151
 20
2.4699418165
 10
-12.2698754828
 20
2.62470752
 10
-12.2913014897
 20
2.7773955884
 10
-12.3066434089
 20
2.9276261046
 10
-12.3158635608
 20
3.0750262735
 10
-12.3189394083
 20
3.2192298808
  0
LWPOLYLINE
  5
2AA
100
AcDbEntity
  8
SMUSSO
100
AcDbPolyline
 62
7
  6
CONTINUOUS
 90
3
 70
0
 10
-8.0457975755
 20
-1.1599664847
 10
-7.9474306694
 20
-1.1307262153
 10
-7.9268869872
 20
-1.1226830762
  0
LWPOLYLINE
  5
2AB
100
AcDbEntity
  8
ASSI
100
AcDbPolyline
 62
7
  6
CONTINUOUS
 90
3
 70
0
 10
-8.0457975755
 20
-1.1599664847
 10
-7.9474306694
 20
-1.1307262153
 10
-7.9268869872
 20
-1.1226830762
  0
LINE
  5
2AC
100
AcDbEntity
  8
SMUSSO
100
AcDbLine
 62
250
  6
CONTINUOUS
 10
1.8939068936
 20
-2.7010673619
 11
3.5909631684
 21
-2.7010673619
  0
LINE
  5
2AD
100
AcDbEntity
  8
ASSI
100
AcDbLine
 62
250
  6
CONTINUOUS
 10
1.8939068936
 20
-2.7010673619
 11
3.5909631684
 21
-2.7010673619
  0
LWPOLYLINE
  5
2AE
100
AcDbEntity
  8
SMUSSO
100
AcDbPolyline
 62
7
  6
CONTINUOUS
 90
31
 70
0
 10
3.9478348751
 20
-5.752604373
 10
3.9575741204
 20
-5.9082997557
 10
3.9737342948
 20
-6.0665874833
 10
3.9963872418
 20
-6.2278736672
 10
4.0254611179
 20
-6.391752196
 10
4.0607403931
 20
-6.557004735
 10
4.1022714166
 20
-6.7236414356
 10
4.1500078392
 20
-6.8916521464
 10
4.2035950828
 20
-7.0597880795
 10
4.2630767516
 20
-7.2280500137
 10
4.3284092415
 20
-7.3964371701
 10
4.3991071618
 20
-7.5636984236
 10
4.4752103701
 20
-7.7298251627
 10
4.5566790088
 20
-7.8948259989
 10
4.6429081142
 20
-8.0574756412
 10
4.7339331345
 20
-8.2177566456
 10
4.8297186216
 20
-8.3756864562
 10
4.9295532677
 20
-8.5300921138
 10
5.033467297
 20
-8.680947487
 10
5.1414304853
 20
-8.8282787073
 10
5.2526408518
 20
-8.97099121
 10
5.3671225867
 20
-9.1090505852
 10
5.4848514998
 20
-9.242491243
 10
5.6049530409
 20
-9.3703218488
 10
5.7274448572
 20
-9.4925005931
 10
5.8523093015
 20
-9.6090692854
 10
5.9786188808
 20
-9.7191620203
 10
6.106384363
 20
-9.8227305761
 10
6.2355949804
 20
-9.9198231744
 10
6.3652909362
 20
-10.0097185743
 10
6.4891204607
 20
-10.0883286184
  0
LWPOLYLINE
  5
2AF
100
AcDbEntity
  8
ASSI
100
AcDbPolyline
 62
7
  6
CONTINUOUS
 90
31
 70
0
 10
3.9478348751
 20
-5.752604373
 10
3.9575741204
 20
-5.9082997557
 10
3.9737342948
 20
-6.0665874833
 10
3.9963872418
 20
-6.2278736672
 10
4.0254611179
 20
-6.391752196
 10
4.0607403931
 20
-6.557004735
 10
4.1022714166
 20
-6.7236414356
 10
4.1500078392
 20
-6.8916521464
 10
4.2035950828
 20
-7.0597880795
 10
4.2630767516
 20
-7.2280500137
 10
4.3284092415
 20
-7.3964371701
 10
4.3991071618
 20
-7.5636984236
 10
4.4752103701
 20
-7.7298251627
 10
4.5566790088
 20
-7.8948259989
 10
4.6429081142
 20
-8.0574756412
 10
4.7339331345
 20
-8.2177566456
 10
4.8297186216
 20
-8.3756864562
 10
4.9295532677
 20
-8.5300921138
 10
5.033467297
 20
-8.680947487
 10
5.1414304853
 20
-8.8282787073
 10
5.2526408518
 20
-8.97099121
 10
5.3671225867
 20
-9.1090505852
 10
5.4848514998
 20
-9.242491243
 10
5.6049530409
 20
-9.3703218488
 10
5.7274448572
 20
-9.4925005931
 10
5.8523093015
 20
-9.6090692854
 10
5.9786188808
 20
-9.7191620203
 10
6.106384363
 20
-9.8227305761
 10
6.2355949804
 20
-9.9198231744
 10
6.3652909362
 20
-10.0097185743
 10
6.4891204607
 20
-10.0883286184
  0
LWPOLYLINE
  5
2B0
100
AcDbEntity
  8
SMUSSO
100
AcDbPolyline
 62
7
  6
CONTINUOUS
 90
33
 70
0
 10
3.944516559
 20
-5.7628111724
 10
3.947592498
 20
-5.9070169507
 10
3.9568128564
 20
-6.0544185598
 10
3.9721549947
 20
-6.204649725
 10
3.9935811159
 20
-6.3573375048
 10
4.0210382009
 20
-6.5121020422
 10
4.0544579837
 20
-6.6685574589
 10
4.0937574824
 20
-6.8263147102
 10
4.1388391482
 20
-6.9849817322
 10
4.1895907359
 20
-7.1441631937
 10
4.2458860468
 20
-7.3034631934
 10
4.3075851999
 20
-7.4624858341
 10
4.374534648
 20
-7.6208353344
 10
4.4465678216
 20
-7.7781177763
 10
4.5235057211
 20
-7.9339423681
 10
4.605157211
 20
-8.0879219874
 10
4.6913193291
 20
-8.2396738415
 10
4.7817778582
 20
-8.3888206027
 10
4.8763080264
 20
-8.534991618
 10
4.9746749122
 20
-8.6778235555
 10
5.0766339146
 20
-8.816961174
 10
5.1819314572
 20
-8.9520583845
 10
5.2903057518
 20
-9.0827792787
 10
5.4014873725
 20
-9.2087988434
 10
5.5151998108
 20
-9.3298036464
 10
5.6311603251
 20
-9.4454928041
 10
5.7490806389
 20
-9.5555787057
 10
5.8686675637
 20
-9.6597876306
 10
5.9896237825
 20
-9.757860485
 10
6.1116485642
 20
-9.8495534222
 10
6.2344384983
 20
-9.934638444
 10
6.3576883071
 20
-10.0129040084
 10
6.4196294721
 20
-10.0495563034
  0
LWPOLYLINE
  5
2B1
100
AcDbEntity
  8
ASSI
100
AcDbPolyline
 62
7
  6
CONTINUOUS
 90
33
 70
0
 10
3.944516559
 20
-5.7628111724
 10
3.947592498
 20
-5.9070169507
 10
3.9568128564
 20
-6.0544185598
 10
3.9721549947
 20
-6.204649725
 10
3.9935811159
 20
-6.3573375048
 10
4.0210382009
 20
-6.5121020422
 10
4.0544579837
 20
-6.6685574589
 10
4.0937574824
 20
-6.8263147102
 10
4.1388391482
 20
-6.9849817322
 10
4.1895907359
 20
-7.1441631937
 10
4.2458860468
 20
-7.3034631934
 10
4.3075851999
 20
-7.4624858341
 10
4.374534648
 20
-7.6208353344
 10
4.4465678216
 20
-7.7781177763
 10
4.5235057211
 20
-7.9339423681
 10
4.605157211
 20
-8.0879219874
 10
4.6913193291
 20
-8.2396738415
 10
4.7817778582
 20
-8.3888206027
 10
4.8763080264
 20
-8.534991618
 10
4.9746749122
 20
-8.6778235555
 10
5.0766339146
 20
-8.816961174
 10
5.1819314572
 20
-8.9520583845
 10
5.2903057518
 20
-9.0827792787
 10
5.4014873725
 20
-9.2087988434
 10
5.5151998108
 20
-9.3298036464
 10
5.6311603251
 20
-9.4454928041
 10
5.7490806389
 20
-9.5555787057
 10
5.8686675637
 20
-9.6597876306
 10
5.9896237825
 20
-9.757860485
 10
6.1116485642
 20
-9.8495534222
 10
6.2344384983
 20
-9.934638444
 10
6.3576883071
 20
-10.0129040084
 10
6.4196294721
 20
-10.0495563034
  0
LINE
  5
2B2
100
AcDbEntity
  8
SMUSSO
100
AcDbLine
 62
7
  6
CONTINUOUS
 10
1.8939068936
 20
-5.966948469
 11
1.8939068936
 21
-2.7010673619
  0
LINE
  5
2B3
100
AcDbEntity
  8
ASSI
100
AcDbLine
 62
7
  6
CONTINUOUS
 10
1.8939068936
 20
-5.966948469
 11
1.8939068936
 21
-2.7010673619
  0
LINE
  5
2B4
100
AcDbEntity
  8
SMUSSO
100
AcDbLine
 62
7
  6
CONTINUOUS
 10
3.5909631684
 20
-5.966948469
 11
3.5909631684
 21
-2.7010673619
  0
LINE
  5
2B5
100
AcDbEntity
  8
ASSI
100
AcDbLine
 62
7
  6
CONTINUOUS
 10
3.5909631684
 20
-5.966948469
 11
3.5909631684
 21
-2.7010673619
  0
LINE
  5
2B6
100
AcDbEntity
  8
SMUSSO
100
AcDbLine
 62
7
  6
CONTINUOUS
 10
3.944516559
 20
-2.4969300652
 11
3.944516559
 21
-5.7628111724
  0
LINE
  5
2B7
100
AcDbEntity
  8
ASSI
100
AcDbLine
 62
7
  6
CONTINUOUS
 10
3.944516559
 20
-2.4969300652
 11
3.944516559
 21
-5.7628111724
  0
LWPOLYLINE
  5
2B8
100
AcDbEntity
  8
SMUSSO
100
AcDbPolyline
 62
7
  6
CONTINUOUS
 90
36
 70
0
 10
1.8939068936
 20
-2.7010673619
 10
1.8974095974
 20
-2.5278410951
 10
1.9077269315
 20
-2.3596289858
 10
1.9248588958
 20
-2.1964310341
 10
1.9488690565
 20
-2.0379297609
 10
1.9796938473
 20
-1.8844426453
 10
2.0171425702
 20
-1.7369221236
 10
2.0612564837
 20
-1.5954054297
 10
2.1119943292
 20
-1.4598553298
 10
2.1690416324
 20
-1.3311125586
 10
2.2324376629
 20
-1.209219531
 10
2.3021431511
 20
-1.0941338322
 10
2.3777258136
 20
-0.9865689521
 10
2.4592220173
 20
-0.88657182
 10
2.5465953955
 20
-0.7940955067
 10
2.6393045647
 20
-0.7097127141
 10
2.7373825812
 20
-0.6334736512
 10
2.8407963887
 20
-0.5653281091
 10
2.9489054359
 20
-0.5056981629
 10
3.0617389562
 20
-0.4546365963
 10
3.1792677162
 20
-0.4120906257
 10
3.3007634633
 20
-0.3783239751
 10
3.4262508882
 20
-0.3533911718
 10
3.5557053004
 20
-0.3372376886
 10
3.6883243751
 20
-0.329963667
 10
3.8241277192
 20
-0.3316242676
 10
3.963095726
 20
-0.3421643299
 10
4.1043672504
 20
-0.3615185142
 10
4.2479565702
 20
-0.3897415406
 10
4.3938494078
 20
-0.4267786891
 10
4.5411417851
 20
-0.4724004595
 10
4.6898424067
 20
-0.5266601535
 10
4.8399425681
 20
-0.5895044694
 10
4.990512177
 20
-0.6605440014
 10
5.1415541701
 20
-0.7398296515
 10
5.2169875846
 20
-0.7823934868
  0
LWPOLYLINE
  5
2B9
100
AcDbEntity
  8
ASSI
100
AcDbPolyline
 62
7
  6
CONTINUOUS
 90
36
 70
0
 10
1.8939068936
 20
-2.7010673619
 10
1.8974095974
 20
-2.5278410951
 10
1.9077269315
 20
-2.3596289858
 10
1.9248588958
 20
-2.1964310341
 10
1.9488690565
 20
-2.0379297609
 10
1.9796938473
 20
-1.8844426453
 10
2.0171425702
 20
-1.7369221236
 10
2.0612564837
 20
-1.5954054297
 10
2.1119943292
 20
-1.4598553298
 10
2.1690416324
 20
-1.3311125586
 10
2.2324376629
 20
-1.209219531
 10
2.3021431511
 20
-1.0941338322
 10
2.3777258136
 20
-0.9865689521
 10
2.4592220173
 20
-0.88657182
 10
2.5465953955
 20
-0.7940955067
 10
2.6393045647
 20
-0.7097127141
 10
2.7373825812
 20
-0.6334736512
 10
2.8407963887
 20
-0.5653281091
 10
2.9489054359
 20
-0.5056981629
 10
3.0617389562
 20
-0.4546365963
 10
3.1792677162
 20
-0.4120906257
 10
3.3007634633
 20
-0.3783239751
 10
3.4262508882
 20
-0.3533911718
 10
3.5557053004
 20
-0.3372376886
 10
3.6883243751
 20
-0.329963667
 10
3.8241277192
 20
-0.3316242676
 10
3.963095726
 20
-0.3421643299
 10
4.1043672504
 20
-0.3615185142
 10
4.2479565702
 20
-0.3897415406
 10
4.3938494078
 20
-0.4267786891
 10
4.5411417851
 20
-0.4724004595
 10
4.6898424067
 20
-0.5266601535
 10
4.8399425681
 20
-0.5895044694
 10
4.990512177
 20
-0.6605440014
 10
5.1415541701
 20
-0.7398296515
 10
5.2169875846
 20
-0.7823934868
  0
LWPOLYLINE
  5
2BA
100
AcDbEntity
  8
SMUSSO
100
AcDbPolyline
 62
7
  6
CONTINUOUS
 90
17
 70
0
 10
3.5909631684
 20
-2.7010673619
 10
3.5940390288
 20
-2.5604153737
 10
3.6032592155
 20
-2.4236621747
 10
3.6186011849
 20
-2.2911479515
 10
3.6400272508
 20
-2.1632019865
 10
3.6674844802
 20
-2.0401430725
 10
3.7009046303
 20
-1.9222785588
 10
3.74020476
 20
-1.8099017676
 10
3.7852873843
 20
-1.7032921405
 10
3.8360402655
 20
-1.6027155413
 10
3.8923372416
 20
-1.508422196
 10
3.9540384595
 20
-1.4206465398
 10
4.0209903315
 20
-1.3396071813
 10
4.0930263368
 20
-1.2655056968
 10
4.1699674466
 20
-1.1985262642
 10
4.2516223119
 20
-1.1388354773
 10
4.3157523421
 20
-1.0989883479
  0
LWPOLYLINE
  5
2BB
100
AcDbEntity
  8
ASSI
100
AcDbPolyline
 62
7
  6
CONTINUOUS
 90
17
 70
0
 10
3.5909631684
 20
-2.7010673619
 10
3.5940390288
 20
-2.5604153737
 10
3.6032592155
 20
-2.4236621747
 10
3.6186011849
 20
-2.2911479515
 10
3.6400272508
 20
-2.1632019865
 10
3.6674844802
 20
-2.0401430725
 10
3.7009046303
 20
-1.9222785588
 10
3.74020476
 20
-1.8099017676
 10
3.7852873843
 20
-1.7032921405
 10
3.8360402655
 20
-1.6027155413
 10
3.8923372416
 20
-1.508422196
 10
3.9540384595
 20
-1.4206465398
 10
4.0209903315
 20
-1.3396071813
 10
4.0930263368
 20
-1.2655056968
 10
4.1699674466
 20
-1.1985262642
 10
4.2516223119
 20
-1.1388354773
 10
4.3157523421
 20
-1.0989883479
  0
LINE
  5
2BC
100
AcDbEntity
  8
SMUSSO
100
AcDbLine
 62
7
  6
CONTINUOUS
 10
3.9475925137
 20
-2.3562759507
 11
3.944516559
 21
-2.4969300652
  0
LINE
  5
2BD
100
AcDbEntity
  8
ASSI
100
AcDbLine
 62
7
  6
CONTINUOUS
 10
3.9475925137
 20
-2.3562759507
 11
3.944516559
 21
-2.4969300652
  0
LINE
  5
2BE
100
AcDbEntity
  8
SMUSSO
100
AcDbLine
 62
7
  6
CONTINUOUS
 10
3.9568129148
 20
-2.2195214937
 11
3.9475925137
 21
-2.3562759507
  0
LINE
  5
2BF
100
AcDbEntity
  8
ASSI
100
AcDbLine
 62
7
  6
CONTINUOUS
 10
3.9568129148
 20
-2.2195214937
 11
3.9475925137
 21
-2.3562759507
  0
LWPOLYLINE
  5
2C0
100
AcDbEntity
  8
SMUSSO
100
AcDbPolyline
 62
7
  6
CONTINUOUS
 90
11
 70
0
 10
4.3745352478
 20
-1.1354793438
 10
4.3075857967
 20
-1.2165171863
 10
4.245886634
 20
-1.3042910685
 10
4.1895912929
 20
-1.3985825465
 10
4.1388396561
 20
-1.4991572626
 10
4.0937579283
 20
-1.6057650478
 10
4.0544583534
 20
-1.7181402094
 10
4.0210384854
 20
-1.8360033437
 10
3.9935813152
 20
-1.9590612301
 10
3.9721551164
 20
-2.0870068232
 10
3.9568129148
 20
-2.2195214937
  0
LWPOLYLINE
  5
2C1
100
AcDbEntity
  8
ASSI
100
AcDbPolyline
 62
7
  6
CONTINUOUS
 90
11
 70
0
 10
4.3745352478
 20
-1.1354793438
 10
4.3075857967
 20
-1.2165171863
 10
4.245886634
 20
-1.3042910685
 10
4.1895912929
 20
-1.3985825465
 10
4.1388396561
 20
-1.4991572626
 10
4.0937579283
 20
-1.6057650478
 10
4.0544583534
 20
-1.7181402094
 10
4.0210384854
 20
-1.8360033437
 10
3.9935813152
 20
-1.9590612301
 10
3.9721551164
 20
-2.0870068232
 10
3.9568129148
 20
-2.2195214937
  0
LWPOLYLINE
  5
2C2
100
AcDbEntity
  8
SMUSSO
100
AcDbPolyline
 62
7
  6
CONTINUOUS
 90
3
 70
0
 10
4.5022088732
 20
-1.0129411259
 10
4.4465684228
 20
-1.0613791056
 10
4.3745352478
 20
-1.1354793438
  0
LWPOLYLINE
  5
2C3
100
AcDbEntity
  8
ASSI
100
AcDbPolyline
 62
7
  6
CONTINUOUS
 90
3
 70
0
 10
4.5022088732
 20
-1.0129411259
 10
4.4465684228
 20
-1.0613791056
 10
4.3745352478
 20
-1.1354793438
  0
LINE
  5
2C4
100
AcDbEntity
  8
SMUSSO
100
AcDbLine
 62
250
  6
CONTINUOUS
 10
3.944516559
 20
-2.4969300652
 11
3.5909631684
 21
-2.7010673619
  0
LINE
  5
2C5
100
AcDbEntity
  8
ASSI
100
AcDbLine
 62
250
  6
CONTINUOUS
 10
3.944516559
 20
-2.4969300652
 11
3.5909631684
 21
-2.7010673619
  0
LWPOLYLINE
  5
2C6
100
AcDbEntity
  8
SMUSSO
100
AcDbPolyline
 62
7
  6
CONTINUOUS
 90
15
 70
0
 10
4.3157523421
 20
-1.0989883479
 10
4.3377879365
 20
-1.0865817387
 10
4.4282500676
 20
-1.0418949877
 10
4.5227836474
 20
-1.0048863829
 10
4.6211536682
 20
-0.9756478975
 10
4.7231154923
 20
-0.954252217
 10
4.8284152856
 20
-0.9407525351
 10
4.9367911931
 20
-0.9351823161
 10
5.047973735
 20
-0.9375553074
 10
5.1616861438
 20
-0.9478654708
 10
5.2776456353
 20
-0.9660870055
 10
5.3955638915
 20
-0.9921744481
 10
5.5151474601
 20
-1.0260627003
 10
5.636098886
 20
-1.0676672594
 10
5.6718569645
 20
-1.0820905809
  0
LWPOLYLINE
  5
2C7
100
AcDbEntity
  8
ASSI
100
AcDbPolyline
 62
7
  6
CONTINUOUS
 90
15
 70
0
 10
4.3157523421
 20
-1.0989883479
 10
4.3377879365
 20
-1.0865817387
 10
4.4282500676
 20
-1.0418949877
 10
4.5227836474
 20
-1.0048863829
 10
4.6211536682
 20
-0.9756478975
 10
4.7231154923
 20
-0.954252217
 10
4.8284152856
 20
-0.9407525351
 10
4.9367911931
 20
-0.9351823161
 10
5.047973735
 20
-0.9375553074
 10
5.1616861438
 20
-0.9478654708
 10
5.2776456353
 20
-0.9660870055
 10
5.3955638915
 20
-0.9921744481
 10
5.5151474601
 20
-1.0260627003
 10
5.636098886
 20
-1.0676672594
 10
5.6718569645
 20
-1.0820905809
  0
LINE
  5
2C8
100
AcDbEntity
  8
SMUSSO
100
AcDbLine
 62
250
  6
CONTINUOUS
 10
-14.0159956831
 20
3.2192298808
 11
-12.3189394083
 21
3.2192298808
  0
LINE
  5
2C9
100
AcDbEntity
  8
ASSI
100
AcDbLine
 62
250
  6
CONTINUOUS
 10
-14.0159956831
 20
3.2192298808
 11
-12.3189394083
 21
3.2192298808
  0
LWPOLYLINE
  5
2CA
100
AcDbEntity
  8
SMUSSO
100
AcDbPolyline
 62
7
  6
CONTINUOUS
 90
36
 70
0
 10
-26.6028175688
 20
17.5899632129
 10
-26.5267395427
 20
17.5450461819
 10
-26.3756975567
 20
17.4499122107
 10
-26.2251279642
 20
17.3470776261
 10
-26.0750278264
 20
17.2365899365
 10
-25.9263272286
 20
17.119133779
 10
-25.7790348731
 20
16.9946659021
 10
-25.6331420578
 20
16.8632295572
 10
-25.4895527619
 20
16.7256391355
 10
-25.3482812599
 20
16.5818563994
 10
-25.2093132773
 20
16.4319195865
 10
-25.0735099703
 20
16.2767578003
 10
-24.9408909493
 20
16.116338524
 10
-24.8114366039
 20
15.9506942744
 10
-24.6859492586
 20
15.7808517049
 10
-24.5644536124
 20
15.6067848153
 10
-24.4469249664
 20
15.4285196058
 10
-24.3340915483
 20
15.2471607305
 10
-24.2259825849
 20
15.0626891592
 10
-24.1225688495
 20
14.875123922
 10
-24.0244908897
 20
14.6856267631
 10
-23.9317817491
 20
14.4941856142
 10
-23.8444083842
 20
14.3008125436
 10
-23.7629122123
 20
14.1067055001
 10
-23.6873296107
 20
13.9118595573
 10
-23.6176242021
 20
13.7162796416
 10
-23.5542282722
 20
13.5211784818
 10
-23.497181099
 20
13.3265590281
 10
-23.4464434045
 20
13.1324183302
 10
-23.4023296393
 20
12.9399602666
 10
-23.3648810632
 20
12.7491952706
 10
-23.3340564165
 20
12.5601129088
 10
-23.3100463713
 20
12.3738857591
 10
-23.2929144849
 20
12.1909046809
 10
-23.2825972001
 20
12.0107788147
 10
-23.2790945167
 20
11.8335081606
  0
LWPOLYLINE
  5
2CB
100
AcDbEntity
  8
ASSI
100
AcDbPolyline
 62
7
  6
CONTINUOUS
 90
36
 70
0
 10
-26.6028175688
 20
17.5899632129
 10
-26.5267395427
 20
17.5450461819
 10
-26.3756975567
 20
17.4499122107
 10
-26.2251279642
 20
17.3470776261
 10
-26.0750278264
 20
17.2365899365
 10
-25.9263272286
 20
17.119133779
 10
-25.7790348731
 20
16.9946659021
 10
-25.6331420578
 20
16.8632295572
 10
-25.4895527619
 20
16.7256391355
 10
-25.3482812599
 20
16.5818563994
 10
-25.2093132773
 20
16.4319195865
 10
-25.0735099703
 20
16.2767578003
 10
-24.9408909493
 20
16.116338524
 10
-24.8114366039
 20
15.9506942744
 10
-24.6859492586
 20
15.7808517049
 10
-24.5644536124
 20
15.6067848153
 10
-24.4469249664
 20
15.4285196058
 10
-24.3340915483
 20
15.2471607305
 10
-24.2259825849
 20
15.0626891592
 10
-24.1225688495
 20
14.875123922
 10
-24.0244908897
 20
14.6856267631
 10
-23.9317817491
 20
14.4941856142
 10
-23.8444083842
 20
14.3008125436
 10
-23.7629122123
 20
14.1067055001
 10
-23.6873296107
 20
13.9118595573
 10
-23.6176242021
 20
13.7162796416
 10
-23.5542282722
 20
13.5211784818
 10
-23.497181099
 20
13.3265590281
 10
-23.4464434045
 20
13.1324183302
 10
-23.4023296393
 20
12.9399602666
 10
-23.3648810632
 20
12.7491952706
 10
-23.3340564165
 20
12.5601129088
 10
-23.3100463713
 20
12.3738857591
 10
-23.2929144849
 20
12.1909046809
 10
-23.2825972001
 20
12.0107788147
 10
-23.2790945167
 20
11.8335081606
  0
LWPOLYLINE
  5
2CC
100
AcDbEntity
  8
SMUSSO
100
AcDbPolyline
 62
7
  6
CONTINUOUS
 90
36
 70
0
 10
-10.6929149921
 20
8.403784863
 10
-10.616836966
 20
8.358867832
 10
-10.46579498
 20
8.2637338608
 10
-10.3152253875
 20
8.1608992762
 10
-10.1651252497
 20
8.0504115866
 10
-10.0164246519
 20
7.9329554291
 10
-9.8691322964
 20
7.8084875522
 10
-9.7232394811
 20
7.6770512073
 10
-9.5796501852
 20
7.5394607856
 10
-9.4383786832
 20
7.3956780495
 10
-9.2994107006
 20
7.2457412367
 10
-9.1636073936
 20
7.0905794504
 10
-9.0309883726
 20
6.9301601742
 10
-8.9015340272
 20
6.7645159245
 10
-8.7760466819
 20
6.594673355
 10
-8.6545510357
 20
6.4206064654
 10
-8.5370223897
 20
6.2423412559
 10
-8.4241889716
 20
6.0609823806
 10
-8.3160800082
 20
5.8765108093
 10
-8.2126662728
 20
5.6889455721
 10
-8.114588313
 20
5.4994484132
 10
-8.0218791724
 20
5.3080072643
 10
-7.9345058075
 20
5.1146341937
 10
-7.8530096356
 20
4.9205271502
 10
-7.777427034
 20
4.7256812074
 10
-7.7077216254
 20
4.5301012917
 10
-7.6443256955
 20
4.335000132
 10
-7.5872785223
 20
4.1403806782
 10
-7.5365408278
 20
3.9462399804
 10
-7.4924270626
 20
3.7537819167
 10
-7.4549784865
 20
3.5630169207
 10
-7.4241538398
 20
3.3739345589
 10
-7.4001437946
 20
3.1877074093
 10
-7.3830119082
 20
3.004726331
 10
-7.3726946234
 20
2.8246004648
 10
-7.36919194
 20
2.6473298107
  0
LWPOLYLINE
  5
2CD
100
AcDbEntity
  8
ASSI
100
AcDbPolyline
 62
7
  6
CONTINUOUS
 90
36
 70
0
 10
-10.6929149921
 20
8.403784863
 10
-10.616836966
 20
8.358867832
 10
-10.46579498
 20
8.2637338608
 10
-10.3152253875
 20
8.1608992762
 10
-10.1651252497
 20
8.0504115866
 10
-10.0164246519
 20
7.9329554291
 10
-9.8691322964
 20
7.8084875522
 10
-9.7232394811
 20
7.6770512073
 10
-9.5796501852
 20
7.5394607856
 10
-9.4383786832
 20
7.3956780495
 10
-9.2994107006
 20
7.2457412367
 10
-9.1636073936
 20
7.0905794504
 10
-9.0309883726
 20
6.9301601742
 10
-8.9015340272
 20
6.7645159245
 10
-8.7760466819
 20
6.594673355
 10
-8.6545510357
 20
6.4206064654
 10
-8.5370223897
 20
6.2423412559
 10
-8.4241889716
 20
6.0609823806
 10
-8.3160800082
 20
5.8765108093
 10
-8.2126662728
 20
5.6889455721
 10
-8.114588313
 20
5.4994484132
 10
-8.0218791724
 20
5.3080072643
 10
-7.9345058075
 20
5.1146341937
 10
-7.8530096356
 20
4.9205271502
 10
-7.777427034
 20
4.7256812074
 10
-7.7077216254
 20
4.5301012917
 10
-7.6443256955
 20
4.335000132
 10
-7.5872785223
 20
4.1403806782
 10
-7.5365408278
 20
3.9462399804
 10
-7.4924270626
 20
3.7537819167
 10
-7.4549784865
 20
3.5630169207
 10
-7.4241538398
 20
3.3739345589
 10
-7.4001437946
 20
3.1877074093
 10
-7.3830119082
 20
3.004726331
 10
-7.3726946234
 20
2.8246004648
 10
-7.36919194
 20
2.6473298107
  0
LWPOLYLINE
  5
2CE
100
AcDbEntity
  8
SMUSSO
100
AcDbPolyline
 62
7
  6
CONTINUOUS
 90
36
 70
0
 10
5.2169875846
 20
-0.7823934868
 10
5.2930656107
 20
-0.8273105178
 10
5.4441075967
 20
-0.922444489
 10
5.5946771892
 20
-1.0252790737
 10
5.744777327
 20
-1.1357667632
 10
5.8934779247
 20
-1.2532229208
 10
6.0407702803
 20
-1.3776907977
 10
6.1866630956
 20
-1.5091271426
 10
6.3302523915
 20
-1.6467175643
 10
6.4715238935
 20
-1.7905003003
 10
6.6104918761
 20
-1.9404371132
 10
6.7462951831
 20
-2.0955988995
 10
6.8789142041
 20
-2.2560181757
 10
7.0083685495
 20
-2.4216624254
 10
7.1338558948
 20
-2.5915049949
 10
7.255351541
 20
-2.7655718845
 10
7.372880187
 20
-2.9438370939
 10
7.4857136051
 20
-3.1251959693
 10
7.5938225685
 20
-3.3096675406
 10
7.6972363039
 20
-3.4972327777
 10
7.7953142637
 20
-3.6867299367
 10
7.8880234043
 20
-3.8781710856
 10
7.9753967692
 20
-4.0715441562
 10
8.0568929411
 20
-4.2656511996
 10
8.1324755427
 20
-4.4604971425
 10
8.2021809512
 20
-4.6560770581
 10
8.2655768812
 20
-4.8511782179
 10
8.3226240544
 20
-5.0457976717
 10
8.3733617489
 20
-5.2399383695
 10
8.4174755141
 20
-5.4323964332
 10
8.4549240902
 20
-5.6231614292
 10
8.4857487369
 20
-5.8122437909
 10
8.5097587821
 20
-5.9984709406
 10
8.5268906685
 20
-6.1814520189
 10
8.5372079533
 20
-6.3615778851
 10
8.5407106367
 20
-6.5388485391
  0
LWPOLYLINE
  5
2CF
100
AcDbEntity
  8
ASSI
100
AcDbPolyline
 62
7
  6
CONTINUOUS
 90
36
 70
0
 10
5.2169875846
 20
-0.7823934868
 10
5.2930656107
 20
-0.8273105178
 10
5.4441075967
 20
-0.922444489
 10
5.5946771892
 20
-1.0252790737
 10
5.744777327
 20
-1.1357667632
 10
5.8934779247
 20
-1.2532229208
 10
6.0407702803
 20
-1.3776907977
 10
6.1866630956
 20
-1.5091271426
 10
6.3302523915
 20
-1.6467175643
 10
6.4715238935
 20
-1.7905003003
 10
6.6104918761
 20
-1.9404371132
 10
6.7462951831
 20
-2.0955988995
 10
6.8789142041
 20
-2.2560181757
 10
7.0083685495
 20
-2.4216624254
 10
7.1338558948
 20
-2.5915049949
 10
7.255351541
 20
-2.7655718845
 10
7.372880187
 20
-2.9438370939
 10
7.4857136051
 20
-3.1251959693
 10
7.5938225685
 20
-3.3096675406
 10
7.6972363039
 20
-3.4972327777
 10
7.7953142637
 20
-3.6867299367
 10
7.8880234043
 20
-3.8781710856
 10
7.9753967692
 20
-4.0715441562
 10
8.0568929411
 20
-4.2656511996
 10
8.1324755427
 20
-4.4604971425
 10
8.2021809512
 20
-4.6560770581
 10
8.2655768812
 20
-4.8511782179
 10
8.3226240544
 20
-5.0457976717
 10
8.3733617489
 20
-5.2399383695
 10
8.4174755141
 20
-5.4323964332
 10
8.4549240902
 20
-5.6231614292
 10
8.4857487369
 20
-5.8122437909
 10
8.5097587821
 20
-5.9984709406
 10
8.5268906685
 20
-6.1814520189
 10
8.5372079533
 20
-6.3615778851
 10
8.5407106367
 20
-6.5388485391
  0
LWPOLYLINE
  5
2D0
100
AcDbEntity
  8
SMUSSO
100
AcDbPolyline
 62
7
  6
CONTINUOUS
 90
36
 70
0
 10
21.1268901613
 20
-9.9685718367
 10
21.2029681874
 20
-10.0134888677
 10
21.3540101734
 20
-10.1086228389
 10
21.5045797659
 20
-10.2114574236
 10
21.6546799037
 20
-10.3219451131
 10
21.8033805014
 20
-10.4394012706
 10
21.950672857
 20
-10.5638691475
 10
22.0965656723
 20
-10.6953054924
 10
22.2401549682
 20
-10.8328959142
 10
22.3814264702
 20
-10.9766786502
 10
22.5203944527
 20
-11.1266154631
 10
22.6561977598
 20
-11.2817772493
 10
22.7888167808
 20
-11.4421965256
 10
22.9182711262
 20
-11.6078407752
 10
23.0437584715
 20
-11.7776833448
 10
23.1652541177
 20
-11.9517502343
 10
23.2827827637
 20
-12.1300154438
 10
23.3956161818
 20
-12.3113743192
 10
23.5037251452
 20
-12.4958458904
 10
23.6071388806
 20
-12.6834111276
 10
23.7052168404
 20
-12.8729082865
 10
23.797925981
 20
-13.0643494354
 10
23.8852993459
 20
-13.2577225061
 10
23.9667955177
 20
-13.4518295495
 10
24.0423781194
 20
-13.6466754923
 10
24.1120835279
 20
-13.842255408
 10
24.1754794579
 20
-14.0373565678
 10
24.2325266311
 20
-14.2319760215
 10
24.2832643256
 20
-14.4261167194
 10
24.3273780908
 20
-14.6185747831
 10
24.3648266669
 20
-14.809339779
 10
24.3956513136
 20
-14.9984221408
 10
24.4196613588
 20
-15.1846492905
 10
24.4367932452
 20
-15.3676303688
 10
24.44711053
 20
-15.5477562349
 10
24.4506132134
 20
-15.725026889
  0
LWPOLYLINE
  5
2D1
100
AcDbEntity
  8
ASSI
100
AcDbPolyline
 62
7
  6
CONTINUOUS
 90
36
 70
0
 10
21.1268901613
 20
-9.9685718367
 10
21.2029681874
 20
-10.0134888677
 10
21.3540101734
 20
-10.1086228389
 10
21.5045797659
 20
-10.2114574236
 10
21.6546799037
 20
-10.3219451131
 10
21.8033805014
 20
-10.4394012706
 10
21.950672857
 20
-10.5638691475
 10
22.0965656723
 20
-10.6953054924
 10
22.2401549682
 20
-10.8328959142
 10
22.3814264702
 20
-10.9766786502
 10
22.5203944527
 20
-11.1266154631
 10
22.6561977598
 20
-11.2817772493
 10
22.7888167808
 20
-11.4421965256
 10
22.9182711262
 20
-11.6078407752
 10
23.0437584715
 20
-11.7776833448
 10
23.1652541177
 20
-11.9517502343
 10
23.2827827637
 20
-12.1300154438
 10
23.3956161818
 20
-12.3113743192
 10
23.5037251452
 20
-12.4958458904
 10
23.6071388806
 20
-12.6834111276
 10
23.7052168404
 20
-12.8729082865
 10
23.797925981
 20
-13.0643494354
 10
23.8852993459
 20
-13.2577225061
 10
23.9667955177
 20
-13.4518295495
 10
24.0423781194
 20
-13.6466754923
 10
24.1120835279
 20
-13.842255408
 10
24.1754794579
 20
-14.0373565678
 10
24.2325266311
 20
-14.2319760215
 10
24.2832643256
 20
-14.4261167194
 10
24.3273780908
 20
-14.6185747831
 10
24.3648266669
 20
-14.809339779
 10
24.3956513136
 20
-14.9984221408
 10
24.4196613588
 20
-15.1846492905
 10
24.4367932452
 20
-15.3676303688
 10
24.44711053
 20
-15.5477562349
 10
24.4506132134
 20
-15.725026889
  0
LINE
  5
2D2
100
AcDbEntity
  8
SMUSSO
100
AcDbLine
 62
7
  6
CONTINUOUS
 10
8.5407106367
 20
-6.5388485391
 11
8.5407106367
 21
-9.8047296463
  0
LINE
  5
2D3
100
AcDbEntity
  8
ASSI
100
AcDbLine
 62
7
  6
CONTINUOUS
 10
8.5407106367
 20
-6.5388485391
 11
8.5407106367
 21
-9.8047296463
  0
LWPOLYLINE
  5
2D4
100
AcDbEntity
  8
SMUSSO
100
AcDbPolyline
 62
7
  6
CONTINUOUS
 90
70
 70
0
 10
8.5407106367
 20
-9.8047296463
 10
8.5372079329
 20
-9.9779559131
 10
8.5268905988
 20
-10.1461680223
 10
8.5097586344
 20
-10.3093659741
 10
8.4857484738
 20
-10.4678672473
 10
8.454923683
 20
-10.6213543629
 10
8.4174749601
 20
-10.7688748846
 10
8.3733610466
 20
-10.9103915785
 10
8.3226232011
 20
-11.0459416784
 10
8.2655758979
 20
-11.1746844496
 10
8.2021798674
 20
-11.2965774771
 10
8.1324743792
 20
-11.411663176
 10
8.0568917167
 20
-11.5192280561
 10
7.975395513
 20
-11.6192251882
 10
7.8880221348
 20
-11.7117015015
 10
7.7953129656
 20
-11.7960842941
 10
7.6972349491
 20
-11.872323357
 10
7.5938211416
 20
-11.9404688991
 10
7.4857120944
 20
-12.0000988453
 10
7.3728785741
 20
-12.0511604119
 10
7.2553498141
 20
-12.0937063825
 10
7.133854067
 20
-12.1274730331
 10
7.008366642
 20
-12.1524058363
 10
6.8789122299
 20
-12.1685593196
 10
6.7462931552
 20
-12.1758333411
 10
6.6104898111
 20
-12.1741727406
 10
6.4715218043
 20
-12.1636326783
 10
6.3302502799
 20
-12.144278494
 10
6.18666096
 20
-12.1160554675
 10
6.0407681225
 20
-12.079018319
 10
5.8934757452
 20
-12.0333965487
 10
5.7447751236
 20
-11.9791368547
 10
5.5946749622
 20
-11.9162925388
 10
5.4441053533
 20
-11.8452530068
 10
5.2930633602
 20
-11.7659673566
 10
5.1415519196
 20
-11.6784864903
 10
4.9905099336
 20
-11.5833525191
 10
4.8399403411
 20
-11.4805179345
 10
4.6898402033
 20
-11.3700302449
 10
4.5411396055
 20
-11.2525740874
 10
4.39384725
 20
-11.1281062105
 10
4.2479544347
 20
-10.9966698656
 10
4.1043651388
 20
-10.8590794439
 10
3.9630936368
 20
-10.7152967079
 10
3.8241256542
 20
-10.565359895
 10
3.6883223472
 20
-10.4101981087
 10
3.5557033262
 20
-10.2497788325
 10
3.4262489808
 20
-10.0841345828
 10
3.3007616355
 20
-9.9142920133
 10
3.1792659893
 20
-9.7402251237
 10
3.0617373433
 20
-9.5619599142
 10
2.9489039252
 20
-9.3806010389
 10
2.8407949618
 20
-9.1961294676
 10
2.7373812264
 20
-9.0085642304
 10
2.6393032666
 20
-8.8190670715
 10
2.546594126
 20
-8.6276259226
 10
2.4592207611
 20
-8.434252852
 10
2.3777245892
 20
-8.2401458086
 10
2.3021419876
 20
-8.0452998657
 10
2.232436579
 20
-7.84971995
 10
2.1690406491
 20
-7.6546187903
 10
2.1119934759
 20
-7.4599993365
 10
2.0612557814
 20
-7.2658586387
 10
2.0171420162
 20
-7.073400575
 10
1.9796934401
 20
-6.882635579
 10
1.9488687934
 20
-6.6935532172
 10
1.9248587482
 20
-6.5073260676
 10
1.9077268618
 20
-6.3243449893
 10
1.897409577
 20
-6.1442191231
 10
1.8939068936
 20
-5.966948469
  0
LWPOLYLINE
  5
2D5
100
AcDbEntity
  8
ASSI
100
AcDbPolyline
 62
7
  6
CONTINUOUS
 90
70
 70
0
 10
8.5407106367
 20
-9.8047296463
 10
8.5372079329
 20
-9.9779559131
 10
8.5268905988
 20
-10.1461680223
 10
8.5097586344
 20
-10.3093659741
 10
8.4857484738
 20
-10.4678672473
 10
8.454923683
 20
-10.6213543629
 10
8.4174749601
 20
-10.7688748846
 10
8.3733610466
 20
-10.9103915785
 10
8.3226232011
 20
-11.0459416784
 10
8.2655758979
 20
-11.1746844496
 10
8.2021798674
 20
-11.2965774771
 10
8.1324743792
 20
-11.411663176
 10
8.0568917167
 20
-11.5192280561
 10
7.975395513
 20
-11.6192251882
 10
7.8880221348
 20
-11.7117015015
 10
7.7953129656
 20
-11.7960842941
 10
7.6972349491
 20
-11.872323357
 10
7.5938211416
 20
-11.9404688991
 10
7.4857120944
 20
-12.0000988453
 10
7.3728785741
 20
-12.0511604119
 10
7.2553498141
 20
-12.0937063825
 10
7.133854067
 20
-12.1274730331
 10
7.008366642
 20
-12.1524058363
 10
6.8789122299
 20
-12.1685593196
 10
6.7462931552
 20
-12.1758333411
 10
6.6104898111
 20
-12.1741727406
 10
6.4715218043
 20
-12.1636326783
 10
6.3302502799
 20
-12.144278494
 10
6.18666096
 20
-12.1160554675
 10
6.0407681225
 20
-12.079018319
 10
5.8934757452
 20
-12.0333965487
 10
5.7447751236
 20
-11.9791368547
 10
5.5946749622
 20
-11.9162925388
 10
5.4441053533
 20
-11.8452530068
 10
5.2930633602
 20
-11.7659673566
 10
5.1415519196
 20
-11.6784864903
 10
4.9905099336
 20
-11.5833525191
 10
4.8399403411
 20
-11.4805179345
 10
4.6898402033
 20
-11.3700302449
 10
4.5411396055
 20
-11.2525740874
 10
4.39384725
 20
-11.1281062105
 10
4.2479544347
 20
-10.9966698656
 10
4.1043651388
 20
-10.8590794439
 10
3.9630936368
 20
-10.7152967079
 10
3.8241256542
 20
-10.565359895
 10
3.6883223472
 20
-10.4101981087
 10
3.5557033262
 20
-10.2497788325
 10
3.4262489808
 20
-10.0841345828
 10
3.3007616355
 20
-9.9142920133
 10
3.1792659893
 20
-9.7402251237
 10
3.0617373433
 20
-9.5619599142
 10
2.9489039252
 20
-9.3806010389
 10
2.8407949618
 20
-9.1961294676
 10
2.7373812264
 20
-9.0085642304
 10
2.6393032666
 20
-8.8190670715
 10
2.546594126
 20
-8.6276259226
 10
2.4592207611
 20
-8.434252852
 10
2.3777245892
 20
-8.2401458086
 10
2.3021419876
 20
-8.0452998657
 10
2.232436579
 20
-7.84971995
 10
2.1690406491
 20
-7.6546187903
 10
2.1119934759
 20
-7.4599993365
 10
2.0612557814
 20
-7.2658586387
 10
2.0171420162
 20
-7.073400575
 10
1.9796934401
 20
-6.882635579
 10
1.9488687934
 20
-6.6935532172
 10
1.9248587482
 20
-6.5073260676
 10
1.9077268618
 20
-6.3243449893
 10
1.897409577
 20
-6.1442191231
 10
1.8939068936
 20
-5.966948469
  0
LWPOLYLINE
  5
2D6
100
AcDbEntity
  8
SMUSSO
100
AcDbPolyline
 62
7
  6
CONTINUOUS
 90
17
 70
0
 10
8.5407106367
 20
-8.8248706223
 10
8.5376347763
 20
-8.9655226105
 10
8.5284145897
 20
-9.1022758095
 10
8.5130726203
 20
-9.2347900327
 10
8.4916465543
 20
-9.3627359977
 10
8.4641893249
 20
-9.4857949117
 10
8.4307691748
 20
-9.6036594254
 10
8.3914690452
 20
-9.7160362165
 10
8.3463864208
 20
-9.8226458437
 10
8.2956335397
 20
-9.9232224429
 10
8.2393365635
 20
-10.0175157882
 10
8.1776353457
 20
-10.1052914444
 10
8.1106834736
 20
-10.1863308029
 10
8.0386474684
 20
-10.2604322874
 10
7.9617063585
 20
-10.32741172
 10
7.8800514932
 20
-10.3871025069
 10
7.8159214631
 20
-10.4269496363
  0
LWPOLYLINE
  5
2D7
100
AcDbEntity
  8
ASSI
100
AcDbPolyline
 62
7
  6
CONTINUOUS
 90
17
 70
0
 10
8.5407106367
 20
-8.8248706223
 10
8.5376347763
 20
-8.9655226105
 10
8.5284145897
 20
-9.1022758095
 10
8.5130726203
 20
-9.2347900327
 10
8.4916465543
 20
-9.3627359977
 10
8.4641893249
 20
-9.4857949117
 10
8.4307691748
 20
-9.6036594254
 10
8.3914690452
 20
-9.7160362165
 10
8.3463864208
 20
-9.8226458437
 10
8.2956335397
 20
-9.9232224429
 10
8.2393365635
 20
-10.0175157882
 10
8.1776353457
 20
-10.1052914444
 10
8.1106834736
 20
-10.1863308029
 10
8.0386474684
 20
-10.2604322874
 10
7.9617063585
 20
-10.32741172
 10
7.8800514932
 20
-10.3871025069
 10
7.8159214631
 20
-10.4269496363
  0
LINE
  5
2D8
100
AcDbEntity
  8
SMUSSO
100
AcDbLine
 62
250
  6
CONTINUOUS
 10
3.944516559
 20
-5.7628111724
 11
3.5909631684
 21
-5.966948469
  0
LINE
  5
2D9
100
AcDbEntity
  8
ASSI
100
AcDbLine
 62
250
  6
CONTINUOUS
 10
3.944516559
 20
-5.7628111724
 11
3.5909631684
 21
-5.966948469
  0
LINE
  5
2DA
100
AcDbEntity
  8
SMUSSO
100
AcDbLine
 62
250
  6
CONTINUOUS
 10
-14.0159956831
 20
6.485110988
 11
-12.3189394083
 21
6.485110988
  0
LINE
  5
2DB
100
AcDbEntity
  8
ASSI
100
AcDbLine
 62
250
  6
CONTINUOUS
 10
-14.0159956831
 20
6.485110988
 11
-12.3189394083
 21
6.485110988
  0
LINE
  5
2DC
100
AcDbEntity
  8
ASSI
100
AcDbLine
 62
7
  6
CONTINUOUS
 10
48.21253915
 20
-66.8442264913
 11
48.2129015803
 21
-66.844867929
  0
LINE
  5
2DD
100
AcDbEntity
  8
SMUSSO
100
AcDbLine
 62
7
  6
CONTINUOUS
 10
17.8038094703
 20
-15.1531268189
 11
17.8038094703
 21
-11.8872457117
  0
LINE
  5
2DE
100
AcDbEntity
  8
ASSI
100
AcDbLine
 62
7
  6
CONTINUOUS
 10
17.8038094703
 20
-15.1531268189
 11
17.8038094703
 21
-11.8872457117
  0
LWPOLYLINE
  5
2DF
100
AcDbEntity
  8
SMUSSO
100
AcDbPolyline
 62
7
  6
CONTINUOUS
 90
49
 70
0
 10
7.8159214631
 20
-10.4269496363
 10
7.7938858687
 20
-10.4393562455
 10
7.7034237375
 20
-10.4840429965
 10
7.6088901577
 20
-10.5210516013
 10
7.5105201369
 20
-10.5502900867
 10
7.4085583129
 20
-10.5716857672
 10
7.3032585195
 20
-10.5851854491
 10
7.194882612
 20
-10.5907556681
 10
7.0837000701
 20
-10.5883826768
 10
6.9699876614
 20
-10.5780725134
 10
6.8540281698
 20
-10.5598509786
 10
6.7361099136
 20
-10.5337635361
 10
6.616526345
 20
-10.4998752839
 10
6.4955749191
 20
-10.4582707248
 10
6.3735562446
 20
-10.409053467
 10
6.2507735865
 20
-10.3523460201
 10
6.1275328253
 20
-10.2882898856
 10
6.0041397045
 20
-10.2170442074
 10
5.8808989708
 20
-10.1387849447
 10
5.7581163781
 20
-10.0537060303
 10
5.6360977952
 20
-9.9620191831
 10
5.5151464552
 20
-9.8639520743
 10
5.3955629558
 20
-9.7597482197
 10
5.2776447627
 20
-9.6496666176
 10
5.16168533
 20
-9.5339810418
 10
5.0479729752
 20
-9.41297897
 10
4.9367904829
 20
-9.2869611529
 10
4.8284146227
 20
-9.1562411583
 10
4.723114876
 20
-9.0211439236
 10
4.6211530962
 20
-8.8820052948
 10
4.5227831151
 20
-8.7391715827
 10
4.4282495724
 20
-8.5929979766
 10
4.3377874744
 20
-8.4438478274
 10
4.2516218732
 20
-8.2920921732
 10
4.1699670194
 20
-8.1381083594
 10
4.0930259149
 20
-7.9822792095
 10
4.0209899142
 20
-7.8249922908
 10
3.9540380445
 20
-7.6666385127
 10
3.8923368309
 20
-7.5076117524
 10
3.8360398718
 20
-7.348308007
 10
3.7852870187
 20
-7.1891232115
 10
3.7402044314
 20
-7.0304532801
 10
3.700904352
 20
-6.872693714
 10
3.6674842616
 20
-6.7162365333
 10
3.6400270939
 20
-6.5614708299
 10
3.618601087
 20
-6.4087827614
 10
3.6032591678
 20
-6.2585522453
 10
3.5940390159
 20
-6.1111520763
 10
3.5909631684
 20
-5.966948469
  0
LWPOLYLINE
  5
2E0
100
AcDbEntity
  8
ASSI
100
AcDbPolyline
 62
7
  6
CONTINUOUS
 90
49
 70
0
 10
7.8159214631
 20
-10.4269496363
 10
7.7938858687
 20
-10.4393562455
 10
7.7034237375
 20
-10.4840429965
 10
7.6088901577
 20
-10.5210516013
 10
7.5105201369
 20
-10.5502900867
 10
7.4085583129
 20
-10.5716857672
 10
7.3032585195
 20
-10.5851854491
 10
7.194882612
 20
-10.5907556681
 10
7.0837000701
 20
-10.5883826768
 10
6.9699876614
 20
-10.5780725134
 10
6.8540281698
 20
-10.5598509786
 10
6.7361099136
 20
-10.5337635361
 10
6.616526345
 20
-10.4998752839
 10
6.4955749191
 20
-10.4582707248
 10
6.3735562446
 20
-10.409053467
 10
6.2507735865
 20
-10.3523460201
 10
6.1275328253
 20
-10.2882898856
 10
6.0041397045
 20
-10.2170442074
 10
5.8808989708
 20
-10.1387849447
 10
5.7581163781
 20
-10.0537060303
 10
5.6360977952
 20
-9.9620191831
 10
5.5151464552
 20
-9.8639520743
 10
5.3955629558
 20
-9.7597482197
 10
5.2776447627
 20
-9.6496666176
 10
5.16168533
 20
-9.5339810418
 10
5.0479729752
 20
-9.41297897
 10
4.9367904829
 20
-9.2869611529
 10
4.8284146227
 20
-9.1562411583
 10
4.723114876
 20
-9.0211439236
 10
4.6211530962
 20
-8.8820052948
 10
4.5227831151
 20
-8.7391715827
 10
4.4282495724
 20
-8.5929979766
 10
4.3377874744
 20
-8.4438478274
 10
4.2516218732
 20
-8.2920921732
 10
4.1699670194
 20
-8.1381083594
 10
4.0930259149
 20
-7.9822792095
 10
4.0209899142
 20
-7.8249922908
 10
3.9540380445
 20
-7.6666385127
 10
3.8923368309
 20
-7.5076117524
 10
3.8360398718
 20
-7.348308007
 10
3.7852870187
 20
-7.1891232115
 10
3.7402044314
 20
-7.0304532801
 10
3.700904352
 20
-6.872693714
 10
3.6674842616
 20
-6.7162365333
 10
3.6400270939
 20
-6.5614708299
 10
3.618601087
 20
-6.4087827614
 10
3.6032591678
 20
-6.2585522453
 10
3.5940390159
 20
-6.1111520763
 10
3.5909631684
 20
-5.966948469
  0
LWPOLYLINE
  5
2E1
100
AcDbEntity
  8
SMUSSO
100
AcDbPolyline
 62
7
  6
CONTINUOUS
 90
3
 70
0
 10
7.8641050012
 20
-10.3461448346
 10
7.9624719073
 20
-10.3169045652
 10
7.9830155895
 20
-10.3088614261
  0
LWPOLYLINE
  5
2E2
100
AcDbEntity
  8
ASSI
100
AcDbPolyline
 62
7
  6
CONTINUOUS
 90
3
 70
0
 10
7.8641050012
 20
-10.3461448346
 10
7.9624719073
 20
-10.3169045652
 10
7.9830155895
 20
-10.3088614261
  0
LINE
  5
2E3
100
AcDbEntity
  8
SMUSSO
100
AcDbLine
 62
250
  6
CONTINUOUS
 10
-29.9258982598
 20
12.4054082307
 11
-28.228841985
 21
12.4054082307
  0
LINE
  5
2E4
100
AcDbEntity
  8
ASSI
100
AcDbLine
 62
250
  6
CONTINUOUS
 10
-29.9258982598
 20
12.4054082307
 11
-28.228841985
 21
12.4054082307
  0
LINE
  5
2E5
100
AcDbEntity
  8
SMUSSO
100
AcDbLine
 62
250
  6
CONTINUOUS
 10
-29.9258982598
 20
15.6712893379
 11
-28.228841985
 21
15.6712893379
  0
LINE
  5
2E6
100
AcDbEntity
  8
ASSI
100
AcDbLine
 62
250
  6
CONTINUOUS
 10
-29.9258982598
 20
15.6712893379
 11
-28.228841985
 21
15.6712893379
  0
LWPOLYLINE
  5
2E7
100
AcDbEntity
  8
SMUSSO
100
AcDbPolyline
 62
7
  6
CONTINUOUS
 90
31
 70
0
 10
19.8577374518
 20
-14.9387827229
 10
19.8674766971
 20
-15.0944781056
 10
19.8836368715
 20
-15.2527658332
 10
19.9062898185
 20
-15.4140520171
 10
19.9353636946
 20
-15.5779305459
 10
19.9706429698
 20
-15.7431830849
 10
20.0121739933
 20
-15.9098197855
 10
20.0599104159
 20
-16.0778304963
 10
20.1134976595
 20
-16.2459664294
 10
20.1729793283
 20
-16.4142283636
 10
20.2383118182
 20
-16.58261552
 10
20.3090097385
 20
-16.7498767735
 10
20.3851129468
 20
-16.9160035126
 10
20.4665815854
 20
-17.0810043488
 10
20.5528106909
 20
-17.243653991
 10
20.6438357112
 20
-17.4039349955
 10
20.7396211983
 20
-17.5618648061
 10
20.8394558444
 20
-17.7162704637
 10
20.9433698737
 20
-17.8671258369
 10
21.051333062
 20
-18.0144570571
 10
21.1625434285
 20
-18.1571695599
 10
21.2770251634
 20
-18.2952289351
 10
21.3947540765
 20
-18.4286695928
 10
21.5148556176
 20
-18.5565001987
 10
21.6373474339
 20
-18.6786789429
 10
21.7622118782
 20
-18.7952476353
 10
21.8885214575
 20
-18.9053403702
 10
22.0162869397
 20
-19.008908926
 10
22.1454975571
 20
-19.1060015243
 10
22.2751935129
 20
-19.1958969241
 10
22.3990230374
 20
-19.2745069683
  0
LWPOLYLINE
  5
2E8
100
AcDbEntity
  8
ASSI
100
AcDbPolyline
 62
7
  6
CONTINUOUS
 90
31
 70
0
 10
19.8577374518
 20
-14.9387827229
 10
19.8674766971
 20
-15.0944781056
 10
19.8836368715
 20
-15.2527658332
 10
19.9062898185
 20
-15.4140520171
 10
19.9353636946
 20
-15.5779305459
 10
19.9706429698
 20
-15.7431830849
 10
20.0121739933
 20
-15.9098197855
 10
20.0599104159
 20
-16.0778304963
 10
20.1134976595
 20
-16.2459664294
 10
20.1729793283
 20
-16.4142283636
 10
20.2383118182
 20
-16.58261552
 10
20.3090097385
 20
-16.7498767735
 10
20.3851129468
 20
-16.9160035126
 10
20.4665815854
 20
-17.0810043488
 10
20.5528106909
 20
-17.243653991
 10
20.6438357112
 20
-17.4039349955
 10
20.7396211983
 20
-17.5618648061
 10
20.8394558444
 20
-17.7162704637
 10
20.9433698737
 20
-17.8671258369
 10
21.051333062
 20
-18.0144570571
 10
21.1625434285
 20
-18.1571695599
 10
21.2770251634
 20
-18.2952289351
 10
21.3947540765
 20
-18.4286695928
 10
21.5148556176
 20
-18.5565001987
 10
21.6373474339
 20
-18.6786789429
 10
21.7622118782
 20
-18.7952476353
 10
21.8885214575
 20
-18.9053403702
 10
22.0162869397
 20
-19.008908926
 10
22.1454975571
 20
-19.1060015243
 10
22.2751935129
 20
-19.1958969241
 10
22.3990230374
 20
-19.2745069683
  0
LWPOLYLINE
  5
2E9
100
AcDbEntity
  8
SMUSSO
100
AcDbPolyline
 62
7
  6
CONTINUOUS
 90
33
 70
0
 10
19.8544191357
 20
-14.9489895222
 10
19.8574950747
 20
-15.0931953006
 10
19.8667154331
 20
-15.2405969097
 10
19.8820575714
 20
-15.3908280749
 10
19.9034836926
 20
-15.5435158546
 10
19.9309407776
 20
-15.698280392
 10
19.9643605604
 20
-15.8547358088
 10
20.0036600591
 20
-16.0124930601
 10
20.0487417249
 20
-16.1711600821
 10
20.0994933126
 20
-16.3303415435
 10
20.1557886235
 20
-16.4896415432
 10
20.2174877766
 20
-16.6486641839
 10
20.2844372246
 20
-16.8070136843
 10
20.3564703983
 20
-16.9642961261
 10
20.4334082978
 20
-17.120120718
 10
20.5150597877
 20
-17.2741003373
 10
20.6012219058
 20
-17.4258521913
 10
20.6916804349
 20
-17.5749989526
 10
20.7862106031
 20
-17.7211699679
 10
20.8845774888
 20
-17.8640019054
 10
20.9865364913
 20
-18.0031395239
 10
21.0918340339
 20
-18.1382367344
 10
21.2002083285
 20
-18.2689576285
 10
21.3113899492
 20
-18.3949771933
 10
21.4251023875
 20
-18.5159819962
 10
21.5410629018
 20
-18.631671154
 10
21.6589832156
 20
-18.7417570555
 10
21.7785701404
 20
-18.8459659805
 10
21.8995263592
 20
-18.9440388348
 10
22.0215511408
 20
-19.035731772
 10
22.144341075
 20
-19.1208167939
 10
22.2675908838
 20
-19.1990823583
 10
22.3295320488
 20
-19.2357346533
  0
LWPOLYLINE
  5
2EA
100
AcDbEntity
  8
ASSI
100
AcDbPolyline
 62
7
  6
CONTINUOUS
 90
33
 70
0
 10
19.8544191357
 20
-14.9489895222
 10
19.8574950747
 20
-15.0931953006
 10
19.8667154331
 20
-15.2405969097
 10
19.8820575714
 20
-15.3908280749
 10
19.9034836926
 20
-15.5435158546
 10
19.9309407776
 20
-15.698280392
 10
19.9643605604
 20
-15.8547358088
 10
20.0036600591
 20
-16.0124930601
 10
20.0487417249
 20
-16.1711600821
 10
20.0994933126
 20
-16.3303415435
 10
20.1557886235
 20
-16.4896415432
 10
20.2174877766
 20
-16.6486641839
 10
20.2844372246
 20
-16.8070136843
 10
20.3564703983
 20
-16.9642961261
 10
20.4334082978
 20
-17.120120718
 10
20.5150597877
 20
-17.2741003373
 10
20.6012219058
 20
-17.4258521913
 10
20.6916804349
 20
-17.5749989526
 10
20.7862106031
 20
-17.7211699679
 10
20.8845774888
 20
-17.8640019054
 10
20.9865364913
 20
-18.0031395239
 10
21.0918340339
 20
-18.1382367344
 10
21.2002083285
 20
-18.2689576285
 10
21.3113899492
 20
-18.3949771933
 10
21.4251023875
 20
-18.5159819962
 10
21.5410629018
 20
-18.631671154
 10
21.6589832156
 20
-18.7417570555
 10
21.7785701404
 20
-18.8459659805
 10
21.8995263592
 20
-18.9440388348
 10
22.0215511408
 20
-19.035731772
 10
22.144341075
 20
-19.1208167939
 10
22.2675908838
 20
-19.1990823583
 10
22.3295320488
 20
-19.2357346533
  0
LINE
  5
2EB
100
AcDbEntity
  8
SMUSSO
100
AcDbLine
 62
7
  6
CONTINUOUS
 10
19.5008657451
 20
-15.1531268189
 11
19.5008657451
 21
-11.8872457117
  0
LINE
  5
2EC
100
AcDbEntity
  8
ASSI
100
AcDbLine
 62
7
  6
CONTINUOUS
 10
19.5008657451
 20
-15.1531268189
 11
19.5008657451
 21
-11.8872457117
  0
LINE
  5
2ED
100
AcDbEntity
  8
SMUSSO
100
AcDbLine
 62
7
  6
CONTINUOUS
 10
19.8544191357
 20
-11.6831084151
 11
19.8544191357
 21
-14.9489895222
  0
LINE
  5
2EE
100
AcDbEntity
  8
ASSI
100
AcDbLine
 62
7
  6
CONTINUOUS
 10
19.8544191357
 20
-11.6831084151
 11
19.8544191357
 21
-14.9489895222
  0
LWPOLYLINE
  5
2EF
100
AcDbEntity
  8
SMUSSO
100
AcDbPolyline
 62
7
  6
CONTINUOUS
 90
36
 70
0
 10
17.8038094703
 20
-11.8872457117
 10
17.8073121741
 20
-11.714019445
 10
17.8176295082
 20
-11.5458073357
 10
17.8347614725
 20
-11.3826093839
 10
17.8587716332
 20
-11.2241081108
 10
17.889596424
 20
-11.0706209951
 10
17.9270451468
 20
-10.9231004734
 10
17.9711590604
 20
-10.7815837796
 10
18.0218969059
 20
-10.6460336797
 10
18.0789442091
 20
-10.5172909085
 10
18.1423402396
 20
-10.3953978809
 10
18.2120457278
 20
-10.2803121821
 10
18.2876283903
 20
-10.172747302
 10
18.369124594
 20
-10.0727501699
 10
18.4564979722
 20
-9.9802738565
 10
18.5492071414
 20
-9.8958910639
 10
18.6472851579
 20
-9.8196520011
 10
18.7506989654
 20
-9.7515064589
 10
18.8588080126
 20
-9.6918765127
 10
18.9716415329
 20
-9.6408149462
 10
19.0891702929
 20
-9.5982689756
 10
19.21066604
 20
-9.5645023249
 10
19.3361534649
 20
-9.5395695217
 10
19.4656078771
 20
-9.5234160385
 10
19.5982269518
 20
-9.5161420169
 10
19.7340302959
 20
-9.5178026175
 10
19.8729983027
 20
-9.5283426798
 10
20.0142698271
 20
-9.547696864
 10
20.1578591469
 20
-9.5759198905
 10
20.3037519845
 20
-9.612957039
 10
20.4510443618
 20
-9.6585788094
 10
20.5997449834
 20
-9.7128385034
 10
20.7498451448
 20
-9.7756828192
 10
20.9004147537
 20
-9.8467223513
 10
21.0514567468
 20
-9.9260080014
 10
21.1268901613
 20
-9.9685718367
  0
LWPOLYLINE
  5
2F0
100
AcDbEntity
  8
ASSI
100
AcDbPolyline
 62
7
  6
CONTINUOUS
 90
36
 70
0
 10
17.8038094703
 20
-11.8872457117
 10
17.8073121741
 20
-11.714019445
 10
17.8176295082
 20
-11.5458073357
 10
17.8347614725
 20
-11.3826093839
 10
17.8587716332
 20
-11.2241081108
 10
17.889596424
 20
-11.0706209951
 10
17.9270451468
 20
-10.9231004734
 10
17.9711590604
 20
-10.7815837796
 10
18.0218969059
 20
-10.6460336797
 10
18.0789442091
 20
-10.5172909085
 10
18.1423402396
 20
-10.3953978809
 10
18.2120457278
 20
-10.2803121821
 10
18.2876283903
 20
-10.172747302
 10
18.369124594
 20
-10.0727501699
 10
18.4564979722
 20
-9.9802738565
 10
18.5492071414
 20
-9.8958910639
 10
18.6472851579
 20
-9.8196520011
 10
18.7506989654
 20
-9.7515064589
 10
18.8588080126
 20
-9.6918765127
 10
18.9716415329
 20
-9.6408149462
 10
19.0891702929
 20
-9.5982689756
 10
19.21066604
 20
-9.5645023249
 10
19.3361534649
 20
-9.5395695217
 10
19.4656078771
 20
-9.5234160385
 10
19.5982269518
 20
-9.5161420169
 10
19.7340302959
 20
-9.5178026175
 10
19.8729983027
 20
-9.5283426798
 10
20.0142698271
 20
-9.547696864
 10
20.1578591469
 20
-9.5759198905
 10
20.3037519845
 20
-9.612957039
 10
20.4510443618
 20
-9.6585788094
 10
20.5997449834
 20
-9.7128385034
 10
20.7498451448
 20
-9.7756828192
 10
20.9004147537
 20
-9.8467223513
 10
21.0514567468
 20
-9.9260080014
 10
21.1268901613
 20
-9.9685718367
  0
LWPOLYLINE
  5
2F1
100
AcDbEntity
  8
SMUSSO
100
AcDbPolyline
 62
7
  6
CONTINUOUS
 90
17
 70
0
 10
19.5008657451
 20
-11.8872457117
 10
19.5039416055
 20
-11.7465937236
 10
19.5131617922
 20
-11.6098405246
 10
19.5285037616
 20
-11.4773263014
 10
19.5499298275
 20
-11.3493803363
 10
19.5773870569
 20
-11.2263214224
 10
19.610807207
 20
-11.1084569087
 10
19.6501073367
 20
-10.9960801175
 10
19.695189961
 20
-10.8894704903
 10
19.7459428422
 20
-10.7888938912
 10
19.8022398183
 20
-10.6946005459
 10
19.8639410362
 20
-10.6068248896
 10
19.9308929082
 20
-10.5257855312
 10
20.0029289135
 20
-10.4516840466
 10
20.0798700233
 20
-10.3847046141
 10
20.1615248886
 20
-10.3250138272
 10
20.2256549188
 20
-10.2851666977
  0
LWPOLYLINE
  5
2F2
100
AcDbEntity
  8
ASSI
100
AcDbPolyline
 62
7
  6
CONTINUOUS
 90
17
 70
0
 10
19.5008657451
 20
-11.8872457117
 10
19.5039416055
 20
-11.7465937236
 10
19.5131617922
 20
-11.6098405246
 10
19.5285037616
 20
-11.4773263014
 10
19.5499298275
 20
-11.3493803363
 10
19.5773870569
 20
-11.2263214224
 10
19.610807207
 20
-11.1084569087
 10
19.6501073367
 20
-10.9960801175
 10
19.695189961
 20
-10.8894704903
 10
19.7459428422
 20
-10.7888938912
 10
19.8022398183
 20
-10.6946005459
 10
19.8639410362
 20
-10.6068248896
 10
19.9308929082
 20
-10.5257855312
 10
20.0029289135
 20
-10.4516840466
 10
20.0798700233
 20
-10.3847046141
 10
20.1615248886
 20
-10.3250138272
 10
20.2256549188
 20
-10.2851666977
  0
LINE
  5
2F3
100
AcDbEntity
  8
SMUSSO
100
AcDbLine
 62
7
  6
CONTINUOUS
 10
19.8574950904
 20
-11.5424543006
 11
19.8544191357
 21
-11.6831084151
  0
LINE
  5
2F4
100
AcDbEntity
  8
ASSI
100
AcDbLine
 62
7
  6
CONTINUOUS
 10
19.8574950904
 20
-11.5424543006
 11
19.8544191357
 21
-11.6831084151
  0
LINE
  5
2F5
100
AcDbEntity
  8
SMUSSO
100
AcDbLine
 62
7
  6
CONTINUOUS
 10
19.8667154915
 20
-11.4056998436
 11
19.8574950904
 21
-11.5424543006
  0
LINE
  5
2F6
100
AcDbEntity
  8
ASSI
100
AcDbLine
 62
7
  6
CONTINUOUS
 10
19.8667154915
 20
-11.4056998436
 11
19.8574950904
 21
-11.5424543006
  0
LWPOLYLINE
  5
2F7
100
AcDbEntity
  8
SMUSSO
100
AcDbPolyline
 62
7
  6
CONTINUOUS
 90
11
 70
0
 10
20.2844378245
 20
-10.3216576937
 10
20.2174883734
 20
-10.4026955361
 10
20.1557892107
 20
-10.4904694184
 10
20.0994938696
 20
-10.5847608964
 10
20.0487422328
 20
-10.6853356124
 10
20.003660505
 20
-10.7919433976
 10
19.9643609301
 20
-10.9043185593
 10
19.9309410621
 20
-11.0221816936
 10
19.9034838919
 20
-11.14523958
 10
19.8820576931
 20
-11.2731851731
 10
19.8667154915
 20
-11.4056998436
  0
LWPOLYLINE
  5
2F8
100
AcDbEntity
  8
ASSI
100
AcDbPolyline
 62
7
  6
CONTINUOUS
 90
11
 70
0
 10
20.2844378245
 20
-10.3216576937
 10
20.2174883734
 20
-10.4026955361
 10
20.1557892107
 20
-10.4904694184
 10
20.0994938696
 20
-10.5847608964
 10
20.0487422328
 20
-10.6853356124
 10
20.003660505
 20
-10.7919433976
 10
19.9643609301
 20
-10.9043185593
 10
19.9309410621
 20
-11.0221816936
 10
19.9034838919
 20
-11.14523958
 10
19.8820576931
 20
-11.2731851731
 10
19.8667154915
 20
-11.4056998436
  0
LWPOLYLINE
  5
2F9
100
AcDbEntity
  8
SMUSSO
100
AcDbPolyline
 62
7
  6
CONTINUOUS
 90
3
 70
0
 10
20.4121114499
 20
-10.1991194757
 10
20.3564709995
 20
-10.2475574555
 10
20.2844378245
 20
-10.3216576937
  0
LWPOLYLINE
  5
2FA
100
AcDbEntity
  8
ASSI
100
AcDbPolyline
 62
7
  6
CONTINUOUS
 90
3
 70
0
 10
20.4121114499
 20
-10.1991194757
 10
20.3564709995
 20
-10.2475574555
 10
20.2844378245
 20
-10.3216576937
  0
LINE
  5
2FB
100
AcDbEntity
  8
ASSI
100
AcDbLine
 62
7
  6
CONTINUOUS
 10
48.2129015803
 20
6.3209415945
 11
52.274834565
 21
8.6662354967
  0
LINE
  5
2FC
100
AcDbEntity
  8
SMUSSO
100
AcDbLine
 62
250
  6
CONTINUOUS
 10
19.8544191357
 20
-11.6831084151
 11
19.5008657451
 21
-11.8872457117
  0
LINE
  5
2FD
100
AcDbEntity
  8
ASSI
100
AcDbLine
 62
250
  6
CONTINUOUS
 10
19.8544191357
 20
-11.6831084151
 11
19.5008657451
 21
-11.8872457117
  0
LINE
  5
2FE
100
AcDbEntity
  8
ASSI
100
AcDbLine
 62
7
  6
CONTINUOUS
 10
48.9204388496
 20
5.0954510971
 11
52.9823718343
 21
7.4407449993
  0
LINE
  5
2FF
100
AcDbEntity
  8
SMUSSO
100
AcDbLine
 62
250
  6
CONTINUOUS
 10
19.8544191357
 20
-14.9489895222
 11
19.5008657451
 21
-15.1531268189
  0
LINE
  5
300
100
AcDbEntity
  8
ASSI
100
AcDbLine
 62
250
  6
CONTINUOUS
 10
19.8544191357
 20
-14.9489895222
 11
19.5008657451
 21
-15.1531268189
  0
LWPOLYLINE
  5
301
100
AcDbEntity
  8
SMUSSO
100
AcDbPolyline
 62
7
  6
CONTINUOUS
 90
15
 70
0
 10
20.2256549188
 20
-10.2851666977
 10
20.2476905132
 20
-10.2727600886
 10
20.3381526443
 20
-10.2280733375
 10
20.4326862241
 20
-10.1910647328
 10
20.5310562449
 20
-10.1618262474
 10
20.633018069
 20
-10.1404305669
 10
20.7383178623
 20
-10.126930885
 10
20.8466937698
 20
-10.1213606659
 10
20.9578763117
 20
-10.1237336572
 10
21.0715887205
 20
-10.1340438207
 10
21.187548212
 20
-10.1522653554
 10
21.3054664682
 20
-10.178352798
 10
21.4250500368
 20
-10.2122410501
 10
21.5460014627
 20
-10.2538456093
 10
21.5817595412
 20
-10.2682689308
  0
LWPOLYLINE
  5
302
100
AcDbEntity
  8
ASSI
100
AcDbPolyline
 62
7
  6
CONTINUOUS
 90
15
 70
0
 10
20.2256549188
 20
-10.2851666977
 10
20.2476905132
 20
-10.2727600886
 10
20.3381526443
 20
-10.2280733375
 10
20.4326862241
 20
-10.1910647328
 10
20.5310562449
 20
-10.1618262474
 10
20.633018069
 20
-10.1404305669
 10
20.7383178623
 20
-10.126930885
 10
20.8466937698
 20
-10.1213606659
 10
20.9578763117
 20
-10.1237336572
 10
21.0715887205
 20
-10.1340438207
 10
21.187548212
 20
-10.1522653554
 10
21.3054664682
 20
-10.178352798
 10
21.4250500368
 20
-10.2122410501
 10
21.5460014627
 20
-10.2538456093
 10
21.5817595412
 20
-10.2682689308
  0
LINE
  5
303
100
AcDbEntity
  8
SMUSSO
100
AcDbLine
 62
7
  6
CONTINUOUS
 10
24.4506132134
 20
-15.725026889
 11
24.4506132134
 21
-18.9909079962
  0
LINE
  5
304
100
AcDbEntity
  8
ASSI
100
AcDbLine
 62
7
  6
CONTINUOUS
 10
24.4506132134
 20
-15.725026889
 11
24.4506132134
 21
-18.9909079962
  0
LWPOLYLINE
  5
305
100
AcDbEntity
  8
SMUSSO
100
AcDbPolyline
 62
7
  6
CONTINUOUS
 90
70
 70
0
 10
24.4506132134
 20
-18.9909079962
 10
24.4471105096
 20
-19.1641342629
 10
24.4367931755
 20
-19.3323463722
 10
24.4196612111
 20
-19.495544324
 10
24.3956510505
 20
-19.6540455971
 10
24.3648262597
 20
-19.8075327128
 10
24.3273775368
 20
-19.9550532345
 10
24.2832636233
 20
-20.0965699283
 10
24.2325257777
 20
-20.2321200283
 10
24.1754784745
 20
-20.3608627994
 10
24.1120824441
 20
-20.482755827
 10
24.0423769559
 20
-20.5978415258
 10
23.9667942934
 20
-20.705406406
 10
23.8852980897
 20
-20.805403538
 10
23.7979247115
 20
-20.8978798514
 10
23.7052155423
 20
-20.982262644
 10
23.6071375258
 20
-21.0585017069
 10
23.5037237183
 20
-21.126647249
 10
23.3956146711
 20
-21.1862771952
 10
23.2827811508
 20
-21.2373387617
 10
23.1652523908
 20
-21.2798847323
 10
23.0437566437
 20
-21.313651383
 10
22.9182692187
 20
-21.3385841862
 10
22.7888148066
 20
-21.3547376695
 10
22.6561957319
 20
-21.362011691
 10
22.5203923877
 20
-21.3603510904
 10
22.381424381
 20
-21.3498110282
 10
22.2401528566
 20
-21.3304568439
 10
22.0965635367
 20
-21.3022338174
 10
21.9506706992
 20
-21.2651966689
 10
21.8033783219
 20
-21.2195748986
 10
21.6546777003
 20
-21.1653152045
 10
21.5045775389
 20
-21.1024708887
 10
21.35400793
 20
-21.0314313566
 10
21.2029659369
 20
-20.9521457065
 10
21.0514544963
 20
-20.8646648402
 10
20.9004125103
 20
-20.769530869
 10
20.7498429178
 20
-20.6666962844
 10
20.59974278
 20
-20.5562085948
 10
20.4510421822
 20
-20.4387524373
 10
20.3037498267
 20
-20.3142845604
 10
20.1578570114
 20
-20.1828482155
 10
20.0142677155
 20
-20.0452577938
 10
19.8729962135
 20
-19.9014750577
 10
19.7340282309
 20
-19.7515382448
 10
19.5982249239
 20
-19.5963764586
 10
19.4656059029
 20
-19.4359571823
 10
19.3361515575
 20
-19.2703129327
 10
19.2106642122
 20
-19.1004703632
 10
19.089168566
 20
-18.9264034736
 10
18.97163992
 20
-18.7481382641
 10
18.8588065019
 20
-18.5667793888
 10
18.7506975385
 20
-18.3823078175
 10
18.647283803
 20
-18.1947425803
 10
18.5492058433
 20
-18.0052454214
 10
18.4564967027
 20
-17.8138042725
 10
18.3691233378
 20
-17.6204312019
 10
18.2876271659
 20
-17.4263241584
 10
18.2120445643
 20
-17.2314782156
 10
18.1423391557
 20
-17.0358982999
 10
18.0789432257
 20
-16.8407971401
 10
18.0218960526
 20
-16.6461776864
 10
17.9711583581
 20
-16.4520369885
 10
17.9270445929
 20
-16.2595789249
 10
17.8895960168
 20
-16.0688139289
 10
17.8587713701
 20
-15.8797315671
 10
17.8347613249
 20
-15.6935044174
 10
17.8176294385
 20
-15.5105233392
 10
17.8073121537
 20
-15.330397473
 10
17.8038094703
 20
-15.1531268189
  0
LWPOLYLINE
  5
306
100
AcDbEntity
  8
ASSI
100
AcDbPolyline
 62
7
  6
CONTINUOUS
 90
70
 70
0
 10
24.4506132134
 20
-18.9909079962
 10
24.4471105096
 20
-19.1641342629
 10
24.4367931755
 20
-19.3323463722
 10
24.4196612111
 20
-19.495544324
 10
24.3956510505
 20
-19.6540455971
 10
24.3648262597
 20
-19.8075327128
 10
24.3273775368
 20
-19.9550532345
 10
24.2832636233
 20
-20.0965699283
 10
24.2325257777
 20
-20.2321200283
 10
24.1754784745
 20
-20.3608627994
 10
24.1120824441
 20
-20.482755827
 10
24.0423769559
 20
-20.5978415258
 10
23.9667942934
 20
-20.705406406
 10
23.8852980897
 20
-20.805403538
 10
23.7979247115
 20
-20.8978798514
 10
23.7052155423
 20
-20.982262644
 10
23.6071375258
 20
-21.0585017069
 10
23.5037237183
 20
-21.126647249
 10
23.3956146711
 20
-21.1862771952
 10
23.2827811508
 20
-21.2373387617
 10
23.1652523908
 20
-21.2798847323
 10
23.0437566437
 20
-21.313651383
 10
22.9182692187
 20
-21.3385841862
 10
22.7888148066
 20
-21.3547376695
 10
22.6561957319
 20
-21.362011691
 10
22.5203923877
 20
-21.3603510904
 10
22.381424381
 20
-21.3498110282
 10
22.2401528566
 20
-21.3304568439
 10
22.0965635367
 20
-21.3022338174
 10
21.9506706992
 20
-21.2651966689
 10
21.8033783219
 20
-21.2195748986
 10
21.6546777003
 20
-21.1653152045
 10
21.5045775389
 20
-21.1024708887
 10
21.35400793
 20
-21.0314313566
 10
21.2029659369
 20
-20.9521457065
 10
21.0514544963
 20
-20.8646648402
 10
20.9004125103
 20
-20.769530869
 10
20.7498429178
 20
-20.6666962844
 10
20.59974278
 20
-20.5562085948
 10
20.4510421822
 20
-20.4387524373
 10
20.3037498267
 20
-20.3142845604
 10
20.1578570114
 20
-20.1828482155
 10
20.0142677155
 20
-20.0452577938
 10
19.8729962135
 20
-19.9014750577
 10
19.7340282309
 20
-19.7515382448
 10
19.5982249239
 20
-19.5963764586
 10
19.4656059029
 20
-19.4359571823
 10
19.3361515575
 20
-19.2703129327
 10
19.2106642122
 20
-19.1004703632
 10
19.089168566
 20
-18.9264034736
 10
18.97163992
 20
-18.7481382641
 10
18.8588065019
 20
-18.5667793888
 10
18.7506975385
 20
-18.3823078175
 10
18.647283803
 20
-18.1947425803
 10
18.5492058433
 20
-18.0052454214
 10
18.4564967027
 20
-17.8138042725
 10
18.3691233378
 20
-17.6204312019
 10
18.2876271659
 20
-17.4263241584
 10
18.2120445643
 20
-17.2314782156
 10
18.1423391557
 20
-17.0358982999
 10
18.0789432257
 20
-16.8407971401
 10
18.0218960526
 20
-16.6461776864
 10
17.9711583581
 20
-16.4520369885
 10
17.9270445929
 20
-16.2595789249
 10
17.8895960168
 20
-16.0688139289
 10
17.8587713701
 20
-15.8797315671
 10
17.8347613249
 20
-15.6935044174
 10
17.8176294385
 20
-15.5105233392
 10
17.8073121537
 20
-15.330397473
 10
17.8038094703
 20
-15.1531268189
  0
LWPOLYLINE
  5
307
100
AcDbEntity
  8
SMUSSO
100
AcDbPolyline
 62
7
  6
CONTINUOUS
 90
17
 70
0
 10
24.4506132134
 20
-18.0110489722
 10
24.447537353
 20
-18.1517009604
 10
24.4383171664
 20
-18.2884541594
 10
24.422975197
 20
-18.4209683825
 10
24.401549131
 20
-18.5489143476
 10
24.3740919016
 20
-18.6719732616
 10
24.3406717515
 20
-18.7898377753
 10
24.3013716219
 20
-18.9022145664
 10
24.2562889975
 20
-19.0088241936
 10
24.2055361164
 20
-19.1094007928
 10
24.1492391402
 20
-19.2036941381
 10
24.0875379224
 20
-19.2914697943
 10
24.0205860503
 20
-19.3725091528
 10
23.9485500451
 20
-19.4466106373
 10
23.8716089352
 20
-19.5135900698
 10
23.7899540699
 20
-19.5732808568
 10
23.7258240398
 20
-19.6131279862
  0
LWPOLYLINE
  5
308
100
AcDbEntity
  8
ASSI
100
AcDbPolyline
 62
7
  6
CONTINUOUS
 90
17
 70
0
 10
24.4506132134
 20
-18.0110489722
 10
24.447537353
 20
-18.1517009604
 10
24.4383171664
 20
-18.2884541594
 10
24.422975197
 20
-18.4209683825
 10
24.401549131
 20
-18.5489143476
 10
24.3740919016
 20
-18.6719732616
 10
24.3406717515
 20
-18.7898377753
 10
24.3013716219
 20
-18.9022145664
 10
24.2562889975
 20
-19.0088241936
 10
24.2055361164
 20
-19.1094007928
 10
24.1492391402
 20
-19.2036941381
 10
24.0875379224
 20
-19.2914697943
 10
24.0205860503
 20
-19.3725091528
 10
23.9485500451
 20
-19.4466106373
 10
23.8716089352
 20
-19.5135900698
 10
23.7899540699
 20
-19.5732808568
 10
23.7258240398
 20
-19.6131279862
  0
LWPOLYLINE
  5
309
100
AcDbEntity
  8
SMUSSO
100
AcDbPolyline
 62
7
  6
CONTINUOUS
 90
49
 70
0
 10
23.7258240398
 20
-19.6131279862
 10
23.7037884454
 20
-19.6255345954
 10
23.6133263142
 20
-19.6702213464
 10
23.5187927344
 20
-19.7072299512
 10
23.4204227136
 20
-19.7364684366
 10
23.3184608896
 20
-19.757864117
 10
23.2131610962
 20
-19.771363799
 10
23.1047851887
 20
-19.776934018
 10
22.9936026468
 20
-19.7745610267
 10
22.8798902381
 20
-19.7642508633
 10
22.7639307465
 20
-19.7460293285
 10
22.6460124903
 20
-19.719941886
 10
22.5264289217
 20
-19.6860536338
 10
22.4054774958
 20
-19.6444490747
 10
22.2834588213
 20
-19.5952318169
 10
22.1606761632
 20
-19.53852437
 10
22.037435402
 20
-19.4744682355
 10
21.9140422812
 20
-19.4032225573
 10
21.7908015475
 20
-19.3249632945
 10
21.6680189547
 20
-19.2398843801
 10
21.5460003719
 20
-19.148197533
 10
21.4250490319
 20
-19.0501304241
 10
21.3054655325
 20
-18.9459265695
 10
21.1875473394
 20
-18.8358449675
 10
21.0715879067
 20
-18.7201593917
 10
20.9578755519
 20
-18.5991573199
 10
20.8466930596
 20
-18.4731395028
 10
20.7383171994
 20
-18.3424195081
 10
20.6330174527
 20
-18.2073222735
 10
20.5310556729
 20
-18.0681836446
 10
20.4326856918
 20
-17.9253499326
 10
20.3381521491
 20
-17.7791763265
 10
20.2476900511
 20
-17.6300261773
 10
20.1615244499
 20
-17.4782705231
 10
20.0798695961
 20
-17.3242867093
 10
20.0029284916
 20
-17.1684575594
 10
19.9308924909
 20
-17.0111706407
 10
19.8639406212
 20
-16.8528168626
 10
19.8022394076
 20
-16.6937901023
 10
19.7459424485
 20
-16.5344863569
 10
19.6951895954
 20
-16.3753015613
 10
19.6501070081
 20
-16.21663163
 10
19.6108069287
 20
-16.0588720638
 10
19.5773868383
 20
-15.9024148832
 10
19.5499296706
 20
-15.7476491798
 10
19.5285036637
 20
-15.5949611113
 10
19.5131617445
 20
-15.4447305952
 10
19.5039415926
 20
-15.2973304262
 10
19.5008657451
 20
-15.1531268189
  0
LWPOLYLINE
  5
30A
100
AcDbEntity
  8
ASSI
100
AcDbPolyline
 62
7
  6
CONTINUOUS
 90
49
 70
0
 10
23.7258240398
 20
-19.6131279862
 10
23.7037884454
 20
-19.6255345954
 10
23.6133263142
 20
-19.6702213464
 10
23.5187927344
 20
-19.7072299512
 10
23.4204227136
 20
-19.7364684366
 10
23.3184608896
 20
-19.757864117
 10
23.2131610962
 20
-19.771363799
 10
23.1047851887
 20
-19.776934018
 10
22.9936026468
 20
-19.7745610267
 10
22.8798902381
 20
-19.7642508633
 10
22.7639307465
 20
-19.7460293285
 10
22.6460124903
 20
-19.719941886
 10
22.5264289217
 20
-19.6860536338
 10
22.4054774958
 20
-19.6444490747
 10
22.2834588213
 20
-19.5952318169
 10
22.1606761632
 20
-19.53852437
 10
22.037435402
 20
-19.4744682355
 10
21.9140422812
 20
-19.4032225573
 10
21.7908015475
 20
-19.3249632945
 10
21.6680189547
 20
-19.2398843801
 10
21.5460003719
 20
-19.148197533
 10
21.4250490319
 20
-19.0501304241
 10
21.3054655325
 20
-18.9459265695
 10
21.1875473394
 20
-18.8358449675
 10
21.0715879067
 20
-18.7201593917
 10
20.9578755519
 20
-18.5991573199
 10
20.8466930596
 20
-18.4731395028
 10
20.7383171994
 20
-18.3424195081
 10
20.6330174527
 20
-18.2073222735
 10
20.5310556729
 20
-18.0681836446
 10
20.4326856918
 20
-17.9253499326
 10
20.3381521491
 20
-17.7791763265
 10
20.2476900511
 20
-17.6300261773
 10
20.1615244499
 20
-17.4782705231
 10
20.0798695961
 20
-17.3242867093
 10
20.0029284916
 20
-17.1684575594
 10
19.9308924909
 20
-17.0111706407
 10
19.8639406212
 20
-16.8528168626
 10
19.8022394076
 20
-16.6937901023
 10
19.7459424485
 20
-16.5344863569
 10
19.6951895954
 20
-16.3753015613
 10
19.6501070081
 20
-16.21663163
 10
19.6108069287
 20
-16.0588720638
 10
19.5773868383
 20
-15.9024148832
 10
19.5499296706
 20
-15.7476491798
 10
19.5285036637
 20
-15.5949611113
 10
19.5131617445
 20
-15.4447305952
 10
19.5039415926
 20
-15.2973304262
 10
19.5008657451
 20
-15.1531268189
  0
LWPOLYLINE
  5
30B
100
AcDbEntity
  8
SMUSSO
100
AcDbPolyline
 62
7
  6
CONTINUOUS
 90
3
 70
0
 10
23.7740075779
 20
-19.5323231844
 10
23.872374484
 20
-19.503082915
 10
23.8929181662
 20
-19.495039776
  0
LWPOLYLINE
  5
30C
100
AcDbEntity
  8
ASSI
100
AcDbPolyline
 62
7
  6
CONTINUOUS
 90
3
 70
0
 10
23.7740075779
 20
-19.5323231844
 10
23.872374484
 20
-19.503082915
 10
23.8929181662
 20
-19.495039776
  0
LINE
  5
30D
100
AcDbEntity
  8
ASSI
100
AcDbLine
 62
7
  6
CONTINUOUS
 10
48.8989374977
 20
5.1074460445
 11
48.9204388496
 21
5.0954510971
  0
LINE
  5
30E
100
AcDbEntity
  8
ASSI
100
AcDbLine
 62
7
  6
CONTINUOUS
 10
47.2030024326
 20
5.2430282598
 11
-52.678287479
 21
62.9132332483
  0
LINE
  5
30F
100
AcDbEntity
  8
CURVE
100
AcDbLine
 62
250
  6
CONTINUOUS
 10
41.9902334283
 20
-60.7673231726
 11
41.6093273464
 21
-59.3745842077
  0
LINE
  5
310
100
AcDbEntity
  8
CURVE
100
AcDbLine
 62
250
  6
CONTINUOUS
 10
41.6935101558
 20
-58.7999157436
 11
42.0147754199
 21
-59.982600998
  0
LWPOLYLINE
  5
311
100
AcDbEntity
  8
CURVE
100
AcDbPolyline
 62
250
  6
CONTINUOUS
 90
5
 70
0
 10
44.9104207417
 20
-61.9087717027
 10
44.9157766814
 20
-61.928827484
 10
44.9208741238
 20
-61.9488389454
 10
44.9257579985
 20
-61.9688133592
 10
44.9304732349
 20
-61.9887579977
  0
LINE
  5
312
100
AcDbEntity
  8
CURVE
100
AcDbLine
 62
250
  6
CONTINUOUS
 10
39.822508863
 20
-59.5157061766
 11
39.3293837279
 21
-57.4348987735
  0
LINE
  5
313
100
AcDbEntity
  8
CURVE
100
AcDbLine
 62
250
  6
CONTINUOUS
 10
43.6591747922
 20
-59.9348658691
 11
44.136442082
 21
-62.006517151
  0
LINE
  5
314
100
AcDbEntity
  8
CURVE
100
AcDbLine
 62
250
  6
CONTINUOUS
 10
39.6821024471
 20
-57.6385541414
 11
39.978610153
 21
-59.0460534449
  0
LINE
  5
315
100
AcDbEntity
  8
ASSI
100
AcDbLine
 62
7
  6
CONTINUOUS
 10
47.2030024326
 20
5.2430282598
 11
48.21253915
 21
6.2963228556
  0
LINE
  5
316
100
AcDbEntity
  8
ASSI
100
AcDbLine
 62
7
  6
CONTINUOUS
 10
48.2129015803
 20
6.3209415945
 11
-52.274834565
 21
64.3413010376
  0
LINE
  5
317
100
AcDbEntity
  8
ASSI
100
AcDbLine
 62
7
  6
CONTINUOUS
 10
52.274834565
 20
8.6662354967
 11
-48.4870207779
 21
66.844867929
  0
LINE
  5
318
100
AcDbEntity
  8
CURVE
100
AcDbLine
 62
250
  6
CONTINUOUS
 10
44.9304732349
 20
-61.9887579977
 11
44.9395775114
 21
-62.0285870379
  0
LINE
  5
319
100
AcDbEntity
  8
CURVE
100
AcDbLine
 62
250
  6
CONTINUOUS
 10
44.9395775114
 20
-62.0285870379
 11
45.0058435563
 21
-62.3233160235
  0
LWPOLYLINE
  5
31A
100
AcDbEntity
  8
CURVE
100
AcDbPolyline
 62
250
  6
CONTINUOUS
 90
37
 70
0
 10
45.2384154665
 20
-62.0929463546
 10
45.2351881633
 20
-62.0783829753
 10
45.2318671979
 20
-62.0638006558
 10
45.2284361887
 20
-62.0491989035
 10
45.2248787545
 20
-62.0345772256
 10
45.221178514
 20
-62.0199351297
 10
45.2173190857
 20
-62.0052721231
 10
45.2132840884
 20
-61.9905877132
 10
45.2090571407
 20
-61.9758814073
 10
45.2046218613
 20
-61.9611527129
 10
45.1999618688
 20
-61.9464011374
 10
45.1950607819
 20
-61.9316261882
 10
45.1915516043
 20
-61.9214811661
 10
45.1879145557
 20
-61.9113317869
 10
45.184142856
 20
-61.9011849179
 10
45.1802297249
 20
-61.8910474266
 10
45.1761683824
 20
-61.88092618
 10
45.1719520484
 20
-61.8708280456
 10
45.1675739425
 20
-61.8607598905
 10
45.1630272848
 20
-61.8507285822
 10
45.158305295
 20
-61.8407409879
 10
45.153401193
 20
-61.830803975
 10
45.1483081986
 20
-61.8209244106
 10
45.1430195318
 20
-61.8111091621
 10
45.1379998772
 20
-61.802183084
 10
45.1328160043
 20
-61.7933316493
 10
45.1274735338
 20
-61.7845697853
 10
45.1219780865
 20
-61.7759124191
 10
45.1163352833
 20
-61.7673744781
 10
45.1105507448
 20
-61.7589708896
 10
45.1046300919
 20
-61.7507165807
 10
45.0985789453
 20
-61.7426264787
 10
45.092402926
 20
-61.7347155109
 10
45.0861076545
 20
-61.7269986045
 10
45.0796987519
 20
-61.7194906868
 10
45.0731818387
 20
-61.712206685
 10
45.0665625359
 20
-61.7051615264
  0
LINE
  5
31B
100
AcDbEntity
  8
CURVE
100
AcDbLine
 62
250
  6
CONTINUOUS
 10
45.0058435563
 20
-62.3233160235
 11
45.0524017606
 21
-62.5353811299
  0
LINE
  5
31C
100
AcDbEntity
  8
CURVE
100
AcDbLine
 62
250
  6
CONTINUOUS
 10
45.2446546111
 20
-62.1220182627
 11
45.2384154665
 21
-62.0929463546
  0
LINE
  5
31D
100
AcDbEntity
  8
CURVE
100
AcDbLine
 62
250
  6
CONTINUOUS
 10
43.794227602
 20
-61.8089267992
 11
43.7101144257
 21
-61.4017991351
  0
LINE
  5
31E
100
AcDbEntity
  8
CURVE
100
AcDbLine
 62
250
  6
CONTINUOUS
 10
45.2688853924
 20
-62.2391281722
 11
45.2446546111
 21
-62.1220182627
  0
LINE
  5
31F
100
AcDbEntity
  8
CURVE
100
AcDbLine
 62
250
  6
CONTINUOUS
 10
45.3647203425
 20
-62.7157099649
 11
45.3499063469
 21
-62.6430331109
  0
LINE
  5
320
100
AcDbEntity
  8
CURVE
100
AcDbLine
 62
250
  6
CONTINUOUS
 10
45.3499063469
 20
-62.6430331109
 11
45.2688853924
 21
-62.2391281722
  0
LINE
  5
321
100
AcDbEntity
  8
CURVE
100
AcDbLine
 62
250
  6
CONTINUOUS
 10
43.6452244516
 20
-61.0868783941
 11
43.4960227725
 21
-60.3341819401
  0
LINE
  5
322
100
AcDbEntity
  8
CURVE
100
AcDbLine
 62
250
  6
CONTINUOUS
 10
42.6607239002
 20
-59.3583728375
 11
42.8061809439
 21
-61.2384410419
  0
LINE
  5
323
100
AcDbEntity
  8
CURVE
100
AcDbLine
 62
250
  6
CONTINUOUS
 10
42.4885432721
 20
-61.0550410312
 11
42.4218339459
 21
-59.8486045145
  0
LWPOLYLINE
  5
324
100
AcDbEntity
  8
CURVE
100
AcDbPolyline
 62
250
  6
CONTINUOUS
 90
58
 70
0
 10
44.9821927766
 20
-61.2186897711
 10
44.9822416921
 20
-61.2270451111
 10
44.982160917
 20
-61.2353496064
 10
44.9819424049
 20
-61.2435897077
 10
44.9815781092
 20
-61.2517518659
 10
44.9810599835
 20
-61.2598225317
 10
44.9803799812
 20
-61.2677881558
 10
44.9795300559
 20
-61.275635189
 10
44.9785021611
 20
-61.2833500821
 10
44.9772882503
 20
-61.2909192858
 10
44.975880277
 20
-61.2983292509
 10
44.9742701946
 20
-61.3055664282
 10
44.9724499568
 20
-61.3126172684
 10
44.9704115171
 20
-61.3194682224
 10
44.9681468288
 20
-61.3261057407
 10
44.9656478456
 20
-61.3325162743
 10
44.962906521
 20
-61.3386862739
 10
44.9601789675
 20
-61.3441135969
 10
44.9572459796
 20
-61.3493209927
 10
44.9541120273
 20
-61.3543015363
 10
44.9507815806
 20
-61.359048303
 10
44.9472591095
 20
-61.3635543677
 10
44.9435490841
 20
-61.3678128054
 10
44.9396559744
 20
-61.3718166914
 10
44.9355842502
 20
-61.3755591006
 10
44.9313383818
 20
-61.3790331082
 10
44.926922839
 20
-61.3822317892
 10
44.9223420919
 20
-61.3851482186
 10
44.9176006106
 20
-61.3877754716
 10
44.9127028649
 20
-61.3901066233
 10
44.9076533249
 20
-61.3921347486
 10
44.9022259762
 20
-61.3939238372
 10
44.8966458058
 20
-61.395384466
 10
44.8909205046
 20
-61.3965258721
 10
44.8850577632
 20
-61.3973572931
 10
44.8790652725
 20
-61.3978879664
 10
44.8729507232
 20
-61.3981271293
 10
44.8667218061
 20
-61.3980840194
 10
44.860386212
 20
-61.3977678739
 10
44.8539516316
 20
-61.3971879303
 10
44.8474257557
 20
-61.396353426
 10
44.840816275
 20
-61.3952735985
 10
44.8341308804
 20
-61.393957685
 10
44.8273772626
 20
-61.3924149231
 10
44.8205631123
 20
-61.3906545502
 10
44.8136961203
 20
-61.3886858035
 10
44.8067839775
 20
-61.3865179207
 10
44.7998343745
 20
-61.384160139
 10
44.7928550021
 20
-61.3816216958
 10
44.7858535511
 20
-61.3789118287
 10
44.7788377123
 20
-61.3760397749
 10
44.7718151764
 20
-61.373014772
 10
44.7647936342
 20
-61.3698460572
 10
44.7577807765
 20
-61.3665428681
 10
44.750784294
 20
-61.363114442
 10
44.7438118774
 20
-61.3595700163
 10
44.7368712177
 20
-61.3559188284
 10
44.7299700054
 20
-61.3521701158
  0
LINE
  5
325
100
AcDbEntity
  8
CURVE
100
AcDbLine
 62
250
  6
CONTINUOUS
 10
40.7291424825
 20
-58.2429941613
 11
40.7291424825
 21
-60.0391850657
  0
LINE
  5
326
100
AcDbEntity
  8
CURVE
100
AcDbLine
 62
250
  6
CONTINUOUS
 10
41.053837551
 20
-60.2266599289
 11
41.053837551
 21
-58.4304690245
  0
LINE
  5
327
100
AcDbEntity
  8
CURVE
100
AcDbLine
 62
250
  6
CONTINUOUS
 10
44.2317883316
 20
-60.2864699073
 11
44.2317883316
 21
-62.0615692207
  0
LINE
  5
328
100
AcDbEntity
  8
CURVE
100
AcDbLine
 62
250
  6
CONTINUOUS
 10
44.5444101921
 20
-61.2450302052
 11
44.5444101921
 21
-60.7519702586
  0
LINE
  5
329
100
AcDbEntity
  8
CURVE
100
AcDbLine
 62
250
  6
CONTINUOUS
 10
44.5551765806
 20
-62.2482895427
 11
44.5551765806
 21
-61.5454016648
  0
LINE
  5
32A
100
AcDbEntity
  8
CURVE
100
AcDbLine
 62
250
  6
CONTINUOUS
 10
45.0665625359
 20
-61.7051615264
 11
45.0665625359
 21
-61.6945482387
  0
LINE
  5
32B
100
AcDbEntity
  8
CURVE
100
AcDbLine
 62
250
  6
CONTINUOUS
 10
41.6093273464
 20
-59.3745842077
 11
41.539257849
 21
-60.5069355252
  0
LINE
  5
32C
100
AcDbEntity
  8
CURVE
100
AcDbLine
 62
250
  6
CONTINUOUS
 10
41.2286309049
 20
-60.3275834208
 11
41.3690839898
 21
-58.6125961413
  0
LINE
  5
32D
100
AcDbEntity
  8
ASSI
100
AcDbLine
 62
7
  6
CONTINUOUS
 10
47.4819783668
 20
4.7598277683
 11
47.2030024326
 21
5.2430282598
  0
LINE
  5
32E
100
AcDbEntity
  8
ASSI
100
AcDbLine
 62
7
  6
CONTINUOUS
 10
48.8989374977
 20
5.1074460445
 11
48.21253915
 21
6.2963228556
  0
LINE
  5
32F
100
AcDbEntity
  8
ASSI
100
AcDbLine
 62
7
  6
CONTINUOUS
 10
47.4819783668
 20
-66.071805831
 11
47.4819783668
 21
4.7598277683
  0
LINE
  5
330
100
AcDbEntity
  8
ASSI
100
AcDbLine
 62
7
  6
CONTINUOUS
 10
48.9204388496
 20
-66.4364237351
 11
48.9204388496
 21
5.0954510971
  0
LINE
  5
331
100
AcDbEntity
  8
ASSI
100
AcDbLine
 62
7
  6
CONTINUOUS
 10
48.2129015803
 20
6.3209415945
 11
48.21253915
 21
6.2963228556
  0
LINE
  5
332
100
AcDbEntity
  8
ASSI
100
AcDbLine
 62
7
  6
CONTINUOUS
 10
52.274834565
 20
8.6662354967
 11
52.9823718343
 21
7.4407449993
  0
LINE
  5
333
100
AcDbEntity
  8
ASSI
100
AcDbLine
 62
7
  6
CONTINUOUS
 10
52.9823718343
 20
-64.4076452208
 11
52.9823718343
 21
7.4407449993
  0
LINE
  5
334
100
AcDbEntity
  8
CURVE
100
AcDbLine
 62
250
  6
CONTINUOUS
 10
39.978610153
 20
-59.0460534449
 11
40.2841746168
 21
-57.9861830665
  0
LINE
  5
335
100
AcDbEntity
  8
CURVE
100
AcDbLine
 62
250
  6
CONTINUOUS
 10
40.6086481926
 20
-58.1735300425
 11
40.1086464107
 21
-59.6809184105
  0
LINE
  5
336
100
AcDbEntity
  8
CURVE
100
AcDbLine
 62
250
  6
CONTINUOUS
 10
43.4960227725
 20
-60.3341819401
 11
43.3343523098
 21
-60.9073847155
  0
LINE
  5
337
100
AcDbEntity
  8
CURVE
100
AcDbLine
 62
250
  6
CONTINUOUS
 10
43.2679341096
 20
-61.1464897624
 11
43.1783384317
 21
-61.4533201112
  0
LINE
  5
338
100
AcDbEntity
  8
CURVE
100
AcDbLine
 62
250
  6
CONTINUOUS
 10
42.8571665056
 20
-61.2678794663
 11
43.3450721154
 21
-59.7535069201
  0
LINE
  5
339
100
AcDbEntity
  8
CURVE
100
AcDbLine
 62
250
  6
CONTINUOUS
 10
42.0147754199
 20
-59.982600998
 11
42.3394704885
 21
-59.1728851439
  0
LINE
  5
33A
100
AcDbEntity
  8
CURVE
100
AcDbLine
 62
250
  6
CONTINUOUS
 10
42.4218339459
 20
-59.8486045145
 11
42.0357713049
 21
-60.7936161719
  0
LINE
  5
33B
100
AcDbEntity
  8
CURVE
100
AcDbLine
 62
7
  6
CONTINUOUS
 10
39.3456937469
 20
-57.5037210781
 11
39.3833541856
 21
-57.4660606394
  0
LINE
  5
33C
100
AcDbEntity
  8
CURVE
100
AcDbLine
 62
7
  6
CONTINUOUS
 10
39.4261632698
 20
-57.8432729832
 11
39.6496308214
 21
-57.6198054317
  0
LINE
  5
33D
100
AcDbEntity
  8
CURVE
100
AcDbLine
 62
7
  6
CONTINUOUS
 10
39.5066327928
 20
-58.1828248883
 11
39.7462761067
 21
-57.9431815743
  0
LINE
  5
33E
100
AcDbEntity
  8
CURVE
100
AcDbLine
 62
7
  6
CONTINUOUS
 10
39.5871023157
 20
-58.5223767934
 11
39.81936242
 21
-58.2901166891
  0
LINE
  5
33F
100
AcDbEntity
  8
CURVE
100
AcDbLine
 62
7
  6
CONTINUOUS
 10
39.6675718386
 20
-58.8619286985
 11
39.8924487332
 21
-58.6370518039
  0
LINE
  5
340
100
AcDbEntity
  8
CURVE
100
AcDbLine
 62
7
  6
CONTINUOUS
 10
40.1791975171
 20
-58.35030302
 11
40.4484607287
 21
-58.0810398085
  0
LINE
  5
341
100
AcDbEntity
  8
CURVE
100
AcDbLine
 62
7
  6
CONTINUOUS
 10
39.7480413616
 20
-59.2014806035
 11
39.9655350465
 21
-58.9839869187
  0
LINE
  5
342
100
AcDbEntity
  8
CURVE
100
AcDbLine
 62
7
  6
CONTINUOUS
 10
40.009049544
 20
-58.9404724211
 11
40.5255895492
 21
-58.4239324159
  0
LINE
  5
343
100
AcDbEntity
  8
CURVE
100
AcDbLine
 62
7
  6
CONTINUOUS
 10
39.8423697749
 20
-59.5271736183
 11
40.3171179799
 21
-59.0524254132
  0
LINE
  5
344
100
AcDbEntity
  8
CURVE
100
AcDbLine
 62
7
  6
CONTINUOUS
 10
40.7291424825
 20
-58.6404009107
 11
40.9810823246
 21
-58.3884610686
  0
LINE
  5
345
100
AcDbEntity
  8
CURVE
100
AcDbLine
 62
7
  6
CONTINUOUS
 10
40.7291424825
 20
-59.0604223387
 11
41.053837551
 21
-58.7357272702
  0
LINE
  5
346
100
AcDbEntity
  8
CURVE
100
AcDbLine
 62
7
  6
CONTINUOUS
 10
40.7291424825
 20
-59.4804437668
 11
41.053837551
 21
-59.1557486982
  0
LINE
  5
347
100
AcDbEntity
  8
CURVE
100
AcDbLine
 62
7
  6
CONTINUOUS
 10
41.3487540932
 20
-58.860832156
 11
41.5135672717
 21
-58.6960189775
  0
LINE
  5
348
100
AcDbEntity
  8
CURVE
100
AcDbLine
 62
7
  6
CONTINUOUS
 10
40.7291424825
 20
-59.9004651948
 11
41.053837551
 21
-59.5757701262
  0
LINE
  5
349
100
AcDbEntity
  8
CURVE
100
AcDbLine
 62
7
  6
CONTINUOUS
 10
41.3112869455
 20
-59.3183207318
 11
41.7226005243
 21
-58.9070071529
  0
LINE
  5
34A
100
AcDbEntity
  8
CURVE
100
AcDbLine
 62
7
  6
CONTINUOUS
 10
40.907476318
 20
-60.1421527873
 11
41.053837551
 21
-59.9957915542
  0
LINE
  5
34B
100
AcDbEntity
  8
CURVE
100
AcDbLine
 62
7
  6
CONTINUOUS
 10
41.2738197977
 20
-59.7758093075
 11
41.6049925308
 21
-59.4446365744
  0
LINE
  5
34C
100
AcDbEntity
  8
CURVE
100
AcDbLine
 62
7
  6
CONTINUOUS
 10
41.6234407762
 20
-59.426188329
 11
41.8123230872
 21
-59.237306018
  0
LINE
  5
34D
100
AcDbEntity
  8
CURVE
100
AcDbLine
 62
7
  6
CONTINUOUS
 10
41.23635265
 20
-60.2332978833
 11
41.5772873684
 21
-59.8923631649
  0
LINE
  5
34E
100
AcDbEntity
  8
CURVE
100
AcDbLine
 62
7
  6
CONTINUOUS
 10
41.7136441214
 20
-59.7560064118
 11
41.9020456501
 21
-59.5676048831
  0
LINE
  5
34F
100
AcDbEntity
  8
CURVE
100
AcDbLine
 62
7
  6
CONTINUOUS
 10
41.4400295895
 20
-60.4496423718
 11
41.549582206
 21
-60.3400897554
  0
LINE
  5
350
100
AcDbEntity
  8
CURVE
100
AcDbLine
 62
7
  6
CONTINUOUS
 10
41.8038474667
 20
-60.0858244946
 11
41.991768213
 21
-59.8979037483
  0
LINE
  5
351
100
AcDbEntity
  8
CURVE
100
AcDbLine
 62
7
  6
CONTINUOUS
 10
42.0868777029
 20
-59.8027942584
 11
42.5786738148
 21
-59.3109981465
  0
LINE
  5
352
100
AcDbEntity
  8
CURVE
100
AcDbLine
 62
7
  6
CONTINUOUS
 10
41.8940508119
 20
-60.4156425775
 11
42.3947208084
 21
-59.9149725809
  0
LINE
  5
353
100
AcDbEntity
  8
CURVE
100
AcDbLine
 62
7
  6
CONTINUOUS
 10
42.4238907958
 20
-59.8858025936
 11
42.6815922304
 21
-59.6281011589
  0
LINE
  5
354
100
AcDbEntity
  8
CURVE
100
AcDbLine
 62
7
  6
CONTINUOUS
 10
41.9842541571
 20
-60.7454606603
 11
42.1046145966
 21
-60.6251002208
  0
LINE
  5
355
100
AcDbEntity
  8
CURVE
100
AcDbLine
 62
7
  6
CONTINUOUS
 10
42.4458987586
 20
-60.2838160587
 11
42.7117548143
 21
-60.017960003
  0
LINE
  5
356
100
AcDbEntity
  8
CURVE
100
AcDbLine
 62
7
  6
CONTINUOUS
 10
42.4679067215
 20
-60.6818295239
 11
42.7419173982
 21
-60.4078188472
  0
LINE
  5
357
100
AcDbEntity
  8
CURVE
100
AcDbLine
 62
7
  6
CONTINUOUS
 10
43.320755804
 20
-59.8289804413
 11
43.3775037221
 21
-59.7722325233
  0
LINE
  5
358
100
AcDbEntity
  8
CURVE
100
AcDbLine
 62
7
  6
CONTINUOUS
 10
42.5051361326
 20
-61.0646215409
 11
42.7720799821
 21
-60.7976776913
  0
LINE
  5
359
100
AcDbEntity
  8
CURVE
100
AcDbLine
 62
7
  6
CONTINUOUS
 10
43.1211090315
 20
-60.4486486419
 11
43.6437803578
 21
-59.9259773156
  0
LINE
  5
35A
100
AcDbEntity
  8
CURVE
100
AcDbLine
 62
7
  6
CONTINUOUS
 10
42.7714127683
 20
-61.2183663331
 11
42.802242566
 21
-61.1875365354
  0
LINE
  5
35B
100
AcDbEntity
  8
CURVE
100
AcDbLine
 62
7
  6
CONTINUOUS
 10
42.921462259
 20
-61.0683168425
 11
43.4333339763
 21
-60.5564451251
  0
LINE
  5
35C
100
AcDbEntity
  8
CURVE
100
AcDbLine
 62
7
  6
CONTINUOUS
 10
43.5224212824
 20
-60.4673578191
 11
43.7332740651
 21
-60.2565050363
  0
LINE
  5
35D
100
AcDbEntity
  8
CURVE
100
AcDbLine
 62
7
  6
CONTINUOUS
 10
43.0376894041
 20
-61.3721111254
 11
43.4408977893
 21
-60.9689027401
  0
LINE
  5
35E
100
AcDbEntity
  8
CURVE
100
AcDbLine
 62
7
  6
CONTINUOUS
 10
43.5919057396
 20
-60.8178947898
 11
43.8119201587
 21
-60.5978803707
  0
LINE
  5
35F
100
AcDbEntity
  8
CURVE
100
AcDbLine
 62
7
  6
CONTINUOUS
 10
43.5312797328
 20
-61.2985422247
 11
43.8905662523
 21
-60.9392557051
  0
LINE
  5
360
100
AcDbEntity
  8
CURVE
100
AcDbLine
 62
7
  6
CONTINUOUS
 10
44.2317883316
 20
-60.5980336259
 11
44.4480010659
 21
-60.3818208915
  0
LINE
  5
361
100
AcDbEntity
  8
CURVE
100
AcDbLine
 62
7
  6
CONTINUOUS
 10
43.7337315901
 20
-61.5161117955
 11
43.969212346
 21
-61.2806310396
  0
LINE
  5
362
100
AcDbEntity
  8
CURVE
100
AcDbLine
 62
7
  6
CONTINUOUS
 10
44.2317883316
 20
-61.0180550539
 11
44.7211057364
 21
-60.5287376491
  0
LINE
  5
363
100
AcDbEntity
  8
CURVE
100
AcDbLine
 62
7
  6
CONTINUOUS
 10
43.8365193114
 20
-61.8333455022
 11
44.0478584396
 21
-61.622006374
  0
LINE
  5
364
100
AcDbEntity
  8
CURVE
100
AcDbLine
 62
7
  6
CONTINUOUS
 10
44.2317883316
 20
-61.438076482
 11
44.5444101921
 21
-61.1254546214
  0
LINE
  5
365
100
AcDbEntity
  8
CURVE
100
AcDbLine
 62
7
  6
CONTINUOUS
 10
44.7886237866
 20
-60.8812410269
 11
44.9648001955
 21
-60.7050646181
  0
LINE
  5
366
100
AcDbEntity
  8
CURVE
100
AcDbLine
 62
7
  6
CONTINUOUS
 10
44.1027959471
 20
-61.9870902944
 11
44.1265045332
 21
-61.9633817084
  0
LINE
  5
367
100
AcDbEntity
  8
CURVE
100
AcDbLine
 62
7
  6
CONTINUOUS
 10
44.2317883316
 20
-61.85809791
 11
44.7350467377
 21
-61.3548395039
  0
LINE
  5
368
100
AcDbEntity
  8
CURVE
100
AcDbLine
 62
7
  6
CONTINUOUS
 10
44.9661406253
 20
-61.1237456162
 11
45.1570609059
 21
-60.9328253357
  0
LINE
  5
369
100
AcDbEntity
  8
CURVE
100
AcDbLine
 62
7
  6
CONTINUOUS
 10
44.3690723672
 20
-62.1408353023
 11
44.5551765806
 21
-61.954731089
  0
LINE
  5
36A
100
AcDbEntity
  8
CURVE
100
AcDbLine
 62
7
  6
CONTINUOUS
 10
44.8034135262
 20
-61.7064941434
 11
45.2734162641
 21
-61.2364914055
  0
LINE
  5
36B
100
AcDbEntity
  8
CURVE
100
AcDbLine
 62
7
  6
CONTINUOUS
 10
44.9324619464
 20
-61.9974671512
 11
45.1341262728
 21
-61.7958028248
  0
LINE
  5
36C
100
AcDbEntity
  8
CURVE
100
AcDbLine
 62
7
  6
CONTINUOUS
 10
45.0095223096
 20
-62.340428216
 11
45.2416739592
 21
-62.1082765664
  0
LINE
  5
36D
100
AcDbEntity
  8
CURVE
100
AcDbLine
 62
7
  6
CONTINUOUS
 10
45.1679022745
 20
-62.6020696791
 11
45.3127739816
 21
-62.457197972
  0
LINE
  5
36E
100
AcDbEntity
  8
ASSI
100
AcDbLine
 62
7
  6
CONTINUOUS
 10
47.2030024326
 20
-66.2328519066
 11
47.4819783668
 21
-66.071805831
  0
LINE
  5
36F
100
AcDbEntity
  8
ASSI
100
AcDbLine
 62
7
  6
CONTINUOUS
 10
48.21253915
 20
-66.8442264913
 11
48.8989374977
 21
-66.4479852869
  0
LINE
  5
370
100
AcDbEntity
  8
ASSI
100
AcDbLine
 62
7
  6
CONTINUOUS
 10
52.9823718343
 20
-64.4076452208
 11
52.274834565
 21
-64.8160894147
  0
LINE
  5
371
100
AcDbEntity
  8
ASSI
100
AcDbLine
 62
7
  6
CONTINUOUS
 10
48.9204388496
 20
-66.4364237351
 11
48.8989374977
 21
-66.4479852869
  0
LINE
  5
372
100
AcDbEntity
  8
ASSI
100
AcDbLine
 62
7
  6
CONTINUOUS
 10
48.9204388496
 20
-66.4364237351
 11
52.9823718343
 21
-64.4076452208
  0
LINE
  5
373
100
AcDbEntity
  8
ASSI
100
AcDbLine
 62
7
  6
CONTINUOUS
 10
48.2129015803
 20
-66.844867929
 11
52.274834565
 21
-64.8160894147
  0
ENDSEC
  0
SECTION
  2
OBJECTS
  0
DICTIONARY
  5
C
100
AcDbDictionary
280
0
281
1
  3
ACAD_GROUP
350
D
  3
ACAD_MLINESTYLE
350
17
  3
ACAD_LAYOUT
350
1A
  3
ACAD_PLOTSETTINGS
350
19
  3
ACAD_PLOTSTYLENAME
350
E
  0
DICTIONARY
  5
D
102
{ACAD_REACTORS
330
C
102
}
100
AcDbDictionary
280
0
281
1
  0
ACDBDICTIONARYWDFLT
  5
E
102
{ACAD_REACTORS
330
C
102
}
100
AcDbDictionary
281
1
  3
Normal
350
F
100
AcDbDictionaryWithDefault
340
F
  0
DICTIONARY
  5
17
102
{ACAD_REACTORS
330
C
102
}
100
AcDbDictionary
280
0
281
1
  3
Standard
350
18
  0
DICTIONARY
  5
19
102
{ACAD_REACTORS
330
C
102
}
100
AcDbDictionary
281
1
  0
DICTIONARY
  5
1A
102
{ACAD_REACTORS
330
C
102
}
100
AcDbDictionary
281
1
  3
Model
350
374
  3
Layout1
350
375
  0
ACDBPLACEHOLDER
  5
F
102
{ACAD_REACTORS
330
E
102
}
  0
MLINESTYLE
  5
18
102
{ACAD_REACTORS
330
17
102
}
100
AcDbMlineStyle
  2
STANDARD
 70
0
  3

 62
256
 51
90.0
 52
90.0
 71
2
 49
0.5
 62
256
  6
BYLAYER
 49
-0.5
 62
256
  6
BYLAYER
  0
LAYOUT
  5
374
102
{ACAD_REACTORS
330
1A
102
}
100
AcDbPlotSettings
  1

  2
none_device
  4
ISO_A4_(297.00_x_210.00_MM)
  6

 40
0.0
 41
0.0
 42
0.0
 43
0.0
 44
297.0
 45
210.0
 46
0.0
 47
0.0
 48
0.0
 49
0.0
140
0.0
141
0.0
142
1.0
143
1.0
 70
1024
 72
1
 73
0
 74
0
  7

 75
0
147
1.0
148
0.0
149
0.0
100
AcDbLayout
  1
Model
 70
0
 71
0
 10
0.0
 20
0.0
 11
297.0
 21
210.0
 12
0.0
 22
0.0
 32
0.0
 14
0.0
 24
0.0
 34
0.0
 15
0.0
 25
0.0
 35
0.0
146
0.0
 13
0.0
 23
0.0
 33
0.0
 16
1.0
 26
0.0
 36
0.0
 17
0.0
 27
1.0
 37
0.0
 76
0
330
21E
345
0
346
0
  0
LAYOUT
  5
375
102
{ACAD_REACTORS
330
1A
102
}
100
AcDbPlotSettings
  1

  2
none_device
  4
ISO_A4_(297.00_x_210.00_MM)
  6

 40
0.0
 41
0.0
 42
0.0
 43
0.0
 44
297.0
 45
210.0
 46
0.0
 47
0.0
 48
0.0
 49
0.0
140
0.0
141
0.0
142
1.0
143
1.0
 70
0
 72
1
 73
0
 74
0
  7

 75
0
147
1.0
148
0.0
149
0.0
100
AcDbLayout
  1
Layout1
 70
0
 71
1
 10
0.0
 20
0.0
 11
297.0
 21
210.0
 12
0.0
 22
0.0
 32
0.0
 14
0.0
 24
0.0
 34
0.0
 15
0.0
 25
0.0
 35
0.0
146
0.0
 13
0.0
 23
0.0
 33
0.0
 16
1.0
 26
0.0
 36
0.0
 17
0.0
 27
1.0
 37
0.0
 76
0
330
21F
345
0
346
0
  0
ENDSEC
  0
EOF
