  0
SECTION
  2
HEADER
  9
$ACADVER
  1
AC1024
  9
$DWGCODEPAGE
  3
ANSI_1252
  9
$EXTMAX
 10
297.0
 20
210.0
 30
0.0
  9
$EXTMIN
 10
0.0
 20
0.0
 30
0.0
  9
$LIMMIN
 10
0.0
 20
0.0
  9
$LIMMAX
 10
297.0
 20
210.0
  9
$VIEWCTR
 10
148.5
 20
105.0
  9
$VIEWSIZE
 40
210.0
  9
$CLAYER
  8
0
  9
$LTSCALE
 40
16.335
  9
$CELTYPE
  6
BYLAYER
  9
$DIMSCALE
 40
1.0
  9
$DIMASZ
 40
3.0
  9
$DIMEXO
 40
0.5
  9
$DIMDLI
 40
11.286
  9
$DIMEXE
 40
1.5
  9
$DIMCEN
 40
2.673
  9
$DIMLFAC
 40
1.0
  9
$DIMBLK
  1
_FILLED
  9
$DIMALT
 70
0
  9
$DIMALTF
 40
0.0393700787
  9
$DIMTXT
 40
3.0
  9
$DIMTOL
 70
1
  9
$DIMLIM
 70
0
  9
$DIMTFAC
 40
1.0
  9
$DIMTP
 40
0.01
  9
$DIMTM
 40
0.01
  9
$DIMGAP
 40
0.625
  9
$DIMDSEP
 70
44
  9
$AUNITS
 70
0
  9
$PDMODE
 70
3
  9
$PDSIZE
 40
3.0
  9
$HANDSEED
  5
380
  9
$TILEMODE
 70
1
  9
$MEASUREMENT
 70
1
  9
$INSUNITS
 70
4
  0
ENDSEC
  0
SECTION
  2
CLASSES
  0
CLASS
  1
ACDBDICTIONARYWDFLT
  2
AcDbDictionaryWithDefault
  3
AutoCAD 2000
 90
0
 91
1
280
0
281
0
  0
CLASS
  1
ACDBPLACEHOLDER
  2
AcDbPlaceHolder
  3
AutoCAD 2000
 90
0
 91
1
280
0
281
0
  0
CLASS
  1
LAYOUT
  2
AcDbLayout
  3
AutoCAD 2000
 90
0
 91
0
280
0
281
0
  0
ENDSEC
  0
SECTION
  2
TABLES
  0
TABLE
  2
VPORT
  5
8
100
AcDbSymbolTable
 70
2
  0
VPORT
  5
1F4
100
AcDbSymbolTableRecord
100
AcDbViewportTableRecord
  2
*ACTIVE
 70
0
 10
0.0
 20
0.0
 11
1.0
 21
1.0
 12
148.5
 22
105.0
 13
0.0
 23
0.0
 14
1.0
 24
1.0
 15
0.0
 25
0.0
 16
0.0
 26
0.0
 36
1.0
 17
0.0
 27
0.0
 37
0.0
 40
210.0
 41
1.4142857143
 42
50.0
 43
0.0
 44
0.0
 50
0.0
 51
0.0
 71
0
 72
100
 73
1
 74
1
 75
0
 76
0
 77
0
 78
0
  0
ENDTAB
  0
TABLE
  2
LTYPE
  5
5
100
AcDbSymbolTable
 70
6
  0
LTYPE
  5
14
100
AcDbSymbolTableRecord
100
AcDbLinetypeTableRecord
  2
BYBLOCK
 70
0
  3

 72
65
 73
0
 40
0.0
  0
LTYPE
  5
15
100
AcDbSymbolTableRecord
100
AcDbLinetypeTableRecord
  2
BYLAYER
 70
0
  3

 72
65
 73
0
 40
0.0
  0
LTYPE
  5
16
100
AcDbSymbolTableRecord
100
AcDbLinetypeTableRecord
  2
CONTINUOUS
 70
64
  3
Solid line
 72
65
 73
0
 40
0.0
  0
LTYPE
  5
1F5
100
AcDbSymbolTableRecord
100
AcDbLinetypeTableRecord
  2
CENTER
 70
64
  3
____ _ ____ _ ____ _ ____ _ ____ _ ____ _ ____
 72
65
 73
4
 40
0.6
 49
0.375
 74
0
 49
-0.075
 74
0
 49
0.075
 74
0
 49
-0.075
 74
0
  0
LTYPE
  5
1F6
100
AcDbSymbolTableRecord
100
AcDbLinetypeTableRecord
  2
HIDDEN
 70
64
  3
- - - - - - - - - - - - - - - - - - - -
 72
65
 73
2
 40
0.2
 49
0.1
 74
0
 49
-0.1
 74
0
  0
LTYPE
  5
1F7
100
AcDbSymbolTableRecord
100
AcDbLinetypeTableRecord
  2
PHANTOM
 70
64
  3
_____ _ _ _____ _ _ _____ _ _ _____
 72
65
 73
6
 40
0.8
 49
0.45
 74
0
 49
-0.05
 74
0
 49
0.1
 74
0
 49
-0.05
 74
0
 49
0.1
 74
0
 49
-0.05
 74
0
  0
LTYPE
  5
1F8
100
AcDbSymbolTableRecord
100
AcDbLinetypeTableRecord
  2
DOT
 70
64
  3
. . . . . . . . . . . . . . . . . . . .
 72
65
 73
2
 40
0.2
 49
0.1
 74
0
 49
-0.1
 74
0
  0
LTYPE
  5
1F9
100
AcDbSymbolTableRecord
100
AcDbLinetypeTableRecord
  2
DASHED
 70
64
  3
- - - - - - - - - - - - - - - - - - - -
 72
65
 73
2
 40
0.2
 49
0.1
 74
0
 49
-0.1
 74
0
  0
ENDTAB
  0
TABLE
  2
LAYER
  5
2
100
AcDbSymbolTable
 70
36
  0
LAYER
  5
10
100
AcDbSymbolTableRecord
100
AcDbLayerTableRecord
  2
0
 70
0
 62
7
  6
CONTINUOUS
370
-3
390
F
  0
LAYER
  5
1FA
100
AcDbSymbolTableRecord
100
AcDbLayerTableRecord
  2
DEFAULT_1
 70
0
 62
7
  6
CENTER
370
-3
390
F
  0
LAYER
  5
1FB
100
AcDbSymbolTableRecord
100
AcDbLayerTableRecord
  2
DEFAULT_2
 70
0
 62
7
  6
HIDDEN
370
-3
390
F
  0
LAYER
  5
1FC
100
AcDbSymbolTableRecord
100
AcDbLayerTableRecord
  2
DEFAULT_3
 70
0
 62
7
  6
PHANTOM
370
-3
390
F
  0
LAYER
  5
1FD
100
AcDbSymbolTableRecord
100
AcDbLayerTableRecord
  2
ASSI
 70
0
 62
7
  6
CONTINUOUS
370
-3
390
F
  0
LAYER
  5
1FE
100
AcDbSymbolTableRecord
100
AcDbLayerTableRecord
  2
COORDINATE
 70
0
 62
7
  6
CONTINUOUS
370
-3
390
F
  0
LAYER
  5
1FF
100
AcDbSymbolTableRecord
100
AcDbLayerTableRecord
  2
COORD_ORIGINE
 70
0
 62
7
  6
CONTINUOUS
370
-3
390
F
  0
LAYER
  5
200
100
AcDbSymbolTableRecord
100
AcDbLayerTableRecord
  2
COPY_PUBLISH
 70
0
 62
7
  6
CONTINUOUS
370
-3
390
F
  0
LAYER
  5
201
100
AcDbSymbolTableRecord
100
AcDbLayerTableRecord
  2
COSMETIC
 70
0
 62
7
  6
CONTINUOUS
370
-3
390
F
  0
LAYER
  5
202
100
AcDbSymbolTableRecord
100
AcDbLayerTableRecord
  2
COSMETICI
 70
0
 62
7
  6
CONTINUOUS
370
-3
390
F
  0
LAYER
  5
203
100
AcDbSymbolTableRecord
100
AcDbLayerTableRecord
  2
CURVE
 70
0
 62
7
  6
CONTINUOUS
370
-3
390
F
  0
LAYER
  5
204
100
AcDbSymbolTableRecord
100
AcDbLayerTableRecord
  2
CURVE_COSTRUZIONE
 70
0
 62
7
  6
CONTINUOUS
370
-3
390
F
  0
LAYER
  5
205
100
AcDbSymbolTableRecord
100
AcDbLayerTableRecord
  2
CURVE_TASSELLI
 70
0
 62
7
  6
CONTINUOUS
370
-3
390
F
  0
LAYER
  5
206
100
AcDbSymbolTableRecord
100
AcDbLayerTableRecord
  2
DRAFT
 70
0
 62
7
  6
CONTINUOUS
370
-3
390
F
  0
LAYER
  5
207
100
AcDbSymbolTableRecord
100
AcDbLayerTableRecord
  2
IMPORT_IGES
 70
0
 62
7
  6
CONTINUOUS
370
-3
390
F
  0
LAYER
  5
208
100
AcDbSymbolTableRecord
100
AcDbLayerTableRecord
  2
INTFCLR_2
 70
0
 62
7
  6
CONTINUOUS
370
-3
390
F
  0
LAYER
  5
209
100
AcDbSymbolTableRecord
100
AcDbLayerTableRecord
  2
INTF_1
 70
0
 62
7
  6
CONTINUOUS
370
-3
390
F
  0
LAYER
  5
20A
100
AcDbSymbolTableRecord
100
AcDbLayerTableRecord
  2
INTF_6
 70
0
 62
7
  6
CONTINUOUS
370
-3
390
F
  0
LAYER
  5
20B
100
AcDbSymbolTableRecord
100
AcDbLayerTableRecord
  2
INTF_7
 70
0
 62
7
  6
CONTINUOUS
370
-3
390
F
  0
LAYER
  5
20C
100
AcDbSymbolTableRecord
100
AcDbLayerTableRecord
  2
INTF_CYAN
 70
0
 62
7
  6
CONTINUOUS
370
-3
390
F
  0
LAYER
  5
20D
100
AcDbSymbolTableRecord
100
AcDbLayerTableRecord
  2
LIVELLO_1
 70
0
 62
7
  6
CONTINUOUS
370
-3
390
F
  0
LAYER
  5
20E
100
AcDbSymbolTableRecord
100
AcDbLayerTableRecord
  2
NOTE
 70
0
 62
7
  6
CONTINUOUS
370
-3
390
F
  0
LAYER
  5
20F
100
AcDbSymbolTableRecord
100
AcDbLayerTableRecord
  2
PIANI
 70
0
 62
7
  6
CONTINUOUS
370
-3
390
F
  0
LAYER
  5
210
100
AcDbSymbolTableRecord
100
AcDbLayerTableRecord
  2
PIANI_ORIGINE
 70
0
 62
7
  6
CONTINUOUS
370
-3
390
F
  0
LAYER
  5
211
100
AcDbSymbolTableRecord
100
AcDbLayerTableRecord
  2
PIANI_RIFERIMENTO
 70
0
 62
7
  6
CONTINUOUS
370
-3
390
F
  0
LAYER
  5
212
100
AcDbSymbolTableRecord
100
AcDbLayerTableRecord
  2
PUNTI
 70
0
 62
7
  6
CONTINUOUS
370
-3
390
F
  0
LAYER
  5
213
100
AcDbSymbolTableRecord
100
AcDbLayerTableRecord
  2
RACCORDO
 70
0
 62
7
  6
CONTINUOUS
370
-3
390
F
  0
LAYER
  5
214
100
AcDbSymbolTableRecord
100
AcDbLayerTableRecord
  2
RGB__255__255__255__
 70
0
 62
7
  6
CONTINUOUS
370
-3
390
F
  0
LAYER
  5
215
100
AcDbSymbolTableRecord
100
AcDbLayerTableRecord
  2
RGB____0____0____0__
 70
0
 62
7
  6
CONTINUOUS
370
-3
390
F
  0
LAYER
  5
216
100
AcDbSymbolTableRecord
100
AcDbLayerTableRecord
  2
SIMBOLI
 70
0
 62
7
  6
CONTINUOUS
370
-3
390
F
  0
LAYER
  5
217
100
AcDbSymbolTableRecord
100
AcDbLayerTableRecord
  2
SMUSSO
 70
0
 62
7
  6
CONTINUOUS
370
-3
390
F
  0
LAYER
  5
218
100
AcDbSymbolTableRecord
100
AcDbLayerTableRecord
  2
SUPERFICI
 70
0
 62
7
  6
CONTINUOUS
370
-3
390
F
  0
LAYER
  5
219
100
AcDbSymbolTableRecord
100
AcDbLayerTableRecord
  2
TRASH
 70
0
 62
7
  6
CONTINUOUS
370
-3
390
F
  0
LAYER
  5
21A
100
AcDbSymbolTableRecord
100
AcDbLayerTableRecord
  2
WHITE
 70
0
 62
7
  6
CONTINUOUS
370
-3
390
F
  0
LAYER
  5
21B
100
AcDbSymbolTableRecord
100
AcDbLayerTableRecord
  2
XSEC_DATUMS
 70
0
 62
7
  6
CONTINUOUS
370
-3
390
F
  0
ENDTAB
  0
TABLE
  2
STYLE
  5
3
100
AcDbSymbolTable
 70
1
  0
STYLE
  5
11
100
AcDbSymbolTableRecord
100
AcDbTextStyleTableRecord
  2
STANDARD
 70
0
 40
0.0
 41
0.8
 50
0.0
 71
0
 42
0.2
  3
txt
  4

  0
STYLE
  5
21C
100
AcDbSymbolTableRecord
100
AcDbTextStyleTableRecord
  2
TEXTSTYLE_1
 70
0
 40
0.0
 41
0.8
 50
0.0
 71
0
 42
0.2
  3
gdt
  4

  0
ENDTAB
  0
TABLE
  2
VIEW
  5
6
100
AcDbSymbolTable
 70
0
  0
ENDTAB
  0
TABLE
  2
UCS
  5
7
100
AcDbSymbolTable
 70
0
  0
ENDTAB
  0
TABLE
  2
APPID
  5
9
100
AcDbSymbolTable
 70
1
  0
APPID
  5
21D
100
AcDbSymbolTableRecord
100
AcDbRegAppTableRecord
  2
ACAD
 70
0
  0
ENDTAB
  0
TABLE
  2
BLOCK_RECORD
  5
1
100
AcDbSymbolTable
 70
0
  0
BLOCK_RECORD
  5
21E
100
AcDbSymbolTableRecord
100
AcDbBlockTableRecord
  2
*Model_Space
  0
BLOCK_RECORD
  5
21F
100
AcDbSymbolTableRecord
100
AcDbBlockTableRecord
  2
*Paper_Space
  0
BLOCK_RECORD
  5
220
100
AcDbSymbolTableRecord
100
AcDbBlockTableRecord
  2
_FILLED
  0
ENDTAB
  0
TABLE
  2
DIMSTYLE
  5
A
100
AcDbSymbolTable
 70
1
100
AcDbDimStyleTable
 71
0
  0
DIMSTYLE
105
221
100
AcDbSymbolTableRecord
100
AcDbDimStyleTableRecord
  2
STANDARD
 70
0
  3

  4

 40
1.0
 41
3.0
 42
0.5
 43
0.38
 44
1.5
 45
0.0
 46
0.0
 47
0.01
 48
0.01
140
3.0
141
0.09
142
0.0
143
25.4
144
1.0
145
0.0
146
1.0
147
0.625
 71
1
 72
0
 73
0
 74
0
 75
0
 76
0
 77
1
 78
8
 79
2
170
0
171
1
172
0
173
0
174
0
175
0
176
0
177
0
178
0
270
2
179
2
271
2
272
2
273
2
274
2
275
0
280
0
281
0
282
0
283
1
284
8
285
0
286
0
287
3
288
0
340
11
278
44
341
220
342
220
343
220
344
220
  0
ENDTAB
  0
ENDSEC
  0
SECTION
  2
BLOCKS
  0
BLOCK
  5
20
100
AcDbEntity
  8
0
100
AcDbBlockBegin
  2
*Model_Space
 70
0
 10
0.0
 20
0.0
 30
0.0
  3
*Model_Space
  1

  0
ENDBLK
  5
21
100
AcDbEntity
  8
0
100
AcDbBlockEnd
  0
BLOCK
  5
1C
100
AcDbEntity
  8
0
100
AcDbBlockBegin
  2
*Paper_Space
 70
0
 10
0.0
 20
0.0
 30
0.0
  3
*Paper_Space
  1

  0
ENDBLK
  5
1D
100
AcDbEntity
  8
0
100
AcDbBlockEnd
  0
BLOCK
  5
222
100
AcDbEntity
  8
0
100
AcDbBlockBegin
  2
_FILLED
 70
64
 10
0.0
 20
0.0
  3
_FILLED
  1

  0
SOLID
  5
223
100
AcDbEntity
  8
0
  6
BYBLOCK
 62
0
100
AcDbTrace
 10
0.0
 20
0.0
 11
-1.0
 21
0.3166666667
 12
-1.0
 22
-0.3166666667
 13
-1.0
 23
-0.3166666667
  0
ENDBLK
  5
224
100
AcDbEntity
  8
0
  6
BYBLOCK
 62
0
100
AcDbBlockEnd
  0
ENDSEC
  0
SECTION
  2
ENTITIES
  0
LINE
  5
225
100
AcDbEntity
  8
0
100
AcDbLine
 62
7
  6
CONTINUOUS
 10
-33.713712047
 20
52.8073741756
 11
-29.9258982598
 21
55.3109410669
  0
LINE
  5
226
100
AcDbEntity
  8
ASSI
100
AcDbLine
 62
7
  6
CONTINUOUS
 10
-33.713712047
 20
52.8073741756
 11
-29.9258982598
 21
55.3109410669
  0
LINE
  5
227
100
AcDbEntity
  8
0
100
AcDbLine
 62
7
  6
CONTINUOUS
 10
-33.0061747777
 20
53.2158183695
 11
-29.2183609905
 21
55.7193852608
  0
LINE
  5
228
100
AcDbEntity
  8
ASSI
100
AcDbLine
 62
7
  6
CONTINUOUS
 10
-33.0061747777
 20
53.2158183695
 11
-29.2183609905
 21
55.7193852608
  0
LINE
  5
229
100
AcDbEntity
  8
0
100
AcDbLine
 62
7
  6
CONTINUOUS
 10
-33.0269383918
 20
53.2029790185
 11
-33.0061747777
 21
53.2158183695
  0
LINE
  5
22A
100
AcDbEntity
  8
ASSI
100
AcDbLine
 62
7
  6
CONTINUOUS
 10
-33.0269383918
 20
53.2029790185
 11
-33.0061747777
 21
53.2158183695
  0
LINE
  5
22B
100
AcDbEntity
  8
0
100
AcDbLine
 62
7
  6
CONTINUOUS
 10
-29.9258982598
 20
55.3109410669
 11
-29.2183609905
 21
55.7193852608
  0
LINE
  5
22C
100
AcDbEntity
  8
ASSI
100
AcDbLine
 62
7
  6
CONTINUOUS
 10
-29.9258982598
 20
55.3109410669
 11
-29.2183609905
 21
55.7193852608
  0
LINE
  5
22D
100
AcDbEntity
  8
0
100
AcDbLine
 62
7
  6
CONTINUOUS
 10
-33.0269383918
 20
53.2029790185
 11
-33.7133367395
 21
52.8067378141
  0
LINE
  5
22E
100
AcDbEntity
  8
ASSI
100
AcDbLine
 62
7
  6
CONTINUOUS
 10
-33.0269383918
 20
53.2029790185
 11
-33.7133367395
 21
52.8067378141
  0
LINE
  5
22F
100
AcDbEntity
  8
0
100
AcDbLine
 62
7
  6
CONTINUOUS
 10
-33.4096276917
 20
51.7877505801
 11
-33.6886036258
 21
51.6267045045
  0
LINE
  5
230
100
AcDbEntity
  8
ASSI
100
AcDbLine
 62
7
  6
CONTINUOUS
 10
-33.4096276917
 20
51.7877505801
 11
-33.6886036258
 21
51.6267045045
  0
LINE
  5
231
100
AcDbEntity
  8
CURVE
100
AcDbLine
 62
250
  6
CONTINUOUS
 10
32.0411322287
 20
-48.8463758992
 11
30.7827314074
 21
-49.1229986991
  0
LINE
  5
232
100
AcDbEntity
  8
CURVE
100
AcDbLine
 62
250
  6
CONTINUOUS
 10
30.7827314074
 20
-48.6972617039
 11
32.6109225841
 21
-48.3689685114
  0
LINE
  5
233
100
AcDbEntity
  8
CURVE
100
AcDbLine
 62
250
  6
CONTINUOUS
 10
31.2850719363
 20
-44.6382971314
 11
31.9635370636
 21
-44.4851225515
  0
LINE
  5
234
100
AcDbEntity
  8
CURVE
100
AcDbLine
 62
250
  6
CONTINUOUS
 10
32.2459507582
 20
-44.4202106124
 11
32.6109225841
 21
-44.3412594007
  0
LINE
  5
235
100
AcDbEntity
  8
CURVE
100
AcDbLine
 62
250
  6
CONTINUOUS
 10
32.6109225841
 20
-44.7626650212
 11
30.7827314074
 21
-45.1068295793
  0
LINE
  5
236
100
AcDbEntity
  8
CURVE
100
AcDbLine
 62
250
  6
CONTINUOUS
 10
31.7977486871
 20
-46.3057887178
 11
30.7827314074
 21
-46.4262684078
  0
LINE
  5
237
100
AcDbEntity
  8
CURVE
100
AcDbLine
 62
250
  6
CONTINUOUS
 10
31.4221246946
 20
-45.9739366547
 11
32.6109225841
 21
-45.8404082359
  0
LINE
  5
238
100
AcDbEntity
  8
0
100
AcDbLine
 62
7
  6
CONTINUOUS
 10
-33.4096276917
 20
51.7877505801
 11
-33.0269383918
 21
53.2029790185
  0
LINE
  5
239
100
AcDbEntity
  8
ASSI
100
AcDbLine
 62
7
  6
CONTINUOUS
 10
-33.4096276917
 20
51.7877505801
 11
-33.0269383918
 21
53.2029790185
  0
LINE
  5
23A
100
AcDbEntity
  8
0
100
AcDbLine
 62
7
  6
CONTINUOUS
 10
28.2133185794
 20
-54.9463231628
 11
29.6302777103
 21
-55.3225026187
  0
LINE
  5
23B
100
AcDbEntity
  8
ASSI
100
AcDbLine
 62
7
  6
CONTINUOUS
 10
28.2133185794
 20
-54.9463231628
 11
29.6302777103
 21
-55.3225026187
  0
LINE
  5
23C
100
AcDbEntity
  8
0
100
AcDbLine
 62
7
  6
CONTINUOUS
 10
-33.6886036258
 20
-19.2049290948
 11
-33.4096276917
 21
-19.6881295863
  0
LINE
  5
23D
100
AcDbEntity
  8
ASSI
100
AcDbLine
 62
7
  6
CONTINUOUS
 10
-33.6886036258
 20
-19.2049290948
 11
-33.4096276917
 21
-19.6881295863
  0
LINE
  5
23E
100
AcDbEntity
  8
0
100
AcDbLine
 62
7
  6
CONTINUOUS
 10
-33.6886036258
 20
-19.2049290948
 11
-33.7133367395
 21
-18.7486935173
  0
LINE
  5
23F
100
AcDbEntity
  8
ASSI
100
AcDbLine
 62
7
  6
CONTINUOUS
 10
-33.6886036258
 20
-19.2049290948
 11
-33.7133367395
 21
-18.7486935173
  0
LINE
  5
240
100
AcDbEntity
  8
0
100
AcDbLine
 62
7
  6
CONTINUOUS
 10
-33.4096276917
 20
-19.6881295863
 11
-33.0269383918
 21
-19.9375703284
  0
LINE
  5
241
100
AcDbEntity
  8
ASSI
100
AcDbLine
 62
7
  6
CONTINUOUS
 10
-33.4096276917
 20
-19.6881295863
 11
-33.0269383918
 21
-19.9375703284
  0
LINE
  5
242
100
AcDbEntity
  8
0
100
AcDbLine
 62
7
  6
CONTINUOUS
 10
-33.6886036258
 20
51.6267045045
 11
-33.7133367395
 21
52.8067378141
  0
LINE
  5
243
100
AcDbEntity
  8
ASSI
100
AcDbLine
 62
7
  6
CONTINUOUS
 10
-33.6886036258
 20
51.6267045045
 11
-33.7133367395
 21
52.8067378141
  0
LINE
  5
244
100
AcDbEntity
  8
0
100
AcDbLine
 62
7
  6
CONTINUOUS
 10
-33.7133367395
 20
-18.7486935173
 11
-33.713712047
 21
-18.7245006566
  0
LINE
  5
245
100
AcDbEntity
  8
ASSI
100
AcDbLine
 62
7
  6
CONTINUOUS
 10
-33.7133367395
 20
-18.7486935173
 11
-33.713712047
 21
-18.7245006566
  0
LINE
  5
246
100
AcDbEntity
  8
0
100
AcDbLine
 62
7
  6
CONTINUOUS
 10
-33.713712047
 20
52.8073741756
 11
-33.713712047
 21
-18.7245006566
  0
LINE
  5
247
100
AcDbEntity
  8
ASSI
100
AcDbLine
 62
7
  6
CONTINUOUS
 10
-33.713712047
 20
52.8073741756
 11
-33.713712047
 21
-18.7245006566
  0
LINE
  5
248
100
AcDbEntity
  8
0
100
AcDbLine
 62
7
  6
CONTINUOUS
 10
-33.6886036258
 20
51.6267045045
 11
-33.6886036258
 21
-19.2049290948
  0
LINE
  5
249
100
AcDbEntity
  8
ASSI
100
AcDbLine
 62
7
  6
CONTINUOUS
 10
-33.6886036258
 20
51.6267045045
 11
-33.6886036258
 21
-19.2049290948
  0
LINE
  5
24A
100
AcDbEntity
  8
0
100
AcDbLine
 62
7
  6
CONTINUOUS
 10
-33.0061747777
 20
-19.949991154
 11
28.9442417929
 21
-55.7193852608
  0
LINE
  5
24B
100
AcDbEntity
  8
ASSI
100
AcDbLine
 62
7
  6
CONTINUOUS
 10
-33.0061747777
 20
-19.949991154
 11
28.9442417929
 21
-55.7193852608
  0
LINE
  5
24C
100
AcDbEntity
  8
0
100
AcDbLine
 62
7
  6
CONTINUOUS
 10
-33.4096276917
 20
-19.6881295863
 11
27.9343426453
 21
-55.1073692384
  0
LINE
  5
24D
100
AcDbEntity
  8
ASSI
100
AcDbLine
 62
7
  6
CONTINUOUS
 10
-33.4096276917
 20
-19.6881295863
 11
27.9343426453
 21
-55.1073692384
  0
LINE
  5
24E
100
AcDbEntity
  8
0
100
AcDbLine
 62
7
  6
CONTINUOUS
 10
-33.0061747777
 20
-19.949991154
 11
-33.0269383918
 21
-19.9375703284
  0
LINE
  5
24F
100
AcDbEntity
  8
ASSI
100
AcDbLine
 62
7
  6
CONTINUOUS
 10
-33.0061747777
 20
-19.949991154
 11
-33.0269383918
 21
-19.9375703284
  0
LINE
  5
250
100
AcDbEntity
  8
0
100
AcDbLine
 62
7
  6
CONTINUOUS
 10
27.9343426453
 20
-55.1073692384
 11
28.9438793627
 21
-55.7187438231
  0
LINE
  5
251
100
AcDbEntity
  8
ASSI
100
AcDbLine
 62
7
  6
CONTINUOUS
 10
27.9343426453
 20
-55.1073692384
 11
28.9438793627
 21
-55.7187438231
  0
LINE
  5
252
100
AcDbEntity
  8
0
100
AcDbLine
 62
7
  6
CONTINUOUS
 10
-21.9709469715
 20
7.8123190558
 11
-21.9709469715
 21
11.0782001629
  0
LINE
  5
253
100
AcDbEntity
  8
ASSI
100
AcDbLine
 62
7
  6
CONTINUOUS
 10
-21.9709469715
 20
7.8123190558
 11
-21.9709469715
 21
11.0782001629
  0
LINE
  5
254
100
AcDbEntity
  8
0
100
AcDbLine
 62
7
  6
CONTINUOUS
 10
-20.2738906966
 20
7.8123190558
 11
-20.2738906966
 21
11.0782001629
  0
LINE
  5
255
100
AcDbEntity
  8
ASSI
100
AcDbLine
 62
7
  6
CONTINUOUS
 10
-20.2738906966
 20
7.8123190558
 11
-20.2738906966
 21
11.0782001629
  0
LINE
  5
256
100
AcDbEntity
  8
0
100
AcDbLine
 62
7
  6
CONTINUOUS
 10
-19.920337306
 20
11.2823374596
 11
-19.920337306
 21
8.0164563524
  0
LINE
  5
257
100
AcDbEntity
  8
ASSI
100
AcDbLine
 62
7
  6
CONTINUOUS
 10
-19.920337306
 20
11.2823374596
 11
-19.920337306
 21
8.0164563524
  0
LINE
  5
258
100
AcDbEntity
  8
0
100
AcDbLine
 62
250
  6
CONTINUOUS
 10
-19.920337306
 20
11.2823374596
 11
-20.2738906966
 21
11.0782001629
  0
LINE
  5
259
100
AcDbEntity
  8
ASSI
100
AcDbLine
 62
250
  6
CONTINUOUS
 10
-19.920337306
 20
11.2823374596
 11
-20.2738906966
 21
11.0782001629
  0
LINE
  5
25A
100
AcDbEntity
  8
0
100
AcDbLine
 62
250
  6
CONTINUOUS
 10
-19.920337306
 20
8.0164563524
 11
-20.2738906966
 21
7.8123190558
  0
LINE
  5
25B
100
AcDbEntity
  8
ASSI
100
AcDbLine
 62
250
  6
CONTINUOUS
 10
-19.920337306
 20
8.0164563524
 11
-20.2738906966
 21
7.8123190558
  0
LINE
  5
25C
100
AcDbEntity
  8
0
100
AcDbLine
 62
7
  6
CONTINUOUS
 10
-15.3241432283
 20
7.2404189857
 11
-15.3241432283
 21
3.9745378785
  0
LINE
  5
25D
100
AcDbEntity
  8
ASSI
100
AcDbLine
 62
7
  6
CONTINUOUS
 10
-15.3241432283
 20
7.2404189857
 11
-15.3241432283
 21
3.9745378785
  0
LINE
  5
25E
100
AcDbEntity
  8
0
100
AcDbLine
 62
250
  6
CONTINUOUS
 10
9.8488581819
 20
-10.560037644
 11
11.5459144568
 21
-10.560037644
  0
LINE
  5
25F
100
AcDbEntity
  8
ASSI
100
AcDbLine
 62
250
  6
CONTINUOUS
 10
9.8488581819
 20
-10.560037644
 11
11.5459144568
 21
-10.560037644
  0
LINE
  5
260
100
AcDbEntity
  8
0
100
AcDbLine
 62
7
  6
CONTINUOUS
 10
-6.0610443948
 20
-1.3738592941
 11
-6.0610443948
 21
1.8920218131
  0
LINE
  5
261
100
AcDbEntity
  8
ASSI
100
AcDbLine
 62
7
  6
CONTINUOUS
 10
-6.0610443948
 20
-1.3738592941
 11
-6.0610443948
 21
1.8920218131
  0
LINE
  5
262
100
AcDbEntity
  8
0
100
AcDbLine
 62
7
  6
CONTINUOUS
 10
-4.3639881199
 20
-1.3738592941
 11
-4.3639881199
 21
1.8920218131
  0
LINE
  5
263
100
AcDbEntity
  8
ASSI
100
AcDbLine
 62
7
  6
CONTINUOUS
 10
-4.3639881199
 20
-1.3738592941
 11
-4.3639881199
 21
1.8920218131
  0
LINE
  5
264
100
AcDbEntity
  8
0
100
AcDbLine
 62
7
  6
CONTINUOUS
 10
-4.0104347293
 20
2.0961591097
 11
-4.0104347293
 21
-1.1697219974
  0
LINE
  5
265
100
AcDbEntity
  8
ASSI
100
AcDbLine
 62
7
  6
CONTINUOUS
 10
-4.0104347293
 20
2.0961591097
 11
-4.0104347293
 21
-1.1697219974
  0
LINE
  5
266
100
AcDbEntity
  8
0
100
AcDbLine
 62
250
  6
CONTINUOUS
 10
-4.0104347293
 20
2.0961591097
 11
-4.3639881199
 21
1.8920218131
  0
LINE
  5
267
100
AcDbEntity
  8
ASSI
100
AcDbLine
 62
250
  6
CONTINUOUS
 10
-4.0104347293
 20
2.0961591097
 11
-4.3639881199
 21
1.8920218131
  0
LINE
  5
268
100
AcDbEntity
  8
0
100
AcDbLine
 62
250
  6
CONTINUOUS
 10
9.8488581819
 20
-7.2941565368
 11
11.5459144568
 21
-7.2941565368
  0
LINE
  5
269
100
AcDbEntity
  8
ASSI
100
AcDbLine
 62
250
  6
CONTINUOUS
 10
9.8488581819
 20
-7.2941565368
 11
11.5459144568
 21
-7.2941565368
  0
LINE
  5
26A
100
AcDbEntity
  8
0
100
AcDbLine
 62
250
  6
CONTINUOUS
 10
-4.0104347293
 20
-1.1697219974
 11
-4.3639881199
 21
-1.3738592941
  0
LINE
  5
26B
100
AcDbEntity
  8
ASSI
100
AcDbLine
 62
250
  6
CONTINUOUS
 10
-4.0104347293
 20
-1.1697219974
 11
-4.3639881199
 21
-1.3738592941
  0
LINE
  5
26C
100
AcDbEntity
  8
0
100
AcDbLine
 62
7
  6
CONTINUOUS
 10
28.9442417929
 20
17.4464242627
 11
33.0061747777
 21
19.7917181648
  0
LINE
  5
26D
100
AcDbEntity
  8
ASSI
100
AcDbLine
 62
7
  6
CONTINUOUS
 10
28.9442417929
 20
17.4464242627
 11
33.0061747777
 21
19.7917181648
  0
LINE
  5
26E
100
AcDbEntity
  8
0
100
AcDbLine
 62
250
  6
CONTINUOUS
 10
-6.0610443948
 20
-1.3738592941
 11
-4.3639881199
 21
-1.3738592941
  0
LINE
  5
26F
100
AcDbEntity
  8
ASSI
100
AcDbLine
 62
250
  6
CONTINUOUS
 10
-6.0610443948
 20
-1.3738592941
 11
-4.3639881199
 21
-1.3738592941
  0
LINE
  5
270
100
AcDbEntity
  8
0
100
AcDbLine
 62
7
  6
CONTINUOUS
 10
-33.713712047
 20
52.8073741756
 11
-33.7133367395
 21
52.8067378141
  0
LINE
  5
271
100
AcDbEntity
  8
ASSI
100
AcDbLine
 62
7
  6
CONTINUOUS
 10
-33.713712047
 20
52.8073741756
 11
-33.7133367395
 21
52.8067378141
  0
LINE
  5
272
100
AcDbEntity
  8
0
100
AcDbLine
 62
7
  6
CONTINUOUS
 10
28.9438793627
 20
-55.7187438231
 11
28.9442417929
 21
-55.7193852608
  0
LINE
  5
273
100
AcDbEntity
  8
ASSI
100
AcDbLine
 62
7
  6
CONTINUOUS
 10
28.9438793627
 20
-55.7187438231
 11
28.9442417929
 21
-55.7193852608
  0
LINE
  5
274
100
AcDbEntity
  8
0
100
AcDbLine
 62
7
  6
CONTINUOUS
 10
0.5857593484
 20
-1.9457593642
 11
0.5857593484
 21
-5.2116404714
  0
LINE
  5
275
100
AcDbEntity
  8
ASSI
100
AcDbLine
 62
7
  6
CONTINUOUS
 10
0.5857593484
 20
-1.9457593642
 11
0.5857593484
 21
-5.2116404714
  0
LINE
  5
276
100
AcDbEntity
  8
0
100
AcDbLine
 62
7
  6
CONTINUOUS
 10
29.6517790622
 20
16.2209337653
 11
33.713712047
 21
18.5662276674
  0
LINE
  5
277
100
AcDbEntity
  8
ASSI
100
AcDbLine
 62
7
  6
CONTINUOUS
 10
29.6517790622
 20
16.2209337653
 11
33.713712047
 21
18.5662276674
  0
LINE
  5
278
100
AcDbEntity
  8
0
100
AcDbLine
 62
250
  6
CONTINUOUS
 10
-6.0610443948
 20
1.8920218131
 11
-4.3639881199
 21
1.8920218131
  0
LINE
  5
279
100
AcDbEntity
  8
ASSI
100
AcDbLine
 62
250
  6
CONTINUOUS
 10
-6.0610443948
 20
1.8920218131
 11
-4.3639881199
 21
1.8920218131
  0
LINE
  5
27A
100
AcDbEntity
  8
0
100
AcDbLine
 62
7
  6
CONTINUOUS
 10
27.9343426453
 20
16.368510928
 11
28.9438793627
 21
17.4218055238
  0
LINE
  5
27B
100
AcDbEntity
  8
ASSI
100
AcDbLine
 62
7
  6
CONTINUOUS
 10
27.9343426453
 20
16.368510928
 11
28.9438793627
 21
17.4218055238
  0
LINE
  5
27C
100
AcDbEntity
  8
0
100
AcDbLine
 62
7
  6
CONTINUOUS
 10
28.2133185794
 20
15.8853104365
 11
29.6302777103
 21
16.2329287127
  0
LINE
  5
27D
100
AcDbEntity
  8
ASSI
100
AcDbLine
 62
7
  6
CONTINUOUS
 10
28.2133185794
 20
15.8853104365
 11
29.6302777103
 21
16.2329287127
  0
LINE
  5
27E
100
AcDbEntity
  8
0
100
AcDbLine
 62
250
  6
CONTINUOUS
 10
-21.9709469715
 20
7.8123190558
 11
-20.2738906966
 21
7.8123190558
  0
LINE
  5
27F
100
AcDbEntity
  8
ASSI
100
AcDbLine
 62
250
  6
CONTINUOUS
 10
-21.9709469715
 20
7.8123190558
 11
-20.2738906966
 21
7.8123190558
  0
LINE
  5
280
100
AcDbEntity
  8
0
100
AcDbLine
 62
7
  6
CONTINUOUS
 10
9.8488581819
 20
-10.560037644
 11
9.8488581819
 21
-7.2941565368
  0
LINE
  5
281
100
AcDbEntity
  8
ASSI
100
AcDbLine
 62
7
  6
CONTINUOUS
 10
9.8488581819
 20
-10.560037644
 11
9.8488581819
 21
-7.2941565368
  0
LINE
  5
282
100
AcDbEntity
  8
0
100
AcDbLine
 62
7
  6
CONTINUOUS
 10
11.5459144568
 20
-10.560037644
 11
11.5459144568
 21
-7.2941565368
  0
LINE
  5
283
100
AcDbEntity
  8
ASSI
100
AcDbLine
 62
7
  6
CONTINUOUS
 10
11.5459144568
 20
-10.560037644
 11
11.5459144568
 21
-7.2941565368
  0
LINE
  5
284
100
AcDbEntity
  8
0
100
AcDbLine
 62
7
  6
CONTINUOUS
 10
11.8994678474
 20
-7.0900192401
 11
11.8994678474
 21
-10.3559003473
  0
LINE
  5
285
100
AcDbEntity
  8
ASSI
100
AcDbLine
 62
7
  6
CONTINUOUS
 10
11.8994678474
 20
-7.0900192401
 11
11.8994678474
 21
-10.3559003473
  0
LINE
  5
286
100
AcDbEntity
  8
0
100
AcDbLine
 62
250
  6
CONTINUOUS
 10
11.8994678474
 20
-7.0900192401
 11
11.5459144568
 21
-7.2941565368
  0
LINE
  5
287
100
AcDbEntity
  8
ASSI
100
AcDbLine
 62
250
  6
CONTINUOUS
 10
11.8994678474
 20
-7.0900192401
 11
11.5459144568
 21
-7.2941565368
  0
LINE
  5
288
100
AcDbEntity
  8
0
100
AcDbLine
 62
250
  6
CONTINUOUS
 10
-21.9709469715
 20
11.0782001629
 11
-20.2738906966
 21
11.0782001629
  0
LINE
  5
289
100
AcDbEntity
  8
ASSI
100
AcDbLine
 62
250
  6
CONTINUOUS
 10
-21.9709469715
 20
11.0782001629
 11
-20.2738906966
 21
11.0782001629
  0
LINE
  5
28A
100
AcDbEntity
  8
0
100
AcDbLine
 62
7
  6
CONTINUOUS
 10
16.4956619251
 20
-11.1319377141
 11
16.4956619251
 21
-14.3978188213
  0
LINE
  5
28B
100
AcDbEntity
  8
ASSI
100
AcDbLine
 62
7
  6
CONTINUOUS
 10
16.4956619251
 20
-11.1319377141
 11
16.4956619251
 21
-14.3978188213
  0
LINE
  5
28C
100
AcDbEntity
  8
0
100
AcDbLine
 62
250
  6
CONTINUOUS
 10
11.8994678474
 20
-10.3559003473
 11
11.5459144568
 21
-10.560037644
  0
LINE
  5
28D
100
AcDbEntity
  8
ASSI
100
AcDbLine
 62
250
  6
CONTINUOUS
 10
11.8994678474
 20
-10.3559003473
 11
11.5459144568
 21
-10.560037644
  0
LINE
  5
28E
100
AcDbEntity
  8
0
100
AcDbLine
 62
7
  6
CONTINUOUS
 10
28.2133185794
 20
-54.9463231628
 11
28.2133185794
 21
15.8853104365
  0
LINE
  5
28F
100
AcDbEntity
  8
ASSI
100
AcDbLine
 62
7
  6
CONTINUOUS
 10
28.2133185794
 20
-54.9463231628
 11
28.2133185794
 21
15.8853104365
  0
LINE
  5
290
100
AcDbEntity
  8
0
100
AcDbLine
 62
7
  6
CONTINUOUS
 10
29.6517790622
 20
-55.3109410669
 11
29.6517790622
 21
16.2209337653
  0
LINE
  5
291
100
AcDbEntity
  8
ASSI
100
AcDbLine
 62
7
  6
CONTINUOUS
 10
29.6517790622
 20
-55.3109410669
 11
29.6517790622
 21
16.2209337653
  0
LINE
  5
292
100
AcDbEntity
  8
CURVE
100
AcDbLine
 62
250
  6
CONTINUOUS
 10
30.7826224357
 20
-48.1131914136
 11
30.7826224357
 21
-48.5392198888
  0
LINE
  5
293
100
AcDbEntity
  8
CURVE
100
AcDbLine
 62
250
  6
CONTINUOUS
 10
30.7827314074
 20
-50.3757694636
 11
30.7827314074
 21
-49.9129712496
  0
LINE
  5
294
100
AcDbEntity
  8
CURVE
100
AcDbLine
 62
250
  6
CONTINUOUS
 10
30.7827314074
 20
-49.1229986991
 11
30.7827314074
 21
-48.6972617039
  0
LINE
  5
295
100
AcDbEntity
  8
CURVE
100
AcDbLine
 62
250
  6
CONTINUOUS
 10
30.7827314074
 20
-47.6995015504
 11
30.7827314074
 21
-47.2738257904
  0
LINE
  5
296
100
AcDbEntity
  8
CURVE
100
AcDbLine
 62
250
  6
CONTINUOUS
 10
30.7827314074
 20
-46.4262684078
 11
30.7827314074
 21
-46.0047550133
  0
LINE
  5
297
100
AcDbEntity
  8
CURVE
100
AcDbLine
 62
250
  6
CONTINUOUS
 10
30.7827314074
 20
-45.1068295793
 11
30.7827314074
 21
-44.6946982448
  0
LINE
  5
298
100
AcDbEntity
  8
0
100
AcDbLine
 62
7
  6
CONTINUOUS
 10
28.9442417929
 20
17.4464242627
 11
28.9438793627
 21
17.4218055238
  0
LINE
  5
299
100
AcDbEntity
  8
ASSI
100
AcDbLine
 62
7
  6
CONTINUOUS
 10
28.9442417929
 20
17.4464242627
 11
28.9438793627
 21
17.4218055238
  0
LINE
  5
29A
100
AcDbEntity
  8
0
100
AcDbLine
 62
7
  6
CONTINUOUS
 10
29.6302777103
 20
16.2329287127
 11
29.6517790622
 21
16.2209337653
  0
LINE
  5
29B
100
AcDbEntity
  8
ASSI
100
AcDbLine
 62
7
  6
CONTINUOUS
 10
29.6302777103
 20
16.2329287127
 11
29.6517790622
 21
16.2209337653
  0
LINE
  5
29C
100
AcDbEntity
  8
0
100
AcDbLine
 62
7
  6
CONTINUOUS
 10
27.9343426453
 20
16.368510928
 11
-33.4096276917
 21
51.7877505801
  0
LINE
  5
29D
100
AcDbEntity
  8
ASSI
100
AcDbLine
 62
7
  6
CONTINUOUS
 10
27.9343426453
 20
16.368510928
 11
-33.4096276917
 21
51.7877505801
  0
LINE
  5
29E
100
AcDbEntity
  8
0
100
AcDbLine
 62
7
  6
CONTINUOUS
 10
28.9442417929
 20
17.4464242627
 11
-33.0061747777
 21
53.2158183695
  0
LINE
  5
29F
100
AcDbEntity
  8
ASSI
100
AcDbLine
 62
7
  6
CONTINUOUS
 10
28.9442417929
 20
17.4464242627
 11
-33.0061747777
 21
53.2158183695
  0
LINE
  5
2A0
100
AcDbEntity
  8
CURVE
100
AcDbLine
 62
250
  6
CONTINUOUS
 10
31.5960561922
 20
-42.8518072462
 11
31.5960561922
 21
-43.0952782374
  0
LINE
  5
2A1
100
AcDbEntity
  8
CURVE
100
AcDbLine
 62
250
  6
CONTINUOUS
 10
31.89546968
 20
-42.9199408118
 11
31.89546968
 21
-42.691514577
  0
LINE
  5
2A2
100
AcDbEntity
  8
CURVE
100
AcDbLine
 62
250
  6
CONTINUOUS
 10
31.9635370636
 20
-44.4851225515
 11
31.9635370636
 21
-44.0772303306
  0
LINE
  5
2A3
100
AcDbEntity
  8
CURVE
100
AcDbLine
 62
250
  6
CONTINUOUS
 10
32.2459507582
 20
-43.840030916
 11
32.2459507582
 21
-44.4202106124
  0
LINE
  5
2A4
100
AcDbEntity
  8
CURVE
100
AcDbLine
 62
250
  6
CONTINUOUS
 10
32.6109225841
 20
-47.554821909
 11
32.6109225841
 21
-47.1287934339
  0
LINE
  5
2A5
100
AcDbEntity
  8
CURVE
100
AcDbLine
 62
250
  6
CONTINUOUS
 10
32.6109225961
 20
-42.9590390136
 11
32.6109225961
 21
-42.5347248472
  0
LINE
  5
2A6
100
AcDbEntity
  8
CURVE
100
AcDbLine
 62
250
  6
CONTINUOUS
 10
32.6109225961
 20
-41.8823211546
 11
32.6109225961
 21
-41.4725313766
  0
LINE
  5
2A7
100
AcDbEntity
  8
CURVE
100
AcDbLine
 62
250
  6
CONTINUOUS
 10
32.6109225841
 20
-43.0841417485
 11
32.6109225841
 21
-43.5331579443
  0
LINE
  5
2A8
100
AcDbEntity
  8
CURVE
100
AcDbLine
 62
250
  6
CONTINUOUS
 10
32.6109225841
 20
-44.3412594007
 11
32.6109225841
 21
-44.7626650212
  0
LINE
  5
2A9
100
AcDbEntity
  8
CURVE
100
AcDbLine
 62
250
  6
CONTINUOUS
 10
32.6109225841
 20
-44.8295633298
 11
32.6109225841
 21
-45.2463322155
  0
LINE
  5
2AA
100
AcDbEntity
  8
CURVE
100
AcDbLine
 62
250
  6
CONTINUOUS
 10
32.6109225841
 20
-45.8404082359
 11
32.6109225841
 21
-45.9001591637
  0
LINE
  5
2AB
100
AcDbEntity
  8
CURVE
100
AcDbLine
 62
250
  6
CONTINUOUS
 10
32.6109225841
 20
-46.491878851
 11
32.6109225841
 21
-46.8994493826
  0
LINE
  5
2AC
100
AcDbEntity
  8
CURVE
100
AcDbLine
 62
250
  6
CONTINUOUS
 10
32.6109225841
 20
-48.3689685114
 11
32.6109225841
 21
-48.7444060388
  0
LINE
  5
2AD
100
AcDbEntity
  8
0
100
AcDbLine
 62
7
  6
CONTINUOUS
 10
33.713712047
 20
-53.2821625527
 11
33.713712047
 21
18.5662276674
  0
LINE
  5
2AE
100
AcDbEntity
  8
ASSI
100
AcDbLine
 62
7
  6
CONTINUOUS
 10
33.713712047
 20
-53.2821625527
 11
33.713712047
 21
18.5662276674
  0
LINE
  5
2AF
100
AcDbEntity
  8
0
100
AcDbLine
 62
7
  6
CONTINUOUS
 10
33.0061747777
 20
19.7917181648
 11
-29.2183609905
 21
55.7193852608
  0
LINE
  5
2B0
100
AcDbEntity
  8
ASSI
100
AcDbLine
 62
7
  6
CONTINUOUS
 10
33.0061747777
 20
19.7917181648
 11
-29.2183609905
 21
55.7193852608
  0
LINE
  5
2B1
100
AcDbEntity
  8
0
100
AcDbLine
 62
7
  6
CONTINUOUS
 10
28.2133185794
 20
15.8853104365
 11
27.9343426453
 21
16.368510928
  0
LINE
  5
2B2
100
AcDbEntity
  8
ASSI
100
AcDbLine
 62
7
  6
CONTINUOUS
 10
28.2133185794
 20
15.8853104365
 11
27.9343426453
 21
16.368510928
  0
LINE
  5
2B3
100
AcDbEntity
  8
0
100
AcDbLine
 62
7
  6
CONTINUOUS
 10
29.6302777103
 20
16.2329287127
 11
28.9438793627
 21
17.4218055238
  0
LINE
  5
2B4
100
AcDbEntity
  8
ASSI
100
AcDbLine
 62
7
  6
CONTINUOUS
 10
29.6302777103
 20
16.2329287127
 11
28.9438793627
 21
17.4218055238
  0
LINE
  5
2B5
100
AcDbEntity
  8
0
100
AcDbLine
 62
7
  6
CONTINUOUS
 10
33.0061747777
 20
19.7917181648
 11
33.713712047
 21
18.5662276674
  0
LINE
  5
2B6
100
AcDbEntity
  8
ASSI
100
AcDbLine
 62
7
  6
CONTINUOUS
 10
33.0061747777
 20
19.7917181648
 11
33.713712047
 21
18.5662276674
  0
LINE
  5
2B7
100
AcDbEntity
  8
CURVE
100
AcDbLine
 62
7
  6
CONTINUOUS
 10
30.8822956562
 20
-42.72311303
 11
31.3465999758
 21
-42.2588087103
  0
LINE
  5
2B8
100
AcDbEntity
  8
CURVE
100
AcDbLine
 62
7
  6
CONTINUOUS
 10
30.7896677817
 20
-43.0257516185
 11
31.5957149166
 21
-42.2197044836
  0
LINE
  5
2B9
100
AcDbEntity
  8
CURVE
100
AcDbLine
 62
7
  6
CONTINUOUS
 10
30.7657007161
 20
-43.2597293981
 11
31.1151979809
 21
-42.9102321332
  0
LINE
  5
2BA
100
AcDbEntity
  8
CURVE
100
AcDbLine
 62
7
  6
CONTINUOUS
 10
31.3818572895
 20
-42.6435728247
 11
31.7296934554
 21
-42.2957366588
  0
LINE
  5
2BB
100
AcDbEntity
  8
CURVE
100
AcDbLine
 62
7
  6
CONTINUOUS
 10
31.8003745207
 20
-42.2250555935
 11
32.2663772494
 21
-41.7590528648
  0
LINE
  5
2BC
100
AcDbEntity
  8
CURVE
100
AcDbLine
 62
7
  6
CONTINUOUS
 10
30.7624675046
 20
-43.4729733236
 11
31.0771917578
 21
-43.1582490703
  0
LINE
  5
2BD
100
AcDbEntity
  8
CURVE
100
AcDbLine
 62
7
  6
CONTINUOUS
 10
31.5562295428
 20
-42.6792112854
 11
32.6109225961
 21
-41.6245182321
  0
LINE
  5
2BE
100
AcDbEntity
  8
CURVE
100
AcDbLine
 62
7
  6
CONTINUOUS
 10
30.7739592057
 20
-43.6714923365
 11
31.0922808036
 21
-43.3531707386
  0
LINE
  5
2BF
100
AcDbEntity
  8
CURVE
100
AcDbLine
 62
7
  6
CONTINUOUS
 10
31.5959648425
 20
-42.8494866997
 11
31.9613301396
 21
-42.4841214026
  0
LINE
  5
2C0
100
AcDbEntity
  8
CURVE
100
AcDbLine
 62
7
  6
CONTINUOUS
 10
32.265645735
 20
-42.1798058072
 11
32.6109225961
 21
-41.8345289461
  0
LINE
  5
2C1
100
AcDbEntity
  8
CURVE
100
AcDbLine
 62
250
  6
CONTINUOUS
 10
31.7575393183
 20
-42.3232217351
 11
31.7467363042
 21
-42.3290383212
  0
LINE
  5
2C2
100
AcDbEntity
  8
CURVE
100
AcDbLine
 62
7
  6
CONTINUOUS
 10
30.794681222
 20
-43.8607810343
 11
31.5183397193
 21
-43.1371225369
  0
LINE
  5
2C3
100
AcDbEntity
  8
CURVE
100
AcDbLine
 62
7
  6
CONTINUOUS
 10
31.5960561922
 20
-43.059406064
 11
31.89546968
 21
-42.7599925762
  0
LINE
  5
2C4
100
AcDbEntity
  8
CURVE
100
AcDbLine
 62
7
  6
CONTINUOUS
 10
31.0846595622
 20
-43.780813408
 11
32.0039292149
 21
-42.8615437553
  0
LINE
  5
2C5
100
AcDbEntity
  8
CURVE
100
AcDbLine
 62
7
  6
CONTINUOUS
 10
31.5396443151
 20
-43.5358393692
 11
32.4589139677
 21
-42.6165697165
  0
LINE
  5
2C6
100
AcDbEntity
  8
CURVE
100
AcDbLine
 62
7
  6
CONTINUOUS
 10
31.9946290679
 20
-43.2908653304
 11
32.6109225961
 21
-42.6745718021
  0
LINE
  5
2C7
100
AcDbEntity
  8
CURVE
100
AcDbLine
 62
7
  6
CONTINUOUS
 10
30.7827314074
 20
-44.7127737049
 11
30.9345702439
 21
-44.5609348684
  0
LINE
  5
2C8
100
AcDbEntity
  8
CURVE
100
AcDbLine
 62
7
  6
CONTINUOUS
 10
32.4496138207
 20
-43.0458912916
 11
32.6109225961
 21
-42.8845825162
  0
LINE
  5
2C9
100
AcDbEntity
  8
CURVE
100
AcDbLine
 62
7
  6
CONTINUOUS
 10
30.7827314074
 20
-44.9227844189
 11
32.6109225841
 21
-43.0945932422
  0
LINE
  5
2CA
100
AcDbEntity
  8
CURVE
100
AcDbLine
 62
7
  6
CONTINUOUS
 10
30.8147187015
 20
-45.1008078388
 11
32.6109225841
 21
-43.3046039562
  0
LINE
  5
2CB
100
AcDbEntity
  8
CURVE
100
AcDbLine
 62
7
  6
CONTINUOUS
 10
31.0734335585
 20
-45.0521036958
 11
31.5461923108
 21
-44.5793449435
  0
LINE
  5
2CC
100
AcDbEntity
  8
CURVE
100
AcDbLine
 62
7
  6
CONTINUOUS
 10
31.9635370636
 20
-44.1620001907
 11
32.2459507582
 21
-43.8795864961
  0
LINE
  5
2CD
100
AcDbEntity
  8
CURVE
100
AcDbLine
 62
7
  6
CONTINUOUS
 10
32.4944353884
 20
-43.6311018659
 11
32.6109225841
 21
-43.5146146703
  0
LINE
  5
2CE
100
AcDbEntity
  8
CURVE
100
AcDbLine
 62
7
  6
CONTINUOUS
 10
31.3321484155
 20
-45.0033995529
 11
31.8174420915
 21
-44.5181058768
  0
LINE
  5
2CF
100
AcDbEntity
  8
CURVE
100
AcDbLine
 62
7
  6
CONTINUOUS
 10
31.9635370636
 20
-44.3720109047
 11
32.2459507582
 21
-44.0895972101
  0
LINE
  5
2D0
100
AcDbEntity
  8
CURVE
100
AcDbLine
 62
7
  6
CONTINUOUS
 10
31.5908632724
 20
-44.9546954099
 11
32.2459507582
 21
-44.2996079241
  0
LINE
  5
2D1
100
AcDbEntity
  8
CURVE
100
AcDbLine
 62
7
  6
CONTINUOUS
 10
31.8495781294
 20
-44.9059912669
 11
32.3600383756
 21
-44.3955310207
  0
LINE
  5
2D2
100
AcDbEntity
  8
CURVE
100
AcDbLine
 62
7
  6
CONTINUOUS
 10
30.7827314074
 20
-46.182848703
 11
31.2813371728
 21
-45.6842429376
  0
LINE
  5
2D3
100
AcDbEntity
  8
CURVE
100
AcDbLine
 62
7
  6
CONTINUOUS
 10
32.1082929864
 20
-44.8572871239
 11
32.6109225841
 21
-44.3546575263
  0
LINE
  5
2D4
100
AcDbEntity
  8
CURVE
100
AcDbLine
 62
7
  6
CONTINUOUS
 10
30.7827314074
 20
-46.392859417
 11
31.8693004689
 21
-45.3062903555
  0
LINE
  5
2D5
100
AcDbEntity
  8
CURVE
100
AcDbLine
 62
7
  6
CONTINUOUS
 10
32.3670078434
 20
-44.808582981
 11
32.6109225841
 21
-44.5646682403
  0
LINE
  5
2D6
100
AcDbEntity
  8
CURVE
100
AcDbLine
 62
7
  6
CONTINUOUS
 10
30.9831185155
 20
-46.4024830229
 11
32.4572637651
 21
-44.9283377733
  0
LINE
  5
2D7
100
AcDbEntity
  8
CURVE
100
AcDbLine
 62
7
  6
CONTINUOUS
 10
31.221414263
 20
-46.3741979894
 11
31.6469257516
 21
-45.9486865008
  0
LINE
  5
2D8
100
AcDbEntity
  8
CURVE
100
AcDbLine
 62
7
  6
CONTINUOUS
 10
31.9364982016
 20
-45.6591140508
 11
32.6109225841
 21
-44.9846896683
  0
LINE
  5
2D9
100
AcDbEntity
  8
CURVE
100
AcDbLine
 62
7
  6
CONTINUOUS
 10
31.4597100106
 20
-46.3459129558
 11
31.8835101506
 21
-45.9221128158
  0
LINE
  5
2DA
100
AcDbEntity
  8
CURVE
100
AcDbLine
 62
7
  6
CONTINUOUS
 10
32.4778334991
 20
-45.3277894673
 11
32.6109225841
 21
-45.1947003824
  0
LINE
  5
2DB
100
AcDbEntity
  8
CURVE
100
AcDbLine
 62
7
  6
CONTINUOUS
 10
31.6980057581
 20
-46.3176279223
 11
32.1200945497
 21
-45.8955391307
  0
LINE
  5
2DC
100
AcDbEntity
  8
CURVE
100
AcDbLine
 62
7
  6
CONTINUOUS
 10
30.7827314074
 20
-47.442912987
 11
32.3566789488
 21
-45.8689654456
  0
LINE
  5
2DD
100
AcDbEntity
  8
CURVE
100
AcDbLine
 62
7
  6
CONTINUOUS
 10
30.7827314074
 20
-47.6529237011
 11
32.5932633479
 21
-45.8423917606
  0
LINE
  5
2DE
100
AcDbEntity
  8
CURVE
100
AcDbLine
 62
7
  6
CONTINUOUS
 10
31.0733404774
 20
-47.5723253451
 11
31.7621608549
 21
-46.8835049676
  0
LINE
  5
2DF
100
AcDbEntity
  8
CURVE
100
AcDbLine
 62
7
  6
CONTINUOUS
 10
31.4467722129
 20
-47.4089043236
 11
32.1520868459
 21
-46.7035896905
  0
LINE
  5
2E0
100
AcDbEntity
  8
CURVE
100
AcDbLine
 62
7
  6
CONTINUOUS
 10
30.7826224357
 20
-48.2830648148
 11
31.1506503613
 21
-47.9150368892
  0
LINE
  5
2E1
100
AcDbEntity
  8
CURVE
100
AcDbLine
 62
7
  6
CONTINUOUS
 10
31.8202039483
 20
-47.2454833022
 11
32.5420128369
 21
-46.5236744135
  0
LINE
  5
2E2
100
AcDbEntity
  8
CURVE
100
AcDbLine
 62
7
  6
CONTINUOUS
 10
30.7826224357
 20
-48.4930755288
 11
31.6056351141
 21
-47.6700628504
  0
LINE
  5
2E3
100
AcDbEntity
  8
CURVE
100
AcDbLine
 62
7
  6
CONTINUOUS
 10
32.1936356838
 20
-47.0820622807
 11
32.6109225841
 21
-46.6647753804
  0
LINE
  5
2E4
100
AcDbEntity
  8
CURVE
100
AcDbLine
 62
7
  6
CONTINUOUS
 10
30.7827314074
 20
-48.7029772711
 11
30.7896979809
 21
-48.6960106976
  0
LINE
  5
2E5
100
AcDbEntity
  8
CURVE
100
AcDbLine
 62
7
  6
CONTINUOUS
 10
31.1376361926
 20
-48.3480724859
 11
32.0606198669
 21
-47.4250888116
  0
LINE
  5
2E6
100
AcDbEntity
  8
CURVE
100
AcDbLine
 62
7
  6
CONTINUOUS
 10
32.5670674192
 20
-46.9186412593
 11
32.6109225841
 21
-46.8747860945
  0
LINE
  5
2E7
100
AcDbEntity
  8
CURVE
100
AcDbLine
 62
7
  6
CONTINUOUS
 10
30.7827314074
 20
-48.9129879851
 11
31.045675213
 21
-48.6500441796
  0
LINE
  5
2E8
100
AcDbEntity
  8
CURVE
100
AcDbLine
 62
7
  6
CONTINUOUS
 10
31.5926209455
 20
-48.1030984471
 11
32.5156046197
 21
-47.1801147728
  0
LINE
  5
2E9
100
AcDbEntity
  8
CURVE
100
AcDbLine
 62
7
  6
CONTINUOUS
 10
30.7827314074
 20
-49.1229986991
 11
31.301652445
 21
-48.6040776615
  0
LINE
  5
2EA
100
AcDbEntity
  8
CURVE
100
AcDbLine
 62
7
  6
CONTINUOUS
 10
32.0476056983
 20
-47.8581244083
 11
32.6109225841
 21
-47.2948075225
  0
LINE
  5
2EB
100
AcDbEntity
  8
CURVE
100
AcDbLine
 62
7
  6
CONTINUOUS
 10
31.0519141037
 20
-49.0638267168
 11
31.5576296771
 21
-48.5581111435
  0
LINE
  5
2EC
100
AcDbEntity
  8
CURVE
100
AcDbLine
 62
7
  6
CONTINUOUS
 10
32.5025904511
 20
-47.6131503695
 11
32.6109225841
 21
-47.5048182365
  0
LINE
  5
2ED
100
AcDbEntity
  8
CURVE
100
AcDbLine
 62
7
  6
CONTINUOUS
 10
31.3210968001
 20
-49.0046547345
 11
31.8136069091
 21
-48.5121446254
  0
LINE
  5
2EE
100
AcDbEntity
  8
CURVE
100
AcDbLine
 62
7
  6
CONTINUOUS
 10
31.5902794964
 20
-48.9454827521
 11
32.0695841412
 21
-48.4661781074
  0
LINE
  5
2EF
100
AcDbEntity
  8
CURVE
100
AcDbLine
 62
250
  6
CONTINUOUS
 10
32.6109225841
 20
-45.9001591637
 11
31.417148564
 21
-47.0426966689
  0
LINE
  5
2F0
100
AcDbEntity
  8
CURVE
100
AcDbLine
 62
250
  6
CONTINUOUS
 10
30.7827314074
 20
-47.2738257904
 11
31.7977486871
 21
-46.3057887178
  0
LINE
  5
2F1
100
AcDbEntity
  8
CURVE
100
AcDbLine
 62
250
  6
CONTINUOUS
 10
30.7827314074
 20
-44.6946982448
 11
32.6109225841
 21
-43.0841417485
  0
LINE
  5
2F2
100
AcDbEntity
  8
CURVE
100
AcDbLine
 62
250
  6
CONTINUOUS
 10
32.6109225841
 20
-43.5331579443
 11
32.2459507582
 21
-43.840030916
  0
LINE
  5
2F3
100
AcDbEntity
  8
CURVE
100
AcDbLine
 62
250
  6
CONTINUOUS
 10
31.9635370636
 20
-44.0772303306
 11
31.2850719363
 21
-44.6382971314
  0
LINE
  5
2F4
100
AcDbEntity
  8
CURVE
100
AcDbLine
 62
250
  6
CONTINUOUS
 10
30.7827314074
 20
-46.0047550133
 11
32.6109225841
 21
-44.8295633298
  0
LINE
  5
2F5
100
AcDbEntity
  8
CURVE
100
AcDbLine
 62
250
  6
CONTINUOUS
 10
32.6109225841
 20
-45.2463322155
 11
31.4221246946
 21
-45.9739366547
  0
LINE
  5
2F6
100
AcDbEntity
  8
CURVE
100
AcDbLine
 62
250
  6
CONTINUOUS
 10
32.6109225961
 20
-42.5347248472
 11
31.89546968
 21
-42.9199408118
  0
LINE
  5
2F7
100
AcDbEntity
  8
CURVE
100
AcDbLine
 62
250
  6
CONTINUOUS
 10
31.5960561922
 20
-43.0952782374
 11
31.0941821556
 21
-43.3654985228
  0
LINE
  5
2F8
100
AcDbEntity
  8
CURVE
100
AcDbLine
 62
250
  6
CONTINUOUS
 10
30.8040910657
 20
-43.9318778059
 11
32.6109225961
 21
-42.9590390136
  0
LINE
  5
2F9
100
AcDbEntity
  8
CURVE
100
AcDbLine
 62
250
  6
CONTINUOUS
 10
32.6109225841
 20
-47.1287934339
 11
30.7826224357
 21
-48.1131914136
  0
LINE
  5
2FA
100
AcDbEntity
  8
CURVE
100
AcDbLine
 62
250
  6
CONTINUOUS
 10
31.417148564
 20
-47.0426966689
 11
32.6109225841
 21
-46.491878851
  0
LINE
  5
2FB
100
AcDbEntity
  8
CURVE
100
AcDbLine
 62
250
  6
CONTINUOUS
 10
32.6109225841
 20
-46.8994493826
 11
30.7827314074
 21
-47.6995015504
  0
LINE
  5
2FC
100
AcDbEntity
  8
CURVE
100
AcDbLine
 62
7
  6
CONTINUOUS
 10
30.7827314074
 20
-49.9630415552
 11
31.111233579
 21
-49.6345393836
  0
LINE
  5
2FD
100
AcDbEntity
  8
CURVE
100
AcDbLine
 62
7
  6
CONTINUOUS
 10
31.8594621928
 20
-48.8863107698
 11
32.3255613732
 21
-48.4202115893
  0
LINE
  5
2FE
100
AcDbEntity
  8
CURVE
100
AcDbLine
 62
7
  6
CONTINUOUS
 10
30.7827314074
 20
-50.1730522692
 11
32.5815386053
 21
-48.3742450713
  0
LINE
  5
2FF
100
AcDbEntity
  8
CURVE
100
AcDbLine
 62
7
  6
CONTINUOUS
 10
30.850475656
 20
-50.3153187346
 11
32.6109225841
 21
-48.5548718066
  0
LINE
  5
300
100
AcDbEntity
  8
CURVE
100
AcDbLine
 62
250
  6
CONTINUOUS
 10
32.6109225841
 20
-48.7444060388
 11
30.7827314074
 21
-50.3757694636
  0
LINE
  5
301
100
AcDbEntity
  8
CURVE
100
AcDbLine
 62
250
  6
CONTINUOUS
 10
30.7827314074
 20
-49.9129712496
 11
32.0411322287
 21
-48.8463758992
  0
LINE
  5
302
100
AcDbEntity
  8
0
100
AcDbLine
 62
7
  6
CONTINUOUS
 10
27.9343426453
 20
-55.1073692384
 11
28.2133185794
 21
-54.9463231628
  0
LINE
  5
303
100
AcDbEntity
  8
ASSI
100
AcDbLine
 62
7
  6
CONTINUOUS
 10
27.9343426453
 20
-55.1073692384
 11
28.2133185794
 21
-54.9463231628
  0
LINE
  5
304
100
AcDbEntity
  8
0
100
AcDbLine
 62
7
  6
CONTINUOUS
 10
28.9438793627
 20
-55.7187438231
 11
29.6302777103
 21
-55.3225026187
  0
LINE
  5
305
100
AcDbEntity
  8
ASSI
100
AcDbLine
 62
7
  6
CONTINUOUS
 10
28.9438793627
 20
-55.7187438231
 11
29.6302777103
 21
-55.3225026187
  0
LINE
  5
306
100
AcDbEntity
  8
0
100
AcDbLine
 62
7
  6
CONTINUOUS
 10
33.713712047
 20
-53.2821625527
 11
33.0061747777
 21
-53.6906067465
  0
LINE
  5
307
100
AcDbEntity
  8
ASSI
100
AcDbLine
 62
7
  6
CONTINUOUS
 10
33.713712047
 20
-53.2821625527
 11
33.0061747777
 21
-53.6906067465
  0
LINE
  5
308
100
AcDbEntity
  8
CURVE
100
AcDbLine
 62
250
  6
CONTINUOUS
 10
30.7826224357
 20
-48.5392198888
 11
32.6109225841
 21
-47.554821909
  0
LINE
  5
309
100
AcDbEntity
  8
0
100
AcDbLine
 62
7
  6
CONTINUOUS
 10
29.6517790622
 20
-55.3109410669
 11
29.6302777103
 21
-55.3225026187
  0
LINE
  5
30A
100
AcDbEntity
  8
ASSI
100
AcDbLine
 62
7
  6
CONTINUOUS
 10
29.6517790622
 20
-55.3109410669
 11
29.6302777103
 21
-55.3225026187
  0
LINE
  5
30B
100
AcDbEntity
  8
0
100
AcDbLine
 62
7
  6
CONTINUOUS
 10
29.6517790622
 20
-55.3109410669
 11
33.713712047
 21
-53.2821625527
  0
LINE
  5
30C
100
AcDbEntity
  8
ASSI
100
AcDbLine
 62
7
  6
CONTINUOUS
 10
29.6517790622
 20
-55.3109410669
 11
33.713712047
 21
-53.2821625527
  0
LINE
  5
30D
100
AcDbEntity
  8
0
100
AcDbLine
 62
7
  6
CONTINUOUS
 10
28.9442417929
 20
-55.7193852608
 11
33.0061747777
 21
-53.6906067465
  0
LINE
  5
30E
100
AcDbEntity
  8
ASSI
100
AcDbLine
 62
7
  6
CONTINUOUS
 10
28.9442417929
 20
-55.7193852608
 11
33.0061747777
 21
-53.6906067465
  0
ARC
  5
30F
100
AcDbEntity
  8
0
100
AcDbCircle
 62
7
  6
CONTINUOUS
 10
-16.7728987532
 20
11.2837051588
 40
3.14743885
100
AcDbArc
 50
177.3373241875
 51
180.0248975107
  0
ARC
  5
310
100
AcDbEntity
  8
0
100
AcDbCircle
 62
7
  6
CONTINUOUS
 10
-0.8629961765
 20
2.0975268089
 40
3.14743885
100
AcDbArc
 50
177.3373241875
 51
180.0248975107
  0
ARC
  5
311
100
AcDbEntity
  8
0
100
AcDbCircle
 62
7
  6
CONTINUOUS
 10
15.0469064002
 20
-7.088651541
 40
3.14743885
100
AcDbArc
 50
177.3373241875
 51
180.0248975107
  0
ARC
  5
312
100
AcDbEntity
  8
ASSI
100
AcDbCircle
 62
7
  6
CONTINUOUS
 10
-16.7728987532
 20
11.2837051588
 40
3.14743885
100
AcDbArc
 50
177.3373241875
 51
180.0248975107
  0
ARC
  5
313
100
AcDbEntity
  8
ASSI
100
AcDbCircle
 62
7
  6
CONTINUOUS
 10
-0.8629961765
 20
2.0975268089
 40
3.14743885
100
AcDbArc
 50
177.3373241875
 51
180.0248975107
  0
ARC
  5
314
100
AcDbEntity
  8
ASSI
100
AcDbCircle
 62
7
  6
CONTINUOUS
 10
15.0469064002
 20
-7.088651541
 40
3.14743885
100
AcDbArc
 50
177.3373241875
 51
180.0248975107
  0
ARC
  5
315
100
AcDbEntity
  8
0
100
AcDbCircle
 62
7
  6
CONTINUOUS
 10
-0.975650258
 20
2.1023192521
 40
3.0346837918
100
AcDbArc
 50
177.0337823255
 51
177.3289005658
  0
ARC
  5
316
100
AcDbEntity
  8
0
100
AcDbCircle
 62
7
  6
CONTINUOUS
 10
14.9342523186
 20
-7.0838590978
 40
3.0346837917
100
AcDbArc
 50
177.0337823255
 51
177.3289005658
  0
ARC
  5
317
100
AcDbEntity
  8
ASSI
100
AcDbCircle
 62
7
  6
CONTINUOUS
 10
-0.975650258
 20
2.1023192521
 40
3.0346837918
100
AcDbArc
 50
177.0337823255
 51
177.3289005658
  0
ARC
  5
318
100
AcDbEntity
  8
ASSI
100
AcDbCircle
 62
7
  6
CONTINUOUS
 10
14.9342523186
 20
-7.0838590978
 40
3.0346837917
100
AcDbArc
 50
177.0337823255
 51
177.3289005658
  0
ARC
  5
319
100
AcDbEntity
  8
0
100
AcDbCircle
 62
7
  6
CONTINUOUS
 10
-16.8855528352
 20
11.288497602
 40
3.0346837914
100
AcDbArc
 50
177.0337823254
 51
177.3289005658
  0
ARC
  5
31A
100
AcDbEntity
  8
ASSI
100
AcDbCircle
 62
7
  6
CONTINUOUS
 10
-16.8855528352
 20
11.288497602
 40
3.0346837914
100
AcDbArc
 50
177.0337823254
 51
177.3289005658
  0
ARC
  5
31B
100
AcDbEntity
  8
0
100
AcDbCircle
 62
7
  6
CONTINUOUS
 10
-18.5146673759
 20
11.7700930468
 40
1.309670638
100
AcDbArc
 50
138.6918224195
 51
140.2140337998
  0
ARC
  5
31C
100
AcDbEntity
  8
0
100
AcDbCircle
 62
7
  6
CONTINUOUS
 10
-2.6047647991
 20
2.5839146969
 40
1.309670638
100
AcDbArc
 50
138.6918224196
 51
140.2140337998
  0
ARC
  5
31D
100
AcDbEntity
  8
0
100
AcDbCircle
 62
7
  6
CONTINUOUS
 10
13.3051377775
 20
-6.602263653
 40
1.309670638
100
AcDbArc
 50
138.6918224195
 51
140.2140337998
  0
ARC
  5
31E
100
AcDbEntity
  8
ASSI
100
AcDbCircle
 62
7
  6
CONTINUOUS
 10
-18.5146673759
 20
11.7700930468
 40
1.309670638
100
AcDbArc
 50
138.6918224195
 51
140.2140337998
  0
ARC
  5
31F
100
AcDbEntity
  8
ASSI
100
AcDbCircle
 62
7
  6
CONTINUOUS
 10
-2.6047647991
 20
2.5839146969
 40
1.309670638
100
AcDbArc
 50
138.6918224196
 51
140.2140337998
  0
ARC
  5
320
100
AcDbEntity
  8
ASSI
100
AcDbCircle
 62
7
  6
CONTINUOUS
 10
13.3051377775
 20
-6.602263653
 40
1.309670638
100
AcDbArc
 50
138.6918224195
 51
140.2140337998
  0
ARC
  5
321
100
AcDbEntity
  8
0
100
AcDbCircle
 62
7
  6
CONTINUOUS
 10
-16.3165979078
 20
4.6845585403
 40
1.2906741324
100
AcDbArc
 50
279.7714797647
 51
284.6227424291
  0
ARC
  5
322
100
AcDbEntity
  8
0
100
AcDbCircle
 62
7
  6
CONTINUOUS
 10
-0.4066953311
 20
-4.5016198096
 40
1.2906741324
100
AcDbArc
 50
279.7714797647
 51
284.6227424291
  0
ARC
  5
323
100
AcDbEntity
  8
0
100
AcDbCircle
 62
7
  6
CONTINUOUS
 10
15.5032072456
 20
-13.6877981595
 40
1.2906741324
100
AcDbArc
 50
279.7714797647
 51
284.6227424291
  0
ARC
  5
324
100
AcDbEntity
  8
ASSI
100
AcDbCircle
 62
7
  6
CONTINUOUS
 10
-16.3165979078
 20
4.6845585403
 40
1.2906741324
100
AcDbArc
 50
279.7714797647
 51
284.6227424291
  0
ARC
  5
325
100
AcDbEntity
  8
ASSI
100
AcDbCircle
 62
7
  6
CONTINUOUS
 10
-0.4066953311
 20
-4.5016198096
 40
1.2906741324
100
AcDbArc
 50
279.7714797647
 51
284.6227424291
  0
ARC
  5
326
100
AcDbEntity
  8
ASSI
100
AcDbCircle
 62
7
  6
CONTINUOUS
 10
15.5032072456
 20
-13.6877981595
 40
1.2906741324
100
AcDbArc
 50
279.7714797647
 51
284.6227424291
  0
ARC
  5
327
100
AcDbEntity
  8
0
100
AcDbCircle
 62
7
  6
CONTINUOUS
 10
-16.3015782564
 20
4.6249194874
 40
1.2291751941
100
AcDbArc
 50
284.6471180658
 51
290.0035969235
  0
ARC
  5
328
100
AcDbEntity
  8
0
100
AcDbCircle
 62
7
  6
CONTINUOUS
 10
-0.3916756797
 20
-4.5612588625
 40
1.2291751941
100
AcDbArc
 50
284.6471180658
 51
290.0035969235
  0
ARC
  5
329
100
AcDbEntity
  8
0
100
AcDbCircle
 62
7
  6
CONTINUOUS
 10
15.518226897
 20
-13.7474372124
 40
1.2291751941
100
AcDbArc
 50
284.6471180658
 51
290.0035969235
  0
ARC
  5
32A
100
AcDbEntity
  8
ASSI
100
AcDbCircle
 62
7
  6
CONTINUOUS
 10
-16.3015782564
 20
4.6249194874
 40
1.2291751941
100
AcDbArc
 50
284.6471180658
 51
290.0035969235
  0
ARC
  5
32B
100
AcDbEntity
  8
ASSI
100
AcDbCircle
 62
7
  6
CONTINUOUS
 10
-0.3916756797
 20
-4.5612588625
 40
1.2291751941
100
AcDbArc
 50
284.6471180658
 51
290.0035969235
  0
ARC
  5
32C
100
AcDbEntity
  8
ASSI
100
AcDbCircle
 62
7
  6
CONTINUOUS
 10
15.518226897
 20
-13.7474372124
 40
1.2291751941
100
AcDbArc
 50
284.6471180658
 51
290.0035969235
  0
SPLINE
  5
32D
100
AcDbEntity
  8
0
100
AcDbSpline
 62
7
  6
CONTINUOUS
 70
0
 71
3
 72
11
 73
7
 74
0
 42
0.0000001
 43
0.0000001
 44
0.0000000001
 40
0.0
 40
0.0
 40
0.0
 40
0.0
 40
0.280800634
 40
0.5399589272
 40
0.7785828121
 40
1.0
 40
1.0
 40
1.0
 40
1.0
 10
-17.4452243929
 20
3.7297112215
 30
0.0
 10
-17.3308965983
 20
3.6637125699
 30
0.0
 10
-17.1031218003
 20
3.5497075355
 30
0.0
 10
-16.7542434279
 20
3.4341880515
 30
0.0
 10
-16.4181224062
 20
3.3835198299
 30
0.0
 10
-16.200125065
 20
3.3949216542
 30
0.0
 10
-16.097546024
 20
3.4126088604
 30
0.0
  0
SPLINE
  5
32E
100
AcDbEntity
  8
0
100
AcDbSpline
 62
7
  6
CONTINUOUS
 70
0
 71
3
 72
15
 73
11
 74
0
 42
0.0000001
 43
0.0000001
 44
0.0000000001
 40
0.0
 40
0.0
 40
0.0
 40
0.0
 40
0.1141524098
 40
0.237323445
 40
0.3669741506
 40
0.4999998222
 40
0.6330255182
 40
0.7626766281
 40
0.885843748
 40
1.0
 40
1.0
 40
1.0
 40
1.0
 10
-18.6478662827
 20
12.9969002701
 30
0.0
 10
-18.4203389315
 20
12.865554195
 30
0.0
 10
-17.9709245116
 20
12.5505546286
 30
0.0
 10
-17.3525491468
 20
11.9720635294
 30
0.0
 10
-16.7826783764
 20
11.2882240722
 30
0.0
 10
-16.2827714649
 20
10.5247000968
 30
0.0
 10
-15.871440856
 20
9.7100305296
 30
0.0
 10
-15.564125623
 20
8.8746075256
 30
0.0
 10
-15.3722656155
 20
8.0498471108
 30
0.0
 10
-15.324143227
 20
7.5031453325
 30
0.0
 10
-15.3241432283
 20
7.2404189857
 30
0.0
  0
SPLINE
  5
32F
100
AcDbEntity
  8
0
100
AcDbSpline
 62
7
  6
CONTINUOUS
 70
0
 71
3
 72
11
 73
7
 74
0
 42
0.0000001
 43
0.0000001
 44
0.0000000001
 40
0.0
 40
0.0
 40
0.0
 40
0.0
 40
0.2268065693
 40
0.4640947479
 40
0.7201480503
 40
1.0
 40
1.0
 40
1.0
 40
1.0
 10
-19.5491015229
 20
12.6802791768
 30
0.0
 10
-19.4574887953
 20
12.7331754499
 30
0.0
 10
-19.2540534633
 20
12.8157814376
 30
0.0
 10
-18.9174756934
 20
12.857413717
 30
0.0
 10
-18.5562492677
 20
12.8193363852
 30
0.0
 10
-18.3157994629
 20
12.7458895737
 30
0.0
 10
-18.1942167365
 20
12.6983992477
 30
0.0
  0
SPLINE
  5
330
100
AcDbEntity
  8
0
100
AcDbSpline
 62
7
  6
CONTINUOUS
 70
0
 71
3
 72
9
 73
5
 74
0
 42
0.0000001
 43
0.0000001
 44
0.0000000001
 40
0.0
 40
0.0
 40
0.0
 40
0.0
 40
0.2478226825
 40
1.0
 40
1.0
 40
1.0
 40
1.0
 10
-19.3634046243
 20
12.7668084221
 30
0.0
 10
-19.3753738901
 20
12.7567733125
 30
0.0
 10
-19.4228812743
 20
12.7153445973
 30
0.0
 10
-19.4671571609
 20
12.6702278468
 30
0.0
 10
-19.4984525729
 20
12.6346182726
 30
0.0
  0
SPLINE
  5
331
100
AcDbEntity
  8
0
100
AcDbSpline
 62
7
  6
CONTINUOUS
 70
0
 71
3
 72
11
 73
7
 74
0
 42
0.0000001
 43
0.0000001
 44
0.0000000001
 40
0.0
 40
0.0
 40
0.0
 40
0.0
 40
0.2243907044
 40
0.464103098
 40
0.7221599116
 40
1.0
 40
1.0
 40
1.0
 40
1.0
 10
-19.5210710561
 20
12.6081794459
 30
0.0
 10
-19.5807945079
 20
12.5364673284
 30
0.0
 10
-19.6887215253
 20
12.3746600143
 30
0.0
 10
-19.8073032036
 20
12.0972183402
 30
0.0
 10
-19.8859442957
 20
11.7831867444
 30
0.0
 10
-19.910190771
 20
11.5609335448
 30
0.0
 10
-19.9161708152
 20
11.4455338163
 30
0.0
  0
SPLINE
  5
332
100
AcDbEntity
  8
0
100
AcDbSpline
 62
7
  6
CONTINUOUS
 70
0
 71
3
 72
11
 73
7
 74
0
 42
0.0000001
 43
0.0000001
 44
0.0000000001
 40
0.0
 40
0.0
 40
0.0
 40
0.0
 40
0.280800634
 40
0.5399589272
 40
0.7785828121
 40
1.0
 40
1.0
 40
1.0
 40
1.0
 10
-1.5353218162
 20
-5.4564671284
 30
0.0
 10
-1.4209940216
 20
-5.5224657799
 30
0.0
 10
-1.1932192236
 20
-5.6364708144
 30
0.0
 10
-0.8443408512
 20
-5.7519902983
 30
0.0
 10
-0.5082198295
 20
-5.80265852
 30
0.0
 10
-0.2902224883
 20
-5.7912566957
 30
0.0
 10
-0.1876434473
 20
-5.7735694895
 30
0.0
  0
SPLINE
  5
333
100
AcDbEntity
  8
0
100
AcDbSpline
 62
7
  6
CONTINUOUS
 70
0
 71
3
 72
15
 73
11
 74
0
 42
0.0000001
 43
0.0000001
 44
0.0000000001
 40
0.0
 40
0.0
 40
0.0
 40
0.0
 40
0.1141524098
 40
0.237323445
 40
0.3669741506
 40
0.4999998222
 40
0.6330255182
 40
0.7626766281
 40
0.885843748
 40
1.0
 40
1.0
 40
1.0
 40
1.0
 10
-2.737963706
 20
3.8107219203
 30
0.0
 10
-2.5104363548
 20
3.6793758452
 30
0.0
 10
-2.0610219349
 20
3.3643762787
 30
0.0
 10
-1.4426465701
 20
2.7858851796
 30
0.0
 10
-0.8727757997
 20
2.1020457224
 30
0.0
 10
-0.3728688882
 20
1.3385217469
 30
0.0
 10
0.0384617207
 20
0.5238521797
 30
0.0
 10
0.3457769537
 20
-0.3115708242
 30
0.0
 10
0.5376369612
 20
-1.1363312391
 30
0.0
 10
0.5857593497
 20
-1.6830330174
 30
0.0
 10
0.5857593484
 20
-1.9457593642
 30
0.0
  0
SPLINE
  5
334
100
AcDbEntity
  8
0
100
AcDbSpline
 62
7
  6
CONTINUOUS
 70
0
 71
3
 72
11
 73
7
 74
0
 42
0.0000001
 43
0.0000001
 44
0.0000000001
 40
0.0
 40
0.0
 40
0.0
 40
0.0
 40
0.2268065693
 40
0.4640947479
 40
0.7201480503
 40
1.0
 40
1.0
 40
1.0
 40
1.0
 10
-3.6391989462
 20
3.4941008269
 30
0.0
 10
-3.5475862186
 20
3.5469971001
 30
0.0
 10
-3.3441508866
 20
3.6296030877
 30
0.0
 10
-3.0075731167
 20
3.6712353671
 30
0.0
 10
-2.646346691
 20
3.6331580353
 30
0.0
 10
-2.4058968862
 20
3.5597112238
 30
0.0
 10
-2.2843141598
 20
3.5122208979
 30
0.0
  0
SPLINE
  5
335
100
AcDbEntity
  8
0
100
AcDbSpline
 62
7
  6
CONTINUOUS
 70
0
 71
3
 72
9
 73
5
 74
0
 42
0.0000001
 43
0.0000001
 44
0.0000000001
 40
0.0
 40
0.0
 40
0.0
 40
0.0
 40
0.2478226825
 40
1.0
 40
1.0
 40
1.0
 40
1.0
 10
-3.4535020476
 20
3.5806300722
 30
0.0
 10
-3.4654713134
 20
3.5705949626
 30
0.0
 10
-3.5129786976
 20
3.5291662475
 30
0.0
 10
-3.5572545842
 20
3.4840494969
 30
0.0
 10
-3.5885499962
 20
3.4484399227
 30
0.0
  0
SPLINE
  5
336
100
AcDbEntity
  8
0
100
AcDbSpline
 62
7
  6
CONTINUOUS
 70
0
 71
3
 72
11
 73
7
 74
0
 42
0.0000001
 43
0.0000001
 44
0.0000000001
 40
0.0
 40
0.0
 40
0.0
 40
0.0
 40
0.2243907044
 40
0.464103098
 40
0.7221599116
 40
1.0
 40
1.0
 40
1.0
 40
1.0
 10
-3.6111684794
 20
3.4220010961
 30
0.0
 10
-3.6708919312
 20
3.3502889785
 30
0.0
 10
-3.7788189486
 20
3.1884816644
 30
0.0
 10
-3.8974006269
 20
2.9110399904
 30
0.0
 10
-3.976041719
 20
2.5970083945
 30
0.0
 10
-4.0002881943
 20
2.3747551949
 30
0.0
 10
-4.0062682385
 20
2.2593554665
 30
0.0
  0
SPLINE
  5
337
100
AcDbEntity
  8
0
100
AcDbSpline
 62
7
  6
CONTINUOUS
 70
0
 71
3
 72
11
 73
7
 74
0
 42
0.0000001
 43
0.0000001
 44
0.0000000001
 40
0.0
 40
0.0
 40
0.0
 40
0.0
 40
0.280800634
 40
0.5399589272
 40
0.7785828121
 40
1.0
 40
1.0
 40
1.0
 40
1.0
 10
14.3745807605
 20
-14.6426454783
 30
0.0
 10
14.4889085551
 20
-14.7086441298
 30
0.0
 10
14.7166833531
 20
-14.8226491643
 30
0.0
 10
15.0655617255
 20
-14.9381686482
 30
0.0
 10
15.4016827472
 20
-14.9888368699
 30
0.0
 10
15.6196800884
 20
-14.9774350456
 30
0.0
 10
15.7222591294
 20
-14.9597478394
 30
0.0
  0
SPLINE
  5
338
100
AcDbEntity
  8
0
100
AcDbSpline
 62
7
  6
CONTINUOUS
 70
0
 71
3
 72
15
 73
11
 74
0
 42
0.0000001
 43
0.0000001
 44
0.0000000001
 40
0.0
 40
0.0
 40
0.0
 40
0.0
 40
0.1141524098
 40
0.237323445
 40
0.3669741506
 40
0.4999998222
 40
0.6330255182
 40
0.7626766281
 40
0.885843748
 40
1.0
 40
1.0
 40
1.0
 40
1.0
 10
13.1719388707
 20
-5.3754564296
 30
0.0
 10
13.3994662219
 20
-5.5068025047
 30
0.0
 10
13.8488806418
 20
-5.8218020712
 30
0.0
 10
14.4672560066
 20
-6.4002931703
 30
0.0
 10
15.037126777
 20
-7.0841326275
 30
0.0
 10
15.5370336885
 20
-7.8476566029
 30
0.0
 10
15.9483642974
 20
-8.6623261702
 30
0.0
 10
16.2556795304
 20
-9.4977491741
 30
0.0
 10
16.4475395379
 20
-10.322509589
 30
0.0
 10
16.4956619264
 20
-10.8692113673
 30
0.0
 10
16.4956619251
 20
-11.1319377141
 30
0.0
  0
SPLINE
  5
339
100
AcDbEntity
  8
0
100
AcDbSpline
 62
7
  6
CONTINUOUS
 70
0
 71
3
 72
11
 73
7
 74
0
 42
0.0000001
 43
0.0000001
 44
0.0000000001
 40
0.0
 40
0.0
 40
0.0
 40
0.0
 40
0.2268065693
 40
0.4640947479
 40
0.7201480503
 40
1.0
 40
1.0
 40
1.0
 40
1.0
 10
12.2707036305
 20
-5.6920775229
 30
0.0
 10
12.3623163581
 20
-5.6391812498
 30
0.0
 10
12.5657516901
 20
-5.5565752622
 30
0.0
 10
12.9023294599
 20
-5.5149429828
 30
0.0
 10
13.2635558857
 20
-5.5530203146
 30
0.0
 10
13.5040056904
 20
-5.626467126
 30
0.0
 10
13.6255884169
 20
-5.673957452
 30
0.0
  0
SPLINE
  5
33A
100
AcDbEntity
  8
0
100
AcDbSpline
 62
7
  6
CONTINUOUS
 70
0
 71
3
 72
9
 73
5
 74
0
 42
0.0000001
 43
0.0000001
 44
0.0000000001
 40
0.0
 40
0.0
 40
0.0
 40
0.0
 40
0.2478226825
 40
1.0
 40
1.0
 40
1.0
 40
1.0
 10
12.4564005291
 20
-5.6055482777
 30
0.0
 10
12.4444312633
 20
-5.6155833873
 30
0.0
 10
12.3969238791
 20
-5.6570121024
 30
0.0
 10
12.3526479925
 20
-5.702128853
 30
0.0
 10
12.3213525805
 20
-5.7377384272
 30
0.0
  0
SPLINE
  5
33B
100
AcDbEntity
  8
0
100
AcDbSpline
 62
7
  6
CONTINUOUS
 70
0
 71
3
 72
11
 73
7
 74
0
 42
0.0000001
 43
0.0000001
 44
0.0000000001
 40
0.0
 40
0.0
 40
0.0
 40
0.0
 40
0.2243907044
 40
0.464103098
 40
0.7221599116
 40
1.0
 40
1.0
 40
1.0
 40
1.0
 10
12.2987340973
 20
-5.7641772538
 30
0.0
 10
12.2390106455
 20
-5.8358893713
 30
0.0
 10
12.1310836281
 20
-5.9976966854
 30
0.0
 10
12.0125019498
 20
-6.2751383595
 30
0.0
 10
11.9338608577
 20
-6.5891699554
 30
0.0
 10
11.9096143824
 20
-6.8114231549
 30
0.0
 10
11.9036343382
 20
-6.9268228834
 30
0.0
  0
SPLINE
  5
33C
100
AcDbEntity
  8
0
100
AcDbSpline
 62
7
  6
CONTINUOUS
 70
0
 71
3
 72
15
 73
11
 74
0
 42
0.0000001
 43
0.0000001
 44
0.0000000001
 40
0.0
 40
0.0
 40
0.0
 40
0.0
 40
0.1155110746
 40
0.238928251
 40
0.3679879115
 40
0.4999693535
 40
0.63195617
 40
0.7610305217
 40
0.8844769864
 40
1.0
 40
1.0
 40
1.0
 40
1.0
 10
11.9030925169
 20
-10.3534924712
 30
0.0
 10
11.9118367444
 20
-10.5501353757
 30
0.0
 10
11.9615302558
 20
-10.9558181446
 30
0.0
 10
12.1168194377
 20
-11.5647861573
 30
0.0
 10
12.3505161871
 20
-12.1782789322
 30
0.0
 10
12.6550354619
 20
-12.7761729232
 30
0.0
 10
13.0204011598
 20
-13.338978124
 30
0.0
 10
13.434728727
 20
-13.8483220067
 30
0.0
 10
13.8843812748
 20
-14.2875109135
 30
0.0
 10
14.2108003199
 20
-14.5335893274
 30
0.0
 10
14.3766922423
 20
-14.6395741053
 30
0.0
  0
SPLINE
  5
33D
100
AcDbEntity
  8
0
100
AcDbSpline
 62
7
  6
CONTINUOUS
 70
0
 71
3
 72
15
 73
11
 74
0
 42
0.0000001
 43
0.0000001
 44
0.0000000001
 40
0.0
 40
0.0
 40
0.0
 40
0.0
 40
0.1155110746
 40
0.238928251
 40
0.3679879115
 40
0.4999693535
 40
0.63195617
 40
0.7610305217
 40
0.8844769864
 40
1.0
 40
1.0
 40
1.0
 40
1.0
 10
-4.0068100598
 20
-1.1673141213
 30
0.0
 10
-3.9980658323
 20
-1.3639570258
 30
0.0
 10
-3.9483723209
 20
-1.7696397947
 30
0.0
 10
-3.793083139
 20
-2.3786078075
 30
0.0
 10
-3.5593863896
 20
-2.9921005823
 30
0.0
 10
-3.2548671148
 20
-3.5899945733
 30
0.0
 10
-2.8895014169
 20
-4.1527997742
 30
0.0
 10
-2.4751738497
 20
-4.6621436568
 30
0.0
 10
-2.0255213019
 20
-5.1013325636
 30
0.0
 10
-1.6991022568
 20
-5.3474109775
 30
0.0
 10
-1.5332103344
 20
-5.4533957554
 30
0.0
  0
SPLINE
  5
33E
100
AcDbEntity
  8
0
100
AcDbSpline
 62
7
  6
CONTINUOUS
 70
0
 71
3
 72
15
 73
11
 74
0
 42
0.0000001
 43
0.0000001
 44
0.0000000001
 40
0.0
 40
0.0
 40
0.0
 40
0.0
 40
0.1155110746
 40
0.238928251
 40
0.3679879115
 40
0.4999693535
 40
0.63195617
 40
0.7610305217
 40
0.8844769864
 40
1.0
 40
1.0
 40
1.0
 40
1.0
 10
-19.9167126365
 20
8.0188642286
 30
0.0
 10
-19.907968409
 20
7.8222213241
 30
0.0
 10
-19.8582748976
 20
7.4165385552
 30
0.0
 10
-19.7029857157
 20
6.8075705424
 30
0.0
 10
-19.4692889663
 20
6.1940777675
 30
0.0
 10
-19.1647696915
 20
5.5961837766
 30
0.0
 10
-18.7994039936
 20
5.0333785757
 30
0.0
 10
-18.3850764264
 20
4.5240346931
 30
0.0
 10
-17.9354238786
 20
4.0848457863
 30
0.0
 10
-17.6090048335
 20
3.8387673723
 30
0.0
 10
-17.4431129111
 20
3.7327825945
 30
0.0
  0
SPLINE
  5
33F
100
AcDbEntity
  8
0
100
AcDbSpline
 62
7
  6
CONTINUOUS
 70
0
 71
3
 72
12
 73
8
 74
0
 42
0.0000001
 43
0.0000001
 44
0.0000000001
 40
0.0
 40
0.0
 40
0.0
 40
0.0
 40
0.2895896319
 40
0.548629694
 40
0.7816355646
 40
0.8918367821
 40
1.0
 40
1.0
 40
1.0
 40
1.0
 10
-15.3241432283
 20
4.9543969025
 30
0.0
 10
-15.3241432277
 20
4.7770112398
 30
0.0
 10
-15.3510124819
 20
4.4397470848
 30
0.0
 10
-15.4873949384
 20
3.9766386706
 30
0.0
 10
-15.6833401045
 20
3.6570980406
 30
0.0
 10
-15.8812467701
 20
3.4624528524
 30
0.0
 10
-15.9915553456
 20
3.3854468275
 30
0.0
 10
-16.0489324021
 20
3.3523178886
 30
0.0
  0
SPLINE
  5
340
100
AcDbEntity
  8
0
100
AcDbSpline
 62
7
  6
CONTINUOUS
 70
0
 71
3
 72
12
 73
8
 74
0
 42
0.0000001
 43
0.0000001
 44
0.0000000001
 40
0.0
 40
0.0
 40
0.0
 40
0.0
 40
0.2895896319
 40
0.548629694
 40
0.7816355646
 40
0.8918367821
 40
1.0
 40
1.0
 40
1.0
 40
1.0
 10
0.5857593484
 20
-4.2317814474
 30
0.0
 10
0.585759349
 20
-4.4091671101
 30
0.0
 10
0.5588900948
 20
-4.7464312651
 30
0.0
 10
0.4225076383
 20
-5.2095396793
 30
0.0
 10
0.2265624722
 20
-5.5290803092
 30
0.0
 10
0.0286558066
 20
-5.7237254975
 30
0.0
 10
-0.0816527689
 20
-5.8007315224
 30
0.0
 10
-0.1390298254
 20
-5.8338604612
 30
0.0
  0
SPLINE
  5
341
100
AcDbEntity
  8
0
100
AcDbSpline
 62
7
  6
CONTINUOUS
 70
0
 71
3
 72
12
 73
8
 74
0
 42
0.0000001
 43
0.0000001
 44
0.0000000001
 40
0.0
 40
0.0
 40
0.0
 40
0.0
 40
0.2895896319
 40
0.548629694
 40
0.7816355646
 40
0.8918367821
 40
1.0
 40
1.0
 40
1.0
 40
1.0
 10
16.4956619251
 20
-13.4179597973
 30
0.0
 10
16.4956619257
 20
-13.59534546
 30
0.0
 10
16.4687926715
 20
-13.932609615
 30
0.0
 10
16.332410215
 20
-14.3957180292
 30
0.0
 10
16.1364650489
 20
-14.7152586591
 30
0.0
 10
15.9385583833
 20
-14.9099038473
 30
0.0
 10
15.8282498078
 20
-14.9869098723
 30
0.0
 10
15.7708727513
 20
-15.0200388111
 30
0.0
  0
SPLINE
  5
342
100
AcDbEntity
  8
0
100
AcDbSpline
 62
7
  6
CONTINUOUS
 70
0
 71
3
 72
27
 73
23
 74
0
 42
0.0000001
 43
0.0000001
 44
0.0000000001
 40
0.0
 40
0.0
 40
0.0
 40
0.0
 40
0.0603448655
 40
0.1143239375
 40
0.139230684
 40
0.1630059117
 40
0.1859696504
 40
0.2085087351
 40
0.2310480373
 40
0.2540125672
 40
0.2777886633
 40
0.3026961501
 40
0.3566805789
 40
0.4170269374
 40
0.4835768947
 40
0.555383568
 40
0.6309668356
 40
0.7085168928
 40
0.7860664736
 40
0.8616485439
 40
0.9334506763
 40
1.0
 40
1.0
 40
1.0
 40
1.0
 10
-15.3241432283
 20
3.9745378785
 30
0.0
 10
-15.3241432274
 20
3.7363210171
 30
0.0
 10
-15.3600070533
 20
3.2836549452
 30
0.0
 10
-15.5173353852
 20
2.7511522188
 30
0.0
 10
-15.7082155466
 20
2.3922504812
 30
0.0
 10
-15.8765643745
 20
2.1636055145
 30
0.0
 10
-16.0723818436
 20
1.9709438405
 30
0.0
 10
-16.2937200103
 20
1.8164825165
 30
0.0
 10
-16.5381694136
 20
1.7020443888
 30
0.0
 10
-16.802948096
 20
1.6288394988
 30
0.0
 10
-17.08514654
 20
1.5973821213
 30
0.0
 10
-17.4914202508
 20
1.6115424381
 30
0.0
 10
-18.0313688672
 20
1.7416779856
 30
0.0
 10
-18.6794645367
 20
2.0502845527
 30
0.0
 10
-19.3243111931
 20
2.5023158801
 30
0.0
 10
-19.9427953391
 20
3.0809357479
 30
0.0
 10
-20.5125648382
 20
3.7647309612
 30
0.0
 10
-21.0124325424
 20
4.5282364273
 30
0.0
 10
-21.4237137943
 20
5.3428619342
 30
0.0
 10
-21.7309940912
 20
6.1782358205
 30
0.0
 10
-21.9228307259
 20
7.0029436558
 30
0.0
 10
-21.9709469728
 20
7.5496095294
 30
0.0
 10
-21.9709469715
 20
7.8123190558
 30
0.0
  0
SPLINE
  5
343
100
AcDbEntity
  8
0
100
AcDbSpline
 62
7
  6
CONTINUOUS
 70
0
 71
3
 72
19
 73
15
 74
0
 42
0.0000001
 43
0.0000001
 44
0.0000000001
 40
0.0
 40
0.0
 40
0.0
 40
0.0
 40
0.1447049974
 40
0.2741459566
 40
0.3338721486
 40
0.3908849634
 40
0.4459516638
 40
0.4999996991
 40
0.5540477464
 40
0.6091148629
 40
0.6661274366
 40
0.7258524195
 40
0.8552990214
 40
1.0
 40
1.0
 40
1.0
 40
1.0
 10
-21.9709469715
 20
11.0782001629
 30
0.0
 10
-21.9709469724
 20
11.3164031972
 30
0.0
 10
-21.9350871055
 20
11.7690443239
 30
0.0
 10
-21.7777780367
 20
12.3015208536
 30
0.0
 10
-21.5869210254
 20
12.6604119609
 30
0.0
 10
-21.4185921842
 20
12.8890543162
 30
0.0
 10
-21.2227975789
 20
13.0817187087
 30
0.0
 10
-21.0014845329
 20
13.236188383
 30
0.0
 10
-20.757062019
 20
13.3506407317
 30
0.0
 10
-20.4923104363
 20
13.4238650086
 30
0.0
 10
-20.2101421566
 20
13.4553492016
 30
0.0
 10
-19.8038955408
 20
13.4412214708
 30
0.0
 10
-19.2640982252
 20
13.3112285962
 30
0.0
 10
-18.854157068
 20
13.1159869858
 30
0.0
 10
-18.6478662827
 20
12.9969002701
 30
0.0
  0
SPLINE
  5
344
100
AcDbEntity
  8
0
100
AcDbSpline
 62
7
  6
CONTINUOUS
 70
0
 71
3
 72
19
 73
15
 74
0
 42
0.0000001
 43
0.0000001
 44
0.0000000001
 40
0.0
 40
0.0
 40
0.0
 40
0.0
 40
0.0428400166
 40
0.0874489431
 40
0.1352611942
 40
0.1872028299
 40
0.243685093
 40
0.3046814048
 40
0.3698210654
 40
0.4384731775
 40
0.5827574576
 40
0.7298489975
 40
0.8713783969
 40
1.0
 40
1.0
 40
1.0
 40
1.0
 10
-0.1390298254
 20
-5.8338604612
 30
0.0
 10
-0.2253159602
 20
-5.883681213
 30
0.0
 10
-0.4155223185
 20
-5.9627418424
 30
0.0
 10
-0.7295039277
 20
-6.0087591279
 30
0.0
 10
-1.0666726277
 20
-5.983937662
 30
0.0
 10
-1.4195432092
 20
-5.890179563
 30
0.0
 10
-1.7811884253
 20
-5.7303454271
 30
0.0
 10
-2.1444002072
 20
-5.508129284
 30
0.0
 10
-2.5018379248
 20
-5.2283104982
 30
0.0
 10
-2.9682778503
 20
-4.7789875242
 30
0.0
 10
-3.4865748421
 20
-4.1152678964
 30
0.0
 10
-3.9679254666
 20
-3.2256770786
 30
0.0
 10
-4.2802886574
 20
-2.3020219246
 30
0.0
 10
-4.3639881185
 20
-1.6730045665
 30
0.0
 10
-4.3639881199
 20
-1.3738592941
 30
0.0
  0
SPLINE
  5
345
100
AcDbEntity
  8
0
100
AcDbSpline
 62
7
  6
CONTINUOUS
 70
0
 71
3
 72
19
 73
15
 74
0
 42
0.0000001
 43
0.0000001
 44
0.0000000001
 40
0.0
 40
0.0
 40
0.0
 40
0.0
 40
0.0428400166
 40
0.0874489431
 40
0.1352611942
 40
0.1872028299
 40
0.243685093
 40
0.3046814048
 40
0.3698210654
 40
0.4384731775
 40
0.5827574576
 40
0.7298489975
 40
0.8713783969
 40
1.0
 40
1.0
 40
1.0
 40
1.0
 10
-16.0489324021
 20
3.3523178886
 30
0.0
 10
-16.1352185369
 20
3.3024971369
 30
0.0
 10
-16.3254248952
 20
3.2234365075
 30
0.0
 10
-16.6394065044
 20
3.177419222
 30
0.0
 10
-16.9765752044
 20
3.2022406879
 30
0.0
 10
-17.3294457859
 20
3.2959987869
 30
0.0
 10
-17.691091002
 20
3.4558329228
 30
0.0
 10
-18.0543027839
 20
3.6780490659
 30
0.0
 10
-18.4117405015
 20
3.9578678516
 30
0.0
 10
-18.878180427
 20
4.4071908257
 30
0.0
 10
-19.3964774188
 20
5.0709104535
 30
0.0
 10
-19.8778280433
 20
5.9605012713
 30
0.0
 10
-20.1901912341
 20
6.8841564253
 30
0.0
 10
-20.2738906952
 20
7.5131737833
 30
0.0
 10
-20.2738906966
 20
7.8123190558
 30
0.0
  0
SPLINE
  5
346
100
AcDbEntity
  8
0
100
AcDbSpline
 62
7
  6
CONTINUOUS
 70
0
 71
3
 72
27
 73
23
 74
0
 42
0.0000001
 43
0.0000001
 44
0.0000000001
 40
0.0
 40
0.0
 40
0.0
 40
0.0
 40
0.0603448655
 40
0.1143239375
 40
0.139230684
 40
0.1630059117
 40
0.1859696504
 40
0.2085087351
 40
0.2310480373
 40
0.2540125672
 40
0.2777886633
 40
0.3026961501
 40
0.3566805789
 40
0.4170269374
 40
0.4835768947
 40
0.555383568
 40
0.6309668356
 40
0.7085168928
 40
0.7860664736
 40
0.8616485439
 40
0.9334506763
 40
1.0
 40
1.0
 40
1.0
 40
1.0
 10
16.4956619251
 20
-14.3978188213
 30
0.0
 10
16.495661926
 20
-14.6360356827
 30
0.0
 10
16.4597981001
 20
-15.0887017545
 30
0.0
 10
16.3024697682
 20
-15.621204481
 30
0.0
 10
16.1115896068
 20
-15.9801062186
 30
0.0
 10
15.9432407789
 20
-16.2087511853
 30
0.0
 10
15.7474233098
 20
-16.4014128592
 30
0.0
 10
15.5260851431
 20
-16.5558741832
 30
0.0
 10
15.2816357398
 20
-16.6703123109
 30
0.0
 10
15.0168570574
 20
-16.743517201
 30
0.0
 10
14.7346586134
 20
-16.7749745785
 30
0.0
 10
14.3283849026
 20
-16.7608142617
 30
0.0
 10
13.7884362862
 20
-16.6306787142
 30
0.0
 10
13.1403406167
 20
-16.322072147
 30
0.0
 10
12.4954939603
 20
-15.8700408196
 30
0.0
 10
11.8770098143
 20
-15.2914209519
 30
0.0
 10
11.3072403151
 20
-14.6076257386
 30
0.0
 10
10.807372611
 20
-13.8441202724
 30
0.0
 10
10.3960913591
 20
-13.0294947655
 30
0.0
 10
10.0888110622
 20
-12.1941208793
 30
0.0
 10
9.8969744275
 20
-11.3694130439
 30
0.0
 10
9.8488581806
 20
-10.8227471703
 30
0.0
 10
9.8488581819
 20
-10.560037644
 30
0.0
  0
SPLINE
  5
347
100
AcDbEntity
  8
0
100
AcDbSpline
 62
7
  6
CONTINUOUS
 70
0
 71
3
 72
19
 73
15
 74
0
 42
0.0000001
 43
0.0000001
 44
0.0000000001
 40
0.0
 40
0.0
 40
0.0
 40
0.0
 40
0.0428400166
 40
0.0874489431
 40
0.1352611942
 40
0.1872028299
 40
0.243685093
 40
0.3046814048
 40
0.3698210654
 40
0.4384731775
 40
0.5827574576
 40
0.7298489975
 40
0.8713783969
 40
1.0
 40
1.0
 40
1.0
 40
1.0
 10
15.7708727513
 20
-15.0200388111
 30
0.0
 10
15.6845866165
 20
-15.0698595629
 30
0.0
 10
15.4943802582
 20
-15.1489201922
 30
0.0
 10
15.180398649
 20
-15.1949374778
 30
0.0
 10
14.843229949
 20
-15.1701160118
 30
0.0
 10
14.4903593675
 20
-15.0763579129
 30
0.0
 10
14.1287141514
 20
-14.9165237769
 30
0.0
 10
13.7655023695
 20
-14.6943076339
 30
0.0
 10
13.4080646519
 20
-14.4144888481
 30
0.0
 10
12.9416247264
 20
-13.9651658741
 30
0.0
 10
12.4233277346
 20
-13.3014462462
 30
0.0
 10
11.9419771101
 20
-12.4118554284
 30
0.0
 10
11.6296139193
 20
-11.4882002745
 30
0.0
 10
11.5459144582
 20
-10.8591829164
 30
0.0
 10
11.5459144568
 20
-10.560037644
 30
0.0
  0
SPLINE
  5
348
100
AcDbEntity
  8
0
100
AcDbSpline
 62
7
  6
CONTINUOUS
 70
0
 71
3
 72
19
 73
15
 74
0
 42
0.0000001
 43
0.0000001
 44
0.0000000001
 40
0.0
 40
0.0
 40
0.0
 40
0.0
 40
0.1447049974
 40
0.2741459566
 40
0.3338721486
 40
0.3908849634
 40
0.4459516638
 40
0.4999996991
 40
0.5540477464
 40
0.6091148629
 40
0.6661274366
 40
0.7258524195
 40
0.8552990214
 40
1.0
 40
1.0
 40
1.0
 40
1.0
 10
9.8488581819
 20
-7.2941565368
 30
0.0
 10
9.848858181
 20
-7.0559535025
 30
0.0
 10
9.8847180479
 20
-6.6033123759
 30
0.0
 10
10.0420271167
 20
-6.0708358462
 30
0.0
 10
10.232884128
 20
-5.7119447388
 30
0.0
 10
10.4012129692
 20
-5.4833023835
 30
0.0
 10
10.5970075745
 20
-5.2906379911
 30
0.0
 10
10.8183206205
 20
-5.1361683168
 30
0.0
 10
11.0627431344
 20
-5.021715968
 30
0.0
 10
11.3274947171
 20
-4.9484916912
 30
0.0
 10
11.6096629968
 20
-4.9170074982
 30
0.0
 10
12.0159096126
 20
-4.931135229
 30
0.0
 10
12.5557069282
 20
-5.0611281035
 30
0.0
 10
12.9656480854
 20
-5.2563697139
 30
0.0
 10
13.1719388707
 20
-5.3754564296
 30
0.0
  0
SPLINE
  5
349
100
AcDbEntity
  8
0
100
AcDbSpline
 62
7
  6
CONTINUOUS
 70
0
 71
3
 72
27
 73
23
 74
0
 42
0.0000001
 43
0.0000001
 44
0.0000000001
 40
0.0
 40
0.0
 40
0.0
 40
0.0
 40
0.0603448655
 40
0.1143239375
 40
0.139230684
 40
0.1630059117
 40
0.1859696504
 40
0.2085087351
 40
0.2310480373
 40
0.2540125672
 40
0.2777886633
 40
0.3026961501
 40
0.3566805789
 40
0.4170269374
 40
0.4835768947
 40
0.555383568
 40
0.6309668356
 40
0.7085168928
 40
0.7860664736
 40
0.8616485439
 40
0.9334506763
 40
1.0
 40
1.0
 40
1.0
 40
1.0
 10
0.5857593484
 20
-5.2116404714
 30
0.0
 10
0.5857593493
 20
-5.4498573328
 30
0.0
 10
0.5498955234
 20
-5.9025234046
 30
0.0
 10
0.3925671915
 20
-6.4350261311
 30
0.0
 10
0.2016870301
 20
-6.7939278687
 30
0.0
 10
0.0333382022
 20
-7.0225728354
 30
0.0
 10
-0.1624792669
 20
-7.2152345094
 30
0.0
 10
-0.3838174336
 20
-7.3696958334
 30
0.0
 10
-0.6282668369
 20
-7.4841339611
 30
0.0
 10
-0.8930455193
 20
-7.5573388511
 30
0.0
 10
-1.1752439633
 20
-7.5887962286
 30
0.0
 10
-1.5815176741
 20
-7.5746359118
 30
0.0
 10
-2.1214662905
 20
-7.4445003643
 30
0.0
 10
-2.76956196
 20
-7.1358937971
 30
0.0
 10
-3.4144086164
 20
-6.6838624697
 30
0.0
 10
-4.0328927624
 20
-6.105242602
 30
0.0
 10
-4.6026622616
 20
-5.4214473887
 30
0.0
 10
-5.1025299657
 20
-4.6579419225
 30
0.0
 10
-5.5138112176
 20
-3.8433164156
 30
0.0
 10
-5.8210915145
 20
-3.0079425294
 30
0.0
 10
-6.0129281492
 20
-2.1832346941
 30
0.0
 10
-6.0610443961
 20
-1.6365688205
 30
0.0
 10
-6.0610443948
 20
-1.3738592941
 30
0.0
  0
SPLINE
  5
34A
100
AcDbEntity
  8
0
100
AcDbSpline
 62
7
  6
CONTINUOUS
 70
0
 71
3
 72
15
 73
11
 74
0
 42
0.0000001
 43
0.0000001
 44
0.0000000001
 40
0.0
 40
0.0
 40
0.0
 40
0.0
 40
0.1141564305
 40
0.2373230463
 40
0.3669745543
 40
0.5000000203
 40
0.6330256097
 40
0.7626760274
 40
0.8858472153
 40
1.0
 40
1.0
 40
1.0
 40
1.0
 10
-19.920337306
 20
8.0164563524
 30
0.0
 10
-19.920337308
 20
7.8208087063
 30
0.0
 10
-19.8845025388
 20
7.413690637
 30
0.0
 10
-19.7416251038
 20
6.7995076056
 30
0.0
 10
-19.5127731879
 20
6.1773847966
 30
0.0
 10
-19.2064670371
 20
5.5707136279
 30
0.0
 10
-18.8341956477
 20
5.0021327325
 30
0.0
 10
-18.409819511
 20
4.4928944361
 30
0.0
 10
-17.9493287077
 20
4.0621014604
 30
0.0
 10
-17.6146602882
 20
3.8275224374
 30
0.0
 10
-17.4452243929
 20
3.7297112215
 30
0.0
  0
SPLINE
  5
34B
100
AcDbEntity
  8
0
100
AcDbSpline
 62
7
  6
CONTINUOUS
 70
0
 71
3
 72
12
 73
8
 74
0
 42
0.0000001
 43
0.0000001
 44
0.0000000001
 40
0.0
 40
0.0
 40
0.0
 40
0.0
 40
0.2895896318
 40
0.548629694
 40
0.7816355646
 40
0.8918367821
 40
1.0
 40
1.0
 40
1.0
 40
1.0
 10
-20.2738906966
 20
11.0782001629
 30
0.0
 10
-20.273890696
 20
11.2555858256
 30
0.0
 10
-20.2470214438
 20
11.5928499807
 30
0.0
 10
-20.1106389864
 20
12.0559583948
 30
0.0
 10
-19.9146938204
 20
12.3754990248
 30
0.0
 10
-19.7167871549
 20
12.570144213
 30
0.0
 10
-19.6064785793
 20
12.6471502379
 30
0.0
 10
-19.5491015229
 20
12.6802791768
 30
0.0
  0
SPLINE
  5
34C
100
AcDbEntity
  8
0
100
AcDbSpline
 62
7
  6
CONTINUOUS
 70
0
 71
3
 72
15
 73
11
 74
0
 42
0.0000001
 43
0.0000001
 44
0.0000000001
 40
0.0
 40
0.0
 40
0.0
 40
0.0
 40
0.1141564305
 40
0.2373230463
 40
0.3669745543
 40
0.5000000203
 40
0.6330256097
 40
0.7626760274
 40
0.8858472153
 40
1.0
 40
1.0
 40
1.0
 40
1.0
 10
-4.0104347293
 20
-1.1697219974
 30
0.0
 10
-4.0104347313
 20
-1.3653696436
 30
0.0
 10
-3.9745999621
 20
-1.7724877129
 30
0.0
 10
-3.8317225271
 20
-2.3866707443
 30
0.0
 10
-3.6028706112
 20
-3.0087935533
 30
0.0
 10
-3.2965644604
 20
-3.615464722
 30
0.0
 10
-2.924293071
 20
-4.1840456173
 30
0.0
 10
-2.4999169343
 20
-4.6932839138
 30
0.0
 10
-2.039426131
 20
-5.1240768895
 30
0.0
 10
-1.7047577115
 20
-5.3586559125
 30
0.0
 10
-1.5353218162
 20
-5.4564671284
 30
0.0
  0
SPLINE
  5
34D
100
AcDbEntity
  8
0
100
AcDbSpline
 62
7
  6
CONTINUOUS
 70
0
 71
3
 72
12
 73
8
 74
0
 42
0.0000001
 43
0.0000001
 44
0.0000000001
 40
0.0
 40
0.0
 40
0.0
 40
0.0
 40
0.2895896318
 40
0.548629694
 40
0.7816355646
 40
0.8918367821
 40
1.0
 40
1.0
 40
1.0
 40
1.0
 10
-4.3639881199
 20
1.8920218131
 30
0.0
 10
-4.3639881193
 20
2.0694074758
 30
0.0
 10
-4.3371188671
 20
2.4066716308
 30
0.0
 10
-4.2007364097
 20
2.8697800449
 30
0.0
 10
-4.0047912437
 20
3.1893206749
 30
0.0
 10
-3.8068845782
 20
3.3839658631
 30
0.0
 10
-3.6965760026
 20
3.4609718881
 30
0.0
 10
-3.6391989462
 20
3.4941008269
 30
0.0
  0
SPLINE
  5
34E
100
AcDbEntity
  8
0
100
AcDbSpline
 62
7
  6
CONTINUOUS
 70
0
 71
3
 72
19
 73
15
 74
0
 42
0.0000001
 43
0.0000001
 44
0.0000000001
 40
0.0
 40
0.0
 40
0.0
 40
0.0
 40
0.1447049974
 40
0.2741459566
 40
0.3338721486
 40
0.3908849634
 40
0.4459516638
 40
0.4999996991
 40
0.5540477464
 40
0.6091148629
 40
0.6661274366
 40
0.7258524195
 40
0.8552990214
 40
1.0
 40
1.0
 40
1.0
 40
1.0
 10
-6.0610443948
 20
1.8920218131
 30
0.0
 10
-6.0610443957
 20
2.1302248473
 30
0.0
 10
-6.0251845288
 20
2.582865974
 30
0.0
 10
-5.86787546
 20
3.1153425037
 30
0.0
 10
-5.6770184487
 20
3.474233611
 30
0.0
 10
-5.5086896075
 20
3.7028759663
 30
0.0
 10
-5.3128950022
 20
3.8955403588
 30
0.0
 10
-5.0915819562
 20
4.0500100331
 30
0.0
 10
-4.8471594423
 20
4.1644623819
 30
0.0
 10
-4.5824078596
 20
4.2376866587
 30
0.0
 10
-4.3002395799
 20
4.2691708517
 30
0.0
 10
-3.8939929641
 20
4.2550431209
 30
0.0
 10
-3.3541956485
 20
4.1250502463
 30
0.0
 10
-2.9442544913
 20
3.9298086359
 30
0.0
 10
-2.737963706
 20
3.8107219203
 30
0.0
  0
SPLINE
  5
34F
100
AcDbEntity
  8
0
100
AcDbSpline
 62
7
  6
CONTINUOUS
 70
0
 71
3
 72
15
 73
11
 74
0
 42
0.0000001
 43
0.0000001
 44
0.0000000001
 40
0.0
 40
0.0
 40
0.0
 40
0.0
 40
0.1141564305
 40
0.2373230463
 40
0.3669745543
 40
0.5000000203
 40
0.6330256097
 40
0.7626760274
 40
0.8858472153
 40
1.0
 40
1.0
 40
1.0
 40
1.0
 10
11.8994678474
 20
-10.3559003473
 30
0.0
 10
11.8994678454
 20
-10.5515479934
 30
0.0
 10
11.9353026146
 20
-10.9586660627
 30
0.0
 10
12.0781800496
 20
-11.5728490941
 30
0.0
 10
12.3070319655
 20
-12.1949719032
 30
0.0
 10
12.6133381163
 20
-12.8016430718
 30
0.0
 10
12.9856095057
 20
-13.3702239672
 30
0.0
 10
13.4099856424
 20
-13.8794622636
 30
0.0
 10
13.8704764457
 20
-14.3102552394
 30
0.0
 10
14.2051448652
 20
-14.5448342624
 30
0.0
 10
14.3745807605
 20
-14.6426454783
 30
0.0
  0
SPLINE
  5
350
100
AcDbEntity
  8
0
100
AcDbSpline
 62
7
  6
CONTINUOUS
 70
0
 71
3
 72
12
 73
8
 74
0
 42
0.0000001
 43
0.0000001
 44
0.0000000001
 40
0.0
 40
0.0
 40
0.0
 40
0.0
 40
0.2895896318
 40
0.548629694
 40
0.7816355646
 40
0.8918367821
 40
1.0
 40
1.0
 40
1.0
 40
1.0
 10
11.5459144568
 20
-7.2941565368
 30
0.0
 10
11.5459144574
 20
-7.1167708741
 30
0.0
 10
11.5727837096
 20
-6.779506719
 30
0.0
 10
11.709166167
 20
-6.3163983049
 30
0.0
 10
11.905111333
 20
-5.9968576749
 30
0.0
 10
12.1030179985
 20
-5.8022124867
 30
0.0
 10
12.2133265741
 20
-5.7252064618
 30
0.0
 10
12.2707036305
 20
-5.6920775229
 30
0.0
  0
SPLINE
  5
351
100
AcDbEntity
  8
ASSI
100
AcDbSpline
 62
7
  6
CONTINUOUS
 70
0
 71
3
 72
15
 73
11
 74
0
 42
0.0000001
 43
0.0000001
 44
0.0000000001
 40
0.0
 40
0.0
 40
0.0
 40
0.0
 40
0.1155110746
 40
0.238928251
 40
0.3679879115
 40
0.4999693535
 40
0.63195617
 40
0.7610305217
 40
0.8844769864
 40
1.0
 40
1.0
 40
1.0
 40
1.0
 10
11.9030925169
 20
-10.3534924712
 30
0.0
 10
11.9118367444
 20
-10.5501353757
 30
0.0
 10
11.9615302558
 20
-10.9558181446
 30
0.0
 10
12.1168194377
 20
-11.5647861573
 30
0.0
 10
12.3505161871
 20
-12.1782789322
 30
0.0
 10
12.6550354619
 20
-12.7761729232
 30
0.0
 10
13.0204011598
 20
-13.338978124
 30
0.0
 10
13.434728727
 20
-13.8483220067
 30
0.0
 10
13.8843812748
 20
-14.2875109135
 30
0.0
 10
14.2108003199
 20
-14.5335893274
 30
0.0
 10
14.3766922423
 20
-14.6395741053
 30
0.0
  0
SPLINE
  5
352
100
AcDbEntity
  8
ASSI
100
AcDbSpline
 62
7
  6
CONTINUOUS
 70
0
 71
3
 72
15
 73
11
 74
0
 42
0.0000001
 43
0.0000001
 44
0.0000000001
 40
0.0
 40
0.0
 40
0.0
 40
0.0
 40
0.1155110746
 40
0.238928251
 40
0.3679879115
 40
0.4999693535
 40
0.63195617
 40
0.7610305217
 40
0.8844769864
 40
1.0
 40
1.0
 40
1.0
 40
1.0
 10
-4.0068100598
 20
-1.1673141213
 30
0.0
 10
-3.9980658323
 20
-1.3639570258
 30
0.0
 10
-3.9483723209
 20
-1.7696397947
 30
0.0
 10
-3.793083139
 20
-2.3786078075
 30
0.0
 10
-3.5593863896
 20
-2.9921005823
 30
0.0
 10
-3.2548671148
 20
-3.5899945733
 30
0.0
 10
-2.8895014169
 20
-4.1527997742
 30
0.0
 10
-2.4751738497
 20
-4.6621436568
 30
0.0
 10
-2.0255213019
 20
-5.1013325636
 30
0.0
 10
-1.6991022568
 20
-5.3474109775
 30
0.0
 10
-1.5332103344
 20
-5.4533957554
 30
0.0
  0
SPLINE
  5
353
100
AcDbEntity
  8
ASSI
100
AcDbSpline
 62
7
  6
CONTINUOUS
 70
0
 71
3
 72
15
 73
11
 74
0
 42
0.0000001
 43
0.0000001
 44
0.0000000001
 40
0.0
 40
0.0
 40
0.0
 40
0.0
 40
0.1155110746
 40
0.238928251
 40
0.3679879115
 40
0.4999693535
 40
0.63195617
 40
0.7610305217
 40
0.8844769864
 40
1.0
 40
1.0
 40
1.0
 40
1.0
 10
-19.9167126365
 20
8.0188642286
 30
0.0
 10
-19.907968409
 20
7.8222213241
 30
0.0
 10
-19.8582748976
 20
7.4165385552
 30
0.0
 10
-19.7029857157
 20
6.8075705424
 30
0.0
 10
-19.4692889663
 20
6.1940777675
 30
0.0
 10
-19.1647696915
 20
5.5961837766
 30
0.0
 10
-18.7994039936
 20
5.0333785757
 30
0.0
 10
-18.3850764264
 20
4.5240346931
 30
0.0
 10
-17.9354238786
 20
4.0848457863
 30
0.0
 10
-17.6090048335
 20
3.8387673723
 30
0.0
 10
-17.4431129111
 20
3.7327825945
 30
0.0
  0
SPLINE
  5
354
100
AcDbEntity
  8
ASSI
100
AcDbSpline
 62
7
  6
CONTINUOUS
 70
0
 71
3
 72
11
 73
7
 74
0
 42
0.0000001
 43
0.0000001
 44
0.0000000001
 40
0.0
 40
0.0
 40
0.0
 40
0.0
 40
0.280800634
 40
0.5399589272
 40
0.7785828121
 40
1.0
 40
1.0
 40
1.0
 40
1.0
 10
-17.4452243929
 20
3.7297112215
 30
0.0
 10
-17.3308965983
 20
3.6637125699
 30
0.0
 10
-17.1031218003
 20
3.5497075355
 30
0.0
 10
-16.7542434279
 20
3.4341880515
 30
0.0
 10
-16.4181224062
 20
3.3835198299
 30
0.0
 10
-16.200125065
 20
3.3949216542
 30
0.0
 10
-16.097546024
 20
3.4126088604
 30
0.0
  0
SPLINE
  5
355
100
AcDbEntity
  8
ASSI
100
AcDbSpline
 62
7
  6
CONTINUOUS
 70
0
 71
3
 72
15
 73
11
 74
0
 42
0.0000001
 43
0.0000001
 44
0.0000000001
 40
0.0
 40
0.0
 40
0.0
 40
0.0
 40
0.1141524098
 40
0.237323445
 40
0.3669741506
 40
0.4999998222
 40
0.6330255182
 40
0.7626766281
 40
0.885843748
 40
1.0
 40
1.0
 40
1.0
 40
1.0
 10
-18.6478662827
 20
12.9969002701
 30
0.0
 10
-18.4203389315
 20
12.865554195
 30
0.0
 10
-17.9709245116
 20
12.5505546286
 30
0.0
 10
-17.3525491468
 20
11.9720635294
 30
0.0
 10
-16.7826783764
 20
11.2882240722
 30
0.0
 10
-16.2827714649
 20
10.5247000968
 30
0.0
 10
-15.871440856
 20
9.7100305296
 30
0.0
 10
-15.564125623
 20
8.8746075256
 30
0.0
 10
-15.3722656155
 20
8.0498471108
 30
0.0
 10
-15.324143227
 20
7.5031453325
 30
0.0
 10
-15.3241432283
 20
7.2404189857
 30
0.0
  0
SPLINE
  5
356
100
AcDbEntity
  8
ASSI
100
AcDbSpline
 62
7
  6
CONTINUOUS
 70
0
 71
3
 72
11
 73
7
 74
0
 42
0.0000001
 43
0.0000001
 44
0.0000000001
 40
0.0
 40
0.0
 40
0.0
 40
0.0
 40
0.2268065693
 40
0.4640947479
 40
0.7201480503
 40
1.0
 40
1.0
 40
1.0
 40
1.0
 10
-19.5491015229
 20
12.6802791768
 30
0.0
 10
-19.4574887953
 20
12.7331754499
 30
0.0
 10
-19.2540534633
 20
12.8157814376
 30
0.0
 10
-18.9174756934
 20
12.857413717
 30
0.0
 10
-18.5562492677
 20
12.8193363852
 30
0.0
 10
-18.3157994629
 20
12.7458895737
 30
0.0
 10
-18.1942167365
 20
12.6983992477
 30
0.0
  0
SPLINE
  5
357
100
AcDbEntity
  8
ASSI
100
AcDbSpline
 62
7
  6
CONTINUOUS
 70
0
 71
3
 72
9
 73
5
 74
0
 42
0.0000001
 43
0.0000001
 44
0.0000000001
 40
0.0
 40
0.0
 40
0.0
 40
0.0
 40
0.2478226825
 40
1.0
 40
1.0
 40
1.0
 40
1.0
 10
-19.3634046243
 20
12.7668084221
 30
0.0
 10
-19.3753738901
 20
12.7567733125
 30
0.0
 10
-19.4228812743
 20
12.7153445973
 30
0.0
 10
-19.4671571609
 20
12.6702278468
 30
0.0
 10
-19.4984525729
 20
12.6346182726
 30
0.0
  0
SPLINE
  5
358
100
AcDbEntity
  8
ASSI
100
AcDbSpline
 62
7
  6
CONTINUOUS
 70
0
 71
3
 72
11
 73
7
 74
0
 42
0.0000001
 43
0.0000001
 44
0.0000000001
 40
0.0
 40
0.0
 40
0.0
 40
0.0
 40
0.2243907044
 40
0.464103098
 40
0.7221599116
 40
1.0
 40
1.0
 40
1.0
 40
1.0
 10
-19.5210710561
 20
12.6081794459
 30
0.0
 10
-19.5807945079
 20
12.5364673284
 30
0.0
 10
-19.6887215253
 20
12.3746600143
 30
0.0
 10
-19.8073032036
 20
12.0972183402
 30
0.0
 10
-19.8859442957
 20
11.7831867444
 30
0.0
 10
-19.910190771
 20
11.5609335448
 30
0.0
 10
-19.9161708152
 20
11.4455338163
 30
0.0
  0
SPLINE
  5
359
100
AcDbEntity
  8
ASSI
100
AcDbSpline
 62
7
  6
CONTINUOUS
 70
0
 71
3
 72
11
 73
7
 74
0
 42
0.0000001
 43
0.0000001
 44
0.0000000001
 40
0.0
 40
0.0
 40
0.0
 40
0.0
 40
0.280800634
 40
0.5399589272
 40
0.7785828121
 40
1.0
 40
1.0
 40
1.0
 40
1.0
 10
-1.5353218162
 20
-5.4564671284
 30
0.0
 10
-1.4209940216
 20
-5.5224657799
 30
0.0
 10
-1.1932192236
 20
-5.6364708144
 30
0.0
 10
-0.8443408512
 20
-5.7519902983
 30
0.0
 10
-0.5082198295
 20
-5.80265852
 30
0.0
 10
-0.2902224883
 20
-5.7912566957
 30
0.0
 10
-0.1876434473
 20
-5.7735694895
 30
0.0
  0
SPLINE
  5
35A
100
AcDbEntity
  8
ASSI
100
AcDbSpline
 62
7
  6
CONTINUOUS
 70
0
 71
3
 72
15
 73
11
 74
0
 42
0.0000001
 43
0.0000001
 44
0.0000000001
 40
0.0
 40
0.0
 40
0.0
 40
0.0
 40
0.1141524098
 40
0.237323445
 40
0.3669741506
 40
0.4999998222
 40
0.6330255182
 40
0.7626766281
 40
0.885843748
 40
1.0
 40
1.0
 40
1.0
 40
1.0
 10
-2.737963706
 20
3.8107219203
 30
0.0
 10
-2.5104363548
 20
3.6793758452
 30
0.0
 10
-2.0610219349
 20
3.3643762787
 30
0.0
 10
-1.4426465701
 20
2.7858851796
 30
0.0
 10
-0.8727757997
 20
2.1020457224
 30
0.0
 10
-0.3728688882
 20
1.3385217469
 30
0.0
 10
0.0384617207
 20
0.5238521797
 30
0.0
 10
0.3457769537
 20
-0.3115708242
 30
0.0
 10
0.5376369612
 20
-1.1363312391
 30
0.0
 10
0.5857593497
 20
-1.6830330174
 30
0.0
 10
0.5857593484
 20
-1.9457593642
 30
0.0
  0
SPLINE
  5
35B
100
AcDbEntity
  8
ASSI
100
AcDbSpline
 62
7
  6
CONTINUOUS
 70
0
 71
3
 72
11
 73
7
 74
0
 42
0.0000001
 43
0.0000001
 44
0.0000000001
 40
0.0
 40
0.0
 40
0.0
 40
0.0
 40
0.2268065693
 40
0.4640947479
 40
0.7201480503
 40
1.0
 40
1.0
 40
1.0
 40
1.0
 10
-3.6391989462
 20
3.4941008269
 30
0.0
 10
-3.5475862186
 20
3.5469971001
 30
0.0
 10
-3.3441508866
 20
3.6296030877
 30
0.0
 10
-3.0075731167
 20
3.6712353671
 30
0.0
 10
-2.646346691
 20
3.6331580353
 30
0.0
 10
-2.4058968862
 20
3.5597112238
 30
0.0
 10
-2.2843141598
 20
3.5122208979
 30
0.0
  0
SPLINE
  5
35C
100
AcDbEntity
  8
ASSI
100
AcDbSpline
 62
7
  6
CONTINUOUS
 70
0
 71
3
 72
9
 73
5
 74
0
 42
0.0000001
 43
0.0000001
 44
0.0000000001
 40
0.0
 40
0.0
 40
0.0
 40
0.0
 40
0.2478226825
 40
1.0
 40
1.0
 40
1.0
 40
1.0
 10
-3.4535020476
 20
3.5806300722
 30
0.0
 10
-3.4654713134
 20
3.5705949626
 30
0.0
 10
-3.5129786976
 20
3.5291662475
 30
0.0
 10
-3.5572545842
 20
3.4840494969
 30
0.0
 10
-3.5885499962
 20
3.4484399227
 30
0.0
  0
SPLINE
  5
35D
100
AcDbEntity
  8
ASSI
100
AcDbSpline
 62
7
  6
CONTINUOUS
 70
0
 71
3
 72
11
 73
7
 74
0
 42
0.0000001
 43
0.0000001
 44
0.0000000001
 40
0.0
 40
0.0
 40
0.0
 40
0.0
 40
0.2243907044
 40
0.464103098
 40
0.7221599116
 40
1.0
 40
1.0
 40
1.0
 40
1.0
 10
-3.6111684794
 20
3.4220010961
 30
0.0
 10
-3.6708919312
 20
3.3502889785
 30
0.0
 10
-3.7788189486
 20
3.1884816644
 30
0.0
 10
-3.8974006269
 20
2.9110399904
 30
0.0
 10
-3.976041719
 20
2.5970083945
 30
0.0
 10
-4.0002881943
 20
2.3747551949
 30
0.0
 10
-4.0062682385
 20
2.2593554665
 30
0.0
  0
SPLINE
  5
35E
100
AcDbEntity
  8
ASSI
100
AcDbSpline
 62
7
  6
CONTINUOUS
 70
0
 71
3
 72
11
 73
7
 74
0
 42
0.0000001
 43
0.0000001
 44
0.0000000001
 40
0.0
 40
0.0
 40
0.0
 40
0.0
 40
0.280800634
 40
0.5399589272
 40
0.7785828121
 40
1.0
 40
1.0
 40
1.0
 40
1.0
 10
14.3745807605
 20
-14.6426454783
 30
0.0
 10
14.4889085551
 20
-14.7086441298
 30
0.0
 10
14.7166833531
 20
-14.8226491643
 30
0.0
 10
15.0655617255
 20
-14.9381686482
 30
0.0
 10
15.4016827472
 20
-14.9888368699
 30
0.0
 10
15.6196800884
 20
-14.9774350456
 30
0.0
 10
15.7222591294
 20
-14.9597478394
 30
0.0
  0
SPLINE
  5
35F
100
AcDbEntity
  8
ASSI
100
AcDbSpline
 62
7
  6
CONTINUOUS
 70
0
 71
3
 72
15
 73
11
 74
0
 42
0.0000001
 43
0.0000001
 44
0.0000000001
 40
0.0
 40
0.0
 40
0.0
 40
0.0
 40
0.1141524098
 40
0.237323445
 40
0.3669741506
 40
0.4999998222
 40
0.6330255182
 40
0.7626766281
 40
0.885843748
 40
1.0
 40
1.0
 40
1.0
 40
1.0
 10
13.1719388707
 20
-5.3754564296
 30
0.0
 10
13.3994662219
 20
-5.5068025047
 30
0.0
 10
13.8488806418
 20
-5.8218020712
 30
0.0
 10
14.4672560066
 20
-6.4002931703
 30
0.0
 10
15.037126777
 20
-7.0841326275
 30
0.0
 10
15.5370336885
 20
-7.8476566029
 30
0.0
 10
15.9483642974
 20
-8.6623261702
 30
0.0
 10
16.2556795304
 20
-9.4977491741
 30
0.0
 10
16.4475395379
 20
-10.322509589
 30
0.0
 10
16.4956619264
 20
-10.8692113673
 30
0.0
 10
16.4956619251
 20
-11.1319377141
 30
0.0
  0
SPLINE
  5
360
100
AcDbEntity
  8
ASSI
100
AcDbSpline
 62
7
  6
CONTINUOUS
 70
0
 71
3
 72
11
 73
7
 74
0
 42
0.0000001
 43
0.0000001
 44
0.0000000001
 40
0.0
 40
0.0
 40
0.0
 40
0.0
 40
0.2268065693
 40
0.4640947479
 40
0.7201480503
 40
1.0
 40
1.0
 40
1.0
 40
1.0
 10
12.2707036305
 20
-5.6920775229
 30
0.0
 10
12.3623163581
 20
-5.6391812498
 30
0.0
 10
12.5657516901
 20
-5.5565752622
 30
0.0
 10
12.9023294599
 20
-5.5149429828
 30
0.0
 10
13.2635558857
 20
-5.5530203146
 30
0.0
 10
13.5040056904
 20
-5.626467126
 30
0.0
 10
13.6255884169
 20
-5.673957452
 30
0.0
  0
SPLINE
  5
361
100
AcDbEntity
  8
ASSI
100
AcDbSpline
 62
7
  6
CONTINUOUS
 70
0
 71
3
 72
9
 73
5
 74
0
 42
0.0000001
 43
0.0000001
 44
0.0000000001
 40
0.0
 40
0.0
 40
0.0
 40
0.0
 40
0.2478226825
 40
1.0
 40
1.0
 40
1.0
 40
1.0
 10
12.4564005291
 20
-5.6055482777
 30
0.0
 10
12.4444312633
 20
-5.6155833873
 30
0.0
 10
12.3969238791
 20
-5.6570121024
 30
0.0
 10
12.3526479925
 20
-5.702128853
 30
0.0
 10
12.3213525805
 20
-5.7377384272
 30
0.0
  0
SPLINE
  5
362
100
AcDbEntity
  8
ASSI
100
AcDbSpline
 62
7
  6
CONTINUOUS
 70
0
 71
3
 72
11
 73
7
 74
0
 42
0.0000001
 43
0.0000001
 44
0.0000000001
 40
0.0
 40
0.0
 40
0.0
 40
0.0
 40
0.2243907044
 40
0.464103098
 40
0.7221599116
 40
1.0
 40
1.0
 40
1.0
 40
1.0
 10
12.2987340973
 20
-5.7641772538
 30
0.0
 10
12.2390106455
 20
-5.8358893713
 30
0.0
 10
12.1310836281
 20
-5.9976966854
 30
0.0
 10
12.0125019498
 20
-6.2751383595
 30
0.0
 10
11.9338608577
 20
-6.5891699554
 30
0.0
 10
11.9096143824
 20
-6.8114231549
 30
0.0
 10
11.9036343382
 20
-6.9268228834
 30
0.0
  0
SPLINE
  5
363
100
AcDbEntity
  8
ASSI
100
AcDbSpline
 62
7
  6
CONTINUOUS
 70
0
 71
3
 72
12
 73
8
 74
0
 42
0.0000001
 43
0.0000001
 44
0.0000000001
 40
0.0
 40
0.0
 40
0.0
 40
0.0
 40
0.2895896319
 40
0.548629694
 40
0.7816355646
 40
0.8918367821
 40
1.0
 40
1.0
 40
1.0
 40
1.0
 10
16.4956619251
 20
-13.4179597973
 30
0.0
 10
16.4956619257
 20
-13.59534546
 30
0.0
 10
16.4687926715
 20
-13.932609615
 30
0.0
 10
16.332410215
 20
-14.3957180292
 30
0.0
 10
16.1364650489
 20
-14.7152586591
 30
0.0
 10
15.9385583833
 20
-14.9099038473
 30
0.0
 10
15.8282498078
 20
-14.9869098723
 30
0.0
 10
15.7708727513
 20
-15.0200388111
 30
0.0
  0
SPLINE
  5
364
100
AcDbEntity
  8
ASSI
100
AcDbSpline
 62
7
  6
CONTINUOUS
 70
0
 71
3
 72
12
 73
8
 74
0
 42
0.0000001
 43
0.0000001
 44
0.0000000001
 40
0.0
 40
0.0
 40
0.0
 40
0.0
 40
0.2895896319
 40
0.548629694
 40
0.7816355646
 40
0.8918367821
 40
1.0
 40
1.0
 40
1.0
 40
1.0
 10
-15.3241432283
 20
4.9543969025
 30
0.0
 10
-15.3241432277
 20
4.7770112398
 30
0.0
 10
-15.3510124819
 20
4.4397470848
 30
0.0
 10
-15.4873949384
 20
3.9766386706
 30
0.0
 10
-15.6833401045
 20
3.6570980406
 30
0.0
 10
-15.8812467701
 20
3.4624528524
 30
0.0
 10
-15.9915553456
 20
3.3854468275
 30
0.0
 10
-16.0489324021
 20
3.3523178886
 30
0.0
  0
SPLINE
  5
365
100
AcDbEntity
  8
ASSI
100
AcDbSpline
 62
7
  6
CONTINUOUS
 70
0
 71
3
 72
12
 73
8
 74
0
 42
0.0000001
 43
0.0000001
 44
0.0000000001
 40
0.0
 40
0.0
 40
0.0
 40
0.0
 40
0.2895896319
 40
0.548629694
 40
0.7816355646
 40
0.8918367821
 40
1.0
 40
1.0
 40
1.0
 40
1.0
 10
0.5857593484
 20
-4.2317814474
 30
0.0
 10
0.585759349
 20
-4.4091671101
 30
0.0
 10
0.5588900948
 20
-4.7464312651
 30
0.0
 10
0.4225076383
 20
-5.2095396793
 30
0.0
 10
0.2265624722
 20
-5.5290803092
 30
0.0
 10
0.0286558066
 20
-5.7237254975
 30
0.0
 10
-0.0816527689
 20
-5.8007315224
 30
0.0
 10
-0.1390298254
 20
-5.8338604612
 30
0.0
  0
SPLINE
  5
366
100
AcDbEntity
  8
ASSI
100
AcDbSpline
 62
7
  6
CONTINUOUS
 70
0
 71
3
 72
19
 73
15
 74
0
 42
0.0000001
 43
0.0000001
 44
0.0000000001
 40
0.0
 40
0.0
 40
0.0
 40
0.0
 40
0.0428400166
 40
0.0874489431
 40
0.1352611942
 40
0.1872028299
 40
0.243685093
 40
0.3046814048
 40
0.3698210654
 40
0.4384731775
 40
0.5827574576
 40
0.7298489975
 40
0.8713783969
 40
1.0
 40
1.0
 40
1.0
 40
1.0
 10
-0.1390298254
 20
-5.8338604612
 30
0.0
 10
-0.2253159602
 20
-5.883681213
 30
0.0
 10
-0.4155223185
 20
-5.9627418424
 30
0.0
 10
-0.7295039277
 20
-6.0087591279
 30
0.0
 10
-1.0666726277
 20
-5.983937662
 30
0.0
 10
-1.4195432092
 20
-5.890179563
 30
0.0
 10
-1.7811884253
 20
-5.7303454271
 30
0.0
 10
-2.1444002072
 20
-5.508129284
 30
0.0
 10
-2.5018379248
 20
-5.2283104982
 30
0.0
 10
-2.9682778503
 20
-4.7789875242
 30
0.0
 10
-3.4865748421
 20
-4.1152678964
 30
0.0
 10
-3.9679254666
 20
-3.2256770786
 30
0.0
 10
-4.2802886574
 20
-2.3020219246
 30
0.0
 10
-4.3639881185
 20
-1.6730045665
 30
0.0
 10
-4.3639881199
 20
-1.3738592941
 30
0.0
  0
SPLINE
  5
367
100
AcDbEntity
  8
ASSI
100
AcDbSpline
 62
7
  6
CONTINUOUS
 70
0
 71
3
 72
27
 73
23
 74
0
 42
0.0000001
 43
0.0000001
 44
0.0000000001
 40
0.0
 40
0.0
 40
0.0
 40
0.0
 40
0.0603448655
 40
0.1143239375
 40
0.139230684
 40
0.1630059117
 40
0.1859696504
 40
0.2085087351
 40
0.2310480373
 40
0.2540125672
 40
0.2777886633
 40
0.3026961501
 40
0.3566805789
 40
0.4170269374
 40
0.4835768947
 40
0.555383568
 40
0.6309668356
 40
0.7085168928
 40
0.7860664736
 40
0.8616485439
 40
0.9334506763
 40
1.0
 40
1.0
 40
1.0
 40
1.0
 10
0.5857593484
 20
-5.2116404714
 30
0.0
 10
0.5857593493
 20
-5.4498573328
 30
0.0
 10
0.5498955234
 20
-5.9025234046
 30
0.0
 10
0.3925671915
 20
-6.4350261311
 30
0.0
 10
0.2016870301
 20
-6.7939278687
 30
0.0
 10
0.0333382022
 20
-7.0225728354
 30
0.0
 10
-0.1624792669
 20
-7.2152345094
 30
0.0
 10
-0.3838174336
 20
-7.3696958334
 30
0.0
 10
-0.6282668369
 20
-7.4841339611
 30
0.0
 10
-0.8930455193
 20
-7.5573388511
 30
0.0
 10
-1.1752439633
 20
-7.5887962286
 30
0.0
 10
-1.5815176741
 20
-7.5746359118
 30
0.0
 10
-2.1214662905
 20
-7.4445003643
 30
0.0
 10
-2.76956196
 20
-7.1358937971
 30
0.0
 10
-3.4144086164
 20
-6.6838624697
 30
0.0
 10
-4.0328927624
 20
-6.105242602
 30
0.0
 10
-4.6026622616
 20
-5.4214473887
 30
0.0
 10
-5.1025299657
 20
-4.6579419225
 30
0.0
 10
-5.5138112176
 20
-3.8433164156
 30
0.0
 10
-5.8210915145
 20
-3.0079425294
 30
0.0
 10
-6.0129281492
 20
-2.1832346941
 30
0.0
 10
-6.0610443961
 20
-1.6365688205
 30
0.0
 10
-6.0610443948
 20
-1.3738592941
 30
0.0
  0
SPLINE
  5
368
100
AcDbEntity
  8
ASSI
100
AcDbSpline
 62
7
  6
CONTINUOUS
 70
0
 71
3
 72
19
 73
15
 74
0
 42
0.0000001
 43
0.0000001
 44
0.0000000001
 40
0.0
 40
0.0
 40
0.0
 40
0.0
 40
0.1447049974
 40
0.2741459566
 40
0.3338721486
 40
0.3908849634
 40
0.4459516638
 40
0.4999996991
 40
0.5540477464
 40
0.6091148629
 40
0.6661274366
 40
0.7258524195
 40
0.8552990214
 40
1.0
 40
1.0
 40
1.0
 40
1.0
 10
-6.0610443948
 20
1.8920218131
 30
0.0
 10
-6.0610443957
 20
2.1302248473
 30
0.0
 10
-6.0251845288
 20
2.582865974
 30
0.0
 10
-5.86787546
 20
3.1153425037
 30
0.0
 10
-5.6770184487
 20
3.474233611
 30
0.0
 10
-5.5086896075
 20
3.7028759663
 30
0.0
 10
-5.3128950022
 20
3.8955403588
 30
0.0
 10
-5.0915819562
 20
4.0500100331
 30
0.0
 10
-4.8471594423
 20
4.1644623819
 30
0.0
 10
-4.5824078596
 20
4.2376866587
 30
0.0
 10
-4.3002395799
 20
4.2691708517
 30
0.0
 10
-3.8939929641
 20
4.2550431209
 30
0.0
 10
-3.3541956485
 20
4.1250502463
 30
0.0
 10
-2.9442544913
 20
3.9298086359
 30
0.0
 10
-2.737963706
 20
3.8107219203
 30
0.0
  0
SPLINE
  5
369
100
AcDbEntity
  8
ASSI
100
AcDbSpline
 62
7
  6
CONTINUOUS
 70
0
 71
3
 72
19
 73
15
 74
0
 42
0.0000001
 43
0.0000001
 44
0.0000000001
 40
0.0
 40
0.0
 40
0.0
 40
0.0
 40
0.0428400166
 40
0.0874489431
 40
0.1352611942
 40
0.1872028299
 40
0.243685093
 40
0.3046814048
 40
0.3698210654
 40
0.4384731775
 40
0.5827574576
 40
0.7298489975
 40
0.8713783969
 40
1.0
 40
1.0
 40
1.0
 40
1.0
 10
15.7708727513
 20
-15.0200388111
 30
0.0
 10
15.6845866165
 20
-15.0698595629
 30
0.0
 10
15.4943802582
 20
-15.1489201922
 30
0.0
 10
15.180398649
 20
-15.1949374778
 30
0.0
 10
14.843229949
 20
-15.1701160118
 30
0.0
 10
14.4903593675
 20
-15.0763579129
 30
0.0
 10
14.1287141514
 20
-14.9165237769
 30
0.0
 10
13.7655023695
 20
-14.6943076339
 30
0.0
 10
13.4080646519
 20
-14.4144888481
 30
0.0
 10
12.9416247264
 20
-13.9651658741
 30
0.0
 10
12.4233277346
 20
-13.3014462462
 30
0.0
 10
11.9419771101
 20
-12.4118554284
 30
0.0
 10
11.6296139193
 20
-11.4882002745
 30
0.0
 10
11.5459144582
 20
-10.8591829164
 30
0.0
 10
11.5459144568
 20
-10.560037644
 30
0.0
  0
SPLINE
  5
36A
100
AcDbEntity
  8
ASSI
100
AcDbSpline
 62
7
  6
CONTINUOUS
 70
0
 71
3
 72
27
 73
23
 74
0
 42
0.0000001
 43
0.0000001
 44
0.0000000001
 40
0.0
 40
0.0
 40
0.0
 40
0.0
 40
0.0603448655
 40
0.1143239375
 40
0.139230684
 40
0.1630059117
 40
0.1859696504
 40
0.2085087351
 40
0.2310480373
 40
0.2540125672
 40
0.2777886633
 40
0.3026961501
 40
0.3566805789
 40
0.4170269374
 40
0.4835768947
 40
0.555383568
 40
0.6309668356
 40
0.7085168928
 40
0.7860664736
 40
0.8616485439
 40
0.9334506763
 40
1.0
 40
1.0
 40
1.0
 40
1.0
 10
-15.3241432283
 20
3.9745378785
 30
0.0
 10
-15.3241432274
 20
3.7363210171
 30
0.0
 10
-15.3600070533
 20
3.2836549452
 30
0.0
 10
-15.5173353852
 20
2.7511522188
 30
0.0
 10
-15.7082155466
 20
2.3922504812
 30
0.0
 10
-15.8765643745
 20
2.1636055145
 30
0.0
 10
-16.0723818436
 20
1.9709438405
 30
0.0
 10
-16.2937200103
 20
1.8164825165
 30
0.0
 10
-16.5381694136
 20
1.7020443888
 30
0.0
 10
-16.802948096
 20
1.6288394988
 30
0.0
 10
-17.08514654
 20
1.5973821213
 30
0.0
 10
-17.4914202508
 20
1.6115424381
 30
0.0
 10
-18.0313688672
 20
1.7416779856
 30
0.0
 10
-18.6794645367
 20
2.0502845527
 30
0.0
 10
-19.3243111931
 20
2.5023158801
 30
0.0
 10
-19.9427953391
 20
3.0809357479
 30
0.0
 10
-20.5125648382
 20
3.7647309612
 30
0.0
 10
-21.0124325424
 20
4.5282364273
 30
0.0
 10
-21.4237137943
 20
5.3428619342
 30
0.0
 10
-21.7309940912
 20
6.1782358205
 30
0.0
 10
-21.9228307259
 20
7.0029436558
 30
0.0
 10
-21.9709469728
 20
7.5496095294
 30
0.0
 10
-21.9709469715
 20
7.8123190558
 30
0.0
  0
SPLINE
  5
36B
100
AcDbEntity
  8
ASSI
100
AcDbSpline
 62
7
  6
CONTINUOUS
 70
0
 71
3
 72
19
 73
15
 74
0
 42
0.0000001
 43
0.0000001
 44
0.0000000001
 40
0.0
 40
0.0
 40
0.0
 40
0.0
 40
0.1447049974
 40
0.2741459566
 40
0.3338721486
 40
0.3908849634
 40
0.4459516638
 40
0.4999996991
 40
0.5540477464
 40
0.6091148629
 40
0.6661274366
 40
0.7258524195
 40
0.8552990214
 40
1.0
 40
1.0
 40
1.0
 40
1.0
 10
-21.9709469715
 20
11.0782001629
 30
0.0
 10
-21.9709469724
 20
11.3164031972
 30
0.0
 10
-21.9350871055
 20
11.7690443239
 30
0.0
 10
-21.7777780367
 20
12.3015208536
 30
0.0
 10
-21.5869210254
 20
12.6604119609
 30
0.0
 10
-21.4185921842
 20
12.8890543162
 30
0.0
 10
-21.2227975789
 20
13.0817187087
 30
0.0
 10
-21.0014845329
 20
13.236188383
 30
0.0
 10
-20.757062019
 20
13.3506407317
 30
0.0
 10
-20.4923104363
 20
13.4238650086
 30
0.0
 10
-20.2101421566
 20
13.4553492016
 30
0.0
 10
-19.8038955408
 20
13.4412214708
 30
0.0
 10
-19.2640982252
 20
13.3112285962
 30
0.0
 10
-18.854157068
 20
13.1159869858
 30
0.0
 10
-18.6478662827
 20
12.9969002701
 30
0.0
  0
SPLINE
  5
36C
100
AcDbEntity
  8
ASSI
100
AcDbSpline
 62
7
  6
CONTINUOUS
 70
0
 71
3
 72
19
 73
15
 74
0
 42
0.0000001
 43
0.0000001
 44
0.0000000001
 40
0.0
 40
0.0
 40
0.0
 40
0.0
 40
0.0428400166
 40
0.0874489431
 40
0.1352611942
 40
0.1872028299
 40
0.243685093
 40
0.3046814048
 40
0.3698210654
 40
0.4384731775
 40
0.5827574576
 40
0.7298489975
 40
0.8713783969
 40
1.0
 40
1.0
 40
1.0
 40
1.0
 10
-16.0489324021
 20
3.3523178886
 30
0.0
 10
-16.1352185369
 20
3.3024971369
 30
0.0
 10
-16.3254248952
 20
3.2234365075
 30
0.0
 10
-16.6394065044
 20
3.177419222
 30
0.0
 10
-16.9765752044
 20
3.2022406879
 30
0.0
 10
-17.3294457859
 20
3.2959987869
 30
0.0
 10
-17.691091002
 20
3.4558329228
 30
0.0
 10
-18.0543027839
 20
3.6780490659
 30
0.0
 10
-18.4117405015
 20
3.9578678516
 30
0.0
 10
-18.878180427
 20
4.4071908257
 30
0.0
 10
-19.3964774188
 20
5.0709104535
 30
0.0
 10
-19.8778280433
 20
5.9605012713
 30
0.0
 10
-20.1901912341
 20
6.8841564253
 30
0.0
 10
-20.2738906952
 20
7.5131737833
 30
0.0
 10
-20.2738906966
 20
7.8123190558
 30
0.0
  0
SPLINE
  5
36D
100
AcDbEntity
  8
ASSI
100
AcDbSpline
 62
7
  6
CONTINUOUS
 70
0
 71
3
 72
27
 73
23
 74
0
 42
0.0000001
 43
0.0000001
 44
0.0000000001
 40
0.0
 40
0.0
 40
0.0
 40
0.0
 40
0.0603448655
 40
0.1143239375
 40
0.139230684
 40
0.1630059117
 40
0.1859696504
 40
0.2085087351
 40
0.2310480373
 40
0.2540125672
 40
0.2777886633
 40
0.3026961501
 40
0.3566805789
 40
0.4170269374
 40
0.4835768947
 40
0.555383568
 40
0.6309668356
 40
0.7085168928
 40
0.7860664736
 40
0.8616485439
 40
0.9334506763
 40
1.0
 40
1.0
 40
1.0
 40
1.0
 10
16.4956619251
 20
-14.3978188213
 30
0.0
 10
16.495661926
 20
-14.6360356827
 30
0.0
 10
16.4597981001
 20
-15.0887017545
 30
0.0
 10
16.3024697682
 20
-15.621204481
 30
0.0
 10
16.1115896068
 20
-15.9801062186
 30
0.0
 10
15.9432407789
 20
-16.2087511853
 30
0.0
 10
15.7474233098
 20
-16.4014128592
 30
0.0
 10
15.5260851431
 20
-16.5558741832
 30
0.0
 10
15.2816357398
 20
-16.6703123109
 30
0.0
 10
15.0168570574
 20
-16.743517201
 30
0.0
 10
14.7346586134
 20
-16.7749745785
 30
0.0
 10
14.3283849026
 20
-16.7608142617
 30
0.0
 10
13.7884362862
 20
-16.6306787142
 30
0.0
 10
13.1403406167
 20
-16.322072147
 30
0.0
 10
12.4954939603
 20
-15.8700408196
 30
0.0
 10
11.8770098143
 20
-15.2914209519
 30
0.0
 10
11.3072403151
 20
-14.6076257386
 30
0.0
 10
10.807372611
 20
-13.8441202724
 30
0.0
 10
10.3960913591
 20
-13.0294947655
 30
0.0
 10
10.0888110622
 20
-12.1941208793
 30
0.0
 10
9.8969744275
 20
-11.3694130439
 30
0.0
 10
9.8488581806
 20
-10.8227471703
 30
0.0
 10
9.8488581819
 20
-10.560037644
 30
0.0
  0
SPLINE
  5
36E
100
AcDbEntity
  8
ASSI
100
AcDbSpline
 62
7
  6
CONTINUOUS
 70
0
 71
3
 72
15
 73
11
 74
0
 42
0.0000001
 43
0.0000001
 44
0.0000000001
 40
0.0
 40
0.0
 40
0.0
 40
0.0
 40
0.1141564305
 40
0.2373230463
 40
0.3669745543
 40
0.5000000203
 40
0.6330256097
 40
0.7626760274
 40
0.8858472153
 40
1.0
 40
1.0
 40
1.0
 40
1.0
 10
-19.920337306
 20
8.0164563524
 30
0.0
 10
-19.920337308
 20
7.8208087063
 30
0.0
 10
-19.8845025388
 20
7.413690637
 30
0.0
 10
-19.7416251038
 20
6.7995076056
 30
0.0
 10
-19.5127731879
 20
6.1773847966
 30
0.0
 10
-19.2064670371
 20
5.5707136279
 30
0.0
 10
-18.8341956477
 20
5.0021327325
 30
0.0
 10
-18.409819511
 20
4.4928944361
 30
0.0
 10
-17.9493287077
 20
4.0621014604
 30
0.0
 10
-17.6146602882
 20
3.8275224374
 30
0.0
 10
-17.4452243929
 20
3.7297112215
 30
0.0
  0
SPLINE
  5
36F
100
AcDbEntity
  8
ASSI
100
AcDbSpline
 62
7
  6
CONTINUOUS
 70
0
 71
3
 72
12
 73
8
 74
0
 42
0.0000001
 43
0.0000001
 44
0.0000000001
 40
0.0
 40
0.0
 40
0.0
 40
0.0
 40
0.2895896318
 40
0.548629694
 40
0.7816355646
 40
0.8918367821
 40
1.0
 40
1.0
 40
1.0
 40
1.0
 10
11.5459144568
 20
-7.2941565368
 30
0.0
 10
11.5459144574
 20
-7.1167708741
 30
0.0
 10
11.5727837096
 20
-6.779506719
 30
0.0
 10
11.709166167
 20
-6.3163983049
 30
0.0
 10
11.905111333
 20
-5.9968576749
 30
0.0
 10
12.1030179985
 20
-5.8022124867
 30
0.0
 10
12.2133265741
 20
-5.7252064618
 30
0.0
 10
12.2707036305
 20
-5.6920775229
 30
0.0
  0
SPLINE
  5
370
100
AcDbEntity
  8
ASSI
100
AcDbSpline
 62
7
  6
CONTINUOUS
 70
0
 71
3
 72
15
 73
11
 74
0
 42
0.0000001
 43
0.0000001
 44
0.0000000001
 40
0.0
 40
0.0
 40
0.0
 40
0.0
 40
0.1141564305
 40
0.2373230463
 40
0.3669745543
 40
0.5000000203
 40
0.6330256097
 40
0.7626760274
 40
0.8858472153
 40
1.0
 40
1.0
 40
1.0
 40
1.0
 10
11.8994678474
 20
-10.3559003473
 30
0.0
 10
11.8994678454
 20
-10.5515479934
 30
0.0
 10
11.9353026146
 20
-10.9586660627
 30
0.0
 10
12.0781800496
 20
-11.5728490941
 30
0.0
 10
12.3070319655
 20
-12.1949719032
 30
0.0
 10
12.6133381163
 20
-12.8016430718
 30
0.0
 10
12.9856095057
 20
-13.3702239672
 30
0.0
 10
13.4099856424
 20
-13.8794622636
 30
0.0
 10
13.8704764457
 20
-14.3102552394
 30
0.0
 10
14.2051448652
 20
-14.5448342624
 30
0.0
 10
14.3745807605
 20
-14.6426454783
 30
0.0
  0
SPLINE
  5
371
100
AcDbEntity
  8
ASSI
100
AcDbSpline
 62
7
  6
CONTINUOUS
 70
0
 71
3
 72
12
 73
8
 74
0
 42
0.0000001
 43
0.0000001
 44
0.0000000001
 40
0.0
 40
0.0
 40
0.0
 40
0.0
 40
0.2895896318
 40
0.548629694
 40
0.7816355646
 40
0.8918367821
 40
1.0
 40
1.0
 40
1.0
 40
1.0
 10
-20.2738906966
 20
11.0782001629
 30
0.0
 10
-20.273890696
 20
11.2555858256
 30
0.0
 10
-20.2470214438
 20
11.5928499807
 30
0.0
 10
-20.1106389864
 20
12.0559583948
 30
0.0
 10
-19.9146938204
 20
12.3754990248
 30
0.0
 10
-19.7167871549
 20
12.570144213
 30
0.0
 10
-19.6064785793
 20
12.6471502379
 30
0.0
 10
-19.5491015229
 20
12.6802791768
 30
0.0
  0
SPLINE
  5
372
100
AcDbEntity
  8
ASSI
100
AcDbSpline
 62
7
  6
CONTINUOUS
 70
0
 71
3
 72
12
 73
8
 74
0
 42
0.0000001
 43
0.0000001
 44
0.0000000001
 40
0.0
 40
0.0
 40
0.0
 40
0.0
 40
0.2895896318
 40
0.548629694
 40
0.7816355646
 40
0.8918367821
 40
1.0
 40
1.0
 40
1.0
 40
1.0
 10
-4.3639881199
 20
1.8920218131
 30
0.0
 10
-4.3639881193
 20
2.0694074758
 30
0.0
 10
-4.3371188671
 20
2.4066716308
 30
0.0
 10
-4.2007364097
 20
2.8697800449
 30
0.0
 10
-4.0047912437
 20
3.1893206749
 30
0.0
 10
-3.8068845782
 20
3.3839658631
 30
0.0
 10
-3.6965760026
 20
3.4609718881
 30
0.0
 10
-3.6391989462
 20
3.4941008269
 30
0.0
  0
SPLINE
  5
373
100
AcDbEntity
  8
ASSI
100
AcDbSpline
 62
7
  6
CONTINUOUS
 70
0
 71
3
 72
19
 73
15
 74
0
 42
0.0000001
 43
0.0000001
 44
0.0000000001
 40
0.0
 40
0.0
 40
0.0
 40
0.0
 40
0.1447049974
 40
0.2741459566
 40
0.3338721486
 40
0.3908849634
 40
0.4459516638
 40
0.4999996991
 40
0.5540477464
 40
0.6091148629
 40
0.6661274366
 40
0.7258524195
 40
0.8552990214
 40
1.0
 40
1.0
 40
1.0
 40
1.0
 10
9.8488581819
 20
-7.2941565368
 30
0.0
 10
9.848858181
 20
-7.0559535025
 30
0.0
 10
9.8847180479
 20
-6.6033123759
 30
0.0
 10
10.0420271167
 20
-6.0708358462
 30
0.0
 10
10.232884128
 20
-5.7119447388
 30
0.0
 10
10.4012129692
 20
-5.4833023835
 30
0.0
 10
10.5970075745
 20
-5.2906379911
 30
0.0
 10
10.8183206205
 20
-5.1361683168
 30
0.0
 10
11.0627431344
 20
-5.021715968
 30
0.0
 10
11.3274947171
 20
-4.9484916912
 30
0.0
 10
11.6096629968
 20
-4.9170074982
 30
0.0
 10
12.0159096126
 20
-4.931135229
 30
0.0
 10
12.5557069282
 20
-5.0611281035
 30
0.0
 10
12.9656480854
 20
-5.2563697139
 30
0.0
 10
13.1719388707
 20
-5.3754564296
 30
0.0
  0
SPLINE
  5
374
100
AcDbEntity
  8
ASSI
100
AcDbSpline
 62
7
  6
CONTINUOUS
 70
0
 71
3
 72
15
 73
11
 74
0
 42
0.0000001
 43
0.0000001
 44
0.0000000001
 40
0.0
 40
0.0
 40
0.0
 40
0.0
 40
0.1141564305
 40
0.2373230463
 40
0.3669745543
 40
0.5000000203
 40
0.6330256097
 40
0.7626760274
 40
0.8858472153
 40
1.0
 40
1.0
 40
1.0
 40
1.0
 10
-4.0104347293
 20
-1.1697219974
 30
0.0
 10
-4.0104347313
 20
-1.3653696436
 30
0.0
 10
-3.9745999621
 20
-1.7724877129
 30
0.0
 10
-3.8317225271
 20
-2.3866707443
 30
0.0
 10
-3.6028706112
 20
-3.0087935533
 30
0.0
 10
-3.2965644604
 20
-3.615464722
 30
0.0
 10
-2.924293071
 20
-4.1840456173
 30
0.0
 10
-2.4999169343
 20
-4.6932839138
 30
0.0
 10
-2.039426131
 20
-5.1240768895
 30
0.0
 10
-1.7047577115
 20
-5.3586559125
 30
0.0
 10
-1.5353218162
 20
-5.4564671284
 30
0.0
  0
SPLINE
  5
375
100
AcDbEntity
  8
CURVE
100
AcDbSpline
 62
250
  6
CONTINUOUS
 70
0
 71
3
 72
9
 73
5
 74
0
 42
0.0000001
 43
0.0000001
 44
0.0000000001
 40
0.0
 40
0.0
 40
0.0
 40
0.0
 40
0.5206208722
 40
1.0
 40
1.0
 40
1.0
 40
1.0
 10
31.311956114
 20
-42.673834402
 30
0.0
 10
31.3909898517
 20
-42.6299194129
 30
0.0
 10
31.5636382742
 20
-42.5992931402
 30
0.0
 10
31.5944309669
 20
-42.7714504488
 30
0.0
 10
31.5960561922
 20
-42.8518072462
 30
0.0
  0
SPLINE
  5
376
100
AcDbEntity
  8
CURVE
100
AcDbSpline
 62
250
  6
CONTINUOUS
 70
0
 71
3
 72
9
 73
5
 74
0
 42
0.0000001
 43
0.0000001
 44
0.0000000001
 40
0.0
 40
0.0
 40
0.0
 40
0.0
 40
0.5013510385
 40
1.0
 40
1.0
 40
1.0
 40
1.0
 10
31.0834202697
 20
-43.0375381302
 30
0.0
 10
31.0899137386
 20
-42.9716025595
 30
0.0
 10
31.1391682954
 20
-42.818791936
 30
0.0
 10
31.2559606702
 20
-42.7049613334
 30
0.0
 10
31.311956114
 20
-42.673834402
 30
0.0
  0
SPLINE
  5
377
100
AcDbEntity
  8
CURVE
100
AcDbSpline
 62
250
  6
CONTINUOUS
 70
0
 71
3
 72
9
 73
5
 74
0
 42
0.0000001
 43
0.0000001
 44
0.0000000001
 40
0.0
 40
0.0
 40
0.0
 40
0.0
 40
0.2703953699
 40
1.0
 40
1.0
 40
1.0
 40
1.0
 10
31.0941821556
 20
-43.3654985228
 30
0.0
 10
31.0896372916
 20
-43.3382106368
 30
0.0
 10
31.0746895961
 20
-43.2359463649
 30
0.0
 10
31.0750140937
 20
-43.1229144926
 30
0.0
 10
31.0834202697
 20
-43.0375381302
 30
0.0
  0
SPLINE
  5
378
100
AcDbEntity
  8
CURVE
100
AcDbSpline
 62
250
  6
CONTINUOUS
 70
0
 71
3
 72
9
 73
5
 74
0
 42
0.0000001
 43
0.0000001
 44
0.0000000001
 40
0.0
 40
0.0
 40
0.0
 40
0.0
 40
0.2957417834
 40
1.0
 40
1.0
 40
1.0
 40
1.0
 10
30.8233390757
 20
-42.8701413661
 30
0.0
 10
30.791578571
 20
-42.9853850522
 30
0.0
 10
30.7398070553
 20
-43.3660250887
 30
0.0
 10
30.7716930226
 20
-43.7034724693
 30
0.0
 10
30.8040910657
 20
-43.9318778059
 30
0.0
  0
SPLINE
  5
379
100
AcDbEntity
  8
CURVE
100
AcDbSpline
 62
250
  6
CONTINUOUS
 70
0
 71
3
 72
17
 73
13
 74
0
 42
0.0000001
 43
0.0000001
 44
0.0000000001
 40
0.0
 40
0.0
 40
0.0
 40
0.0
 40
0.0559780952
 40
0.1687540387
 40
0.321006234
 40
0.4122750837
 40
0.516613223
 40
0.6013931059
 40
0.6776022439
 40
0.8103422694
 40
0.9200404832
 40
1.0
 40
1.0
 40
1.0
 40
1.0
 10
31.7467363042
 20
-42.3290383212
 30
0.0
 10
31.7440165647
 20
-42.3069716071
 30
0.0
 10
31.7018199754
 20
-42.2698782308
 30
0.0
 10
31.6213815043
 20
-42.2139952678
 30
0.0
 10
31.4975589668
 20
-42.2076265337
 30
0.0
 10
31.3683840331
 20
-42.2446406605
 30
0.0
 10
31.2611715346
 20
-42.2993095393
 30
0.0
 10
31.1610359307
 20
-42.3693341917
 30
0.0
 10
31.05463404
 20
-42.4656669913
 30
0.0
 10
30.9503578674
 20
-42.5951435492
 30
0.0
 10
30.8688111613
 20
-42.7425890946
 30
0.0
 10
30.8336408138
 20
-42.8327150808
 30
0.0
 10
30.8233390757
 20
-42.8701413661
 30
0.0
  0
SPLINE
  5
37A
100
AcDbEntity
  8
CURVE
100
AcDbSpline
 62
250
  6
CONTINUOUS
 70
0
 71
3
 72
9
 73
5
 74
0
 42
0.0000001
 43
0.0000001
 44
0.0000000001
 40
0.0
 40
0.0
 40
0.0
 40
0.0
 40
0.2426586216
 40
1.0
 40
1.0
 40
1.0
 40
1.0
 10
32.116108905
 20
-41.8845920253
 30
0.0
 10
32.0828876024
 20
-41.9125829217
 30
0.0
 10
31.9487318869
 20
-42.0234103325
 30
0.0
 10
31.7973424778
 20
-42.1903537264
 30
0.0
 10
31.7575393183
 20
-42.3232217351
 30
0.0
  0
SPLINE
  5
37B
100
AcDbEntity
  8
CURVE
100
AcDbSpline
 62
250
  6
CONTINUOUS
 70
0
 71
3
 72
9
 73
5
 74
0
 42
0.0000001
 43
0.0000001
 44
0.0000000001
 40
0.0
 40
0.0
 40
0.0
 40
0.0
 40
0.1980141723
 40
1.0
 40
1.0
 40
1.0
 40
1.0
 10
32.6109225961
 20
-41.4725313766
 30
0.0
 10
32.578327284
 20
-41.4999645292
 30
0.0
 10
32.4133462758
 20
-41.6371673779
 30
0.0
 10
32.2480962628
 20
-41.773382783
 30
0.0
 10
32.116108905
 20
-41.8845920253
 30
0.0
  0
SPLINE
  5
37C
100
AcDbEntity
  8
CURVE
100
AcDbSpline
 62
250
  6
CONTINUOUS
 70
0
 71
3
 72
9
 73
5
 74
0
 42
0.0000001
 43
0.0000001
 44
0.0000000001
 40
0.0
 40
0.0
 40
0.0
 40
0.0
 40
0.5586214172
 40
1.0
 40
1.0
 40
1.0
 40
1.0
 10
32.0565552332
 20
-42.3670967632
 30
0.0
 10
32.1574741181
 20
-42.2704334397
 30
0.0
 10
32.3443474061
 20
-42.1141537748
 30
0.0
 10
32.5290591845
 20
-41.952673498
 30
0.0
 10
32.6109225961
 20
-41.8823211546
 30
0.0
  0
SPLINE
  5
37D
100
AcDbEntity
  8
CURVE
100
AcDbSpline
 62
250
  6
CONTINUOUS
 70
0
 71
3
 72
9
 73
5
 74
0
 42
0.0000001
 43
0.0000001
 44
0.0000000001
 40
0.0
 40
0.0
 40
0.0
 40
0.0
 40
0.3559141631
 40
1.0
 40
1.0
 40
1.0
 40
1.0
 10
31.89546968
 20
-42.691514577
 30
0.0
 10
31.89546968
 20
-42.6543892781
 30
0.0
 10
31.9156066418
 20
-42.5367475552
 30
0.0
 10
32.0002118442
 20
-42.4210392042
 30
0.0
 10
32.0565552332
 20
-42.3670967632
 30
0.0
  0
ENDSEC
  0
SECTION
  2
OBJECTS
  0
DICTIONARY
  5
C
100
AcDbDictionary
280
0
281
1
  3
ACAD_GROUP
350
D
  3
ACAD_MLINESTYLE
350
17
  3
ACAD_LAYOUT
350
1A
  3
ACAD_PLOTSETTINGS
350
19
  3
ACAD_PLOTSTYLENAME
350
E
  0
DICTIONARY
  5
D
102
{ACAD_REACTORS
330
C
102
}
100
AcDbDictionary
280
0
281
1
  0
ACDBDICTIONARYWDFLT
  5
E
102
{ACAD_REACTORS
330
C
102
}
100
AcDbDictionary
281
1
  3
Normal
350
F
100
AcDbDictionaryWithDefault
340
F
  0
DICTIONARY
  5
17
102
{ACAD_REACTORS
330
C
102
}
100
AcDbDictionary
280
0
281
1
  3
Standard
350
18
  0
DICTIONARY
  5
19
102
{ACAD_REACTORS
330
C
102
}
100
AcDbDictionary
281
1
  0
DICTIONARY
  5
1A
102
{ACAD_REACTORS
330
C
102
}
100
AcDbDictionary
281
1
  3
Model
350
37E
  3
Layout1
350
37F
  0
ACDBPLACEHOLDER
  5
F
102
{ACAD_REACTORS
330
E
102
}
  0
MLINESTYLE
  5
18
102
{ACAD_REACTORS
330
17
102
}
100
AcDbMlineStyle
  2
STANDARD
 70
0
  3

 62
256
 51
90.0
 52
90.0
 71
2
 49
0.5
 62
256
  6
BYLAYER
 49
-0.5
 62
256
  6
BYLAYER
  0
LAYOUT
  5
37E
102
{ACAD_REACTORS
330
1A
102
}
100
AcDbPlotSettings
  1

  2
none_device
  4
ISO_A4_(297.00_x_210.00_MM)
  6

 40
0.0
 41
0.0
 42
0.0
 43
0.0
 44
297.0
 45
210.0
 46
0.0
 47
0.0
 48
0.0
 49
0.0
140
0.0
141
0.0
142
1.0
143
1.0
 70
1024
 72
1
 73
0
 74
0
  7

 75
0
147
1.0
148
0.0
149
0.0
100
AcDbLayout
  1
Model
 70
0
 71
0
 10
0.0
 20
0.0
 11
297.0
 21
210.0
 12
0.0
 22
0.0
 32
0.0
 14
0.0
 24
0.0
 34
0.0
 15
0.0
 25
0.0
 35
0.0
146
0.0
 13
0.0
 23
0.0
 33
0.0
 16
1.0
 26
0.0
 36
0.0
 17
0.0
 27
1.0
 37
0.0
 76
0
330
21E
345
0
346
0
  0
LAYOUT
  5
37F
102
{ACAD_REACTORS
330
1A
102
}
100
AcDbPlotSettings
  1

  2
none_device
  4
ISO_A4_(297.00_x_210.00_MM)
  6

 40
0.0
 41
0.0
 42
0.0
 43
0.0
 44
297.0
 45
210.0
 46
0.0
 47
0.0
 48
0.0
 49
0.0
140
0.0
141
0.0
142
1.0
143
1.0
 70
0
 72
1
 73
0
 74
0
  7

 75
0
147
1.0
148
0.0
149
0.0
100
AcDbLayout
  1
Layout1
 70
0
 71
1
 10
0.0
 20
0.0
 11
297.0
 21
210.0
 12
0.0
 22
0.0
 32
0.0
 14
0.0
 24
0.0
 34
0.0
 15
0.0
 25
0.0
 35
0.0
146
0.0
 13
0.0
 23
0.0
 33
0.0
 16
1.0
 26
0.0
 36
0.0
 17
0.0
 27
1.0
 37
0.0
 76
0
330
21F
345
0
346
0
  0
ENDSEC
  0
EOF
