  0
SECTION
  2
HEADER
  9
$ACADVER
  1
AC1024
  9
$DWGCODEPAGE
  3
ANSI_1252
  9
$EXTMAX
 10
297.0
 20
210.0
 30
0.0
  9
$EXTMIN
 10
0.0
 20
0.0
 30
0.0
  9
$LIMMIN
 10
0.0
 20
0.0
  9
$LIMMAX
 10
297.0
 20
210.0
  9
$VIEWCTR
 10
148.5
 20
105.0
  9
$VIEWSIZE
 40
210.0
  9
$CLAYER
  8
0
  9
$LTSCALE
 40
16.335
  9
$CELTYPE
  6
BYLAYER
  9
$DIMSCALE
 40
1.0
  9
$DIMASZ
 40
3.0
  9
$DIMEXO
 40
0.5
  9
$DIMDLI
 40
11.286
  9
$DIMEXE
 40
1.5
  9
$DIMCEN
 40
2.673
  9
$DIMLFAC
 40
1.0
  9
$DIMBLK
  1
_FILLED
  9
$DIMALT
 70
0
  9
$DIMALTF
 40
0.0393700787
  9
$DIMTXT
 40
3.0
  9
$DIMTOL
 70
1
  9
$DIMLIM
 70
0
  9
$DIMTFAC
 40
1.0
  9
$DIMTP
 40
0.01
  9
$DIMTM
 40
0.01
  9
$DIMGAP
 40
0.625
  9
$DIMDSEP
 70
44
  9
$AUNITS
 70
0
  9
$PDMODE
 70
3
  9
$PDSIZE
 40
3.0
  9
$HANDSEED
  5
3B0
  9
$TILEMODE
 70
1
  9
$MEASUREMENT
 70
1
  9
$INSUNITS
 70
4
  0
ENDSEC
  0
SECTION
  2
CLASSES
  0
CLASS
  1
ACDBDICTIONARYWDFLT
  2
AcDbDictionaryWithDefault
  3
AutoCAD 2000
 90
0
 91
1
280
0
281
0
  0
CLASS
  1
ACDBPLACEHOLDER
  2
AcDbPlaceHolder
  3
AutoCAD 2000
 90
0
 91
1
280
0
281
0
  0
CLASS
  1
LAYOUT
  2
AcDbLayout
  3
AutoCAD 2000
 90
0
 91
0
280
0
281
0
  0
ENDSEC
  0
SECTION
  2
TABLES
  0
TABLE
  2
VPORT
  5
8
100
AcDbSymbolTable
 70
2
  0
VPORT
  5
1F4
100
AcDbSymbolTableRecord
100
AcDbViewportTableRecord
  2
*ACTIVE
 70
0
 10
0.0
 20
0.0
 11
1.0
 21
1.0
 12
148.5
 22
105.0
 13
0.0
 23
0.0
 14
1.0
 24
1.0
 15
0.0
 25
0.0
 16
0.0
 26
0.0
 36
1.0
 17
0.0
 27
0.0
 37
0.0
 40
210.0
 41
1.4142857143
 42
50.0
 43
0.0
 44
0.0
 50
0.0
 51
0.0
 71
0
 72
100
 73
1
 74
1
 75
0
 76
0
 77
0
 78
0
  0
ENDTAB
  0
TABLE
  2
LTYPE
  5
5
100
AcDbSymbolTable
 70
6
  0
LTYPE
  5
14
100
AcDbSymbolTableRecord
100
AcDbLinetypeTableRecord
  2
BYBLOCK
 70
0
  3

 72
65
 73
0
 40
0.0
  0
LTYPE
  5
15
100
AcDbSymbolTableRecord
100
AcDbLinetypeTableRecord
  2
BYLAYER
 70
0
  3

 72
65
 73
0
 40
0.0
  0
LTYPE
  5
16
100
AcDbSymbolTableRecord
100
AcDbLinetypeTableRecord
  2
CONTINUOUS
 70
64
  3
Solid line
 72
65
 73
0
 40
0.0
  0
LTYPE
  5
1F5
100
AcDbSymbolTableRecord
100
AcDbLinetypeTableRecord
  2
CENTER
 70
64
  3
____ _ ____ _ ____ _ ____ _ ____ _ ____ _ ____
 72
65
 73
4
 40
0.6
 49
0.375
 74
0
 49
-0.075
 74
0
 49
0.075
 74
0
 49
-0.075
 74
0
  0
LTYPE
  5
1F6
100
AcDbSymbolTableRecord
100
AcDbLinetypeTableRecord
  2
HIDDEN
 70
64
  3
- - - - - - - - - - - - - - - - - - - -
 72
65
 73
2
 40
0.2
 49
0.1
 74
0
 49
-0.1
 74
0
  0
LTYPE
  5
1F7
100
AcDbSymbolTableRecord
100
AcDbLinetypeTableRecord
  2
PHANTOM
 70
64
  3
_____ _ _ _____ _ _ _____ _ _ _____
 72
65
 73
6
 40
0.8
 49
0.45
 74
0
 49
-0.05
 74
0
 49
0.1
 74
0
 49
-0.05
 74
0
 49
0.1
 74
0
 49
-0.05
 74
0
  0
LTYPE
  5
1F8
100
AcDbSymbolTableRecord
100
AcDbLinetypeTableRecord
  2
DOT
 70
64
  3
. . . . . . . . . . . . . . . . . . . .
 72
65
 73
2
 40
0.2
 49
0.1
 74
0
 49
-0.1
 74
0
  0
LTYPE
  5
1F9
100
AcDbSymbolTableRecord
100
AcDbLinetypeTableRecord
  2
DASHED
 70
64
  3
- - - - - - - - - - - - - - - - - - - -
 72
65
 73
2
 40
0.2
 49
0.1
 74
0
 49
-0.1
 74
0
  0
ENDTAB
  0
TABLE
  2
LAYER
  5
2
100
AcDbSymbolTable
 70
36
  0
LAYER
  5
10
100
AcDbSymbolTableRecord
100
AcDbLayerTableRecord
  2
0
 70
0
 62
7
  6
CONTINUOUS
370
-3
390
F
  0
LAYER
  5
1FA
100
AcDbSymbolTableRecord
100
AcDbLayerTableRecord
  2
DEFAULT_1
 70
0
 62
7
  6
CENTER
370
-3
390
F
  0
LAYER
  5
1FB
100
AcDbSymbolTableRecord
100
AcDbLayerTableRecord
  2
DEFAULT_2
 70
0
 62
7
  6
HIDDEN
370
-3
390
F
  0
LAYER
  5
1FC
100
AcDbSymbolTableRecord
100
AcDbLayerTableRecord
  2
DEFAULT_3
 70
0
 62
7
  6
PHANTOM
370
-3
390
F
  0
LAYER
  5
1FD
100
AcDbSymbolTableRecord
100
AcDbLayerTableRecord
  2
ASSI
 70
0
 62
7
  6
CONTINUOUS
370
-3
390
F
  0
LAYER
  5
1FE
100
AcDbSymbolTableRecord
100
AcDbLayerTableRecord
  2
COORDINATE
 70
0
 62
7
  6
CONTINUOUS
370
-3
390
F
  0
LAYER
  5
1FF
100
AcDbSymbolTableRecord
100
AcDbLayerTableRecord
  2
COORD_ORIGINE
 70
0
 62
7
  6
CONTINUOUS
370
-3
390
F
  0
LAYER
  5
200
100
AcDbSymbolTableRecord
100
AcDbLayerTableRecord
  2
COPY_PUBLISH
 70
0
 62
7
  6
CONTINUOUS
370
-3
390
F
  0
LAYER
  5
201
100
AcDbSymbolTableRecord
100
AcDbLayerTableRecord
  2
COSMETIC
 70
0
 62
7
  6
CONTINUOUS
370
-3
390
F
  0
LAYER
  5
202
100
AcDbSymbolTableRecord
100
AcDbLayerTableRecord
  2
COSMETICI
 70
0
 62
7
  6
CONTINUOUS
370
-3
390
F
  0
LAYER
  5
203
100
AcDbSymbolTableRecord
100
AcDbLayerTableRecord
  2
CURVE
 70
0
 62
7
  6
CONTINUOUS
370
-3
390
F
  0
LAYER
  5
204
100
AcDbSymbolTableRecord
100
AcDbLayerTableRecord
  2
DRAFT
 70
0
 62
7
  6
CONTINUOUS
370
-3
390
F
  0
LAYER
  5
205
100
AcDbSymbolTableRecord
100
AcDbLayerTableRecord
  2
IMPORT_IGES
 70
0
 62
7
  6
CONTINUOUS
370
-3
390
F
  0
LAYER
  5
206
100
AcDbSymbolTableRecord
100
AcDbLayerTableRecord
  2
INTFCLR_2
 70
0
 62
7
  6
CONTINUOUS
370
-3
390
F
  0
LAYER
  5
207
100
AcDbSymbolTableRecord
100
AcDbLayerTableRecord
  2
INTF_1
 70
0
 62
7
  6
CONTINUOUS
370
-3
390
F
  0
LAYER
  5
208
100
AcDbSymbolTableRecord
100
AcDbLayerTableRecord
  2
INTF_21
 70
0
 62
7
  6
CONTINUOUS
370
-3
390
F
  0
LAYER
  5
209
100
AcDbSymbolTableRecord
100
AcDbLayerTableRecord
  2
INTF_6
 70
0
 62
7
  6
CONTINUOUS
370
-3
390
F
  0
LAYER
  5
20A
100
AcDbSymbolTableRecord
100
AcDbLayerTableRecord
  2
INTF_7
 70
0
 62
7
  6
CONTINUOUS
370
-3
390
F
  0
LAYER
  5
20B
100
AcDbSymbolTableRecord
100
AcDbLayerTableRecord
  2
INTF_CYAN
 70
0
 62
7
  6
CONTINUOUS
370
-3
390
F
  0
LAYER
  5
20C
100
AcDbSymbolTableRecord
100
AcDbLayerTableRecord
  2
LINEA_CHIUSURA
 70
0
 62
7
  6
CONTINUOUS
370
-3
390
F
  0
LAYER
  5
20D
100
AcDbSymbolTableRecord
100
AcDbLayerTableRecord
  2
LIVELLO_1
 70
0
 62
7
  6
CONTINUOUS
370
-3
390
F
  0
LAYER
  5
20E
100
AcDbSymbolTableRecord
100
AcDbLayerTableRecord
  2
NOTE
 70
0
 62
7
  6
CONTINUOUS
370
-3
390
F
  0
LAYER
  5
20F
100
AcDbSymbolTableRecord
100
AcDbLayerTableRecord
  2
PIANI
 70
0
 62
7
  6
CONTINUOUS
370
-3
390
F
  0
LAYER
  5
210
100
AcDbSymbolTableRecord
100
AcDbLayerTableRecord
  2
PIANI_ORIGINE
 70
0
 62
7
  6
CONTINUOUS
370
-3
390
F
  0
LAYER
  5
211
100
AcDbSymbolTableRecord
100
AcDbLayerTableRecord
  2
PIANI_RIFERIMENTO
 70
0
 62
7
  6
CONTINUOUS
370
-3
390
F
  0
LAYER
  5
212
100
AcDbSymbolTableRecord
100
AcDbLayerTableRecord
  2
PUNTI
 70
0
 62
7
  6
CONTINUOUS
370
-3
390
F
  0
LAYER
  5
213
100
AcDbSymbolTableRecord
100
AcDbLayerTableRecord
  2
RACCORDO
 70
0
 62
7
  6
CONTINUOUS
370
-3
390
F
  0
LAYER
  5
214
100
AcDbSymbolTableRecord
100
AcDbLayerTableRecord
  2
RGB__255__255__255__
 70
0
 62
7
  6
CONTINUOUS
370
-3
390
F
  0
LAYER
  5
215
100
AcDbSymbolTableRecord
100
AcDbLayerTableRecord
  2
RGB____0____0____0__
 70
0
 62
7
  6
CONTINUOUS
370
-3
390
F
  0
LAYER
  5
216
100
AcDbSymbolTableRecord
100
AcDbLayerTableRecord
  2
SIMBOLI
 70
0
 62
7
  6
CONTINUOUS
370
-3
390
F
  0
LAYER
  5
217
100
AcDbSymbolTableRecord
100
AcDbLayerTableRecord
  2
SMUSSO
 70
0
 62
7
  6
CONTINUOUS
370
-3
390
F
  0
LAYER
  5
218
100
AcDbSymbolTableRecord
100
AcDbLayerTableRecord
  2
SUPERFICI
 70
0
 62
7
  6
CONTINUOUS
370
-3
390
F
  0
LAYER
  5
219
100
AcDbSymbolTableRecord
100
AcDbLayerTableRecord
  2
TRASH
 70
0
 62
7
  6
CONTINUOUS
370
-3
390
F
  0
LAYER
  5
21A
100
AcDbSymbolTableRecord
100
AcDbLayerTableRecord
  2
WHITE
 70
0
 62
7
  6
CONTINUOUS
370
-3
390
F
  0
LAYER
  5
21B
100
AcDbSymbolTableRecord
100
AcDbLayerTableRecord
  2
XSEC_DATUMS
 70
0
 62
7
  6
CONTINUOUS
370
-3
390
F
  0
ENDTAB
  0
TABLE
  2
STYLE
  5
3
100
AcDbSymbolTable
 70
1
  0
STYLE
  5
11
100
AcDbSymbolTableRecord
100
AcDbTextStyleTableRecord
  2
STANDARD
 70
0
 40
0.0
 41
0.8
 50
0.0
 71
0
 42
0.2
  3
txt
  4

  0
STYLE
  5
21C
100
AcDbSymbolTableRecord
100
AcDbTextStyleTableRecord
  2
TEXTSTYLE_1
 70
0
 40
0.0
 41
0.8
 50
0.0
 71
0
 42
0.2
  3
gdt
  4

  0
ENDTAB
  0
TABLE
  2
VIEW
  5
6
100
AcDbSymbolTable
 70
0
  0
ENDTAB
  0
TABLE
  2
UCS
  5
7
100
AcDbSymbolTable
 70
0
  0
ENDTAB
  0
TABLE
  2
APPID
  5
9
100
AcDbSymbolTable
 70
1
  0
APPID
  5
21D
100
AcDbSymbolTableRecord
100
AcDbRegAppTableRecord
  2
ACAD
 70
0
  0
ENDTAB
  0
TABLE
  2
BLOCK_RECORD
  5
1
100
AcDbSymbolTable
 70
0
  0
BLOCK_RECORD
  5
21E
100
AcDbSymbolTableRecord
100
AcDbBlockTableRecord
  2
*Model_Space
  0
BLOCK_RECORD
  5
21F
100
AcDbSymbolTableRecord
100
AcDbBlockTableRecord
  2
*Paper_Space
  0
BLOCK_RECORD
  5
220
100
AcDbSymbolTableRecord
100
AcDbBlockTableRecord
  2
_FILLED
  0
ENDTAB
  0
TABLE
  2
DIMSTYLE
  5
A
100
AcDbSymbolTable
 70
1
100
AcDbDimStyleTable
 71
0
  0
DIMSTYLE
105
221
100
AcDbSymbolTableRecord
100
AcDbDimStyleTableRecord
  2
STANDARD
 70
0
  3

  4

 40
1.0
 41
3.0
 42
0.5
 43
0.38
 44
1.5
 45
0.0
 46
0.0
 47
0.01
 48
0.01
140
3.0
141
0.09
142
0.0
143
25.4
144
1.0
145
0.0
146
1.0
147
0.625
 71
1
 72
0
 73
0
 74
0
 75
0
 76
0
 77
1
 78
8
 79
2
170
0
171
1
172
0
173
0
174
0
175
0
176
0
177
0
178
0
270
2
179
2
271
2
272
2
273
2
274
2
275
0
280
0
281
0
282
0
283
1
284
8
285
0
286
0
287
3
288
0
340
11
278
44
341
220
342
220
343
220
344
220
  0
ENDTAB
  0
ENDSEC
  0
SECTION
  2
BLOCKS
  0
BLOCK
  5
20
100
AcDbEntity
  8
0
100
AcDbBlockBegin
  2
*Model_Space
 70
0
 10
0.0
 20
0.0
 30
0.0
  3
*Model_Space
  1

  0
ENDBLK
  5
21
100
AcDbEntity
  8
0
100
AcDbBlockEnd
  0
BLOCK
  5
1C
100
AcDbEntity
  8
0
100
AcDbBlockBegin
  2
*Paper_Space
 70
0
 10
0.0
 20
0.0
 30
0.0
  3
*Paper_Space
  1

  0
ENDBLK
  5
1D
100
AcDbEntity
  8
0
100
AcDbBlockEnd
  0
BLOCK
  5
222
100
AcDbEntity
  8
0
100
AcDbBlockBegin
  2
_FILLED
 70
64
 10
0.0
 20
0.0
  3
_FILLED
  1

  0
SOLID
  5
223
100
AcDbEntity
  8
0
  6
BYBLOCK
 62
0
100
AcDbTrace
 10
0.0
 20
0.0
 11
-1.0
 21
0.3166666667
 12
-1.0
 22
-0.3166666667
 13
-1.0
 23
-0.3166666667
  0
ENDBLK
  5
224
100
AcDbEntity
  8
0
  6
BYBLOCK
 62
0
100
AcDbBlockEnd
  0
ENDSEC
  0
SECTION
  2
ENTITIES
  0
LINE
  5
225
100
AcDbEntity
  8
ASSI
100
AcDbLine
 62
7
  6
CONTINUOUS
 10
-58.2149620151
 20
66.9540888344
 11
-54.4271482279
 21
69.4576557258
  0
LINE
  5
226
100
AcDbEntity
  8
ASSI
100
AcDbLine
 62
7
  6
CONTINUOUS
 10
-57.5074247458
 20
67.3625330283
 11
-53.7196109586
 21
69.8660999196
  0
LINE
  5
227
100
AcDbEntity
  8
ASSI
100
AcDbLine
 62
7
  6
CONTINUOUS
 10
-57.5281883599
 20
67.3496936773
 11
-57.5074247458
 21
67.3625330283
  0
LINE
  5
228
100
AcDbEntity
  8
ASSI
100
AcDbLine
 62
7
  6
CONTINUOUS
 10
-54.4271482279
 20
69.4576557258
 11
-53.7196109586
 21
69.8660999196
  0
LINE
  5
229
100
AcDbEntity
  8
ASSI
100
AcDbLine
 62
7
  6
CONTINUOUS
 10
-57.5281883599
 20
67.3496936773
 11
-58.2145867076
 21
66.9534524729
  0
LINE
  5
22A
100
AcDbEntity
  8
ASSI
100
AcDbLine
 62
7
  6
CONTINUOUS
 10
-57.9108776598
 20
65.9344652389
 11
-58.189853594
 21
65.7734191633
  0
LINE
  5
22B
100
AcDbEntity
  8
ASSI
100
AcDbLine
 62
7
  6
CONTINUOUS
 10
-57.9108776598
 20
65.9344652389
 11
-57.5281883599
 21
67.3496936773
  0
LINE
  5
22C
100
AcDbEntity
  8
CURVE
100
AcDbLine
 62
250
  6
CONTINUOUS
 10
56.5423821968
 20
-62.993090558
 11
55.2839813755
 21
-63.269713358
  0
LINE
  5
22D
100
AcDbEntity
  8
CURVE
100
AcDbLine
 62
250
  6
CONTINUOUS
 10
55.7863219044
 20
-58.7850117902
 11
56.4647870317
 21
-58.6318372103
  0
LINE
  5
22E
100
AcDbEntity
  8
CURVE
100
AcDbLine
 62
250
  6
CONTINUOUS
 10
56.7472007263
 20
-58.5669252712
 11
57.1121725522
 21
-58.4879740595
  0
LINE
  5
22F
100
AcDbEntity
  8
CURVE
100
AcDbLine
 62
250
  6
CONTINUOUS
 10
57.1121725522
 20
-58.90937968
 11
55.2839813755
 21
-59.2535442382
  0
LINE
  5
230
100
AcDbEntity
  8
CURVE
100
AcDbLine
 62
250
  6
CONTINUOUS
 10
55.2839813755
 20
-62.8439763627
 11
57.1121725522
 21
-62.5156831702
  0
LINE
  5
231
100
AcDbEntity
  8
CURVE
100
AcDbLine
 62
250
  6
CONTINUOUS
 10
56.2989986552
 20
-60.4525033766
 11
55.2839813755
 21
-60.5729830666
  0
LINE
  5
232
100
AcDbEntity
  8
CURVE
100
AcDbLine
 62
250
  6
CONTINUOUS
 10
55.9233746627
 20
-60.1206513135
 11
57.1121725522
 21
-59.9871228948
  0
LINE
  5
233
100
AcDbEntity
  8
ASSI
100
AcDbLine
 62
7
  6
CONTINUOUS
 10
-58.189853594
 20
-5.058214436
 11
-58.2145867076
 21
-4.6019788585
  0
LINE
  5
234
100
AcDbEntity
  8
ASSI
100
AcDbLine
 62
7
  6
CONTINUOUS
 10
-58.189853594
 20
65.7734191633
 11
-58.2145867076
 21
66.9534524729
  0
LINE
  5
235
100
AcDbEntity
  8
ASSI
100
AcDbLine
 62
7
  6
CONTINUOUS
 10
-58.2145867076
 20
-4.6019788585
 11
-58.2149620151
 21
-4.5777859978
  0
LINE
  5
236
100
AcDbEntity
  8
ASSI
100
AcDbLine
 62
7
  6
CONTINUOUS
 10
-58.2149620151
 20
66.9540888344
 11
-58.2149620151
 21
-4.5777859978
  0
LINE
  5
237
100
AcDbEntity
  8
ASSI
100
AcDbLine
 62
7
  6
CONTINUOUS
 10
-58.189853594
 20
65.7734191633
 11
-58.189853594
 21
-5.058214436
  0
LINE
  5
238
100
AcDbEntity
  8
ASSI
100
AcDbLine
 62
7
  6
CONTINUOUS
 10
52.7145685475
 20
-69.0930378217
 11
54.1315276785
 21
-69.4692172775
  0
LINE
  5
239
100
AcDbEntity
  8
ASSI
100
AcDbLine
 62
7
  6
CONTINUOUS
 10
-58.189853594
 20
-5.058214436
 11
-57.9108776598
 21
-5.5414149275
  0
LINE
  5
23A
100
AcDbEntity
  8
SMUSSO
100
AcDbLine
 62
7
  6
CONTINUOUS
 10
-37.8808495482
 20
16.9984974057
 11
-37.8808495482
 21
20.2643785128
  0
LINE
  5
23B
100
AcDbEntity
  8
ASSI
100
AcDbLine
 62
7
  6
CONTINUOUS
 10
-37.8808495482
 20
16.9984974057
 11
-37.8808495482
 21
20.2643785128
  0
LINE
  5
23C
100
AcDbEntity
  8
SMUSSO
100
AcDbLine
 62
7
  6
CONTINUOUS
 10
-36.1837932733
 20
16.9984974057
 11
-36.1837932733
 21
20.2643785128
  0
LINE
  5
23D
100
AcDbEntity
  8
ASSI
100
AcDbLine
 62
7
  6
CONTINUOUS
 10
-36.1837932733
 20
16.9984974057
 11
-36.1837932733
 21
20.2643785128
  0
LINE
  5
23E
100
AcDbEntity
  8
SMUSSO
100
AcDbLine
 62
7
  6
CONTINUOUS
 10
-35.8302398827
 20
20.4685158095
 11
-35.8302398827
 21
17.2026347023
  0
LINE
  5
23F
100
AcDbEntity
  8
ASSI
100
AcDbLine
 62
7
  6
CONTINUOUS
 10
-35.8302398827
 20
20.4685158095
 11
-35.8302398827
 21
17.2026347023
  0
LINE
  5
240
100
AcDbEntity
  8
SMUSSO
100
AcDbLine
 62
250
  6
CONTINUOUS
 10
-35.8302398827
 20
20.4685158095
 11
-36.1837932733
 21
20.2643785128
  0
LINE
  5
241
100
AcDbEntity
  8
ASSI
100
AcDbLine
 62
250
  6
CONTINUOUS
 10
-35.8302398827
 20
20.4685158095
 11
-36.1837932733
 21
20.2643785128
  0
LINE
  5
242
100
AcDbEntity
  8
ASSI
100
AcDbLine
 62
7
  6
CONTINUOUS
 10
-57.9108776598
 20
-5.5414149275
 11
-57.5281883599
 21
-5.7908556696
  0
LINE
  5
243
100
AcDbEntity
  8
SMUSSO
100
AcDbLine
 62
7
  6
CONTINUOUS
 10
-31.234045805
 20
16.4265973355
 11
-31.234045805
 21
13.1607162284
  0
LINE
  5
244
100
AcDbEntity
  8
ASSI
100
AcDbLine
 62
7
  6
CONTINUOUS
 10
-31.234045805
 20
16.4265973355
 11
-31.234045805
 21
13.1607162284
  0
LINE
  5
245
100
AcDbEntity
  8
SMUSSO
100
AcDbLine
 62
250
  6
CONTINUOUS
 10
-35.8302398827
 20
17.2026347023
 11
-36.1837932733
 21
16.9984974057
  0
LINE
  5
246
100
AcDbEntity
  8
ASSI
100
AcDbLine
 62
250
  6
CONTINUOUS
 10
-35.8302398827
 20
17.2026347023
 11
-36.1837932733
 21
16.9984974057
  0
LINE
  5
247
100
AcDbEntity
  8
ASSI
100
AcDbLine
 62
7
  6
CONTINUOUS
 10
-57.5074247458
 20
-5.8032764952
 11
53.4454917611
 21
-69.8660999196
  0
LINE
  5
248
100
AcDbEntity
  8
ASSI
100
AcDbLine
 62
7
  6
CONTINUOUS
 10
-57.9108776598
 20
-5.5414149275
 11
52.4355926134
 21
-69.2540838972
  0
LINE
  5
249
100
AcDbEntity
  8
ASSI
100
AcDbLine
 62
7
  6
CONTINUOUS
 10
-57.5074247458
 20
-5.8032764952
 11
-57.5281883599
 21
-5.7908556696
  0
LINE
  5
24A
100
AcDbEntity
  8
ASSI
100
AcDbLine
 62
7
  6
CONTINUOUS
 10
52.4355926134
 20
-69.2540838972
 11
53.4451293308
 21
-69.8654584819
  0
LINE
  5
24B
100
AcDbEntity
  8
SMUSSO
100
AcDbLine
 62
7
  6
CONTINUOUS
 10
-21.9709469715
 20
7.8123190558
 11
-21.9709469715
 21
11.0782001629
  0
LINE
  5
24C
100
AcDbEntity
  8
ASSI
100
AcDbLine
 62
7
  6
CONTINUOUS
 10
-21.9709469715
 20
7.8123190558
 11
-21.9709469715
 21
11.0782001629
  0
LINE
  5
24D
100
AcDbEntity
  8
SMUSSO
100
AcDbLine
 62
7
  6
CONTINUOUS
 10
-20.2738906966
 20
7.8123190558
 11
-20.2738906966
 21
11.0782001629
  0
LINE
  5
24E
100
AcDbEntity
  8
ASSI
100
AcDbLine
 62
7
  6
CONTINUOUS
 10
-20.2738906966
 20
7.8123190558
 11
-20.2738906966
 21
11.0782001629
  0
LINE
  5
24F
100
AcDbEntity
  8
SMUSSO
100
AcDbLine
 62
7
  6
CONTINUOUS
 10
-19.920337306
 20
11.2823374596
 11
-19.920337306
 21
8.0164563524
  0
LINE
  5
250
100
AcDbEntity
  8
ASSI
100
AcDbLine
 62
7
  6
CONTINUOUS
 10
-19.920337306
 20
11.2823374596
 11
-19.920337306
 21
8.0164563524
  0
LINE
  5
251
100
AcDbEntity
  8
SMUSSO
100
AcDbLine
 62
250
  6
CONTINUOUS
 10
-19.920337306
 20
11.2823374596
 11
-20.2738906966
 21
11.0782001629
  0
LINE
  5
252
100
AcDbEntity
  8
ASSI
100
AcDbLine
 62
250
  6
CONTINUOUS
 10
-19.920337306
 20
11.2823374596
 11
-20.2738906966
 21
11.0782001629
  0
LINE
  5
253
100
AcDbEntity
  8
SMUSSO
100
AcDbLine
 62
250
  6
CONTINUOUS
 10
25.7587607586
 20
-19.7462159938
 11
27.4558170335
 21
-19.7462159938
  0
LINE
  5
254
100
AcDbEntity
  8
ASSI
100
AcDbLine
 62
250
  6
CONTINUOUS
 10
25.7587607586
 20
-19.7462159938
 11
27.4558170335
 21
-19.7462159938
  0
LINE
  5
255
100
AcDbEntity
  8
SMUSSO
100
AcDbLine
 62
7
  6
CONTINUOUS
 10
-15.3241432283
 20
7.2404189857
 11
-15.3241432283
 21
3.9745378785
  0
LINE
  5
256
100
AcDbEntity
  8
ASSI
100
AcDbLine
 62
7
  6
CONTINUOUS
 10
-15.3241432283
 20
7.2404189857
 11
-15.3241432283
 21
3.9745378785
  0
LINE
  5
257
100
AcDbEntity
  8
SMUSSO
100
AcDbLine
 62
250
  6
CONTINUOUS
 10
-19.920337306
 20
8.0164563524
 11
-20.2738906966
 21
7.8123190558
  0
LINE
  5
258
100
AcDbEntity
  8
ASSI
100
AcDbLine
 62
250
  6
CONTINUOUS
 10
-19.920337306
 20
8.0164563524
 11
-20.2738906966
 21
7.8123190558
  0
LINE
  5
259
100
AcDbEntity
  8
SMUSSO
100
AcDbLine
 62
250
  6
CONTINUOUS
 10
25.7587607586
 20
-16.4803348867
 11
27.4558170335
 21
-16.4803348867
  0
LINE
  5
25A
100
AcDbEntity
  8
ASSI
100
AcDbLine
 62
250
  6
CONTINUOUS
 10
25.7587607586
 20
-16.4803348867
 11
27.4558170335
 21
-16.4803348867
  0
LINE
  5
25B
100
AcDbEntity
  8
ASSI
100
AcDbLine
 62
7
  6
CONTINUOUS
 10
-58.2149620151
 20
66.9540888344
 11
-58.2145867076
 21
66.9534524729
  0
LINE
  5
25C
100
AcDbEntity
  8
SMUSSO
100
AcDbLine
 62
7
  6
CONTINUOUS
 10
-6.0610443948
 20
-1.3738592941
 11
-6.0610443948
 21
1.8920218131
  0
LINE
  5
25D
100
AcDbEntity
  8
ASSI
100
AcDbLine
 62
7
  6
CONTINUOUS
 10
-6.0610443948
 20
-1.3738592941
 11
-6.0610443948
 21
1.8920218131
  0
LINE
  5
25E
100
AcDbEntity
  8
ASSI
100
AcDbLine
 62
7
  6
CONTINUOUS
 10
52.7145685475
 20
1.7385957777
 11
54.1315276785
 21
2.0862140539
  0
LINE
  5
25F
100
AcDbEntity
  8
SMUSSO
100
AcDbLine
 62
250
  6
CONTINUOUS
 10
9.8488581819
 20
-10.560037644
 11
11.5459144568
 21
-10.560037644
  0
LINE
  5
260
100
AcDbEntity
  8
ASSI
100
AcDbLine
 62
250
  6
CONTINUOUS
 10
9.8488581819
 20
-10.560037644
 11
11.5459144568
 21
-10.560037644
  0
LINE
  5
261
100
AcDbEntity
  8
SMUSSO
100
AcDbLine
 62
250
  6
CONTINUOUS
 10
9.8488581819
 20
-7.2941565368
 11
11.5459144568
 21
-7.2941565368
  0
LINE
  5
262
100
AcDbEntity
  8
ASSI
100
AcDbLine
 62
250
  6
CONTINUOUS
 10
9.8488581819
 20
-7.2941565368
 11
11.5459144568
 21
-7.2941565368
  0
LINE
  5
263
100
AcDbEntity
  8
SMUSSO
100
AcDbLine
 62
7
  6
CONTINUOUS
 10
-4.3639881199
 20
-1.3738592941
 11
-4.3639881199
 21
1.8920218131
  0
LINE
  5
264
100
AcDbEntity
  8
ASSI
100
AcDbLine
 62
7
  6
CONTINUOUS
 10
-4.3639881199
 20
-1.3738592941
 11
-4.3639881199
 21
1.8920218131
  0
LINE
  5
265
100
AcDbEntity
  8
SMUSSO
100
AcDbLine
 62
7
  6
CONTINUOUS
 10
-4.0104347293
 20
2.0961591097
 11
-4.0104347293
 21
-1.1697219974
  0
LINE
  5
266
100
AcDbEntity
  8
ASSI
100
AcDbLine
 62
7
  6
CONTINUOUS
 10
-4.0104347293
 20
2.0961591097
 11
-4.0104347293
 21
-1.1697219974
  0
LINE
  5
267
100
AcDbEntity
  8
SMUSSO
100
AcDbLine
 62
7
  6
CONTINUOUS
 10
0.5857593484
 20
-1.9457593642
 11
0.5857593484
 21
-5.2116404714
  0
LINE
  5
268
100
AcDbEntity
  8
ASSI
100
AcDbLine
 62
7
  6
CONTINUOUS
 10
0.5857593484
 20
-1.9457593642
 11
0.5857593484
 21
-5.2116404714
  0
LINE
  5
269
100
AcDbEntity
  8
SMUSSO
100
AcDbLine
 62
250
  6
CONTINUOUS
 10
-4.0104347293
 20
2.0961591097
 11
-4.3639881199
 21
1.8920218131
  0
LINE
  5
26A
100
AcDbEntity
  8
ASSI
100
AcDbLine
 62
250
  6
CONTINUOUS
 10
-4.0104347293
 20
2.0961591097
 11
-4.3639881199
 21
1.8920218131
  0
LINE
  5
26B
100
AcDbEntity
  8
SMUSSO
100
AcDbLine
 62
250
  6
CONTINUOUS
 10
-4.0104347293
 20
-1.1697219974
 11
-4.3639881199
 21
-1.3738592941
  0
LINE
  5
26C
100
AcDbEntity
  8
ASSI
100
AcDbLine
 62
250
  6
CONTINUOUS
 10
-4.0104347293
 20
-1.1697219974
 11
-4.3639881199
 21
-1.3738592941
  0
LINE
  5
26D
100
AcDbEntity
  8
SMUSSO
100
AcDbLine
 62
250
  6
CONTINUOUS
 10
-6.0610443948
 20
-1.3738592941
 11
-4.3639881199
 21
-1.3738592941
  0
LINE
  5
26E
100
AcDbEntity
  8
ASSI
100
AcDbLine
 62
250
  6
CONTINUOUS
 10
-6.0610443948
 20
-1.3738592941
 11
-4.3639881199
 21
-1.3738592941
  0
LINE
  5
26F
100
AcDbEntity
  8
SMUSSO
100
AcDbLine
 62
250
  6
CONTINUOUS
 10
-6.0610443948
 20
1.8920218131
 11
-4.3639881199
 21
1.8920218131
  0
LINE
  5
270
100
AcDbEntity
  8
ASSI
100
AcDbLine
 62
250
  6
CONTINUOUS
 10
-6.0610443948
 20
1.8920218131
 11
-4.3639881199
 21
1.8920218131
  0
LINE
  5
271
100
AcDbEntity
  8
SMUSSO
100
AcDbLine
 62
7
  6
CONTINUOUS
 10
9.8488581819
 20
-10.560037644
 11
9.8488581819
 21
-7.2941565368
  0
LINE
  5
272
100
AcDbEntity
  8
ASSI
100
AcDbLine
 62
7
  6
CONTINUOUS
 10
9.8488581819
 20
-10.560037644
 11
9.8488581819
 21
-7.2941565368
  0
LINE
  5
273
100
AcDbEntity
  8
SMUSSO
100
AcDbLine
 62
7
  6
CONTINUOUS
 10
11.5459144568
 20
-10.560037644
 11
11.5459144568
 21
-7.2941565368
  0
LINE
  5
274
100
AcDbEntity
  8
ASSI
100
AcDbLine
 62
7
  6
CONTINUOUS
 10
11.5459144568
 20
-10.560037644
 11
11.5459144568
 21
-7.2941565368
  0
LINE
  5
275
100
AcDbEntity
  8
SMUSSO
100
AcDbLine
 62
7
  6
CONTINUOUS
 10
11.8994678474
 20
-7.0900192401
 11
11.8994678474
 21
-10.3559003473
  0
LINE
  5
276
100
AcDbEntity
  8
ASSI
100
AcDbLine
 62
7
  6
CONTINUOUS
 10
11.8994678474
 20
-7.0900192401
 11
11.8994678474
 21
-10.3559003473
  0
LINE
  5
277
100
AcDbEntity
  8
SMUSSO
100
AcDbLine
 62
250
  6
CONTINUOUS
 10
11.8994678474
 20
-7.0900192401
 11
11.5459144568
 21
-7.2941565368
  0
LINE
  5
278
100
AcDbEntity
  8
ASSI
100
AcDbLine
 62
250
  6
CONTINUOUS
 10
11.8994678474
 20
-7.0900192401
 11
11.5459144568
 21
-7.2941565368
  0
LINE
  5
279
100
AcDbEntity
  8
SMUSSO
100
AcDbLine
 62
250
  6
CONTINUOUS
 10
-21.9709469715
 20
7.8123190558
 11
-20.2738906966
 21
7.8123190558
  0
LINE
  5
27A
100
AcDbEntity
  8
ASSI
100
AcDbLine
 62
250
  6
CONTINUOUS
 10
-21.9709469715
 20
7.8123190558
 11
-20.2738906966
 21
7.8123190558
  0
LINE
  5
27B
100
AcDbEntity
  8
SMUSSO
100
AcDbLine
 62
250
  6
CONTINUOUS
 10
-21.9709469715
 20
11.0782001629
 11
-20.2738906966
 21
11.0782001629
  0
LINE
  5
27C
100
AcDbEntity
  8
ASSI
100
AcDbLine
 62
250
  6
CONTINUOUS
 10
-21.9709469715
 20
11.0782001629
 11
-20.2738906966
 21
11.0782001629
  0
LINE
  5
27D
100
AcDbEntity
  8
ASSI
100
AcDbLine
 62
7
  6
CONTINUOUS
 10
53.4451293308
 20
-69.8654584819
 11
53.4454917611
 21
-69.8660999196
  0
LINE
  5
27E
100
AcDbEntity
  8
SMUSSO
100
AcDbLine
 62
7
  6
CONTINUOUS
 10
16.4956619251
 20
-11.1319377141
 11
16.4956619251
 21
-14.3978188213
  0
LINE
  5
27F
100
AcDbEntity
  8
ASSI
100
AcDbLine
 62
7
  6
CONTINUOUS
 10
16.4956619251
 20
-11.1319377141
 11
16.4956619251
 21
-14.3978188213
  0
LINE
  5
280
100
AcDbEntity
  8
SMUSSO
100
AcDbLine
 62
250
  6
CONTINUOUS
 10
11.8994678474
 20
-10.3559003473
 11
11.5459144568
 21
-10.560037644
  0
LINE
  5
281
100
AcDbEntity
  8
ASSI
100
AcDbLine
 62
250
  6
CONTINUOUS
 10
11.8994678474
 20
-10.3559003473
 11
11.5459144568
 21
-10.560037644
  0
LINE
  5
282
100
AcDbEntity
  8
SMUSSO
100
AcDbLine
 62
250
  6
CONTINUOUS
 10
-37.8808495482
 20
16.9984974057
 11
-36.1837932733
 21
16.9984974057
  0
LINE
  5
283
100
AcDbEntity
  8
ASSI
100
AcDbLine
 62
250
  6
CONTINUOUS
 10
-37.8808495482
 20
16.9984974057
 11
-36.1837932733
 21
16.9984974057
  0
LINE
  5
284
100
AcDbEntity
  8
ASSI
100
AcDbLine
 62
7
  6
CONTINUOUS
 10
53.4454917611
 20
3.2997096038
 11
57.5074247458
 21
5.645003506
  0
LINE
  5
285
100
AcDbEntity
  8
SMUSSO
100
AcDbLine
 62
250
  6
CONTINUOUS
 10
-37.8808495482
 20
20.2643785128
 11
-36.1837932733
 21
20.2643785128
  0
LINE
  5
286
100
AcDbEntity
  8
ASSI
100
AcDbLine
 62
250
  6
CONTINUOUS
 10
-37.8808495482
 20
20.2643785128
 11
-36.1837932733
 21
20.2643785128
  0
LINE
  5
287
100
AcDbEntity
  8
SMUSSO
100
AcDbLine
 62
7
  6
CONTINUOUS
 10
25.7587607586
 20
-19.7462159938
 11
25.7587607586
 21
-16.4803348867
  0
LINE
  5
288
100
AcDbEntity
  8
ASSI
100
AcDbLine
 62
7
  6
CONTINUOUS
 10
25.7587607586
 20
-19.7462159938
 11
25.7587607586
 21
-16.4803348867
  0
LINE
  5
289
100
AcDbEntity
  8
SMUSSO
100
AcDbLine
 62
7
  6
CONTINUOUS
 10
27.4558170335
 20
-19.7462159938
 11
27.4558170335
 21
-16.4803348867
  0
LINE
  5
28A
100
AcDbEntity
  8
ASSI
100
AcDbLine
 62
7
  6
CONTINUOUS
 10
27.4558170335
 20
-19.7462159938
 11
27.4558170335
 21
-16.4803348867
  0
LINE
  5
28B
100
AcDbEntity
  8
SMUSSO
100
AcDbLine
 62
7
  6
CONTINUOUS
 10
27.8093704241
 20
-16.27619759
 11
27.8093704241
 21
-19.5420786972
  0
LINE
  5
28C
100
AcDbEntity
  8
ASSI
100
AcDbLine
 62
7
  6
CONTINUOUS
 10
27.8093704241
 20
-16.27619759
 11
27.8093704241
 21
-19.5420786972
  0
LINE
  5
28D
100
AcDbEntity
  8
ASSI
100
AcDbLine
 62
7
  6
CONTINUOUS
 10
54.1530290304
 20
2.0742191065
 11
58.2149620151
 21
4.4195130086
  0
LINE
  5
28E
100
AcDbEntity
  8
SMUSSO
100
AcDbLine
 62
250
  6
CONTINUOUS
 10
27.8093704241
 20
-16.27619759
 11
27.4558170335
 21
-16.4803348867
  0
LINE
  5
28F
100
AcDbEntity
  8
ASSI
100
AcDbLine
 62
250
  6
CONTINUOUS
 10
27.8093704241
 20
-16.27619759
 11
27.4558170335
 21
-16.4803348867
  0
LINE
  5
290
100
AcDbEntity
  8
SMUSSO
100
AcDbLine
 62
250
  6
CONTINUOUS
 10
27.8093704241
 20
-19.5420786972
 11
27.4558170335
 21
-19.7462159938
  0
LINE
  5
291
100
AcDbEntity
  8
ASSI
100
AcDbLine
 62
250
  6
CONTINUOUS
 10
27.8093704241
 20
-19.5420786972
 11
27.4558170335
 21
-19.7462159938
  0
LINE
  5
292
100
AcDbEntity
  8
ASSI
100
AcDbLine
 62
7
  6
CONTINUOUS
 10
54.1315276785
 20
2.0862140539
 11
54.1530290304
 21
2.0742191065
  0
LINE
  5
293
100
AcDbEntity
  8
ASSI
100
AcDbLine
 62
7
  6
CONTINUOUS
 10
52.4355926134
 20
2.2217962692
 11
-57.9108776598
 21
65.9344652389
  0
LINE
  5
294
100
AcDbEntity
  8
ASSI
100
AcDbLine
 62
7
  6
CONTINUOUS
 10
53.4454917611
 20
3.2997096038
 11
-57.5074247458
 21
67.3625330283
  0
LINE
  5
295
100
AcDbEntity
  8
SMUSSO
100
AcDbLine
 62
7
  6
CONTINUOUS
 10
32.4055645018
 20
-20.318116064
 11
32.4055645018
 21
-23.5839971711
  0
LINE
  5
296
100
AcDbEntity
  8
ASSI
100
AcDbLine
 62
7
  6
CONTINUOUS
 10
32.4055645018
 20
-20.318116064
 11
32.4055645018
 21
-23.5839971711
  0
LINE
  5
297
100
AcDbEntity
  8
ASSI
100
AcDbLine
 62
7
  6
CONTINUOUS
 10
52.4355926134
 20
2.2217962692
 11
53.4451293308
 21
3.275090865
  0
LINE
  5
298
100
AcDbEntity
  8
ASSI
100
AcDbLine
 62
7
  6
CONTINUOUS
 10
57.5074247458
 20
5.645003506
 11
-53.7196109586
 21
69.8660999196
  0
LINE
  5
299
100
AcDbEntity
  8
ASSI
100
AcDbLine
 62
7
  6
CONTINUOUS
 10
52.7145685475
 20
1.7385957777
 11
52.4355926134
 21
2.2217962692
  0
LINE
  5
29A
100
AcDbEntity
  8
ASSI
100
AcDbLine
 62
7
  6
CONTINUOUS
 10
54.1315276785
 20
2.0862140539
 11
53.4451293308
 21
3.275090865
  0
LINE
  5
29B
100
AcDbEntity
  8
ASSI
100
AcDbLine
 62
7
  6
CONTINUOUS
 10
52.7145685475
 20
-69.0930378217
 11
52.7145685475
 21
1.7385957777
  0
LINE
  5
29C
100
AcDbEntity
  8
ASSI
100
AcDbLine
 62
7
  6
CONTINUOUS
 10
54.1530290304
 20
-69.4576557258
 11
54.1530290304
 21
2.0742191065
  0
LINE
  5
29D
100
AcDbEntity
  8
CURVE
100
AcDbLine
 62
250
  6
CONTINUOUS
 10
55.2838724038
 20
-62.2599060725
 11
55.2838724038
 21
-62.6859345476
  0
LINE
  5
29E
100
AcDbEntity
  8
CURVE
100
AcDbLine
 62
250
  6
CONTINUOUS
 10
55.2839813755
 20
-64.5224841224
 11
55.2839813755
 21
-64.0596859084
  0
LINE
  5
29F
100
AcDbEntity
  8
CURVE
100
AcDbLine
 62
250
  6
CONTINUOUS
 10
55.2839813755
 20
-63.269713358
 11
55.2839813755
 21
-62.8439763627
  0
LINE
  5
2A0
100
AcDbEntity
  8
CURVE
100
AcDbLine
 62
250
  6
CONTINUOUS
 10
55.2839813755
 20
-61.8462162092
 11
55.2839813755
 21
-61.4205404492
  0
LINE
  5
2A1
100
AcDbEntity
  8
CURVE
100
AcDbLine
 62
250
  6
CONTINUOUS
 10
55.2839813755
 20
-60.5729830666
 11
55.2839813755
 21
-60.1514696721
  0
LINE
  5
2A2
100
AcDbEntity
  8
CURVE
100
AcDbLine
 62
250
  6
CONTINUOUS
 10
55.2839813755
 20
-59.2535442382
 11
55.2839813755
 21
-58.8414129036
  0
LINE
  5
2A3
100
AcDbEntity
  8
ASSI
100
AcDbLine
 62
7
  6
CONTINUOUS
 10
53.4454917611
 20
3.2997096038
 11
53.4451293308
 21
3.275090865
  0
LINE
  5
2A4
100
AcDbEntity
  8
ASSI
100
AcDbLine
 62
7
  6
CONTINUOUS
 10
57.5074247458
 20
5.645003506
 11
58.2149620151
 21
4.4195130086
  0
LINE
  5
2A5
100
AcDbEntity
  8
CURVE
100
AcDbLine
 62
250
  6
CONTINUOUS
 10
56.0973061603
 20
-56.998521905
 11
56.0973061603
 21
-57.2419928962
  0
LINE
  5
2A6
100
AcDbEntity
  8
CURVE
100
AcDbLine
 62
250
  6
CONTINUOUS
 10
56.3967196481
 20
-57.0666554706
 11
56.3967196481
 21
-56.8382292358
  0
LINE
  5
2A7
100
AcDbEntity
  8
CURVE
100
AcDbLine
 62
250
  6
CONTINUOUS
 10
56.4647870317
 20
-58.6318372103
 11
56.4647870317
 21
-58.2239449894
  0
LINE
  5
2A8
100
AcDbEntity
  8
CURVE
100
AcDbLine
 62
250
  6
CONTINUOUS
 10
56.7472007263
 20
-57.9867455748
 11
56.7472007263
 21
-58.5669252712
  0
LINE
  5
2A9
100
AcDbEntity
  8
CURVE
100
AcDbLine
 62
250
  6
CONTINUOUS
 10
57.1121725522
 20
-61.7015365679
 11
57.1121725522
 21
-61.2755080927
  0
LINE
  5
2AA
100
AcDbEntity
  8
CURVE
100
AcDbLine
 62
250
  6
CONTINUOUS
 10
57.1121725642
 20
-57.1057536725
 11
57.1121725642
 21
-56.681439506
  0
LINE
  5
2AB
100
AcDbEntity
  8
CURVE
100
AcDbLine
 62
250
  6
CONTINUOUS
 10
57.1121725642
 20
-56.0290358135
 11
57.1121725642
 21
-55.6192460354
  0
LINE
  5
2AC
100
AcDbEntity
  8
CURVE
100
AcDbLine
 62
250
  6
CONTINUOUS
 10
57.1121725522
 20
-57.2308564073
 11
57.1121725522
 21
-57.6798726031
  0
LINE
  5
2AD
100
AcDbEntity
  8
CURVE
100
AcDbLine
 62
250
  6
CONTINUOUS
 10
57.1121725522
 20
-58.4879740595
 11
57.1121725522
 21
-58.90937968
  0
LINE
  5
2AE
100
AcDbEntity
  8
CURVE
100
AcDbLine
 62
250
  6
CONTINUOUS
 10
57.1121725522
 20
-58.9762779886
 11
57.1121725522
 21
-59.3930468743
  0
LINE
  5
2AF
100
AcDbEntity
  8
CURVE
100
AcDbLine
 62
250
  6
CONTINUOUS
 10
57.1121725522
 20
-59.9871228948
 11
57.1121725522
 21
-60.0468738226
  0
LINE
  5
2B0
100
AcDbEntity
  8
CURVE
100
AcDbLine
 62
250
  6
CONTINUOUS
 10
57.1121725522
 20
-60.6385935098
 11
57.1121725522
 21
-61.0461640414
  0
LINE
  5
2B1
100
AcDbEntity
  8
CURVE
100
AcDbLine
 62
250
  6
CONTINUOUS
 10
57.1121725522
 20
-62.5156831702
 11
57.1121725522
 21
-62.8911206976
  0
LINE
  5
2B2
100
AcDbEntity
  8
ASSI
100
AcDbLine
 62
7
  6
CONTINUOUS
 10
58.2149620151
 20
-67.4288772115
 11
58.2149620151
 21
4.4195130086
  0
LINE
  5
2B3
100
AcDbEntity
  8
CURVE
100
AcDbLine
 62
7
  6
CONTINUOUS
 10
55.3835456243
 20
-56.8698276888
 11
55.8478499439
 21
-56.4055233691
  0
LINE
  5
2B4
100
AcDbEntity
  8
CURVE
100
AcDbLine
 62
7
  6
CONTINUOUS
 10
55.2909177498
 20
-57.1724662773
 11
56.0969648847
 21
-56.3664191424
  0
LINE
  5
2B5
100
AcDbEntity
  8
CURVE
100
AcDbLine
 62
250
  6
CONTINUOUS
 10
56.2587892864
 20
-56.4699363939
 11
56.2479862723
 21
-56.47575298
  0
LINE
  5
2B6
100
AcDbEntity
  8
CURVE
100
AcDbLine
 62
250
  6
CONTINUOUS
 10
57.1121725642
 20
-56.681439506
 11
56.3967196481
 21
-57.0666554706
  0
LINE
  5
2B7
100
AcDbEntity
  8
CURVE
100
AcDbLine
 62
250
  6
CONTINUOUS
 10
56.0973061603
 20
-57.2419928962
 11
55.5954321237
 21
-57.5122131816
  0
LINE
  5
2B8
100
AcDbEntity
  8
CURVE
100
AcDbLine
 62
250
  6
CONTINUOUS
 10
55.3053410338
 20
-58.0785924647
 11
57.1121725642
 21
-57.1057536725
  0
LINE
  5
2B9
100
AcDbEntity
  8
CURVE
100
AcDbLine
 62
250
  6
CONTINUOUS
 10
55.9183985321
 20
-61.1894113277
 11
57.1121725522
 21
-60.6385935098
  0
LINE
  5
2BA
100
AcDbEntity
  8
CURVE
100
AcDbLine
 62
250
  6
CONTINUOUS
 10
57.1121725522
 20
-61.0461640414
 11
55.2839813755
 21
-61.8462162092
  0
LINE
  5
2BB
100
AcDbEntity
  8
CURVE
100
AcDbLine
 62
7
  6
CONTINUOUS
 10
55.2669506842
 20
-57.4064440569
 11
55.6164479491
 21
-57.056946792
  0
LINE
  5
2BC
100
AcDbEntity
  8
CURVE
100
AcDbLine
 62
7
  6
CONTINUOUS
 10
55.8831072576
 20
-56.7902874835
 11
56.2309434235
 21
-56.4424513176
  0
LINE
  5
2BD
100
AcDbEntity
  8
CURVE
100
AcDbLine
 62
7
  6
CONTINUOUS
 10
56.3016244888
 20
-56.3717702523
 11
56.7676272175
 21
-55.9057675236
  0
LINE
  5
2BE
100
AcDbEntity
  8
CURVE
100
AcDbLine
 62
7
  6
CONTINUOUS
 10
55.2637174727
 20
-57.6196879824
 11
55.578441726
 21
-57.3049637292
  0
LINE
  5
2BF
100
AcDbEntity
  8
CURVE
100
AcDbLine
 62
7
  6
CONTINUOUS
 10
56.0574795109
 20
-56.8259259442
 11
57.1121725642
 21
-55.7712328909
  0
LINE
  5
2C0
100
AcDbEntity
  8
CURVE
100
AcDbLine
 62
7
  6
CONTINUOUS
 10
55.2752091739
 20
-57.8182069953
 11
55.5935307717
 21
-57.4998853974
  0
LINE
  5
2C1
100
AcDbEntity
  8
CURVE
100
AcDbLine
 62
7
  6
CONTINUOUS
 10
56.0972148106
 20
-56.9962013585
 11
56.4625801078
 21
-56.6308360614
  0
LINE
  5
2C2
100
AcDbEntity
  8
CURVE
100
AcDbLine
 62
7
  6
CONTINUOUS
 10
56.7668957031
 20
-56.326520466
 11
57.1121725642
 21
-55.9812436049
  0
LINE
  5
2C3
100
AcDbEntity
  8
CURVE
100
AcDbLine
 62
7
  6
CONTINUOUS
 10
55.2959311901
 20
-58.0074956931
 11
56.0195896874
 21
-57.2838371957
  0
LINE
  5
2C4
100
AcDbEntity
  8
CURVE
100
AcDbLine
 62
7
  6
CONTINUOUS
 10
56.0973061603
 20
-57.2061207228
 11
56.3967196481
 21
-56.906707235
  0
LINE
  5
2C5
100
AcDbEntity
  8
CURVE
100
AcDbLine
 62
7
  6
CONTINUOUS
 10
55.5859095304
 20
-57.9275280668
 11
56.505179183
 21
-57.0082584141
  0
LINE
  5
2C6
100
AcDbEntity
  8
CURVE
100
AcDbLine
 62
7
  6
CONTINUOUS
 10
56.0408942832
 20
-57.682554028
 11
56.9601639359
 21
-56.7632843753
  0
LINE
  5
2C7
100
AcDbEntity
  8
CURVE
100
AcDbLine
 62
7
  6
CONTINUOUS
 10
56.495879036
 20
-57.4375799892
 11
57.1121725642
 21
-56.821286461
  0
LINE
  5
2C8
100
AcDbEntity
  8
CURVE
100
AcDbLine
 62
7
  6
CONTINUOUS
 10
55.2839813755
 20
-58.8594883637
 11
55.435820212
 21
-58.7076495272
  0
LINE
  5
2C9
100
AcDbEntity
  8
CURVE
100
AcDbLine
 62
7
  6
CONTINUOUS
 10
56.9508637888
 20
-57.1926059504
 11
57.1121725642
 21
-57.031297175
  0
LINE
  5
2CA
100
AcDbEntity
  8
CURVE
100
AcDbLine
 62
7
  6
CONTINUOUS
 10
55.2839813755
 20
-59.0694990777
 11
57.1121725522
 21
-57.241307901
  0
LINE
  5
2CB
100
AcDbEntity
  8
CURVE
100
AcDbLine
 62
7
  6
CONTINUOUS
 10
55.3159686696
 20
-59.2475224976
 11
57.1121725522
 21
-57.451318615
  0
LINE
  5
2CC
100
AcDbEntity
  8
CURVE
100
AcDbLine
 62
7
  6
CONTINUOUS
 10
55.5746835266
 20
-59.1988183546
 11
56.0474422789
 21
-58.7260596023
  0
LINE
  5
2CD
100
AcDbEntity
  8
CURVE
100
AcDbLine
 62
7
  6
CONTINUOUS
 10
56.4647870317
 20
-58.3087148495
 11
56.7472007263
 21
-58.0263011549
  0
LINE
  5
2CE
100
AcDbEntity
  8
CURVE
100
AcDbLine
 62
7
  6
CONTINUOUS
 10
56.9956853566
 20
-57.7778165247
 11
57.1121725522
 21
-57.6613293291
  0
LINE
  5
2CF
100
AcDbEntity
  8
CURVE
100
AcDbLine
 62
7
  6
CONTINUOUS
 10
55.8333983836
 20
-59.1501142117
 11
56.3186920597
 21
-58.6648205356
  0
LINE
  5
2D0
100
AcDbEntity
  8
CURVE
100
AcDbLine
 62
7
  6
CONTINUOUS
 10
56.4647870317
 20
-58.5187255635
 11
56.7472007263
 21
-58.2363118689
  0
LINE
  5
2D1
100
AcDbEntity
  8
CURVE
100
AcDbLine
 62
7
  6
CONTINUOUS
 10
56.0921132406
 20
-59.1014100687
 11
56.7472007263
 21
-58.4463225829
  0
LINE
  5
2D2
100
AcDbEntity
  8
CURVE
100
AcDbLine
 62
7
  6
CONTINUOUS
 10
56.3508280975
 20
-59.0527059257
 11
56.8612883437
 21
-58.5422456795
  0
LINE
  5
2D3
100
AcDbEntity
  8
CURVE
100
AcDbLine
 62
7
  6
CONTINUOUS
 10
55.2839813755
 20
-60.3295633618
 11
55.7825871409
 21
-59.8309575964
  0
LINE
  5
2D4
100
AcDbEntity
  8
CURVE
100
AcDbLine
 62
7
  6
CONTINUOUS
 10
56.6095429545
 20
-59.0040017827
 11
57.1121725522
 21
-58.5013721851
  0
LINE
  5
2D5
100
AcDbEntity
  8
CURVE
100
AcDbLine
 62
7
  6
CONTINUOUS
 10
55.2839813755
 20
-60.5395740758
 11
56.370550437
 21
-59.4530050143
  0
LINE
  5
2D6
100
AcDbEntity
  8
CURVE
100
AcDbLine
 62
7
  6
CONTINUOUS
 10
56.8682578115
 20
-58.9552976398
 11
57.1121725522
 21
-58.7113828991
  0
LINE
  5
2D7
100
AcDbEntity
  8
CURVE
100
AcDbLine
 62
7
  6
CONTINUOUS
 10
55.4843684836
 20
-60.5491976817
 11
56.9585137332
 21
-59.0750524321
  0
LINE
  5
2D8
100
AcDbEntity
  8
CURVE
100
AcDbLine
 62
7
  6
CONTINUOUS
 10
55.7226642311
 20
-60.5209126482
 11
56.1481757197
 21
-60.0954011596
  0
LINE
  5
2D9
100
AcDbEntity
  8
CURVE
100
AcDbLine
 62
7
  6
CONTINUOUS
 10
56.4377481697
 20
-59.8058287096
 11
57.1121725522
 21
-59.1314043271
  0
LINE
  5
2DA
100
AcDbEntity
  8
CURVE
100
AcDbLine
 62
7
  6
CONTINUOUS
 10
55.9609599787
 20
-60.4926276146
 11
56.3847601188
 21
-60.0688274746
  0
LINE
  5
2DB
100
AcDbEntity
  8
CURVE
100
AcDbLine
 62
7
  6
CONTINUOUS
 10
56.9790834672
 20
-59.4745041261
 11
57.1121725522
 21
-59.3414150412
  0
LINE
  5
2DC
100
AcDbEntity
  8
CURVE
100
AcDbLine
 62
7
  6
CONTINUOUS
 10
56.1992557263
 20
-60.4643425811
 11
56.6213445178
 21
-60.0422537895
  0
LINE
  5
2DD
100
AcDbEntity
  8
CURVE
100
AcDbLine
 62
7
  6
CONTINUOUS
 10
55.2839813755
 20
-61.5896276459
 11
56.8579289169
 21
-60.0156801044
  0
LINE
  5
2DE
100
AcDbEntity
  8
CURVE
100
AcDbLine
 62
7
  6
CONTINUOUS
 10
55.2839813755
 20
-61.7996383599
 11
57.094513316
 21
-59.9891064194
  0
LINE
  5
2DF
100
AcDbEntity
  8
CURVE
100
AcDbLine
 62
7
  6
CONTINUOUS
 10
55.5745904455
 20
-61.7190400039
 11
56.263410823
 21
-61.0302196264
  0
LINE
  5
2E0
100
AcDbEntity
  8
CURVE
100
AcDbLine
 62
7
  6
CONTINUOUS
 10
55.948022181
 20
-61.5556189824
 11
56.653336814
 21
-60.8503043494
  0
LINE
  5
2E1
100
AcDbEntity
  8
CURVE
100
AcDbLine
 62
7
  6
CONTINUOUS
 10
55.2838724038
 20
-62.4297794736
 11
55.6519003294
 21
-62.061751548
  0
LINE
  5
2E2
100
AcDbEntity
  8
CURVE
100
AcDbLine
 62
7
  6
CONTINUOUS
 10
56.3214539164
 20
-61.392197961
 11
57.0432628051
 21
-60.6703890723
  0
LINE
  5
2E3
100
AcDbEntity
  8
CURVE
100
AcDbLine
 62
7
  6
CONTINUOUS
 10
55.2838724038
 20
-62.6397901876
 11
56.1068850822
 21
-61.8167775092
  0
LINE
  5
2E4
100
AcDbEntity
  8
CURVE
100
AcDbLine
 62
7
  6
CONTINUOUS
 10
56.6948856519
 20
-61.2287769395
 11
57.1121725522
 21
-60.8114900392
  0
LINE
  5
2E5
100
AcDbEntity
  8
CURVE
100
AcDbLine
 62
7
  6
CONTINUOUS
 10
55.2839813755
 20
-62.8496919299
 11
55.290947949
 21
-62.8427253564
  0
LINE
  5
2E6
100
AcDbEntity
  8
CURVE
100
AcDbLine
 62
7
  6
CONTINUOUS
 10
55.6388861608
 20
-62.4947871447
 11
56.561869835
 21
-61.5718034704
  0
LINE
  5
2E7
100
AcDbEntity
  8
CURVE
100
AcDbLine
 62
7
  6
CONTINUOUS
 10
57.0683173873
 20
-61.0653559181
 11
57.1121725522
 21
-61.0215007533
  0
LINE
  5
2E8
100
AcDbEntity
  8
CURVE
100
AcDbLine
 62
7
  6
CONTINUOUS
 10
55.2839813755
 20
-63.0597026439
 11
55.5469251811
 21
-62.7967588384
  0
LINE
  5
2E9
100
AcDbEntity
  8
CURVE
100
AcDbLine
 62
7
  6
CONTINUOUS
 10
56.0938709136
 20
-62.2498131059
 11
57.0168545878
 21
-61.3268294316
  0
LINE
  5
2EA
100
AcDbEntity
  8
CURVE
100
AcDbLine
 62
7
  6
CONTINUOUS
 10
55.2839813755
 20
-63.269713358
 11
55.8029024131
 21
-62.7507923203
  0
LINE
  5
2EB
100
AcDbEntity
  8
CURVE
100
AcDbLine
 62
7
  6
CONTINUOUS
 10
56.5488556664
 20
-62.0048390671
 11
57.1121725522
 21
-61.4415221813
  0
LINE
  5
2EC
100
AcDbEntity
  8
CURVE
100
AcDbLine
 62
7
  6
CONTINUOUS
 10
55.5531640718
 20
-63.2105413756
 11
56.0588796452
 21
-62.7048258023
  0
LINE
  5
2ED
100
AcDbEntity
  8
CURVE
100
AcDbLine
 62
7
  6
CONTINUOUS
 10
57.0038404192
 20
-61.7598650283
 11
57.1121725522
 21
-61.6515328953
  0
LINE
  5
2EE
100
AcDbEntity
  8
CURVE
100
AcDbLine
 62
7
  6
CONTINUOUS
 10
55.8223467682
 20
-63.1513693933
 11
56.3148568772
 21
-62.6588592842
  0
LINE
  5
2EF
100
AcDbEntity
  8
CURVE
100
AcDbLine
 62
7
  6
CONTINUOUS
 10
56.0915294645
 20
-63.0921974109
 11
56.5708341093
 21
-62.6128927662
  0
LINE
  5
2F0
100
AcDbEntity
  8
CURVE
100
AcDbLine
 62
7
  6
CONTINUOUS
 10
55.2839813755
 20
-64.109756214
 11
55.6124835471
 21
-63.7812540424
  0
LINE
  5
2F1
100
AcDbEntity
  8
CURVE
100
AcDbLine
 62
7
  6
CONTINUOUS
 10
56.3607121609
 20
-63.0330254286
 11
56.8268113413
 21
-62.5669262481
  0
LINE
  5
2F2
100
AcDbEntity
  8
CURVE
100
AcDbLine
 62
7
  6
CONTINUOUS
 10
55.2839813755
 20
-64.319766928
 11
57.0827885734
 21
-62.5209597301
  0
LINE
  5
2F3
100
AcDbEntity
  8
CURVE
100
AcDbLine
 62
7
  6
CONTINUOUS
 10
55.3517256241
 20
-64.4620333934
 11
57.1121725522
 21
-62.7015864654
  0
LINE
  5
2F4
100
AcDbEntity
  8
CURVE
100
AcDbLine
 62
250
  6
CONTINUOUS
 10
57.1121725522
 20
-60.0468738226
 11
55.9183985321
 21
-61.1894113277
  0
LINE
  5
2F5
100
AcDbEntity
  8
CURVE
100
AcDbLine
 62
250
  6
CONTINUOUS
 10
55.2839813755
 20
-61.4205404492
 11
56.2989986552
 21
-60.4525033766
  0
LINE
  5
2F6
100
AcDbEntity
  8
CURVE
100
AcDbLine
 62
250
  6
CONTINUOUS
 10
57.1121725522
 20
-62.8911206976
 11
55.2839813755
 21
-64.5224841224
  0
LINE
  5
2F7
100
AcDbEntity
  8
CURVE
100
AcDbLine
 62
250
  6
CONTINUOUS
 10
55.2839813755
 20
-58.8414129036
 11
57.1121725522
 21
-57.2308564073
  0
LINE
  5
2F8
100
AcDbEntity
  8
CURVE
100
AcDbLine
 62
250
  6
CONTINUOUS
 10
55.2839813755
 20
-64.0596859084
 11
56.5423821968
 21
-62.993090558
  0
LINE
  5
2F9
100
AcDbEntity
  8
CURVE
100
AcDbLine
 62
250
  6
CONTINUOUS
 10
57.1121725522
 20
-57.6798726031
 11
56.7472007263
 21
-57.9867455748
  0
LINE
  5
2FA
100
AcDbEntity
  8
CURVE
100
AcDbLine
 62
250
  6
CONTINUOUS
 10
56.4647870317
 20
-58.2239449894
 11
55.7863219044
 21
-58.7850117902
  0
LINE
  5
2FB
100
AcDbEntity
  8
CURVE
100
AcDbLine
 62
250
  6
CONTINUOUS
 10
55.2839813755
 20
-60.1514696721
 11
57.1121725522
 21
-58.9762779886
  0
LINE
  5
2FC
100
AcDbEntity
  8
CURVE
100
AcDbLine
 62
250
  6
CONTINUOUS
 10
57.1121725522
 20
-59.3930468743
 11
55.9233746627
 21
-60.1206513135
  0
LINE
  5
2FD
100
AcDbEntity
  8
ASSI
100
AcDbLine
 62
7
  6
CONTINUOUS
 10
52.4355926134
 20
-69.2540838972
 11
52.7145685475
 21
-69.0930378217
  0
LINE
  5
2FE
100
AcDbEntity
  8
ASSI
100
AcDbLine
 62
7
  6
CONTINUOUS
 10
53.4451293308
 20
-69.8654584819
 11
54.1315276785
 21
-69.4692172775
  0
LINE
  5
2FF
100
AcDbEntity
  8
ASSI
100
AcDbLine
 62
7
  6
CONTINUOUS
 10
58.2149620151
 20
-67.4288772115
 11
57.5074247458
 21
-67.8373214053
  0
LINE
  5
300
100
AcDbEntity
  8
CURVE
100
AcDbLine
 62
250
  6
CONTINUOUS
 10
57.1121725522
 20
-61.2755080927
 11
55.2838724038
 21
-62.2599060725
  0
LINE
  5
301
100
AcDbEntity
  8
CURVE
100
AcDbLine
 62
250
  6
CONTINUOUS
 10
55.2838724038
 20
-62.6859345476
 11
57.1121725522
 21
-61.7015365679
  0
LINE
  5
302
100
AcDbEntity
  8
ASSI
100
AcDbLine
 62
7
  6
CONTINUOUS
 10
54.1530290304
 20
-69.4576557258
 11
54.1315276785
 21
-69.4692172775
  0
LINE
  5
303
100
AcDbEntity
  8
ASSI
100
AcDbLine
 62
7
  6
CONTINUOUS
 10
54.1530290304
 20
-69.4576557258
 11
58.2149620151
 21
-67.4288772115
  0
LINE
  5
304
100
AcDbEntity
  8
ASSI
100
AcDbLine
 62
7
  6
CONTINUOUS
 10
53.4454917611
 20
-69.8660999196
 11
57.5074247458
 21
-67.8373214053
  0
ARC
  5
305
100
AcDbEntity
  8
SMUSSO
100
AcDbCircle
 62
7
  6
CONTINUOUS
 10
-32.6755062818
 20
20.4697605582
 40
3.1547338465
100
AcDbArc
 50
177.4673070629
 51
180.0226069311
  0
ARC
  5
306
100
AcDbEntity
  8
SMUSSO
100
AcDbCircle
 62
7
  6
CONTINUOUS
 10
-16.7656037051
 20
11.2835822083
 40
3.1547338465
100
AcDbArc
 50
177.4673070629
 51
180.0226069311
  0
ARC
  5
307
100
AcDbEntity
  8
ASSI
100
AcDbCircle
 62
7
  6
CONTINUOUS
 10
-32.6755062818
 20
20.4697605582
 40
3.1547338465
100
AcDbArc
 50
177.4673070629
 51
180.0226069311
  0
ARC
  5
308
100
AcDbEntity
  8
ASSI
100
AcDbCircle
 62
7
  6
CONTINUOUS
 10
-16.7656037051
 20
11.2835822083
 40
3.1547338465
100
AcDbArc
 50
177.4673070629
 51
180.0226069311
  0
ARC
  5
309
100
AcDbEntity
  8
SMUSSO
100
AcDbCircle
 62
7
  6
CONTINUOUS
 10
-32.789697491
 20
20.4744193131
 40
3.0404483402
100
AcDbArc
 50
177.0332282898
 51
177.4599230057
  0
ARC
  5
30A
100
AcDbEntity
  8
ASSI
100
AcDbCircle
 62
7
  6
CONTINUOUS
 10
-32.789697491
 20
20.4744193131
 40
3.0404483402
100
AcDbArc
 50
177.0332282898
 51
177.4599230057
  0
ARC
  5
30B
100
AcDbEntity
  8
SMUSSO
100
AcDbCircle
 62
7
  6
CONTINUOUS
 10
-16.879794915
 20
11.2882409632
 40
3.0404483396
100
AcDbArc
 50
177.0332282897
 51
177.4599230057
  0
ARC
  5
30C
100
AcDbEntity
  8
ASSI
100
AcDbCircle
 62
7
  6
CONTINUOUS
 10
-16.879794915
 20
11.2882409632
 40
3.0404483396
100
AcDbArc
 50
177.0332282897
 51
177.4599230057
  0
ARC
  5
30D
100
AcDbEntity
  8
SMUSSO
100
AcDbCircle
 62
7
  6
CONTINUOUS
 10
-34.4391095548
 20
20.9689385357
 40
1.2903893952
100
AcDbArc
 50
138.1438941365
 51
138.5536836844
  0
ARC
  5
30E
100
AcDbEntity
  8
SMUSSO
100
AcDbCircle
 62
7
  6
CONTINUOUS
 10
-18.5292069783
 20
11.782760186
 40
1.290389395
100
AcDbArc
 50
138.1438941365
 51
138.5536836844
  0
ARC
  5
30F
100
AcDbEntity
  8
ASSI
100
AcDbCircle
 62
7
  6
CONTINUOUS
 10
-34.4391095548
 20
20.9689385357
 40
1.2903893952
100
AcDbArc
 50
138.1438941365
 51
138.5536836844
  0
ARC
  5
310
100
AcDbEntity
  8
SMUSSO
100
AcDbCircle
 62
7
  6
CONTINUOUS
 10
-2.6193044018
 20
2.5965818363
 40
1.2903893947
100
AcDbArc
 50
138.1438941365
 51
138.5536836844
  0
ARC
  5
311
100
AcDbEntity
  8
ASSI
100
AcDbCircle
 62
7
  6
CONTINUOUS
 10
-18.5292069783
 20
11.782760186
 40
1.290389395
100
AcDbArc
 50
138.1438941365
 51
138.5536836844
  0
ARC
  5
312
100
AcDbEntity
  8
ASSI
100
AcDbCircle
 62
7
  6
CONTINUOUS
 10
-2.6193044018
 20
2.5965818363
 40
1.2903893947
100
AcDbArc
 50
138.1438941365
 51
138.5536836844
  0
ARC
  5
313
100
AcDbEntity
  8
SMUSSO
100
AcDbCircle
 62
7
  6
CONTINUOUS
 10
-34.4800048755
 20
21.0076040725
 40
1.2341304978
100
AcDbArc
 50
130.0080844643
 51
138.214047594
  0
ARC
  5
314
100
AcDbEntity
  8
SMUSSO
100
AcDbCircle
 62
7
  6
CONTINUOUS
 10
-18.5701022988
 20
11.8214257226
 40
1.2341304978
100
AcDbArc
 50
130.0080844643
 51
138.214047594
  0
ARC
  5
315
100
AcDbEntity
  8
SMUSSO
100
AcDbCircle
 62
7
  6
CONTINUOUS
 10
-2.6601997221
 20
2.6352473727
 40
1.2341304978
100
AcDbArc
 50
130.0080844643
 51
138.214047594
  0
ARC
  5
316
100
AcDbEntity
  8
ASSI
100
AcDbCircle
 62
7
  6
CONTINUOUS
 10
-34.4800048755
 20
21.0076040725
 40
1.2341304978
100
AcDbArc
 50
130.0080844643
 51
138.214047594
  0
ARC
  5
317
100
AcDbEntity
  8
ASSI
100
AcDbCircle
 62
7
  6
CONTINUOUS
 10
-18.5701022988
 20
11.8214257226
 40
1.2341304978
100
AcDbArc
 50
130.0080844643
 51
138.214047594
  0
ARC
  5
318
100
AcDbEntity
  8
ASSI
100
AcDbCircle
 62
7
  6
CONTINUOUS
 10
-2.6601997221
 20
2.6352473727
 40
1.2341304978
100
AcDbArc
 50
130.0080844643
 51
138.214047594
  0
ARC
  5
319
100
AcDbEntity
  8
SMUSSO
100
AcDbCircle
 62
7
  6
CONTINUOUS
 10
-32.2123765452
 20
13.8142009304
 40
1.2324021312
100
AcDbArc
 50
284.1715277745
 51
289.96439932
  0
ARC
  5
31A
100
AcDbEntity
  8
SMUSSO
100
AcDbCircle
 62
7
  6
CONTINUOUS
 10
-16.3024739685
 20
4.6280225806
 40
1.2324021312
100
AcDbArc
 50
284.1715277745
 51
289.96439932
  0
ARC
  5
31B
100
AcDbEntity
  8
ASSI
100
AcDbCircle
 62
7
  6
CONTINUOUS
 10
-32.2123765452
 20
13.8142009304
 40
1.2324021312
100
AcDbArc
 50
284.1715277745
 51
289.96439932
  0
ARC
  5
31C
100
AcDbEntity
  8
ASSI
100
AcDbCircle
 62
7
  6
CONTINUOUS
 10
-16.3024739685
 20
4.6280225806
 40
1.2324021312
100
AcDbArc
 50
284.1715277745
 51
289.96439932
  0
ARC
  5
31D
100
AcDbEntity
  8
SMUSSO
100
AcDbCircle
 62
7
  6
CONTINUOUS
 10
15.0542014483
 20
-7.0887744914
 40
3.1547338465
100
AcDbArc
 50
177.4673070629
 51
180.0226069311
  0
ARC
  5
31E
100
AcDbEntity
  8
SMUSSO
100
AcDbCircle
 62
7
  6
CONTINUOUS
 10
30.964104025
 20
-16.2749528413
 40
3.1547338465
100
AcDbArc
 50
177.4673070629
 51
180.022606931
  0
ARC
  5
31F
100
AcDbEntity
  8
ASSI
100
AcDbCircle
 62
7
  6
CONTINUOUS
 10
15.0542014483
 20
-7.0887744914
 40
3.1547338465
100
AcDbArc
 50
177.4673070629
 51
180.0226069311
  0
ARC
  5
320
100
AcDbEntity
  8
ASSI
100
AcDbCircle
 62
7
  6
CONTINUOUS
 10
30.964104025
 20
-16.2749528413
 40
3.1547338465
100
AcDbArc
 50
177.4673070629
 51
180.022606931
  0
ARC
  5
321
100
AcDbEntity
  8
SMUSSO
100
AcDbCircle
 62
7
  6
CONTINUOUS
 10
14.9400102385
 20
-7.0841157365
 40
3.0404483396
100
AcDbArc
 50
177.0332282897
 51
177.4599230057
  0
ARC
  5
322
100
AcDbEntity
  8
SMUSSO
100
AcDbCircle
 62
7
  6
CONTINUOUS
 10
30.8499128152
 20
-16.2702940864
 40
3.0404483396
100
AcDbArc
 50
177.0332282897
 51
177.4599230057
  0
ARC
  5
323
100
AcDbEntity
  8
ASSI
100
AcDbCircle
 62
7
  6
CONTINUOUS
 10
14.9400102385
 20
-7.0841157365
 40
3.0404483396
100
AcDbArc
 50
177.0332282897
 51
177.4599230057
  0
ARC
  5
324
100
AcDbEntity
  8
ASSI
100
AcDbCircle
 62
7
  6
CONTINUOUS
 10
30.8499128152
 20
-16.2702940864
 40
3.0404483396
100
AcDbArc
 50
177.0332282897
 51
177.4599230057
  0
ARC
  5
325
100
AcDbEntity
  8
SMUSSO
100
AcDbCircle
 62
7
  6
CONTINUOUS
 10
13.2905981752
 20
-6.5895965138
 40
1.2903893951
100
AcDbArc
 50
138.1438941365
 51
138.5536836844
  0
ARC
  5
326
100
AcDbEntity
  8
SMUSSO
100
AcDbCircle
 62
7
  6
CONTINUOUS
 10
29.2005007518
 20
-15.7757748636
 40
1.290389395
100
AcDbArc
 50
138.1438941365
 51
138.5536836844
  0
ARC
  5
327
100
AcDbEntity
  8
ASSI
100
AcDbCircle
 62
7
  6
CONTINUOUS
 10
13.2905981752
 20
-6.5895965138
 40
1.2903893951
100
AcDbArc
 50
138.1438941365
 51
138.5536836844
  0
ARC
  5
328
100
AcDbEntity
  8
ASSI
100
AcDbCircle
 62
7
  6
CONTINUOUS
 10
29.2005007518
 20
-15.7757748636
 40
1.290389395
100
AcDbArc
 50
138.1438941365
 51
138.5536836844
  0
ARC
  5
329
100
AcDbEntity
  8
SMUSSO
100
AcDbCircle
 62
7
  6
CONTINUOUS
 10
13.2497028546
 20
-6.5509309771
 40
1.2341304978
100
AcDbArc
 50
130.0080844643
 51
138.214047594
  0
ARC
  5
32A
100
AcDbEntity
  8
SMUSSO
100
AcDbCircle
 62
7
  6
CONTINUOUS
 10
29.1596054313
 20
-15.737109327
 40
1.2341304978
100
AcDbArc
 50
130.0080844642
 51
138.214047594
  0
ARC
  5
32B
100
AcDbEntity
  8
ASSI
100
AcDbCircle
 62
7
  6
CONTINUOUS
 10
13.2497028546
 20
-6.5509309771
 40
1.2341304978
100
AcDbArc
 50
130.0080844643
 51
138.214047594
  0
ARC
  5
32C
100
AcDbEntity
  8
ASSI
100
AcDbCircle
 62
7
  6
CONTINUOUS
 10
29.1596054313
 20
-15.737109327
 40
1.2341304978
100
AcDbArc
 50
130.0080844642
 51
138.214047594
  0
ARC
  5
32D
100
AcDbEntity
  8
SMUSSO
100
AcDbCircle
 62
7
  6
CONTINUOUS
 10
-0.3925713918
 20
-4.5581557693
 40
1.2324021312
100
AcDbArc
 50
284.1715277745
 51
289.96439932
  0
ARC
  5
32E
100
AcDbEntity
  8
SMUSSO
100
AcDbCircle
 62
7
  6
CONTINUOUS
 10
15.5173311849
 20
-13.7443341192
 40
1.2324021312
100
AcDbArc
 50
284.1715277745
 51
289.96439932
  0
ARC
  5
32F
100
AcDbEntity
  8
SMUSSO
100
AcDbCircle
 62
7
  6
CONTINUOUS
 10
31.4272337616
 20
-22.9305124691
 40
1.2324021312
100
AcDbArc
 50
284.1715277745
 51
289.96439932
  0
ARC
  5
330
100
AcDbEntity
  8
ASSI
100
AcDbCircle
 62
7
  6
CONTINUOUS
 10
-0.3925713918
 20
-4.5581557693
 40
1.2324021312
100
AcDbArc
 50
284.1715277745
 51
289.96439932
  0
ARC
  5
331
100
AcDbEntity
  8
ASSI
100
AcDbCircle
 62
7
  6
CONTINUOUS
 10
15.5173311849
 20
-13.7443341192
 40
1.2324021312
100
AcDbArc
 50
284.1715277745
 51
289.96439932
  0
ARC
  5
332
100
AcDbEntity
  8
ASSI
100
AcDbCircle
 62
7
  6
CONTINUOUS
 10
31.4272337616
 20
-22.9305124691
 40
1.2324021312
100
AcDbArc
 50
284.1715277745
 51
289.96439932
  0
ARC
  5
333
100
AcDbEntity
  8
SMUSSO
100
AcDbCircle
 62
7
  6
CONTINUOUS
 10
-0.8557011284
 20
2.0974038585
 40
3.1547338465
100
AcDbArc
 50
177.4673070629
 51
180.0226069311
  0
ARC
  5
334
100
AcDbEntity
  8
ASSI
100
AcDbCircle
 62
7
  6
CONTINUOUS
 10
-0.8557011284
 20
2.0974038585
 40
3.1547338465
100
AcDbArc
 50
177.4673070629
 51
180.0226069311
  0
ARC
  5
335
100
AcDbEntity
  8
SMUSSO
100
AcDbCircle
 62
7
  6
CONTINUOUS
 10
-0.969892338
 20
2.1020626133
 40
3.0404483398
100
AcDbArc
 50
177.0332282897
 51
177.4599230057
  0
ARC
  5
336
100
AcDbEntity
  8
ASSI
100
AcDbCircle
 62
7
  6
CONTINUOUS
 10
-0.969892338
 20
2.1020626133
 40
3.0404483398
100
AcDbArc
 50
177.0332282897
 51
177.4599230057
  0
SPLINE
  5
337
100
AcDbEntity
  8
SMUSSO
100
AcDbSpline
 62
7
  6
CONTINUOUS
 70
0
 71
3
 72
11
 73
7
 74
0
 42
0.0000001
 43
0.0000001
 44
0.0000000001
 40
0.0
 40
0.0
 40
0.0
 40
0.0
 40
0.2831435718
 40
0.5426266606
 40
0.7800701955
 40
1.0
 40
1.0
 40
1.0
 40
1.0
 10
-33.3551269699
 20
12.9158933203
 30
0.0
 10
-33.2318017497
 20
12.8447006327
 30
0.0
 10
-32.9862203306
 20
12.7231847161
 30
0.0
 10
-32.6097476179
 20
12.6061551004
 30
0.0
 10
-32.2490845668
 20
12.5654997413
 30
0.0
 10
-32.0178884581
 20
12.5922013752
 30
0.0
 10
-31.9106529477
 20
12.6193043309
 30
0.0
  0
SPLINE
  5
338
100
AcDbEntity
  8
SMUSSO
100
AcDbSpline
 62
7
  6
CONTINUOUS
 70
0
 71
3
 72
15
 73
11
 74
0
 42
0.0000001
 43
0.0000001
 44
0.0000000001
 40
0.0
 40
0.0
 40
0.0
 40
0.0
 40
0.1141523976
 40
0.2373236374
 40
0.3669741716
 40
0.4999998276
 40
0.6330256025
 40
0.7626763023
 40
0.8858445486
 40
1.0
 40
1.0
 40
1.0
 40
1.0
 10
-34.5577688595
 20
22.1830801592
 30
0.0
 10
-34.3302414841
 20
22.0517340742
 30
0.0
 10
-33.8808255137
 20
21.7367353378
 30
0.0
 10
-33.2624549131
 20
21.1582390834
 30
0.0
 10
-32.692577262
 20
20.4744054159
 30
0.0
 10
-32.1926731456
 20
19.7108788519
 30
0.0
 10
-31.7813485497
 20
18.89620777
 30
0.0
 10
-31.4740202978
 20
18.0607870829
 30
0.0
 10
-31.2821708957
 20
17.2360239101
 30
0.0
 10
-31.2340458043
 20
16.6893218938
 30
0.0
 10
-31.234045805
 20
16.4265973355
 30
0.0
  0
SPLINE
  5
339
100
AcDbEntity
  8
SMUSSO
100
AcDbSpline
 62
7
  6
CONTINUOUS
 70
0
 71
3
 72
11
 73
7
 74
0
 42
0.0000001
 43
0.0000001
 44
0.0000000001
 40
0.0
 40
0.0
 40
0.0
 40
0.0
 40
0.226780087
 40
0.4640553627
 40
0.72011724
 40
1.0
 40
1.0
 40
1.0
 40
1.0
 10
-35.4590022274
 20
21.8664542842
 30
0.0
 10
-35.3673201502
 20
21.91939033
 30
0.0
 10
-35.1637116743
 20
22.0020416434
 30
0.0
 10
-34.8268387541
 20
22.0436115279
 30
0.0
 10
-34.4652977468
 20
22.0053543759
 30
0.0
 10
-34.2246548116
 20
21.9317236522
 30
0.0
 10
-34.102974853
 20
21.8841297154
 30
0.0
  0
SPLINE
  5
33A
100
AcDbEntity
  8
SMUSSO
100
AcDbSpline
 62
7
  6
CONTINUOUS
 70
0
 71
3
 72
11
 73
7
 74
0
 42
0.0000001
 43
0.0000001
 44
0.0000000001
 40
0.0
 40
0.0
 40
0.0
 40
0.0
 40
0.2238059521
 40
0.4631000142
 40
0.7212878536
 40
1.0
 40
1.0
 40
1.0
 40
1.0
 10
-35.4063547838
 20
21.8230705268
 30
0.0
 10
-35.4698233429
 20
21.7511972066
 30
0.0
 10
-35.5847643191
 20
21.5874274886
 30
0.0
 10
-35.7109530027
 20
21.3036450542
 30
0.0
 10
-35.7944222384
 20
20.9804138836
 30
0.0
 10
-35.8198896217
 20
20.7510321558
 30
0.0
 10
-35.8260707751
 20
20.6317831873
 30
0.0
  0
SPLINE
  5
33B
100
AcDbEntity
  8
SMUSSO
100
AcDbSpline
 62
7
  6
CONTINUOUS
 70
0
 71
3
 72
11
 73
7
 74
0
 42
0.0000001
 43
0.0000001
 44
0.0000000001
 40
0.0
 40
0.0
 40
0.0
 40
0.0
 40
0.2831435718
 40
0.5426266606
 40
0.7800701955
 40
1.0
 40
1.0
 40
1.0
 40
1.0
 10
-17.4452243932
 20
3.7297149704
 30
0.0
 10
-17.321899173
 20
3.6585222828
 30
0.0
 10
-17.0763177539
 20
3.5370063662
 30
0.0
 10
-16.6998450412
 20
3.4199767505
 30
0.0
 10
-16.3391819901
 20
3.3793213914
 30
0.0
 10
-16.1079858814
 20
3.4060230253
 30
0.0
 10
-16.000750371
 20
3.433125981
 30
0.0
  0
SPLINE
  5
33C
100
AcDbEntity
  8
SMUSSO
100
AcDbSpline
 62
7
  6
CONTINUOUS
 70
0
 71
3
 72
15
 73
11
 74
0
 42
0.0000001
 43
0.0000001
 44
0.0000000001
 40
0.0
 40
0.0
 40
0.0
 40
0.0
 40
0.1141523976
 40
0.2373236374
 40
0.3669741716
 40
0.4999998276
 40
0.6330256025
 40
0.7626763023
 40
0.8858445486
 40
1.0
 40
1.0
 40
1.0
 40
1.0
 10
-18.6478662828
 20
12.9969018094
 30
0.0
 10
-18.4203389074
 20
12.8655557243
 30
0.0
 10
-17.970922937
 20
12.550556988
 30
0.0
 10
-17.3525523364
 20
11.9720607335
 30
0.0
 10
-16.7826746853
 20
11.2882270661
 30
0.0
 10
-16.2827705689
 20
10.524700502
 30
0.0
 10
-15.871445973
 20
9.7100294201
 30
0.0
 10
-15.5641177212
 20
8.874608733
 30
0.0
 10
-15.372268319
 20
8.0498455602
 30
0.0
 10
-15.3241432276
 20
7.5031435439
 30
0.0
 10
-15.3241432283
 20
7.2404189857
 30
0.0
  0
SPLINE
  5
33D
100
AcDbEntity
  8
SMUSSO
100
AcDbSpline
 62
7
  6
CONTINUOUS
 70
0
 71
3
 72
11
 73
7
 74
0
 42
0.0000001
 43
0.0000001
 44
0.0000000001
 40
0.0
 40
0.0
 40
0.0
 40
0.0
 40
0.226780087
 40
0.4640553627
 40
0.72011724
 40
1.0
 40
1.0
 40
1.0
 40
1.0
 10
-19.5490996507
 20
12.6802759343
 30
0.0
 10
-19.4574175735
 20
12.7332119801
 30
0.0
 10
-19.2538090976
 20
12.8158632935
 30
0.0
 10
-18.9169361774
 20
12.857433178
 30
0.0
 10
-18.5553951701
 20
12.819176026
 30
0.0
 10
-18.3147522349
 20
12.7455453024
 30
0.0
 10
-18.1930722763
 20
12.6979513655
 30
0.0
  0
SPLINE
  5
33E
100
AcDbEntity
  8
SMUSSO
100
AcDbSpline
 62
7
  6
CONTINUOUS
 70
0
 71
3
 72
11
 73
7
 74
0
 42
0.0000001
 43
0.0000001
 44
0.0000000001
 40
0.0
 40
0.0
 40
0.0
 40
0.0
 40
0.2238059521
 40
0.4631000142
 40
0.7212878536
 40
1.0
 40
1.0
 40
1.0
 40
1.0
 10
-19.4964522071
 20
12.6368921769
 30
0.0
 10
-19.5599207662
 20
12.5650188567
 30
0.0
 10
-19.6748617424
 20
12.4012491387
 30
0.0
 10
-19.801050426
 20
12.1174667043
 30
0.0
 10
-19.8845196617
 20
11.7942355337
 30
0.0
 10
-19.909987045
 20
11.5648538059
 30
0.0
 10
-19.9161681984
 20
11.4456048374
 30
0.0
  0
SPLINE
  5
33F
100
AcDbEntity
  8
SMUSSO
100
AcDbSpline
 62
7
  6
CONTINUOUS
 70
0
 71
3
 72
11
 73
7
 74
0
 42
0.0000001
 43
0.0000001
 44
0.0000000001
 40
0.0
 40
0.0
 40
0.0
 40
0.0
 40
0.2831435718
 40
0.5426266606
 40
0.7800701955
 40
1.0
 40
1.0
 40
1.0
 40
1.0
 10
-1.5353218165
 20
-5.4564633795
 30
0.0
 10
-1.4119965963
 20
-5.5276560671
 30
0.0
 10
-1.1664151772
 20
-5.6491719836
 30
0.0
 10
-0.7899424645
 20
-5.7662015993
 30
0.0
 10
-0.4292794134
 20
-5.8068569585
 30
0.0
 10
-0.1980833047
 20
-5.7801553246
 30
0.0
 10
-0.0908477943
 20
-5.7530523689
 30
0.0
  0
SPLINE
  5
340
100
AcDbEntity
  8
SMUSSO
100
AcDbSpline
 62
7
  6
CONTINUOUS
 70
0
 71
3
 72
15
 73
11
 74
0
 42
0.0000001
 43
0.0000001
 44
0.0000000001
 40
0.0
 40
0.0
 40
0.0
 40
0.0
 40
0.1141523976
 40
0.2373236374
 40
0.3669741716
 40
0.4999998276
 40
0.6330256025
 40
0.7626763023
 40
0.8858445486
 40
1.0
 40
1.0
 40
1.0
 40
1.0
 10
-2.7379637061
 20
3.8107234595
 30
0.0
 10
-2.5104363307
 20
3.6793773744
 30
0.0
 10
-2.0610203603
 20
3.3643786381
 30
0.0
 10
-1.4426497597
 20
2.7858823837
 30
0.0
 10
-0.8727721086
 20
2.1020487162
 30
0.0
 10
-0.3728679922
 20
1.3385221521
 30
0.0
 10
0.0384566037
 20
0.5238510703
 30
0.0
 10
0.3457848555
 20
-0.3115696169
 30
0.0
 10
0.5376342576
 20
-1.1363327897
 30
0.0
 10
0.5857593491
 20
-1.683034806
 30
0.0
 10
0.5857593484
 20
-1.9457593642
 30
0.0
  0
SPLINE
  5
341
100
AcDbEntity
  8
SMUSSO
100
AcDbSpline
 62
7
  6
CONTINUOUS
 70
0
 71
3
 72
11
 73
7
 74
0
 42
0.0000001
 43
0.0000001
 44
0.0000000001
 40
0.0
 40
0.0
 40
0.0
 40
0.0
 40
0.226780087
 40
0.4640553627
 40
0.72011724
 40
1.0
 40
1.0
 40
1.0
 40
1.0
 10
-3.639197074
 20
3.4940975845
 30
0.0
 10
-3.5475149968
 20
3.5470336302
 30
0.0
 10
-3.3439065209
 20
3.6296849437
 30
0.0
 10
-3.0070336007
 20
3.6712548282
 30
0.0
 10
-2.6454925934
 20
3.6329976762
 30
0.0
 10
-2.4048496582
 20
3.5593669525
 30
0.0
 10
-2.2831696996
 20
3.5117730156
 30
0.0
  0
SPLINE
  5
342
100
AcDbEntity
  8
SMUSSO
100
AcDbSpline
 62
7
  6
CONTINUOUS
 70
0
 71
3
 72
11
 73
7
 74
0
 42
0.0000001
 43
0.0000001
 44
0.0000000001
 40
0.0
 40
0.0
 40
0.0
 40
0.0
 40
0.2238059521
 40
0.4631000142
 40
0.7212878536
 40
1.0
 40
1.0
 40
1.0
 40
1.0
 10
-3.5865496304
 20
3.450713827
 30
0.0
 10
-3.6500181895
 20
3.3788405069
 30
0.0
 10
-3.7649591657
 20
3.2150707888
 30
0.0
 10
-3.8911478493
 20
2.9312883544
 30
0.0
 10
-3.974617085
 20
2.6080571839
 30
0.0
 10
-4.0000844683
 20
2.3786754561
 30
0.0
 10
-4.0062656218
 20
2.2594264876
 30
0.0
  0
SPLINE
  5
343
100
AcDbEntity
  8
SMUSSO
100
AcDbSpline
 62
7
  6
CONTINUOUS
 70
0
 71
3
 72
11
 73
7
 74
0
 42
0.0000001
 43
0.0000001
 44
0.0000000001
 40
0.0
 40
0.0
 40
0.0
 40
0.0
 40
0.2831435718
 40
0.5426266606
 40
0.7800701955
 40
1.0
 40
1.0
 40
1.0
 40
1.0
 10
14.3745807602
 20
-14.6426417293
 30
0.0
 10
14.4979059804
 20
-14.7138344169
 30
0.0
 10
14.7434873995
 20
-14.8353503335
 30
0.0
 10
15.1199601122
 20
-14.9523799492
 30
0.0
 10
15.4806231633
 20
-14.9930353084
 30
0.0
 10
15.711819272
 20
-14.9663336745
 30
0.0
 10
15.8190547824
 20
-14.9392307187
 30
0.0
  0
SPLINE
  5
344
100
AcDbEntity
  8
SMUSSO
100
AcDbSpline
 62
7
  6
CONTINUOUS
 70
0
 71
3
 72
15
 73
11
 74
0
 42
0.0000001
 43
0.0000001
 44
0.0000000001
 40
0.0
 40
0.0
 40
0.0
 40
0.0
 40
0.1141523976
 40
0.2373236374
 40
0.3669741716
 40
0.4999998276
 40
0.6330256025
 40
0.7626763023
 40
0.8858445486
 40
1.0
 40
1.0
 40
1.0
 40
1.0
 10
13.1719388706
 20
-5.3754548904
 30
0.0
 10
13.399466246
 20
-5.5068009754
 30
0.0
 10
13.8488822164
 20
-5.8217997118
 30
0.0
 10
14.467252817
 20
-6.4002959662
 30
0.0
 10
15.0371304681
 20
-7.0841296337
 30
0.0
 10
15.5370345844
 20
-7.8476561977
 30
0.0
 10
15.9483591804
 20
-8.6623272796
 30
0.0
 10
16.2556874322
 20
-9.4977479667
 30
0.0
 10
16.4475368343
 20
-10.3225111395
 30
0.0
 10
16.4956619258
 20
-10.8692131559
 30
0.0
 10
16.4956619251
 20
-11.1319377141
 30
0.0
  0
SPLINE
  5
345
100
AcDbEntity
  8
SMUSSO
100
AcDbSpline
 62
7
  6
CONTINUOUS
 70
0
 71
3
 72
11
 73
7
 74
0
 42
0.0000001
 43
0.0000001
 44
0.0000000001
 40
0.0
 40
0.0
 40
0.0
 40
0.0
 40
0.226780087
 40
0.4640553627
 40
0.72011724
 40
1.0
 40
1.0
 40
1.0
 40
1.0
 10
12.2707055027
 20
-5.6920807654
 30
0.0
 10
12.3623875799
 20
-5.6391447197
 30
0.0
 10
12.5659960558
 20
-5.5564934062
 30
0.0
 10
12.902868976
 20
-5.5149235217
 30
0.0
 10
13.2644099833
 20
-5.5531806737
 30
0.0
 10
13.5050529185
 20
-5.6268113974
 30
0.0
 10
13.6267328771
 20
-5.6744053342
 30
0.0
  0
SPLINE
  5
346
100
AcDbEntity
  8
SMUSSO
100
AcDbSpline
 62
7
  6
CONTINUOUS
 70
0
 71
3
 72
11
 73
7
 74
0
 42
0.0000001
 43
0.0000001
 44
0.0000000001
 40
0.0
 40
0.0
 40
0.0
 40
0.0
 40
0.2238059521
 40
0.4631000142
 40
0.7212878536
 40
1.0
 40
1.0
 40
1.0
 40
1.0
 10
12.3233529463
 20
-5.7354645228
 30
0.0
 10
12.2598843872
 20
-5.807337843
 30
0.0
 10
12.144943411
 20
-5.971107561
 30
0.0
 10
12.0187547274
 20
-6.2548899954
 30
0.0
 10
11.9352854917
 20
-6.578121166
 30
0.0
 10
11.9098181084
 20
-6.8075028938
 30
0.0
 10
11.9036369549
 20
-6.9267518623
 30
0.0
  0
SPLINE
  5
347
100
AcDbEntity
  8
SMUSSO
100
AcDbSpline
 62
7
  6
CONTINUOUS
 70
0
 71
3
 72
11
 73
7
 74
0
 42
0.0000001
 43
0.0000001
 44
0.0000000001
 40
0.0
 40
0.0
 40
0.0
 40
0.0
 40
0.2831435718
 40
0.5426266606
 40
0.7800701955
 40
1.0
 40
1.0
 40
1.0
 40
1.0
 10
30.2844833369
 20
-23.8288200792
 30
0.0
 10
30.407808557
 20
-23.9000127668
 30
0.0
 10
30.6533899762
 20
-24.0215286834
 30
0.0
 10
31.0298626889
 20
-24.1385582991
 30
0.0
 10
31.39052574
 20
-24.1792136582
 30
0.0
 10
31.6217218487
 20
-24.1525120243
 30
0.0
 10
31.7289573591
 20
-24.1254090686
 30
0.0
  0
SPLINE
  5
348
100
AcDbEntity
  8
SMUSSO
100
AcDbSpline
 62
7
  6
CONTINUOUS
 70
0
 71
3
 72
15
 73
11
 74
0
 42
0.0000001
 43
0.0000001
 44
0.0000000001
 40
0.0
 40
0.0
 40
0.0
 40
0.0
 40
0.1141523976
 40
0.2373236374
 40
0.3669741716
 40
0.4999998276
 40
0.6330256025
 40
0.7626763023
 40
0.8858445486
 40
1.0
 40
1.0
 40
1.0
 40
1.0
 10
29.0818414473
 20
-14.5616332403
 30
0.0
 10
29.3093688227
 20
-14.6929793253
 30
0.0
 10
29.7587847931
 20
-15.0079780617
 30
0.0
 10
30.3771553937
 20
-15.5864743161
 30
0.0
 10
30.9470330448
 20
-16.2703079836
 30
0.0
 10
31.4469371611
 20
-17.0338345476
 30
0.0
 10
31.8582617571
 20
-17.8485056295
 30
0.0
 10
32.1655900089
 20
-18.6839263166
 30
0.0
 10
32.357439411
 20
-19.5086894894
 30
0.0
 10
32.4055645025
 20
-20.0553915057
 30
0.0
 10
32.4055645018
 20
-20.318116064
 30
0.0
  0
SPLINE
  5
349
100
AcDbEntity
  8
SMUSSO
100
AcDbSpline
 62
7
  6
CONTINUOUS
 70
0
 71
3
 72
11
 73
7
 74
0
 42
0.0000001
 43
0.0000001
 44
0.0000000001
 40
0.0
 40
0.0
 40
0.0
 40
0.0
 40
0.226780087
 40
0.4640553627
 40
0.72011724
 40
1.0
 40
1.0
 40
1.0
 40
1.0
 10
28.1806080794
 20
-14.8782591153
 30
0.0
 10
28.2722901566
 20
-14.8253230695
 30
0.0
 10
28.4758986325
 20
-14.7426717561
 30
0.0
 10
28.8127715527
 20
-14.7011018716
 30
0.0
 10
29.17431256
 20
-14.7393590236
 30
0.0
 10
29.4149554952
 20
-14.8129897473
 30
0.0
 10
29.5366354538
 20
-14.8605836841
 30
0.0
  0
SPLINE
  5
34A
100
AcDbEntity
  8
SMUSSO
100
AcDbSpline
 62
7
  6
CONTINUOUS
 70
0
 71
3
 72
11
 73
7
 74
0
 42
0.0000001
 43
0.0000001
 44
0.0000000001
 40
0.0
 40
0.0
 40
0.0
 40
0.0
 40
0.2238059521
 40
0.4631000142
 40
0.7212878536
 40
1.0
 40
1.0
 40
1.0
 40
1.0
 10
28.233255523
 20
-14.9216428727
 30
0.0
 10
28.1697869638
 20
-14.9935161929
 30
0.0
 10
28.0548459877
 20
-15.1572859109
 30
0.0
 10
27.9286573041
 20
-15.4410683453
 30
0.0
 10
27.8451880684
 20
-15.7642995159
 30
0.0
 10
27.8197206851
 20
-15.9936812437
 30
0.0
 10
27.8135395316
 20
-16.1129302122
 30
0.0
  0
SPLINE
  5
34B
100
AcDbEntity
  8
SMUSSO
100
AcDbSpline
 62
7
  6
CONTINUOUS
 70
0
 71
3
 72
15
 73
11
 74
0
 42
0.0000001
 43
0.0000001
 44
0.0000000001
 40
0.0
 40
0.0
 40
0.0
 40
0.0
 40
0.1155297562
 40
0.2389638266
 40
0.3680281112
 40
0.5000072385
 40
0.6319861306
 40
0.761049906
 40
0.8844855102
 40
1.0
 40
1.0
 40
1.0
 40
1.0
 10
27.8130827562
 20
-19.5416691343
 30
0.0
 10
27.8219263687
 20
-19.7382670216
 30
0.0
 10
27.8717979932
 20
-20.1438349053
 30
0.0
 10
28.0272433947
 20
-20.7525931936
 30
0.0
 10
28.2610387088
 20
-21.3658241694
 30
0.0
 10
28.5655707727
 20
-21.9634223775
 30
0.0
 10
28.9308774554
 20
-22.5259282636
 30
0.0
 10
29.345087048
 20
-23.034991509
 30
0.0
 10
29.7945835991
 20
-23.4739349955
 30
0.0
 10
30.1208693356
 20
-23.7198838671
 30
0.0
 10
30.2866920648
 20
-23.8258155738
 30
0.0
  0
SPLINE
  5
34C
100
AcDbEntity
  8
SMUSSO
100
AcDbSpline
 62
7
  6
CONTINUOUS
 70
0
 71
3
 72
15
 73
11
 74
0
 42
0.0000001
 43
0.0000001
 44
0.0000000001
 40
0.0
 40
0.0
 40
0.0
 40
0.0
 40
0.1155297562
 40
0.2389638266
 40
0.3680281112
 40
0.5000072385
 40
0.6319861306
 40
0.761049906
 40
0.8844855102
 40
1.0
 40
1.0
 40
1.0
 40
1.0
 10
11.9031801795
 20
-10.3554907844
 30
0.0
 10
11.912023792
 20
-10.5520886717
 30
0.0
 10
11.9618954165
 20
-10.9576565554
 30
0.0
 10
12.117340818
 20
-11.5664148437
 30
0.0
 10
12.3511361321
 20
-12.1796458195
 30
0.0
 10
12.655668196
 20
-12.7772440276
 30
0.0
 10
13.0209748787
 20
-13.3397499137
 30
0.0
 10
13.4351844713
 20
-13.8488131591
 30
0.0
 10
13.8846810224
 20
-14.2877566456
 30
0.0
 10
14.2109667589
 20
-14.5337055172
 30
0.0
 10
14.3767894881
 20
-14.6396372239
 30
0.0
  0
SPLINE
  5
34D
100
AcDbEntity
  8
SMUSSO
100
AcDbSpline
 62
7
  6
CONTINUOUS
 70
0
 71
3
 72
15
 73
11
 74
0
 42
0.0000001
 43
0.0000001
 44
0.0000000001
 40
0.0
 40
0.0
 40
0.0
 40
0.0
 40
0.1155297562
 40
0.2389638266
 40
0.3680281112
 40
0.5000072385
 40
0.6319861306
 40
0.761049906
 40
0.8844855102
 40
1.0
 40
1.0
 40
1.0
 40
1.0
 10
-4.0067223972
 20
-1.1693124345
 30
0.0
 10
-3.9978787847
 20
-1.3659103218
 30
0.0
 10
-3.9480071602
 20
-1.7714782055
 30
0.0
 10
-3.7925617587
 20
-2.3802364938
 30
0.0
 10
-3.5587664446
 20
-2.9934674696
 30
0.0
 10
-3.2542343807
 20
-3.5910656777
 30
0.0
 10
-2.888927698
 20
-4.1535715638
 30
0.0
 10
-2.4747181054
 20
-4.6626348093
 30
0.0
 10
-2.0252215543
 20
-5.1015782958
 30
0.0
 10
-1.6989358178
 20
-5.3475271673
 30
0.0
 10
-1.5331130886
 20
-5.453458874
 30
0.0
  0
SPLINE
  5
34E
100
AcDbEntity
  8
SMUSSO
100
AcDbSpline
 62
7
  6
CONTINUOUS
 70
0
 71
3
 72
15
 73
11
 74
0
 42
0.0000001
 43
0.0000001
 44
0.0000000001
 40
0.0
 40
0.0
 40
0.0
 40
0.0
 40
0.1155297562
 40
0.2389638266
 40
0.3680281112
 40
0.5000072385
 40
0.6319861306
 40
0.761049906
 40
0.8844855102
 40
1.0
 40
1.0
 40
1.0
 40
1.0
 10
-19.9166249739
 20
8.0168659153
 30
0.0
 10
-19.9077813614
 20
7.820268028
 30
0.0
 10
-19.8579097369
 20
7.4147001443
 30
0.0
 10
-19.7024643354
 20
6.8059418561
 30
0.0
 10
-19.4686690213
 20
6.1927108803
 30
0.0
 10
-19.1641369574
 20
5.5951126721
 30
0.0
 10
-18.7988302747
 20
5.032606786
 30
0.0
 10
-18.3846206821
 20
4.5235435406
 30
0.0
 10
-17.935124131
 20
4.0846000541
 30
0.0
 10
-17.6088383945
 20
3.8386511825
 30
0.0
 10
-17.4430156653
 20
3.7327194758
 30
0.0
  0
SPLINE
  5
34F
100
AcDbEntity
  8
SMUSSO
100
AcDbSpline
 62
7
  6
CONTINUOUS
 70
0
 71
3
 72
15
 73
11
 74
0
 42
0.0000001
 43
0.0000001
 44
0.0000000001
 40
0.0
 40
0.0
 40
0.0
 40
0.0
 40
0.1155297562
 40
0.2389638266
 40
0.3680281112
 40
0.5000072385
 40
0.6319861306
 40
0.761049906
 40
0.8844855102
 40
1.0
 40
1.0
 40
1.0
 40
1.0
 10
-35.8265275506
 20
17.2030442652
 30
0.0
 10
-35.8176839381
 20
17.0064463779
 30
0.0
 10
-35.7678123136
 20
16.6008784942
 30
0.0
 10
-35.6123669121
 20
15.9921202059
 30
0.0
 10
-35.378571598
 20
15.3788892301
 30
0.0
 10
-35.0740395341
 20
14.781291022
 30
0.0
 10
-34.7087328514
 20
14.2187851359
 30
0.0
 10
-34.2945232588
 20
13.7097218905
 30
0.0
 10
-33.8450267077
 20
13.270778404
 30
0.0
 10
-33.5187409712
 20
13.0248295324
 30
0.0
 10
-33.352918242
 20
12.9188978257
 30
0.0
  0
SPLINE
  5
350
100
AcDbEntity
  8
SMUSSO
100
AcDbSpline
 62
7
  6
CONTINUOUS
 70
0
 71
3
 72
12
 73
8
 74
0
 42
0.0000001
 43
0.0000001
 44
0.0000000001
 40
0.0
 40
0.0
 40
0.0
 40
0.0
 40
0.2895876931
 40
0.5486316701
 40
0.7816352906
 40
0.8918372931
 40
1.0
 40
1.0
 40
1.0
 40
1.0
 10
-31.234045805
 20
14.1405752524
 30
0.0
 10
-31.2340458047
 20
13.9631906154
 30
0.0
 10
-31.2609188727
 20
13.6259263355
 30
0.0
 10
-31.3972900174
 20
13.1628124914
 30
0.0
 10
-31.5932451703
 20
12.8432774129
 30
0.0
 10
-31.791144465
 20
12.6486251077
 30
0.0
 10
-31.9014599403
 20
12.5716281672
 30
0.0
 10
-31.9588368509
 20
12.538499481
 30
0.0
  0
SPLINE
  5
351
100
AcDbEntity
  8
SMUSSO
100
AcDbSpline
 62
7
  6
CONTINUOUS
 70
0
 71
3
 72
12
 73
8
 74
0
 42
0.0000001
 43
0.0000001
 44
0.0000000001
 40
0.0
 40
0.0
 40
0.0
 40
0.0
 40
0.2895876931
 40
0.5486316701
 40
0.7816352906
 40
0.8918372931
 40
1.0
 40
1.0
 40
1.0
 40
1.0
 10
-15.3241432283
 20
4.9543969025
 30
0.0
 10
-15.324143228
 20
4.7770122655
 30
0.0
 10
-15.351016296
 20
4.4397479856
 30
0.0
 10
-15.4873874407
 20
3.9766341415
 30
0.0
 10
-15.6833425936
 20
3.657099063
 30
0.0
 10
-15.8812418883
 20
3.4624467578
 30
0.0
 10
-15.9915573636
 20
3.3854498173
 30
0.0
 10
-16.0489342742
 20
3.3523211311
 30
0.0
  0
SPLINE
  5
352
100
AcDbEntity
  8
SMUSSO
100
AcDbSpline
 62
7
  6
CONTINUOUS
 70
0
 71
3
 72
12
 73
8
 74
0
 42
0.0000001
 43
0.0000001
 44
0.0000000001
 40
0.0
 40
0.0
 40
0.0
 40
0.0
 40
0.2895876931
 40
0.5486316701
 40
0.7816352906
 40
0.8918372931
 40
1.0
 40
1.0
 40
1.0
 40
1.0
 10
0.5857593484
 20
-4.2317814474
 30
0.0
 10
0.5857593487
 20
-4.4091660843
 30
0.0
 10
0.5588862807
 20
-4.7464303643
 30
0.0
 10
0.422515136
 20
-5.2095442084
 30
0.0
 10
0.2265599831
 20
-5.5290792869
 30
0.0
 10
0.0286606884
 20
-5.723731592
 30
0.0
 10
-0.0816547869
 20
-5.8007285326
 30
0.0
 10
-0.1390316975
 20
-5.8338572188
 30
0.0
  0
SPLINE
  5
353
100
AcDbEntity
  8
SMUSSO
100
AcDbSpline
 62
7
  6
CONTINUOUS
 70
0
 71
3
 72
12
 73
8
 74
0
 42
0.0000001
 43
0.0000001
 44
0.0000000001
 40
0.0
 40
0.0
 40
0.0
 40
0.0
 40
0.2895876931
 40
0.5486316701
 40
0.7816352906
 40
0.8918372931
 40
1.0
 40
1.0
 40
1.0
 40
1.0
 10
16.4956619251
 20
-13.4179597973
 30
0.0
 10
16.4956619254
 20
-13.5953444342
 30
0.0
 10
16.4687888574
 20
-13.9326087142
 30
0.0
 10
16.3324177127
 20
-14.3957225583
 30
0.0
 10
16.1364625598
 20
-14.7152576367
 30
0.0
 10
15.9385632651
 20
-14.9099099419
 30
0.0
 10
15.8282477898
 20
-14.9869068824
 30
0.0
 10
15.7708708792
 20
-15.0200355687
 30
0.0
  0
SPLINE
  5
354
100
AcDbEntity
  8
SMUSSO
100
AcDbSpline
 62
7
  6
CONTINUOUS
 70
0
 71
3
 72
12
 73
8
 74
0
 42
0.0000001
 43
0.0000001
 44
0.0000000001
 40
0.0
 40
0.0
 40
0.0
 40
0.0
 40
0.2895876931
 40
0.5486316701
 40
0.7816352906
 40
0.8918372931
 40
1.0
 40
1.0
 40
1.0
 40
1.0
 10
32.4055645018
 20
-22.6041381471
 30
0.0
 10
32.4055645021
 20
-22.7815227841
 30
0.0
 10
32.3786914341
 20
-23.118787064
 30
0.0
 10
32.2423202893
 20
-23.5819009081
 30
0.0
 10
32.0463651365
 20
-23.9014359866
 30
0.0
 10
31.8484658418
 20
-24.0960882918
 30
0.0
 10
31.7381503665
 20
-24.1730852323
 30
0.0
 10
31.6807734559
 20
-24.2062139185
 30
0.0
  0
SPLINE
  5
355
100
AcDbEntity
  8
SMUSSO
100
AcDbSpline
 62
7
  6
CONTINUOUS
 70
0
 71
3
 72
27
 73
23
 74
0
 42
0.0000001
 43
0.0000001
 44
0.0000000001
 40
0.0
 40
0.0
 40
0.0
 40
0.0
 40
0.0603444235
 40
0.11432438
 40
0.1392307089
 40
0.1630058308
 40
0.1859697484
 40
0.2085088323
 40
0.2310481134
 40
0.2540125284
 40
0.2777887139
 40
0.3026963074
 40
0.356680582
 40
0.4170269455
 40
0.4835768949
 40
0.5553836863
 40
0.6309668528
 40
0.7085169
 40
0.7860665258
 40
0.8616483558
 40
0.9334511437
 40
1.0
 40
1.0
 40
1.0
 40
1.0
 10
-15.3241432283
 20
3.9745378785
 30
0.0
 10
-15.3241432279
 20
3.7363227095
 30
0.0
 10
-15.360012232
 20
3.2836564504
 30
0.0
 10
-15.517325706
 20
2.7511481498
 30
0.0
 10
-15.7082166504
 20
2.3922493809
 30
0.0
 10
-15.8765695907
 20
2.163610563
 30
0.0
 10
-16.0723749822
 20
1.9709359228
 30
0.0
 10
-16.2937204011
 20
1.8164814309
 30
0.0
 10
-16.5381716186
 20
1.7020514934
 30
0.0
 10
-16.8029460536
 20
1.628831939
 30
0.0
 10
-17.0851464751
 20
1.5973800147
 30
0.0
 10
-17.4914194387
 20
1.6115480237
 30
0.0
 10
-18.0313699074
 20
1.7416735859
 30
0.0
 10
-18.6794640722
 20
2.050284166
 30
0.0
 10
-19.3243127491
 20
2.5023133193
 30
0.0
 10
-19.9427921552
 20
3.0809386016
 30
0.0
 10
-20.5125685357
 20
3.7647279441
 30
0.0
 10
-21.0124334268
 20
4.5282360332
 30
0.0
 10
-21.4237086846
 20
5.3428630392
 30
0.0
 10
-21.7310019908
 20
6.1782346138
 30
0.0
 10
-21.9228280223
 20
7.002945205
 30
0.0
 10
-21.9709469722
 20
7.5496113171
 30
0.0
 10
-21.9709469715
 20
7.8123190558
 30
0.0
  0
SPLINE
  5
356
100
AcDbEntity
  8
SMUSSO
100
AcDbSpline
 62
7
  6
CONTINUOUS
 70
0
 71
3
 72
19
 73
15
 74
0
 42
0.0000001
 43
0.0000001
 44
0.0000000001
 40
0.0
 40
0.0
 40
0.0
 40
0.0
 40
0.1447039351
 40
0.2741470125
 40
0.3338722016
 40
0.3908847618
 40
0.4459518904
 40
0.4999999225
 40
0.5540479177
 40
0.6091147579
 40
0.6661275458
 40
0.7258527823
 40
0.8552990128
 40
1.0
 40
1.0
 40
1.0
 40
1.0
 10
-21.9709469715
 20
11.0782001629
 30
0.0
 10
-21.9709469719
 20
11.3164015054
 30
0.0
 10
-21.9350819246
 20
11.7690428186
 30
0.0
 10
-21.7777877199
 20
12.3015249251
 30
0.0
 10
-21.5869199147
 20
12.6604130571
 30
0.0
 10
-21.418586973
 20
12.8890492723
 30
0.0
 10
-21.2228044456
 20
13.0817266336
 30
0.0
 10
-21.0014841318
 20
13.2361894511
 30
0.0
 10
-20.7570598181
 20
13.3506336363
 30
0.0
 10
-20.4923124806
 20
13.4238725826
 30
0.0
 10
-20.2101422204
 20
13.455351287
 30
0.0
 10
-19.8038963483
 20
13.4412158892
 30
0.0
 10
-19.2640971985
 20
13.311233138
 30
0.0
 10
-18.8541571312
 20
13.1159885578
 30
0.0
 10
-18.6478662828
 20
12.9969018094
 30
0.0
  0
SPLINE
  5
357
100
AcDbEntity
  8
SMUSSO
100
AcDbSpline
 62
7
  6
CONTINUOUS
 70
0
 71
3
 72
27
 73
23
 74
0
 42
0.0000001
 43
0.0000001
 44
0.0000000001
 40
0.0
 40
0.0
 40
0.0
 40
0.0
 40
0.0603444235
 40
0.11432438
 40
0.1392307089
 40
0.1630058308
 40
0.1859697484
 40
0.2085088323
 40
0.2310481134
 40
0.2540125284
 40
0.2777887139
 40
0.3026963074
 40
0.356680582
 40
0.4170269455
 40
0.4835768949
 40
0.5553836863
 40
0.6309668528
 40
0.7085169
 40
0.7860665258
 40
0.8616483558
 40
0.9334511437
 40
1.0
 40
1.0
 40
1.0
 40
1.0
 10
-31.234045805
 20
13.1607162284
 30
0.0
 10
-31.2340458046
 20
12.9225010594
 30
0.0
 10
-31.2699148087
 20
12.4698348003
 30
0.0
 10
-31.4272282827
 20
11.9373264997
 30
0.0
 10
-31.6181192271
 20
11.5784277307
 30
0.0
 10
-31.7864721674
 20
11.3497889129
 30
0.0
 10
-31.9822775589
 20
11.1571142727
 30
0.0
 10
-32.2036229778
 20
11.0026597808
 30
0.0
 10
-32.4480741953
 20
10.8882298433
 30
0.0
 10
-32.7128486303
 20
10.8150102889
 30
0.0
 10
-32.9950490518
 20
10.7835583646
 30
0.0
 10
-33.4013220154
 20
10.7977263736
 30
0.0
 10
-33.9412724841
 20
10.9278519358
 30
0.0
 10
-34.5893666489
 20
11.2364625159
 30
0.0
 10
-35.2342153258
 20
11.6884916692
 30
0.0
 10
-35.8526947319
 20
12.2671169515
 30
0.0
 10
-36.4224711124
 20
12.950906294
 30
0.0
 10
-36.9223360035
 20
13.7144143831
 30
0.0
 10
-37.3336112613
 20
14.529041389
 30
0.0
 10
-37.6409045675
 20
15.3644129637
 30
0.0
 10
-37.832730599
 20
16.1891235549
 30
0.0
 10
-37.8808495489
 20
16.735789667
 30
0.0
 10
-37.8808495482
 20
16.9984974057
 30
0.0
  0
SPLINE
  5
358
100
AcDbEntity
  8
SMUSSO
100
AcDbSpline
 62
7
  6
CONTINUOUS
 70
0
 71
3
 72
19
 73
15
 74
0
 42
0.0000001
 43
0.0000001
 44
0.0000000001
 40
0.0
 40
0.0
 40
0.0
 40
0.0
 40
0.1447039351
 40
0.2741470125
 40
0.3338722016
 40
0.3908847618
 40
0.4459518904
 40
0.4999999225
 40
0.5540479177
 40
0.6091147579
 40
0.6661275458
 40
0.7258527823
 40
0.8552990128
 40
1.0
 40
1.0
 40
1.0
 40
1.0
 10
-37.8808495482
 20
20.2643785128
 30
0.0
 10
-37.8808495486
 20
20.5025798553
 30
0.0
 10
-37.8449845013
 20
20.9552211684
 30
0.0
 10
-37.6876902966
 20
21.487703275
 30
0.0
 10
-37.4968224914
 20
21.846591407
 30
0.0
 10
-37.3284895497
 20
22.0752276222
 30
0.0
 10
-37.1327070223
 20
22.2679049835
 30
0.0
 10
-36.9113867085
 20
22.422367801
 30
0.0
 10
-36.6669623948
 20
22.5368119862
 30
0.0
 10
-36.4022150573
 20
22.6100509325
 30
0.0
 10
-36.1200447971
 20
22.6415296369
 30
0.0
 10
-35.713798925
 20
22.6273942391
 30
0.0
 10
-35.1739997752
 20
22.4974114879
 30
0.0
 10
-34.7640597079
 20
22.3021669077
 30
0.0
 10
-34.5577688595
 20
22.1830801592
 30
0.0
  0
SPLINE
  5
359
100
AcDbEntity
  8
SMUSSO
100
AcDbSpline
 62
7
  6
CONTINUOUS
 70
0
 71
3
 72
19
 73
15
 74
0
 42
0.0000001
 43
0.0000001
 44
0.0000000001
 40
0.0
 40
0.0
 40
0.0
 40
0.0
 40
0.0428399605
 40
0.0874488201
 40
0.1352609889
 40
0.1872025456
 40
0.243684755
 40
0.3046810523
 40
0.369820741
 40
0.4384729199
 40
0.582757397
 40
0.7298491847
 40
0.8713793213
 40
1.0
 40
1.0
 40
1.0
 40
1.0
 10
-31.9588368509
 20
12.538499481
 30
0.0
 10
-32.0451229701
 20
12.4886789916
 30
0.0
 10
-32.2353287775
 20
12.4096181055
 30
0.0
 10
-32.5493097477
 20
12.3635999692
 30
0.0
 10
-32.8864779359
 20
12.3884203223
 30
0.0
 10
-33.239348276
 20
12.4821772165
 30
0.0
 10
-33.600993516
 20
12.6420103404
 30
0.0
 10
-33.9642055653
 20
12.8642257713
 30
0.0
 10
-34.321643713
 20
13.1440442198
 30
0.0
 10
-34.7880843537
 20
13.5933673233
 30
0.0
 10
-35.3063818731
 20
14.2570878999
 30
0.0
 10
-35.7877333572
 20
15.1466814517
 30
0.0
 10
-36.1000926284
 20
16.0703378291
 30
0.0
 10
-36.1837932725
 20
16.6993543257
 30
0.0
 10
-36.1837932733
 20
16.9984974057
 30
0.0
  0
SPLINE
  5
35A
100
AcDbEntity
  8
SMUSSO
100
AcDbSpline
 62
7
  6
CONTINUOUS
 70
0
 71
3
 72
19
 73
15
 74
0
 42
0.0000001
 43
0.0000001
 44
0.0000000001
 40
0.0
 40
0.0
 40
0.0
 40
0.0
 40
0.0428399605
 40
0.0874488201
 40
0.1352609889
 40
0.1872025456
 40
0.243684755
 40
0.3046810523
 40
0.369820741
 40
0.4384729199
 40
0.582757397
 40
0.7298491847
 40
0.8713793213
 40
1.0
 40
1.0
 40
1.0
 40
1.0
 10
-16.0489342742
 20
3.3523211311
 30
0.0
 10
-16.1352203934
 20
3.3025006417
 30
0.0
 10
-16.3254262008
 20
3.2234397556
 30
0.0
 10
-16.639407171
 20
3.1774216193
 30
0.0
 10
-16.9765753592
 20
3.2022419724
 30
0.0
 10
-17.3294456993
 20
3.2959988666
 30
0.0
 10
-17.6910909393
 20
3.4558319905
 30
0.0
 10
-18.0543029886
 20
3.6780474214
 30
0.0
 10
-18.4117411363
 20
3.9578658699
 30
0.0
 10
-18.878181777
 20
4.4071889735
 30
0.0
 10
-19.3964792964
 20
5.07090955
 30
0.0
 10
-19.8778307805
 20
5.9605031018
 30
0.0
 10
-20.1901900517
 20
6.8841594793
 30
0.0
 10
-20.2738906958
 20
7.5131759758
 30
0.0
 10
-20.2738906966
 20
7.8123190558
 30
0.0
  0
SPLINE
  5
35B
100
AcDbEntity
  8
SMUSSO
100
AcDbSpline
 62
7
  6
CONTINUOUS
 70
0
 71
3
 72
27
 73
23
 74
0
 42
0.0000001
 43
0.0000001
 44
0.0000000001
 40
0.0
 40
0.0
 40
0.0
 40
0.0
 40
0.0603444235
 40
0.11432438
 40
0.1392307089
 40
0.1630058308
 40
0.1859697484
 40
0.2085088323
 40
0.2310481134
 40
0.2540125284
 40
0.2777887139
 40
0.3026963074
 40
0.356680582
 40
0.4170269455
 40
0.4835768949
 40
0.5553836863
 40
0.6309668528
 40
0.7085169
 40
0.7860665258
 40
0.8616483558
 40
0.9334511437
 40
1.0
 40
1.0
 40
1.0
 40
1.0
 10
32.4055645018
 20
-23.5839971711
 30
0.0
 10
32.4055645022
 20
-23.8222123401
 30
0.0
 10
32.3696954981
 20
-24.2748785992
 30
0.0
 10
32.212382024
 20
-24.8073868998
 30
0.0
 10
32.0214910796
 20
-25.1662856688
 30
0.0
 10
31.8531381394
 20
-25.3949244866
 30
0.0
 10
31.6573327479
 20
-25.5875991268
 30
0.0
 10
31.435987329
 20
-25.7420536187
 30
0.0
 10
31.1915361115
 20
-25.8564835562
 30
0.0
 10
30.9267616765
 20
-25.9297031106
 30
0.0
 10
30.644561255
 20
-25.9611550349
 30
0.0
 10
30.2382882914
 20
-25.9469870259
 30
0.0
 10
29.6983378227
 20
-25.8168614637
 30
0.0
 10
29.0502436579
 20
-25.5082508836
 30
0.0
 10
28.405394981
 20
-25.0562217303
 30
0.0
 10
27.7869155749
 20
-24.477596448
 30
0.0
 10
27.2171391944
 20
-23.7938071055
 30
0.0
 10
26.7172743033
 20
-23.0302990164
 30
0.0
 10
26.3059990455
 20
-22.2156720105
 30
0.0
 10
25.9987057393
 20
-21.3803004358
 30
0.0
 10
25.8068797078
 20
-20.5555898446
 30
0.0
 10
25.7587607579
 20
-20.0089237325
 30
0.0
 10
25.7587607586
 20
-19.7462159938
 30
0.0
  0
SPLINE
  5
35C
100
AcDbEntity
  8
SMUSSO
100
AcDbSpline
 62
7
  6
CONTINUOUS
 70
0
 71
3
 72
19
 73
15
 74
0
 42
0.0000001
 43
0.0000001
 44
0.0000000001
 40
0.0
 40
0.0
 40
0.0
 40
0.0
 40
0.1447039351
 40
0.2741470125
 40
0.3338722016
 40
0.3908847618
 40
0.4459518904
 40
0.4999999225
 40
0.5540479177
 40
0.6091147579
 40
0.6661275458
 40
0.7258527823
 40
0.8552990128
 40
1.0
 40
1.0
 40
1.0
 40
1.0
 10
25.7587607586
 20
-16.4803348867
 30
0.0
 10
25.7587607582
 20
-16.2421335442
 30
0.0
 10
25.7946258055
 20
-15.789492231
 30
0.0
 10
25.9519200102
 20
-15.2570101245
 30
0.0
 10
26.1427878154
 20
-14.8981219925
 30
0.0
 10
26.3111207571
 20
-14.6694857773
 30
0.0
 10
26.5069032845
 20
-14.476808416
 30
0.0
 10
26.7282235983
 20
-14.3223455985
 30
0.0
 10
26.972647912
 20
-14.2079014133
 30
0.0
 10
27.2373952495
 20
-14.134662467
 30
0.0
 10
27.5195655097
 20
-14.1031837626
 30
0.0
 10
27.9258113818
 20
-14.1173191604
 30
0.0
 10
28.4656105316
 20
-14.2473019116
 30
0.0
 10
28.8755505989
 20
-14.4425464918
 30
0.0
 10
29.0818414473
 20
-14.5616332403
 30
0.0
  0
SPLINE
  5
35D
100
AcDbEntity
  8
SMUSSO
100
AcDbSpline
 62
7
  6
CONTINUOUS
 70
0
 71
3
 72
19
 73
15
 74
0
 42
0.0000001
 43
0.0000001
 44
0.0000000001
 40
0.0
 40
0.0
 40
0.0
 40
0.0
 40
0.0428399605
 40
0.0874488201
 40
0.1352609889
 40
0.1872025456
 40
0.243684755
 40
0.3046810523
 40
0.369820741
 40
0.4384729199
 40
0.582757397
 40
0.7298491847
 40
0.8713793213
 40
1.0
 40
1.0
 40
1.0
 40
1.0
 10
-0.1390316975
 20
-5.8338572188
 30
0.0
 10
-0.2253178167
 20
-5.8836777081
 30
0.0
 10
-0.4155236241
 20
-5.9627385943
 30
0.0
 10
-0.7295045943
 20
-6.0087567306
 30
0.0
 10
-1.0666727825
 20
-5.9839363775
 30
0.0
 10
-1.4195431226
 20
-5.8901794833
 30
0.0
 10
-1.7811883626
 20
-5.7303463593
 30
0.0
 10
-2.1444004119
 20
-5.5081309285
 30
0.0
 10
-2.5018385596
 20
-5.2283124799
 30
0.0
 10
-2.9682792003
 20
-4.7789893764
 30
0.0
 10
-3.4865767197
 20
-4.1152687999
 30
0.0
 10
-3.9679282038
 20
-3.2256752481
 30
0.0
 10
-4.280287475
 20
-2.3020188706
 30
0.0
 10
-4.3639881191
 20
-1.6730023741
 30
0.0
 10
-4.3639881199
 20
-1.3738592941
 30
0.0
  0
SPLINE
  5
35E
100
AcDbEntity
  8
SMUSSO
100
AcDbSpline
 62
7
  6
CONTINUOUS
 70
0
 71
3
 72
15
 73
11
 74
0
 42
0.0000001
 43
0.0000001
 44
0.0000000001
 40
0.0
 40
0.0
 40
0.0
 40
0.0
 40
0.1141562538
 40
0.2373233739
 40
0.3669744829
 40
0.500000178
 40
0.6330258497
 40
0.7626765554
 40
0.8858475902
 40
1.0
 40
1.0
 40
1.0
 40
1.0
 10
-35.8302398827
 20
17.2026347023
 30
0.0
 10
-35.8302398838
 20
17.0069874197
 30
0.0
 10
-35.7944040618
 20
16.5998690709
 30
0.0
 10
-35.6515295862
 20
15.9856857817
 30
0.0
 10
-35.4226778172
 20
15.363562271
 30
0.0
 10
-35.1163677902
 20
14.7568934469
 30
0.0
 10
-34.7440966864
 20
14.1883117643
 30
0.0
 10
-34.3197248361
 20
13.6790696156
 30
0.0
 10
-33.8592325436
 20
13.2482783721
 30
0.0
 10
-33.5245622314
 20
13.0137042272
 30
0.0
 10
-33.3551269699
 20
12.9158933203
 30
0.0
  0
SPLINE
  5
35F
100
AcDbEntity
  8
SMUSSO
100
AcDbSpline
 62
7
  6
CONTINUOUS
 70
0
 71
3
 72
12
 73
8
 74
0
 42
0.0000001
 43
0.0000001
 44
0.0000000001
 40
0.0
 40
0.0
 40
0.0
 40
0.0
 40
0.2895876931
 40
0.5486316701
 40
0.7816352906
 40
0.8918372931
 40
1.0
 40
1.0
 40
1.0
 40
1.0
 10
-36.1837932733
 20
20.2643785128
 30
0.0
 10
-36.183793273
 20
20.4417631497
 30
0.0
 10
-36.156920206
 20
20.7790274297
 30
0.0
 10
-36.0205490608
 20
21.2421412738
 30
0.0
 10
-35.8245939081
 20
21.5616763523
 30
0.0
 10
-35.6266946133
 20
21.7563286575
 30
0.0
 10
-35.5163791381
 20
21.833325598
 30
0.0
 10
-35.4590022274
 20
21.8664542842
 30
0.0
  0
SPLINE
  5
360
100
AcDbEntity
  8
SMUSSO
100
AcDbSpline
 62
7
  6
CONTINUOUS
 70
0
 71
3
 72
27
 73
23
 74
0
 42
0.0000001
 43
0.0000001
 44
0.0000000001
 40
0.0
 40
0.0
 40
0.0
 40
0.0
 40
0.0603444235
 40
0.11432438
 40
0.1392307089
 40
0.1630058308
 40
0.1859697484
 40
0.2085088323
 40
0.2310481134
 40
0.2540125284
 40
0.2777887139
 40
0.3026963074
 40
0.356680582
 40
0.4170269455
 40
0.4835768949
 40
0.5553836863
 40
0.6309668528
 40
0.7085169
 40
0.7860665258
 40
0.8616483558
 40
0.9334511437
 40
1.0
 40
1.0
 40
1.0
 40
1.0
 10
16.4956619251
 20
-14.3978188213
 30
0.0
 10
16.4956619255
 20
-14.6360339902
 30
0.0
 10
16.4597929214
 20
-15.0887002493
 30
0.0
 10
16.3024794474
 20
-15.62120855
 30
0.0
 10
16.111588503
 20
-15.9801073189
 30
0.0
 10
15.9432355627
 20
-16.2087461367
 30
0.0
 10
15.7474301712
 20
-16.4014207769
 30
0.0
 10
15.5260847523
 20
-16.5558752688
 30
0.0
 10
15.2816335348
 20
-16.6703052064
 30
0.0
 10
15.0168590998
 20
-16.7435247607
 30
0.0
 10
14.7346586783
 20
-16.774976685
 30
0.0
 10
14.3283857147
 20
-16.760808676
 30
0.0
 10
13.788435246
 20
-16.6306831138
 30
0.0
 10
13.1403410812
 20
-16.3220725337
 30
0.0
 10
12.4954924043
 20
-15.8700433804
 30
0.0
 10
11.8770129982
 20
-15.2914180981
 30
0.0
 10
11.3072366177
 20
-14.6076287556
 30
0.0
 10
10.8073717266
 20
-13.8441206666
 30
0.0
 10
10.3960964688
 20
-13.0294936606
 30
0.0
 10
10.0888031626
 20
-12.1941220859
 30
0.0
 10
9.8969771311
 20
-11.3694114948
 30
0.0
 10
9.8488581812
 20
-10.8227453826
 30
0.0
 10
9.8488581819
 20
-10.560037644
 30
0.0
  0
SPLINE
  5
361
100
AcDbEntity
  8
SMUSSO
100
AcDbSpline
 62
7
  6
CONTINUOUS
 70
0
 71
3
 72
15
 73
11
 74
0
 42
0.0000001
 43
0.0000001
 44
0.0000000001
 40
0.0
 40
0.0
 40
0.0
 40
0.0
 40
0.1141562538
 40
0.2373233739
 40
0.3669744829
 40
0.500000178
 40
0.6330258497
 40
0.7626765554
 40
0.8858475902
 40
1.0
 40
1.0
 40
1.0
 40
1.0
 10
-19.920337306
 20
8.0164563524
 30
0.0
 10
-19.9203373071
 20
7.8208090699
 30
0.0
 10
-19.8845014851
 20
7.413690721
 30
0.0
 10
-19.7416270095
 20
6.7995074318
 30
0.0
 10
-19.5127752405
 20
6.1773839211
 30
0.0
 10
-19.2064652135
 20
5.570715097
 30
0.0
 10
-18.8341941097
 20
5.0021334144
 30
0.0
 10
-18.4098222594
 20
4.4928912657
 30
0.0
 10
-17.9493299669
 20
4.0621000222
 30
0.0
 10
-17.6146596547
 20
3.8275258773
 30
0.0
 10
-17.4452243932
 20
3.7297149704
 30
0.0
  0
SPLINE
  5
362
100
AcDbEntity
  8
SMUSSO
100
AcDbSpline
 62
7
  6
CONTINUOUS
 70
0
 71
3
 72
12
 73
8
 74
0
 42
0.0000001
 43
0.0000001
 44
0.0000000001
 40
0.0
 40
0.0
 40
0.0
 40
0.0
 40
0.2895876931
 40
0.5486316701
 40
0.7816352906
 40
0.8918372931
 40
1.0
 40
1.0
 40
1.0
 40
1.0
 10
-20.2738906966
 20
11.0782001629
 30
0.0
 10
-20.2738906963
 20
11.2555847999
 30
0.0
 10
-20.2470176293
 20
11.5928490798
 30
0.0
 10
-20.1106464841
 20
12.0559629239
 30
0.0
 10
-19.9146913314
 20
12.3754980024
 30
0.0
 10
-19.7167920366
 20
12.5701503076
 30
0.0
 10
-19.6064765614
 20
12.6471472481
 30
0.0
 10
-19.5490996507
 20
12.6802759343
 30
0.0
  0
SPLINE
  5
363
100
AcDbEntity
  8
SMUSSO
100
AcDbSpline
 62
7
  6
CONTINUOUS
 70
0
 71
3
 72
19
 73
15
 74
0
 42
0.0000001
 43
0.0000001
 44
0.0000000001
 40
0.0
 40
0.0
 40
0.0
 40
0.0
 40
0.1447039351
 40
0.2741470125
 40
0.3338722016
 40
0.3908847618
 40
0.4459518904
 40
0.4999999225
 40
0.5540479177
 40
0.6091147579
 40
0.6661275458
 40
0.7258527823
 40
0.8552990128
 40
1.0
 40
1.0
 40
1.0
 40
1.0
 10
9.8488581819
 20
-7.2941565368
 30
0.0
 10
9.8488581815
 20
-7.0559551943
 30
0.0
 10
9.8847232288
 20
-6.6033138812
 30
0.0
 10
10.0420174335
 20
-6.0708317746
 30
0.0
 10
10.2328852387
 20
-5.7119436427
 30
0.0
 10
10.4012181804
 20
-5.4833074275
 30
0.0
 10
10.5970007078
 20
-5.2906300662
 30
0.0
 10
10.8183210216
 20
-5.1361672486
 30
0.0
 10
11.0627453353
 20
-5.0217230634
 30
0.0
 10
11.3274926728
 20
-4.9484841171
 30
0.0
 10
11.609662933
 20
-4.9170054128
 30
0.0
 10
12.0159088051
 20
-4.9311408106
 30
0.0
 10
12.5557079549
 20
-5.0611235617
 30
0.0
 10
12.9656480222
 20
-5.2563681419
 30
0.0
 10
13.1719388706
 20
-5.3754548904
 30
0.0
  0
SPLINE
  5
364
100
AcDbEntity
  8
SMUSSO
100
AcDbSpline
 62
7
  6
CONTINUOUS
 70
0
 71
3
 72
19
 73
15
 74
0
 42
0.0000001
 43
0.0000001
 44
0.0000000001
 40
0.0
 40
0.0
 40
0.0
 40
0.0
 40
0.0428399605
 40
0.0874488201
 40
0.1352609889
 40
0.1872025456
 40
0.243684755
 40
0.3046810523
 40
0.369820741
 40
0.4384729199
 40
0.582757397
 40
0.7298491847
 40
0.8713793213
 40
1.0
 40
1.0
 40
1.0
 40
1.0
 10
15.7708708792
 20
-15.0200355687
 30
0.0
 10
15.68458476
 20
-15.069856058
 30
0.0
 10
15.4943789526
 20
-15.1489169441
 30
0.0
 10
15.1803979824
 20
-15.1949350804
 30
0.0
 10
14.8432297942
 20
-15.1701147273
 30
0.0
 10
14.4903594541
 20
-15.0763578332
 30
0.0
 10
14.1287142141
 20
-14.9165247092
 30
0.0
 10
13.7655021648
 20
-14.6943092784
 30
0.0
 10
13.4080640171
 20
-14.4144908298
 30
0.0
 10
12.9416233764
 20
-13.9651677263
 30
0.0
 10
12.423325857
 20
-13.3014471498
 30
0.0
 10
11.9419743729
 20
-12.411853598
 30
0.0
 10
11.6296151017
 20
-11.4881972205
 30
0.0
 10
11.5459144576
 20
-10.859180724
 30
0.0
 10
11.5459144568
 20
-10.560037644
 30
0.0
  0
SPLINE
  5
365
100
AcDbEntity
  8
SMUSSO
100
AcDbSpline
 62
7
  6
CONTINUOUS
 70
0
 71
3
 72
15
 73
11
 74
0
 42
0.0000001
 43
0.0000001
 44
0.0000000001
 40
0.0
 40
0.0
 40
0.0
 40
0.0
 40
0.1141562538
 40
0.2373233739
 40
0.3669744829
 40
0.500000178
 40
0.6330258497
 40
0.7626765554
 40
0.8858475902
 40
1.0
 40
1.0
 40
1.0
 40
1.0
 10
-4.0104347293
 20
-1.1697219974
 30
0.0
 10
-4.0104347304
 20
-1.36536928
 30
0.0
 10
-3.9745989084
 20
-1.7724876289
 30
0.0
 10
-3.8317244328
 20
-2.386670918
 30
0.0
 10
-3.6028726638
 20
-3.0087944288
 30
0.0
 10
-3.2965626368
 20
-3.6154632529
 30
0.0
 10
-2.924291533
 20
-4.1840449355
 30
0.0
 10
-2.4999196827
 20
-4.6932870842
 30
0.0
 10
-2.0394273902
 20
-5.1240783277
 30
0.0
 10
-1.704757078
 20
-5.3586524725
 30
0.0
 10
-1.5353218165
 20
-5.4564633795
 30
0.0
  0
SPLINE
  5
366
100
AcDbEntity
  8
SMUSSO
100
AcDbSpline
 62
7
  6
CONTINUOUS
 70
0
 71
3
 72
12
 73
8
 74
0
 42
0.0000001
 43
0.0000001
 44
0.0000000001
 40
0.0
 40
0.0
 40
0.0
 40
0.0
 40
0.2895876931
 40
0.5486316701
 40
0.7816352906
 40
0.8918372931
 40
1.0
 40
1.0
 40
1.0
 40
1.0
 10
-4.3639881199
 20
1.8920218131
 30
0.0
 10
-4.3639881196
 20
2.06940645
 30
0.0
 10
-4.3371150526
 20
2.40667073
 30
0.0
 10
-4.2007439074
 20
2.869784574
 30
0.0
 10
-4.0047887547
 20
3.1893196525
 30
0.0
 10
-3.8068894599
 20
3.3839719577
 30
0.0
 10
-3.6965739847
 20
3.4609688982
 30
0.0
 10
-3.639197074
 20
3.4940975845
 30
0.0
  0
SPLINE
  5
367
100
AcDbEntity
  8
SMUSSO
100
AcDbSpline
 62
7
  6
CONTINUOUS
 70
0
 71
3
 72
27
 73
23
 74
0
 42
0.0000001
 43
0.0000001
 44
0.0000000001
 40
0.0
 40
0.0
 40
0.0
 40
0.0
 40
0.0603444235
 40
0.11432438
 40
0.1392307089
 40
0.1630058308
 40
0.1859697484
 40
0.2085088323
 40
0.2310481134
 40
0.2540125284
 40
0.2777887139
 40
0.3026963074
 40
0.356680582
 40
0.4170269455
 40
0.4835768949
 40
0.5553836863
 40
0.6309668528
 40
0.7085169
 40
0.7860665258
 40
0.8616483558
 40
0.9334511437
 40
1.0
 40
1.0
 40
1.0
 40
1.0
 10
0.5857593484
 20
-5.2116404714
 30
0.0
 10
0.5857593488
 20
-5.4498556403
 30
0.0
 10
0.5498903447
 20
-5.9025218995
 30
0.0
 10
0.3925768707
 20
-6.4350302001
 30
0.0
 10
0.2016859263
 20
-6.793928969
 30
0.0
 10
0.033332986
 20
-7.0225677869
 30
0.0
 10
-0.1624724055
 20
-7.2152424271
 30
0.0
 10
-0.3838178244
 20
-7.3696969189
 30
0.0
 10
-0.6282690419
 20
-7.4841268565
 30
0.0
 10
-0.8930434769
 20
-7.5573464109
 30
0.0
 10
-1.1752438984
 20
-7.5887983352
 30
0.0
 10
-1.581516862
 20
-7.5746303262
 30
0.0
 10
-2.1214673307
 20
-7.444504764
 30
0.0
 10
-2.7695614955
 20
-7.1358941838
 30
0.0
 10
-3.4144101724
 20
-6.6838650305
 30
0.0
 10
-4.0328895785
 20
-6.1052397483
 30
0.0
 10
-4.602665959
 20
-5.4214504058
 30
0.0
 10
-5.1025308501
 20
-4.6579423167
 30
0.0
 10
-5.5138061079
 20
-3.8433153107
 30
0.0
 10
-5.8210994141
 20
-3.007943736
 30
0.0
 10
-6.0129254456
 20
-2.1832331449
 30
0.0
 10
-6.0610443955
 20
-1.6365670328
 30
0.0
 10
-6.0610443948
 20
-1.3738592941
 30
0.0
  0
SPLINE
  5
368
100
AcDbEntity
  8
SMUSSO
100
AcDbSpline
 62
7
  6
CONTINUOUS
 70
0
 71
3
 72
15
 73
11
 74
0
 42
0.0000001
 43
0.0000001
 44
0.0000000001
 40
0.0
 40
0.0
 40
0.0
 40
0.0
 40
0.1141562538
 40
0.2373233739
 40
0.3669744829
 40
0.500000178
 40
0.6330258497
 40
0.7626765554
 40
0.8858475902
 40
1.0
 40
1.0
 40
1.0
 40
1.0
 10
11.8994678474
 20
-10.3559003473
 30
0.0
 10
11.8994678463
 20
-10.5515476299
 30
0.0
 10
11.9353036683
 20
-10.9586659788
 30
0.0
 10
12.0781781439
 20
-11.5728492679
 30
0.0
 10
12.3070299129
 20
-12.1949727787
 30
0.0
 10
12.6133399399
 20
-12.8016416027
 30
0.0
 10
12.9856110437
 20
-13.3702232854
 30
0.0
 10
13.409982894
 20
-13.879465434
 30
0.0
 10
13.8704751865
 20
-14.3102566775
 30
0.0
 10
14.2051454987
 20
-14.5448308224
 30
0.0
 10
14.3745807602
 20
-14.6426417293
 30
0.0
  0
SPLINE
  5
369
100
AcDbEntity
  8
SMUSSO
100
AcDbSpline
 62
7
  6
CONTINUOUS
 70
0
 71
3
 72
12
 73
8
 74
0
 42
0.0000001
 43
0.0000001
 44
0.0000000001
 40
0.0
 40
0.0
 40
0.0
 40
0.0
 40
0.2895876931
 40
0.5486316701
 40
0.7816352906
 40
0.8918372931
 40
1.0
 40
1.0
 40
1.0
 40
1.0
 10
11.5459144568
 20
-7.2941565368
 30
0.0
 10
11.5459144571
 20
-7.1167718999
 30
0.0
 10
11.5727875241
 20
-6.7795076199
 30
0.0
 10
11.7091586693
 20
-6.3163937758
 30
0.0
 10
11.905113822
 20
-5.9968586973
 30
0.0
 10
12.1030131168
 20
-5.8022063921
 30
0.0
 10
12.213328592
 20
-5.7252094516
 30
0.0
 10
12.2707055027
 20
-5.6920807654
 30
0.0
  0
SPLINE
  5
36A
100
AcDbEntity
  8
SMUSSO
100
AcDbSpline
 62
7
  6
CONTINUOUS
 70
0
 71
3
 72
19
 73
15
 74
0
 42
0.0000001
 43
0.0000001
 44
0.0000000001
 40
0.0
 40
0.0
 40
0.0
 40
0.0
 40
0.1447039351
 40
0.2741470125
 40
0.3338722016
 40
0.3908847618
 40
0.4459518904
 40
0.4999999225
 40
0.5540479177
 40
0.6091147579
 40
0.6661275458
 40
0.7258527823
 40
0.8552990128
 40
1.0
 40
1.0
 40
1.0
 40
1.0
 10
-6.0610443948
 20
1.8920218131
 30
0.0
 10
-6.0610443952
 20
2.1302231555
 30
0.0
 10
-6.0251793479
 20
2.5828644687
 30
0.0
 10
-5.8678851432
 20
3.1153465753
 30
0.0
 10
-5.677017338
 20
3.4742347072
 30
0.0
 10
-5.5086843963
 20
3.7028709224
 30
0.0
 10
-5.3129018689
 20
3.8955482837
 30
0.0
 10
-5.0915815551
 20
4.0500111012
 30
0.0
 10
-4.8471572414
 20
4.1644552864
 30
0.0
 10
-4.5824099039
 20
4.2376942327
 30
0.0
 10
-4.3002396437
 20
4.2691729371
 30
0.0
 10
-3.8939937716
 20
4.2550375393
 30
0.0
 10
-3.3541946218
 20
4.1250547881
 30
0.0
 10
-2.9442545545
 20
3.9298102079
 30
0.0
 10
-2.7379637061
 20
3.8107234595
 30
0.0
  0
SPLINE
  5
36B
100
AcDbEntity
  8
SMUSSO
100
AcDbSpline
 62
7
  6
CONTINUOUS
 70
0
 71
3
 72
15
 73
11
 74
0
 42
0.0000001
 43
0.0000001
 44
0.0000000001
 40
0.0
 40
0.0
 40
0.0
 40
0.0
 40
0.1141562538
 40
0.2373233739
 40
0.3669744829
 40
0.500000178
 40
0.6330258497
 40
0.7626765554
 40
0.8858475902
 40
1.0
 40
1.0
 40
1.0
 40
1.0
 10
27.8093704241
 20
-19.5420786972
 30
0.0
 10
27.809370423
 20
-19.7377259798
 30
0.0
 10
27.8452062449
 20
-20.1448443286
 30
0.0
 10
27.9880807206
 20
-20.7590276178
 30
0.0
 10
28.2169324896
 20
-21.3811511285
 30
0.0
 10
28.5232425166
 20
-21.9878199526
 30
0.0
 10
28.8955136204
 20
-22.5564016352
 30
0.0
 10
29.3198854707
 20
-23.0656437839
 30
0.0
 10
29.7803777632
 20
-23.4964350274
 30
0.0
 10
30.1150480754
 20
-23.7310091723
 30
0.0
 10
30.2844833369
 20
-23.8288200792
 30
0.0
  0
SPLINE
  5
36C
100
AcDbEntity
  8
SMUSSO
100
AcDbSpline
 62
7
  6
CONTINUOUS
 70
0
 71
3
 72
19
 73
15
 74
0
 42
0.0000001
 43
0.0000001
 44
0.0000000001
 40
0.0
 40
0.0
 40
0.0
 40
0.0
 40
0.0428399605
 40
0.0874488201
 40
0.1352609889
 40
0.1872025456
 40
0.243684755
 40
0.3046810523
 40
0.369820741
 40
0.4384729199
 40
0.582757397
 40
0.7298491847
 40
0.8713793213
 40
1.0
 40
1.0
 40
1.0
 40
1.0
 10
31.6807734559
 20
-24.2062139185
 30
0.0
 10
31.5944873367
 20
-24.2560344079
 30
0.0
 10
31.4042815293
 20
-24.335095294
 30
0.0
 10
31.0903005591
 20
-24.3811134303
 30
0.0
 10
30.7531323709
 20
-24.3562930772
 30
0.0
 10
30.4002620308
 20
-24.262536183
 30
0.0
 10
30.0386167908
 20
-24.1027030591
 30
0.0
 10
29.6754047415
 20
-23.8804876282
 30
0.0
 10
29.3179665938
 20
-23.6006691797
 30
0.0
 10
28.8515259531
 20
-23.1513460762
 30
0.0
 10
28.3332284337
 20
-22.4876254996
 30
0.0
 10
27.8518769496
 20
-21.5980319478
 30
0.0
 10
27.5395176784
 20
-20.6743755704
 30
0.0
 10
27.4558170343
 20
-20.0453590738
 30
0.0
 10
27.4558170335
 20
-19.7462159938
 30
0.0
  0
SPLINE
  5
36D
100
AcDbEntity
  8
SMUSSO
100
AcDbSpline
 62
7
  6
CONTINUOUS
 70
0
 71
3
 72
12
 73
8
 74
0
 42
0.0000001
 43
0.0000001
 44
0.0000000001
 40
0.0
 40
0.0
 40
0.0
 40
0.0
 40
0.2895876931
 40
0.5486316701
 40
0.7816352906
 40
0.8918372931
 40
1.0
 40
1.0
 40
1.0
 40
1.0
 10
27.4558170335
 20
-16.4803348867
 30
0.0
 10
27.4558170338
 20
-16.3029502498
 30
0.0
 10
27.4826901008
 20
-15.9656859698
 30
0.0
 10
27.619061246
 20
-15.5025721257
 30
0.0
 10
27.8150163987
 20
-15.1830370472
 30
0.0
 10
28.0129156935
 20
-14.988384742
 30
0.0
 10
28.1232311687
 20
-14.9113878015
 30
0.0
 10
28.1806080794
 20
-14.8782591153
 30
0.0
  0
SPLINE
  5
36E
100
AcDbEntity
  8
ASSI
100
AcDbSpline
 62
7
  6
CONTINUOUS
 70
0
 71
3
 72
11
 73
7
 74
0
 42
0.0000001
 43
0.0000001
 44
0.0000000001
 40
0.0
 40
0.0
 40
0.0
 40
0.0
 40
0.2831435718
 40
0.5426266606
 40
0.7800701955
 40
1.0
 40
1.0
 40
1.0
 40
1.0
 10
-33.3551269699
 20
12.9158933203
 30
0.0
 10
-33.2318017497
 20
12.8447006327
 30
0.0
 10
-32.9862203306
 20
12.7231847161
 30
0.0
 10
-32.6097476179
 20
12.6061551004
 30
0.0
 10
-32.2490845668
 20
12.5654997413
 30
0.0
 10
-32.0178884581
 20
12.5922013752
 30
0.0
 10
-31.9106529477
 20
12.6193043309
 30
0.0
  0
SPLINE
  5
36F
100
AcDbEntity
  8
ASSI
100
AcDbSpline
 62
7
  6
CONTINUOUS
 70
0
 71
3
 72
15
 73
11
 74
0
 42
0.0000001
 43
0.0000001
 44
0.0000000001
 40
0.0
 40
0.0
 40
0.0
 40
0.0
 40
0.1141523976
 40
0.2373236374
 40
0.3669741716
 40
0.4999998276
 40
0.6330256025
 40
0.7626763023
 40
0.8858445486
 40
1.0
 40
1.0
 40
1.0
 40
1.0
 10
-34.5577688595
 20
22.1830801592
 30
0.0
 10
-34.3302414841
 20
22.0517340742
 30
0.0
 10
-33.8808255137
 20
21.7367353378
 30
0.0
 10
-33.2624549131
 20
21.1582390834
 30
0.0
 10
-32.692577262
 20
20.4744054159
 30
0.0
 10
-32.1926731456
 20
19.7108788519
 30
0.0
 10
-31.7813485497
 20
18.89620777
 30
0.0
 10
-31.4740202978
 20
18.0607870829
 30
0.0
 10
-31.2821708957
 20
17.2360239101
 30
0.0
 10
-31.2340458043
 20
16.6893218938
 30
0.0
 10
-31.234045805
 20
16.4265973355
 30
0.0
  0
SPLINE
  5
370
100
AcDbEntity
  8
ASSI
100
AcDbSpline
 62
7
  6
CONTINUOUS
 70
0
 71
3
 72
11
 73
7
 74
0
 42
0.0000001
 43
0.0000001
 44
0.0000000001
 40
0.0
 40
0.0
 40
0.0
 40
0.0
 40
0.226780087
 40
0.4640553627
 40
0.72011724
 40
1.0
 40
1.0
 40
1.0
 40
1.0
 10
-35.4590022274
 20
21.8664542842
 30
0.0
 10
-35.3673201502
 20
21.91939033
 30
0.0
 10
-35.1637116743
 20
22.0020416434
 30
0.0
 10
-34.8268387541
 20
22.0436115279
 30
0.0
 10
-34.4652977468
 20
22.0053543759
 30
0.0
 10
-34.2246548116
 20
21.9317236522
 30
0.0
 10
-34.102974853
 20
21.8841297154
 30
0.0
  0
SPLINE
  5
371
100
AcDbEntity
  8
ASSI
100
AcDbSpline
 62
7
  6
CONTINUOUS
 70
0
 71
3
 72
11
 73
7
 74
0
 42
0.0000001
 43
0.0000001
 44
0.0000000001
 40
0.0
 40
0.0
 40
0.0
 40
0.0
 40
0.2238059521
 40
0.4631000142
 40
0.7212878536
 40
1.0
 40
1.0
 40
1.0
 40
1.0
 10
-35.4063547838
 20
21.8230705268
 30
0.0
 10
-35.4698233429
 20
21.7511972066
 30
0.0
 10
-35.5847643191
 20
21.5874274886
 30
0.0
 10
-35.7109530027
 20
21.3036450542
 30
0.0
 10
-35.7944222384
 20
20.9804138836
 30
0.0
 10
-35.8198896217
 20
20.7510321558
 30
0.0
 10
-35.8260707751
 20
20.6317831873
 30
0.0
  0
SPLINE
  5
372
100
AcDbEntity
  8
ASSI
100
AcDbSpline
 62
7
  6
CONTINUOUS
 70
0
 71
3
 72
11
 73
7
 74
0
 42
0.0000001
 43
0.0000001
 44
0.0000000001
 40
0.0
 40
0.0
 40
0.0
 40
0.0
 40
0.2831435718
 40
0.5426266606
 40
0.7800701955
 40
1.0
 40
1.0
 40
1.0
 40
1.0
 10
-17.4452243932
 20
3.7297149704
 30
0.0
 10
-17.321899173
 20
3.6585222828
 30
0.0
 10
-17.0763177539
 20
3.5370063662
 30
0.0
 10
-16.6998450412
 20
3.4199767505
 30
0.0
 10
-16.3391819901
 20
3.3793213914
 30
0.0
 10
-16.1079858814
 20
3.4060230253
 30
0.0
 10
-16.000750371
 20
3.433125981
 30
0.0
  0
SPLINE
  5
373
100
AcDbEntity
  8
ASSI
100
AcDbSpline
 62
7
  6
CONTINUOUS
 70
0
 71
3
 72
15
 73
11
 74
0
 42
0.0000001
 43
0.0000001
 44
0.0000000001
 40
0.0
 40
0.0
 40
0.0
 40
0.0
 40
0.1141523976
 40
0.2373236374
 40
0.3669741716
 40
0.4999998276
 40
0.6330256025
 40
0.7626763023
 40
0.8858445486
 40
1.0
 40
1.0
 40
1.0
 40
1.0
 10
-18.6478662828
 20
12.9969018094
 30
0.0
 10
-18.4203389074
 20
12.8655557243
 30
0.0
 10
-17.970922937
 20
12.550556988
 30
0.0
 10
-17.3525523364
 20
11.9720607335
 30
0.0
 10
-16.7826746853
 20
11.2882270661
 30
0.0
 10
-16.2827705689
 20
10.524700502
 30
0.0
 10
-15.871445973
 20
9.7100294201
 30
0.0
 10
-15.5641177212
 20
8.874608733
 30
0.0
 10
-15.372268319
 20
8.0498455602
 30
0.0
 10
-15.3241432276
 20
7.5031435439
 30
0.0
 10
-15.3241432283
 20
7.2404189857
 30
0.0
  0
SPLINE
  5
374
100
AcDbEntity
  8
ASSI
100
AcDbSpline
 62
7
  6
CONTINUOUS
 70
0
 71
3
 72
11
 73
7
 74
0
 42
0.0000001
 43
0.0000001
 44
0.0000000001
 40
0.0
 40
0.0
 40
0.0
 40
0.0
 40
0.226780087
 40
0.4640553627
 40
0.72011724
 40
1.0
 40
1.0
 40
1.0
 40
1.0
 10
-19.5490996507
 20
12.6802759343
 30
0.0
 10
-19.4574175735
 20
12.7332119801
 30
0.0
 10
-19.2538090976
 20
12.8158632935
 30
0.0
 10
-18.9169361774
 20
12.857433178
 30
0.0
 10
-18.5553951701
 20
12.819176026
 30
0.0
 10
-18.3147522349
 20
12.7455453024
 30
0.0
 10
-18.1930722763
 20
12.6979513655
 30
0.0
  0
SPLINE
  5
375
100
AcDbEntity
  8
ASSI
100
AcDbSpline
 62
7
  6
CONTINUOUS
 70
0
 71
3
 72
11
 73
7
 74
0
 42
0.0000001
 43
0.0000001
 44
0.0000000001
 40
0.0
 40
0.0
 40
0.0
 40
0.0
 40
0.2238059521
 40
0.4631000142
 40
0.7212878536
 40
1.0
 40
1.0
 40
1.0
 40
1.0
 10
-19.4964522071
 20
12.6368921769
 30
0.0
 10
-19.5599207662
 20
12.5650188567
 30
0.0
 10
-19.6748617424
 20
12.4012491387
 30
0.0
 10
-19.801050426
 20
12.1174667043
 30
0.0
 10
-19.8845196617
 20
11.7942355337
 30
0.0
 10
-19.909987045
 20
11.5648538059
 30
0.0
 10
-19.9161681984
 20
11.4456048374
 30
0.0
  0
SPLINE
  5
376
100
AcDbEntity
  8
ASSI
100
AcDbSpline
 62
7
  6
CONTINUOUS
 70
0
 71
3
 72
11
 73
7
 74
0
 42
0.0000001
 43
0.0000001
 44
0.0000000001
 40
0.0
 40
0.0
 40
0.0
 40
0.0
 40
0.2831435718
 40
0.5426266606
 40
0.7800701955
 40
1.0
 40
1.0
 40
1.0
 40
1.0
 10
-1.5353218165
 20
-5.4564633795
 30
0.0
 10
-1.4119965963
 20
-5.5276560671
 30
0.0
 10
-1.1664151772
 20
-5.6491719836
 30
0.0
 10
-0.7899424645
 20
-5.7662015993
 30
0.0
 10
-0.4292794134
 20
-5.8068569585
 30
0.0
 10
-0.1980833047
 20
-5.7801553246
 30
0.0
 10
-0.0908477943
 20
-5.7530523689
 30
0.0
  0
SPLINE
  5
377
100
AcDbEntity
  8
ASSI
100
AcDbSpline
 62
7
  6
CONTINUOUS
 70
0
 71
3
 72
15
 73
11
 74
0
 42
0.0000001
 43
0.0000001
 44
0.0000000001
 40
0.0
 40
0.0
 40
0.0
 40
0.0
 40
0.1141523976
 40
0.2373236374
 40
0.3669741716
 40
0.4999998276
 40
0.6330256025
 40
0.7626763023
 40
0.8858445486
 40
1.0
 40
1.0
 40
1.0
 40
1.0
 10
-2.7379637061
 20
3.8107234595
 30
0.0
 10
-2.5104363307
 20
3.6793773744
 30
0.0
 10
-2.0610203603
 20
3.3643786381
 30
0.0
 10
-1.4426497597
 20
2.7858823837
 30
0.0
 10
-0.8727721086
 20
2.1020487162
 30
0.0
 10
-0.3728679922
 20
1.3385221521
 30
0.0
 10
0.0384566037
 20
0.5238510703
 30
0.0
 10
0.3457848555
 20
-0.3115696169
 30
0.0
 10
0.5376342576
 20
-1.1363327897
 30
0.0
 10
0.5857593491
 20
-1.683034806
 30
0.0
 10
0.5857593484
 20
-1.9457593642
 30
0.0
  0
SPLINE
  5
378
100
AcDbEntity
  8
ASSI
100
AcDbSpline
 62
7
  6
CONTINUOUS
 70
0
 71
3
 72
11
 73
7
 74
0
 42
0.0000001
 43
0.0000001
 44
0.0000000001
 40
0.0
 40
0.0
 40
0.0
 40
0.0
 40
0.226780087
 40
0.4640553627
 40
0.72011724
 40
1.0
 40
1.0
 40
1.0
 40
1.0
 10
-3.639197074
 20
3.4940975845
 30
0.0
 10
-3.5475149968
 20
3.5470336302
 30
0.0
 10
-3.3439065209
 20
3.6296849437
 30
0.0
 10
-3.0070336007
 20
3.6712548282
 30
0.0
 10
-2.6454925934
 20
3.6329976762
 30
0.0
 10
-2.4048496582
 20
3.5593669525
 30
0.0
 10
-2.2831696996
 20
3.5117730156
 30
0.0
  0
SPLINE
  5
379
100
AcDbEntity
  8
ASSI
100
AcDbSpline
 62
7
  6
CONTINUOUS
 70
0
 71
3
 72
11
 73
7
 74
0
 42
0.0000001
 43
0.0000001
 44
0.0000000001
 40
0.0
 40
0.0
 40
0.0
 40
0.0
 40
0.2238059521
 40
0.4631000142
 40
0.7212878536
 40
1.0
 40
1.0
 40
1.0
 40
1.0
 10
-3.5865496304
 20
3.450713827
 30
0.0
 10
-3.6500181895
 20
3.3788405069
 30
0.0
 10
-3.7649591657
 20
3.2150707888
 30
0.0
 10
-3.8911478493
 20
2.9312883544
 30
0.0
 10
-3.974617085
 20
2.6080571839
 30
0.0
 10
-4.0000844683
 20
2.3786754561
 30
0.0
 10
-4.0062656218
 20
2.2594264876
 30
0.0
  0
SPLINE
  5
37A
100
AcDbEntity
  8
ASSI
100
AcDbSpline
 62
7
  6
CONTINUOUS
 70
0
 71
3
 72
11
 73
7
 74
0
 42
0.0000001
 43
0.0000001
 44
0.0000000001
 40
0.0
 40
0.0
 40
0.0
 40
0.0
 40
0.2831435718
 40
0.5426266606
 40
0.7800701955
 40
1.0
 40
1.0
 40
1.0
 40
1.0
 10
14.3745807602
 20
-14.6426417293
 30
0.0
 10
14.4979059804
 20
-14.7138344169
 30
0.0
 10
14.7434873995
 20
-14.8353503335
 30
0.0
 10
15.1199601122
 20
-14.9523799492
 30
0.0
 10
15.4806231633
 20
-14.9930353084
 30
0.0
 10
15.711819272
 20
-14.9663336745
 30
0.0
 10
15.8190547824
 20
-14.9392307187
 30
0.0
  0
SPLINE
  5
37B
100
AcDbEntity
  8
ASSI
100
AcDbSpline
 62
7
  6
CONTINUOUS
 70
0
 71
3
 72
15
 73
11
 74
0
 42
0.0000001
 43
0.0000001
 44
0.0000000001
 40
0.0
 40
0.0
 40
0.0
 40
0.0
 40
0.1141523976
 40
0.2373236374
 40
0.3669741716
 40
0.4999998276
 40
0.6330256025
 40
0.7626763023
 40
0.8858445486
 40
1.0
 40
1.0
 40
1.0
 40
1.0
 10
13.1719388706
 20
-5.3754548904
 30
0.0
 10
13.399466246
 20
-5.5068009754
 30
0.0
 10
13.8488822164
 20
-5.8217997118
 30
0.0
 10
14.467252817
 20
-6.4002959662
 30
0.0
 10
15.0371304681
 20
-7.0841296337
 30
0.0
 10
15.5370345844
 20
-7.8476561977
 30
0.0
 10
15.9483591804
 20
-8.6623272796
 30
0.0
 10
16.2556874322
 20
-9.4977479667
 30
0.0
 10
16.4475368343
 20
-10.3225111395
 30
0.0
 10
16.4956619258
 20
-10.8692131559
 30
0.0
 10
16.4956619251
 20
-11.1319377141
 30
0.0
  0
SPLINE
  5
37C
100
AcDbEntity
  8
ASSI
100
AcDbSpline
 62
7
  6
CONTINUOUS
 70
0
 71
3
 72
11
 73
7
 74
0
 42
0.0000001
 43
0.0000001
 44
0.0000000001
 40
0.0
 40
0.0
 40
0.0
 40
0.0
 40
0.226780087
 40
0.4640553627
 40
0.72011724
 40
1.0
 40
1.0
 40
1.0
 40
1.0
 10
12.2707055027
 20
-5.6920807654
 30
0.0
 10
12.3623875799
 20
-5.6391447197
 30
0.0
 10
12.5659960558
 20
-5.5564934062
 30
0.0
 10
12.902868976
 20
-5.5149235217
 30
0.0
 10
13.2644099833
 20
-5.5531806737
 30
0.0
 10
13.5050529185
 20
-5.6268113974
 30
0.0
 10
13.6267328771
 20
-5.6744053342
 30
0.0
  0
SPLINE
  5
37D
100
AcDbEntity
  8
ASSI
100
AcDbSpline
 62
7
  6
CONTINUOUS
 70
0
 71
3
 72
11
 73
7
 74
0
 42
0.0000001
 43
0.0000001
 44
0.0000000001
 40
0.0
 40
0.0
 40
0.0
 40
0.0
 40
0.2238059521
 40
0.4631000142
 40
0.7212878536
 40
1.0
 40
1.0
 40
1.0
 40
1.0
 10
12.3233529463
 20
-5.7354645228
 30
0.0
 10
12.2598843872
 20
-5.807337843
 30
0.0
 10
12.144943411
 20
-5.971107561
 30
0.0
 10
12.0187547274
 20
-6.2548899954
 30
0.0
 10
11.9352854917
 20
-6.578121166
 30
0.0
 10
11.9098181084
 20
-6.8075028938
 30
0.0
 10
11.9036369549
 20
-6.9267518623
 30
0.0
  0
SPLINE
  5
37E
100
AcDbEntity
  8
ASSI
100
AcDbSpline
 62
7
  6
CONTINUOUS
 70
0
 71
3
 72
11
 73
7
 74
0
 42
0.0000001
 43
0.0000001
 44
0.0000000001
 40
0.0
 40
0.0
 40
0.0
 40
0.0
 40
0.2831435718
 40
0.5426266606
 40
0.7800701955
 40
1.0
 40
1.0
 40
1.0
 40
1.0
 10
30.2844833369
 20
-23.8288200792
 30
0.0
 10
30.407808557
 20
-23.9000127668
 30
0.0
 10
30.6533899762
 20
-24.0215286834
 30
0.0
 10
31.0298626889
 20
-24.1385582991
 30
0.0
 10
31.39052574
 20
-24.1792136582
 30
0.0
 10
31.6217218487
 20
-24.1525120243
 30
0.0
 10
31.7289573591
 20
-24.1254090686
 30
0.0
  0
SPLINE
  5
37F
100
AcDbEntity
  8
ASSI
100
AcDbSpline
 62
7
  6
CONTINUOUS
 70
0
 71
3
 72
15
 73
11
 74
0
 42
0.0000001
 43
0.0000001
 44
0.0000000001
 40
0.0
 40
0.0
 40
0.0
 40
0.0
 40
0.1141523976
 40
0.2373236374
 40
0.3669741716
 40
0.4999998276
 40
0.6330256025
 40
0.7626763023
 40
0.8858445486
 40
1.0
 40
1.0
 40
1.0
 40
1.0
 10
29.0818414473
 20
-14.5616332403
 30
0.0
 10
29.3093688227
 20
-14.6929793253
 30
0.0
 10
29.7587847931
 20
-15.0079780617
 30
0.0
 10
30.3771553937
 20
-15.5864743161
 30
0.0
 10
30.9470330448
 20
-16.2703079836
 30
0.0
 10
31.4469371611
 20
-17.0338345476
 30
0.0
 10
31.8582617571
 20
-17.8485056295
 30
0.0
 10
32.1655900089
 20
-18.6839263166
 30
0.0
 10
32.357439411
 20
-19.5086894894
 30
0.0
 10
32.4055645025
 20
-20.0553915057
 30
0.0
 10
32.4055645018
 20
-20.318116064
 30
0.0
  0
SPLINE
  5
380
100
AcDbEntity
  8
ASSI
100
AcDbSpline
 62
7
  6
CONTINUOUS
 70
0
 71
3
 72
11
 73
7
 74
0
 42
0.0000001
 43
0.0000001
 44
0.0000000001
 40
0.0
 40
0.0
 40
0.0
 40
0.0
 40
0.226780087
 40
0.4640553627
 40
0.72011724
 40
1.0
 40
1.0
 40
1.0
 40
1.0
 10
28.1806080794
 20
-14.8782591153
 30
0.0
 10
28.2722901566
 20
-14.8253230695
 30
0.0
 10
28.4758986325
 20
-14.7426717561
 30
0.0
 10
28.8127715527
 20
-14.7011018716
 30
0.0
 10
29.17431256
 20
-14.7393590236
 30
0.0
 10
29.4149554952
 20
-14.8129897473
 30
0.0
 10
29.5366354538
 20
-14.8605836841
 30
0.0
  0
SPLINE
  5
381
100
AcDbEntity
  8
ASSI
100
AcDbSpline
 62
7
  6
CONTINUOUS
 70
0
 71
3
 72
11
 73
7
 74
0
 42
0.0000001
 43
0.0000001
 44
0.0000000001
 40
0.0
 40
0.0
 40
0.0
 40
0.0
 40
0.2238059521
 40
0.4631000142
 40
0.7212878536
 40
1.0
 40
1.0
 40
1.0
 40
1.0
 10
28.233255523
 20
-14.9216428727
 30
0.0
 10
28.1697869638
 20
-14.9935161929
 30
0.0
 10
28.0548459877
 20
-15.1572859109
 30
0.0
 10
27.9286573041
 20
-15.4410683453
 30
0.0
 10
27.8451880684
 20
-15.7642995159
 30
0.0
 10
27.8197206851
 20
-15.9936812437
 30
0.0
 10
27.8135395316
 20
-16.1129302122
 30
0.0
  0
SPLINE
  5
382
100
AcDbEntity
  8
ASSI
100
AcDbSpline
 62
7
  6
CONTINUOUS
 70
0
 71
3
 72
15
 73
11
 74
0
 42
0.0000001
 43
0.0000001
 44
0.0000000001
 40
0.0
 40
0.0
 40
0.0
 40
0.0
 40
0.1155297562
 40
0.2389638266
 40
0.3680281112
 40
0.5000072385
 40
0.6319861306
 40
0.761049906
 40
0.8844855102
 40
1.0
 40
1.0
 40
1.0
 40
1.0
 10
27.8130827562
 20
-19.5416691343
 30
0.0
 10
27.8219263687
 20
-19.7382670216
 30
0.0
 10
27.8717979932
 20
-20.1438349053
 30
0.0
 10
28.0272433947
 20
-20.7525931936
 30
0.0
 10
28.2610387088
 20
-21.3658241694
 30
0.0
 10
28.5655707727
 20
-21.9634223775
 30
0.0
 10
28.9308774554
 20
-22.5259282636
 30
0.0
 10
29.345087048
 20
-23.034991509
 30
0.0
 10
29.7945835991
 20
-23.4739349955
 30
0.0
 10
30.1208693356
 20
-23.7198838671
 30
0.0
 10
30.2866920648
 20
-23.8258155738
 30
0.0
  0
SPLINE
  5
383
100
AcDbEntity
  8
ASSI
100
AcDbSpline
 62
7
  6
CONTINUOUS
 70
0
 71
3
 72
15
 73
11
 74
0
 42
0.0000001
 43
0.0000001
 44
0.0000000001
 40
0.0
 40
0.0
 40
0.0
 40
0.0
 40
0.1155297562
 40
0.2389638266
 40
0.3680281112
 40
0.5000072385
 40
0.6319861306
 40
0.761049906
 40
0.8844855102
 40
1.0
 40
1.0
 40
1.0
 40
1.0
 10
11.9031801795
 20
-10.3554907844
 30
0.0
 10
11.912023792
 20
-10.5520886717
 30
0.0
 10
11.9618954165
 20
-10.9576565554
 30
0.0
 10
12.117340818
 20
-11.5664148437
 30
0.0
 10
12.3511361321
 20
-12.1796458195
 30
0.0
 10
12.655668196
 20
-12.7772440276
 30
0.0
 10
13.0209748787
 20
-13.3397499137
 30
0.0
 10
13.4351844713
 20
-13.8488131591
 30
0.0
 10
13.8846810224
 20
-14.2877566456
 30
0.0
 10
14.2109667589
 20
-14.5337055172
 30
0.0
 10
14.3767894881
 20
-14.6396372239
 30
0.0
  0
SPLINE
  5
384
100
AcDbEntity
  8
ASSI
100
AcDbSpline
 62
7
  6
CONTINUOUS
 70
0
 71
3
 72
15
 73
11
 74
0
 42
0.0000001
 43
0.0000001
 44
0.0000000001
 40
0.0
 40
0.0
 40
0.0
 40
0.0
 40
0.1155297562
 40
0.2389638266
 40
0.3680281112
 40
0.5000072385
 40
0.6319861306
 40
0.761049906
 40
0.8844855102
 40
1.0
 40
1.0
 40
1.0
 40
1.0
 10
-4.0067223972
 20
-1.1693124345
 30
0.0
 10
-3.9978787847
 20
-1.3659103218
 30
0.0
 10
-3.9480071602
 20
-1.7714782055
 30
0.0
 10
-3.7925617587
 20
-2.3802364938
 30
0.0
 10
-3.5587664446
 20
-2.9934674696
 30
0.0
 10
-3.2542343807
 20
-3.5910656777
 30
0.0
 10
-2.888927698
 20
-4.1535715638
 30
0.0
 10
-2.4747181054
 20
-4.6626348093
 30
0.0
 10
-2.0252215543
 20
-5.1015782958
 30
0.0
 10
-1.6989358178
 20
-5.3475271673
 30
0.0
 10
-1.5331130886
 20
-5.453458874
 30
0.0
  0
SPLINE
  5
385
100
AcDbEntity
  8
ASSI
100
AcDbSpline
 62
7
  6
CONTINUOUS
 70
0
 71
3
 72
15
 73
11
 74
0
 42
0.0000001
 43
0.0000001
 44
0.0000000001
 40
0.0
 40
0.0
 40
0.0
 40
0.0
 40
0.1155297562
 40
0.2389638266
 40
0.3680281112
 40
0.5000072385
 40
0.6319861306
 40
0.761049906
 40
0.8844855102
 40
1.0
 40
1.0
 40
1.0
 40
1.0
 10
-19.9166249739
 20
8.0168659153
 30
0.0
 10
-19.9077813614
 20
7.820268028
 30
0.0
 10
-19.8579097369
 20
7.4147001443
 30
0.0
 10
-19.7024643354
 20
6.8059418561
 30
0.0
 10
-19.4686690213
 20
6.1927108803
 30
0.0
 10
-19.1641369574
 20
5.5951126721
 30
0.0
 10
-18.7988302747
 20
5.032606786
 30
0.0
 10
-18.3846206821
 20
4.5235435406
 30
0.0
 10
-17.935124131
 20
4.0846000541
 30
0.0
 10
-17.6088383945
 20
3.8386511825
 30
0.0
 10
-17.4430156653
 20
3.7327194758
 30
0.0
  0
SPLINE
  5
386
100
AcDbEntity
  8
ASSI
100
AcDbSpline
 62
7
  6
CONTINUOUS
 70
0
 71
3
 72
15
 73
11
 74
0
 42
0.0000001
 43
0.0000001
 44
0.0000000001
 40
0.0
 40
0.0
 40
0.0
 40
0.0
 40
0.1155297562
 40
0.2389638266
 40
0.3680281112
 40
0.5000072385
 40
0.6319861306
 40
0.761049906
 40
0.8844855102
 40
1.0
 40
1.0
 40
1.0
 40
1.0
 10
-35.8265275506
 20
17.2030442652
 30
0.0
 10
-35.8176839381
 20
17.0064463779
 30
0.0
 10
-35.7678123136
 20
16.6008784942
 30
0.0
 10
-35.6123669121
 20
15.9921202059
 30
0.0
 10
-35.378571598
 20
15.3788892301
 30
0.0
 10
-35.0740395341
 20
14.781291022
 30
0.0
 10
-34.7087328514
 20
14.2187851359
 30
0.0
 10
-34.2945232588
 20
13.7097218905
 30
0.0
 10
-33.8450267077
 20
13.270778404
 30
0.0
 10
-33.5187409712
 20
13.0248295324
 30
0.0
 10
-33.352918242
 20
12.9188978257
 30
0.0
  0
SPLINE
  5
387
100
AcDbEntity
  8
ASSI
100
AcDbSpline
 62
7
  6
CONTINUOUS
 70
0
 71
3
 72
12
 73
8
 74
0
 42
0.0000001
 43
0.0000001
 44
0.0000000001
 40
0.0
 40
0.0
 40
0.0
 40
0.0
 40
0.2895876931
 40
0.5486316701
 40
0.7816352906
 40
0.8918372931
 40
1.0
 40
1.0
 40
1.0
 40
1.0
 10
-31.234045805
 20
14.1405752524
 30
0.0
 10
-31.2340458047
 20
13.9631906154
 30
0.0
 10
-31.2609188727
 20
13.6259263355
 30
0.0
 10
-31.3972900174
 20
13.1628124914
 30
0.0
 10
-31.5932451703
 20
12.8432774129
 30
0.0
 10
-31.791144465
 20
12.6486251077
 30
0.0
 10
-31.9014599403
 20
12.5716281672
 30
0.0
 10
-31.9588368509
 20
12.538499481
 30
0.0
  0
SPLINE
  5
388
100
AcDbEntity
  8
ASSI
100
AcDbSpline
 62
7
  6
CONTINUOUS
 70
0
 71
3
 72
12
 73
8
 74
0
 42
0.0000001
 43
0.0000001
 44
0.0000000001
 40
0.0
 40
0.0
 40
0.0
 40
0.0
 40
0.2895876931
 40
0.5486316701
 40
0.7816352906
 40
0.8918372931
 40
1.0
 40
1.0
 40
1.0
 40
1.0
 10
32.4055645018
 20
-22.6041381471
 30
0.0
 10
32.4055645021
 20
-22.7815227841
 30
0.0
 10
32.3786914341
 20
-23.118787064
 30
0.0
 10
32.2423202893
 20
-23.5819009081
 30
0.0
 10
32.0463651365
 20
-23.9014359866
 30
0.0
 10
31.8484658418
 20
-24.0960882918
 30
0.0
 10
31.7381503665
 20
-24.1730852323
 30
0.0
 10
31.6807734559
 20
-24.2062139185
 30
0.0
  0
SPLINE
  5
389
100
AcDbEntity
  8
ASSI
100
AcDbSpline
 62
7
  6
CONTINUOUS
 70
0
 71
3
 72
12
 73
8
 74
0
 42
0.0000001
 43
0.0000001
 44
0.0000000001
 40
0.0
 40
0.0
 40
0.0
 40
0.0
 40
0.2895876931
 40
0.5486316701
 40
0.7816352906
 40
0.8918372931
 40
1.0
 40
1.0
 40
1.0
 40
1.0
 10
16.4956619251
 20
-13.4179597973
 30
0.0
 10
16.4956619254
 20
-13.5953444342
 30
0.0
 10
16.4687888574
 20
-13.9326087142
 30
0.0
 10
16.3324177127
 20
-14.3957225583
 30
0.0
 10
16.1364625598
 20
-14.7152576367
 30
0.0
 10
15.9385632651
 20
-14.9099099419
 30
0.0
 10
15.8282477898
 20
-14.9869068824
 30
0.0
 10
15.7708708792
 20
-15.0200355687
 30
0.0
  0
SPLINE
  5
38A
100
AcDbEntity
  8
ASSI
100
AcDbSpline
 62
7
  6
CONTINUOUS
 70
0
 71
3
 72
12
 73
8
 74
0
 42
0.0000001
 43
0.0000001
 44
0.0000000001
 40
0.0
 40
0.0
 40
0.0
 40
0.0
 40
0.2895876931
 40
0.5486316701
 40
0.7816352906
 40
0.8918372931
 40
1.0
 40
1.0
 40
1.0
 40
1.0
 10
-15.3241432283
 20
4.9543969025
 30
0.0
 10
-15.324143228
 20
4.7770122655
 30
0.0
 10
-15.351016296
 20
4.4397479856
 30
0.0
 10
-15.4873874407
 20
3.9766341415
 30
0.0
 10
-15.6833425936
 20
3.657099063
 30
0.0
 10
-15.8812418883
 20
3.4624467578
 30
0.0
 10
-15.9915573636
 20
3.3854498173
 30
0.0
 10
-16.0489342742
 20
3.3523211311
 30
0.0
  0
SPLINE
  5
38B
100
AcDbEntity
  8
ASSI
100
AcDbSpline
 62
7
  6
CONTINUOUS
 70
0
 71
3
 72
12
 73
8
 74
0
 42
0.0000001
 43
0.0000001
 44
0.0000000001
 40
0.0
 40
0.0
 40
0.0
 40
0.0
 40
0.2895876931
 40
0.5486316701
 40
0.7816352906
 40
0.8918372931
 40
1.0
 40
1.0
 40
1.0
 40
1.0
 10
0.5857593484
 20
-4.2317814474
 30
0.0
 10
0.5857593487
 20
-4.4091660843
 30
0.0
 10
0.5588862807
 20
-4.7464303643
 30
0.0
 10
0.422515136
 20
-5.2095442084
 30
0.0
 10
0.2265599831
 20
-5.5290792869
 30
0.0
 10
0.0286606884
 20
-5.723731592
 30
0.0
 10
-0.0816547869
 20
-5.8007285326
 30
0.0
 10
-0.1390316975
 20
-5.8338572188
 30
0.0
  0
SPLINE
  5
38C
100
AcDbEntity
  8
ASSI
100
AcDbSpline
 62
7
  6
CONTINUOUS
 70
0
 71
3
 72
27
 73
23
 74
0
 42
0.0000001
 43
0.0000001
 44
0.0000000001
 40
0.0
 40
0.0
 40
0.0
 40
0.0
 40
0.0603444235
 40
0.11432438
 40
0.1392307089
 40
0.1630058308
 40
0.1859697484
 40
0.2085088323
 40
0.2310481134
 40
0.2540125284
 40
0.2777887139
 40
0.3026963074
 40
0.356680582
 40
0.4170269455
 40
0.4835768949
 40
0.5553836863
 40
0.6309668528
 40
0.7085169
 40
0.7860665258
 40
0.8616483558
 40
0.9334511437
 40
1.0
 40
1.0
 40
1.0
 40
1.0
 10
32.4055645018
 20
-23.5839971711
 30
0.0
 10
32.4055645022
 20
-23.8222123401
 30
0.0
 10
32.3696954981
 20
-24.2748785992
 30
0.0
 10
32.212382024
 20
-24.8073868998
 30
0.0
 10
32.0214910796
 20
-25.1662856688
 30
0.0
 10
31.8531381394
 20
-25.3949244866
 30
0.0
 10
31.6573327479
 20
-25.5875991268
 30
0.0
 10
31.435987329
 20
-25.7420536187
 30
0.0
 10
31.1915361115
 20
-25.8564835562
 30
0.0
 10
30.9267616765
 20
-25.9297031106
 30
0.0
 10
30.644561255
 20
-25.9611550349
 30
0.0
 10
30.2382882914
 20
-25.9469870259
 30
0.0
 10
29.6983378227
 20
-25.8168614637
 30
0.0
 10
29.0502436579
 20
-25.5082508836
 30
0.0
 10
28.405394981
 20
-25.0562217303
 30
0.0
 10
27.7869155749
 20
-24.477596448
 30
0.0
 10
27.2171391944
 20
-23.7938071055
 30
0.0
 10
26.7172743033
 20
-23.0302990164
 30
0.0
 10
26.3059990455
 20
-22.2156720105
 30
0.0
 10
25.9987057393
 20
-21.3803004358
 30
0.0
 10
25.8068797078
 20
-20.5555898446
 30
0.0
 10
25.7587607579
 20
-20.0089237325
 30
0.0
 10
25.7587607586
 20
-19.7462159938
 30
0.0
  0
SPLINE
  5
38D
100
AcDbEntity
  8
ASSI
100
AcDbSpline
 62
7
  6
CONTINUOUS
 70
0
 71
3
 72
19
 73
15
 74
0
 42
0.0000001
 43
0.0000001
 44
0.0000000001
 40
0.0
 40
0.0
 40
0.0
 40
0.0
 40
0.1447039351
 40
0.2741470125
 40
0.3338722016
 40
0.3908847618
 40
0.4459518904
 40
0.4999999225
 40
0.5540479177
 40
0.6091147579
 40
0.6661275458
 40
0.7258527823
 40
0.8552990128
 40
1.0
 40
1.0
 40
1.0
 40
1.0
 10
25.7587607586
 20
-16.4803348867
 30
0.0
 10
25.7587607582
 20
-16.2421335442
 30
0.0
 10
25.7946258055
 20
-15.789492231
 30
0.0
 10
25.9519200102
 20
-15.2570101245
 30
0.0
 10
26.1427878154
 20
-14.8981219925
 30
0.0
 10
26.3111207571
 20
-14.6694857773
 30
0.0
 10
26.5069032845
 20
-14.476808416
 30
0.0
 10
26.7282235983
 20
-14.3223455985
 30
0.0
 10
26.972647912
 20
-14.2079014133
 30
0.0
 10
27.2373952495
 20
-14.134662467
 30
0.0
 10
27.5195655097
 20
-14.1031837626
 30
0.0
 10
27.9258113818
 20
-14.1173191604
 30
0.0
 10
28.4656105316
 20
-14.2473019116
 30
0.0
 10
28.8755505989
 20
-14.4425464918
 30
0.0
 10
29.0818414473
 20
-14.5616332403
 30
0.0
  0
SPLINE
  5
38E
100
AcDbEntity
  8
ASSI
100
AcDbSpline
 62
7
  6
CONTINUOUS
 70
0
 71
3
 72
27
 73
23
 74
0
 42
0.0000001
 43
0.0000001
 44
0.0000000001
 40
0.0
 40
0.0
 40
0.0
 40
0.0
 40
0.0603444235
 40
0.11432438
 40
0.1392307089
 40
0.1630058308
 40
0.1859697484
 40
0.2085088323
 40
0.2310481134
 40
0.2540125284
 40
0.2777887139
 40
0.3026963074
 40
0.356680582
 40
0.4170269455
 40
0.4835768949
 40
0.5553836863
 40
0.6309668528
 40
0.7085169
 40
0.7860665258
 40
0.8616483558
 40
0.9334511437
 40
1.0
 40
1.0
 40
1.0
 40
1.0
 10
16.4956619251
 20
-14.3978188213
 30
0.0
 10
16.4956619255
 20
-14.6360339902
 30
0.0
 10
16.4597929214
 20
-15.0887002493
 30
0.0
 10
16.3024794474
 20
-15.62120855
 30
0.0
 10
16.111588503
 20
-15.9801073189
 30
0.0
 10
15.9432355627
 20
-16.2087461367
 30
0.0
 10
15.7474301712
 20
-16.4014207769
 30
0.0
 10
15.5260847523
 20
-16.5558752688
 30
0.0
 10
15.2816335348
 20
-16.6703052064
 30
0.0
 10
15.0168590998
 20
-16.7435247607
 30
0.0
 10
14.7346586783
 20
-16.774976685
 30
0.0
 10
14.3283857147
 20
-16.760808676
 30
0.0
 10
13.788435246
 20
-16.6306831138
 30
0.0
 10
13.1403410812
 20
-16.3220725337
 30
0.0
 10
12.4954924043
 20
-15.8700433804
 30
0.0
 10
11.8770129982
 20
-15.2914180981
 30
0.0
 10
11.3072366177
 20
-14.6076287556
 30
0.0
 10
10.8073717266
 20
-13.8441206666
 30
0.0
 10
10.3960964688
 20
-13.0294936606
 30
0.0
 10
10.0888031626
 20
-12.1941220859
 30
0.0
 10
9.8969771311
 20
-11.3694114948
 30
0.0
 10
9.8488581812
 20
-10.8227453826
 30
0.0
 10
9.8488581819
 20
-10.560037644
 30
0.0
  0
SPLINE
  5
38F
100
AcDbEntity
  8
ASSI
100
AcDbSpline
 62
7
  6
CONTINUOUS
 70
0
 71
3
 72
19
 73
15
 74
0
 42
0.0000001
 43
0.0000001
 44
0.0000000001
 40
0.0
 40
0.0
 40
0.0
 40
0.0
 40
0.1447039351
 40
0.2741470125
 40
0.3338722016
 40
0.3908847618
 40
0.4459518904
 40
0.4999999225
 40
0.5540479177
 40
0.6091147579
 40
0.6661275458
 40
0.7258527823
 40
0.8552990128
 40
1.0
 40
1.0
 40
1.0
 40
1.0
 10
9.8488581819
 20
-7.2941565368
 30
0.0
 10
9.8488581815
 20
-7.0559551943
 30
0.0
 10
9.8847232288
 20
-6.6033138812
 30
0.0
 10
10.0420174335
 20
-6.0708317746
 30
0.0
 10
10.2328852387
 20
-5.7119436427
 30
0.0
 10
10.4012181804
 20
-5.4833074275
 30
0.0
 10
10.5970007078
 20
-5.2906300662
 30
0.0
 10
10.8183210216
 20
-5.1361672486
 30
0.0
 10
11.0627453353
 20
-5.0217230634
 30
0.0
 10
11.3274926728
 20
-4.9484841171
 30
0.0
 10
11.609662933
 20
-4.9170054128
 30
0.0
 10
12.0159088051
 20
-4.9311408106
 30
0.0
 10
12.5557079549
 20
-5.0611235617
 30
0.0
 10
12.9656480222
 20
-5.2563681419
 30
0.0
 10
13.1719388706
 20
-5.3754548904
 30
0.0
  0
SPLINE
  5
390
100
AcDbEntity
  8
ASSI
100
AcDbSpline
 62
7
  6
CONTINUOUS
 70
0
 71
3
 72
27
 73
23
 74
0
 42
0.0000001
 43
0.0000001
 44
0.0000000001
 40
0.0
 40
0.0
 40
0.0
 40
0.0
 40
0.0603444235
 40
0.11432438
 40
0.1392307089
 40
0.1630058308
 40
0.1859697484
 40
0.2085088323
 40
0.2310481134
 40
0.2540125284
 40
0.2777887139
 40
0.3026963074
 40
0.356680582
 40
0.4170269455
 40
0.4835768949
 40
0.5553836863
 40
0.6309668528
 40
0.7085169
 40
0.7860665258
 40
0.8616483558
 40
0.9334511437
 40
1.0
 40
1.0
 40
1.0
 40
1.0
 10
0.5857593484
 20
-5.2116404714
 30
0.0
 10
0.5857593488
 20
-5.4498556403
 30
0.0
 10
0.5498903447
 20
-5.9025218995
 30
0.0
 10
0.3925768707
 20
-6.4350302001
 30
0.0
 10
0.2016859263
 20
-6.793928969
 30
0.0
 10
0.033332986
 20
-7.0225677869
 30
0.0
 10
-0.1624724055
 20
-7.2152424271
 30
0.0
 10
-0.3838178244
 20
-7.3696969189
 30
0.0
 10
-0.6282690419
 20
-7.4841268565
 30
0.0
 10
-0.8930434769
 20
-7.5573464109
 30
0.0
 10
-1.1752438984
 20
-7.5887983352
 30
0.0
 10
-1.581516862
 20
-7.5746303262
 30
0.0
 10
-2.1214673307
 20
-7.444504764
 30
0.0
 10
-2.7695614955
 20
-7.1358941838
 30
0.0
 10
-3.4144101724
 20
-6.6838650305
 30
0.0
 10
-4.0328895785
 20
-6.1052397483
 30
0.0
 10
-4.602665959
 20
-5.4214504058
 30
0.0
 10
-5.1025308501
 20
-4.6579423167
 30
0.0
 10
-5.5138061079
 20
-3.8433153107
 30
0.0
 10
-5.8210994141
 20
-3.007943736
 30
0.0
 10
-6.0129254456
 20
-2.1832331449
 30
0.0
 10
-6.0610443955
 20
-1.6365670328
 30
0.0
 10
-6.0610443948
 20
-1.3738592941
 30
0.0
  0
SPLINE
  5
391
100
AcDbEntity
  8
ASSI
100
AcDbSpline
 62
7
  6
CONTINUOUS
 70
0
 71
3
 72
19
 73
15
 74
0
 42
0.0000001
 43
0.0000001
 44
0.0000000001
 40
0.0
 40
0.0
 40
0.0
 40
0.0
 40
0.0428399605
 40
0.0874488201
 40
0.1352609889
 40
0.1872025456
 40
0.243684755
 40
0.3046810523
 40
0.369820741
 40
0.4384729199
 40
0.582757397
 40
0.7298491847
 40
0.8713793213
 40
1.0
 40
1.0
 40
1.0
 40
1.0
 10
-0.1390316975
 20
-5.8338572188
 30
0.0
 10
-0.2253178167
 20
-5.8836777081
 30
0.0
 10
-0.4155236241
 20
-5.9627385943
 30
0.0
 10
-0.7295045943
 20
-6.0087567306
 30
0.0
 10
-1.0666727825
 20
-5.9839363775
 30
0.0
 10
-1.4195431226
 20
-5.8901794833
 30
0.0
 10
-1.7811883626
 20
-5.7303463593
 30
0.0
 10
-2.1444004119
 20
-5.5081309285
 30
0.0
 10
-2.5018385596
 20
-5.2283124799
 30
0.0
 10
-2.9682792003
 20
-4.7789893764
 30
0.0
 10
-3.4865767197
 20
-4.1152687999
 30
0.0
 10
-3.9679282038
 20
-3.2256752481
 30
0.0
 10
-4.280287475
 20
-2.3020188706
 30
0.0
 10
-4.3639881191
 20
-1.6730023741
 30
0.0
 10
-4.3639881199
 20
-1.3738592941
 30
0.0
  0
SPLINE
  5
392
100
AcDbEntity
  8
ASSI
100
AcDbSpline
 62
7
  6
CONTINUOUS
 70
0
 71
3
 72
19
 73
15
 74
0
 42
0.0000001
 43
0.0000001
 44
0.0000000001
 40
0.0
 40
0.0
 40
0.0
 40
0.0
 40
0.1447039351
 40
0.2741470125
 40
0.3338722016
 40
0.3908847618
 40
0.4459518904
 40
0.4999999225
 40
0.5540479177
 40
0.6091147579
 40
0.6661275458
 40
0.7258527823
 40
0.8552990128
 40
1.0
 40
1.0
 40
1.0
 40
1.0
 10
-6.0610443948
 20
1.8920218131
 30
0.0
 10
-6.0610443952
 20
2.1302231555
 30
0.0
 10
-6.0251793479
 20
2.5828644687
 30
0.0
 10
-5.8678851432
 20
3.1153465753
 30
0.0
 10
-5.677017338
 20
3.4742347072
 30
0.0
 10
-5.5086843963
 20
3.7028709224
 30
0.0
 10
-5.3129018689
 20
3.8955482837
 30
0.0
 10
-5.0915815551
 20
4.0500111012
 30
0.0
 10
-4.8471572414
 20
4.1644552864
 30
0.0
 10
-4.5824099039
 20
4.2376942327
 30
0.0
 10
-4.3002396437
 20
4.2691729371
 30
0.0
 10
-3.8939937716
 20
4.2550375393
 30
0.0
 10
-3.3541946218
 20
4.1250547881
 30
0.0
 10
-2.9442545545
 20
3.9298102079
 30
0.0
 10
-2.7379637061
 20
3.8107234595
 30
0.0
  0
SPLINE
  5
393
100
AcDbEntity
  8
ASSI
100
AcDbSpline
 62
7
  6
CONTINUOUS
 70
0
 71
3
 72
27
 73
23
 74
0
 42
0.0000001
 43
0.0000001
 44
0.0000000001
 40
0.0
 40
0.0
 40
0.0
 40
0.0
 40
0.0603444235
 40
0.11432438
 40
0.1392307089
 40
0.1630058308
 40
0.1859697484
 40
0.2085088323
 40
0.2310481134
 40
0.2540125284
 40
0.2777887139
 40
0.3026963074
 40
0.356680582
 40
0.4170269455
 40
0.4835768949
 40
0.5553836863
 40
0.6309668528
 40
0.7085169
 40
0.7860665258
 40
0.8616483558
 40
0.9334511437
 40
1.0
 40
1.0
 40
1.0
 40
1.0
 10
-15.3241432283
 20
3.9745378785
 30
0.0
 10
-15.3241432279
 20
3.7363227095
 30
0.0
 10
-15.360012232
 20
3.2836564504
 30
0.0
 10
-15.517325706
 20
2.7511481498
 30
0.0
 10
-15.7082166504
 20
2.3922493809
 30
0.0
 10
-15.8765695907
 20
2.163610563
 30
0.0
 10
-16.0723749822
 20
1.9709359228
 30
0.0
 10
-16.2937204011
 20
1.8164814309
 30
0.0
 10
-16.5381716186
 20
1.7020514934
 30
0.0
 10
-16.8029460536
 20
1.628831939
 30
0.0
 10
-17.0851464751
 20
1.5973800147
 30
0.0
 10
-17.4914194387
 20
1.6115480237
 30
0.0
 10
-18.0313699074
 20
1.7416735859
 30
0.0
 10
-18.6794640722
 20
2.050284166
 30
0.0
 10
-19.3243127491
 20
2.5023133193
 30
0.0
 10
-19.9427921552
 20
3.0809386016
 30
0.0
 10
-20.5125685357
 20
3.7647279441
 30
0.0
 10
-21.0124334268
 20
4.5282360332
 30
0.0
 10
-21.4237086846
 20
5.3428630392
 30
0.0
 10
-21.7310019908
 20
6.1782346138
 30
0.0
 10
-21.9228280223
 20
7.002945205
 30
0.0
 10
-21.9709469722
 20
7.5496113171
 30
0.0
 10
-21.9709469715
 20
7.8123190558
 30
0.0
  0
SPLINE
  5
394
100
AcDbEntity
  8
ASSI
100
AcDbSpline
 62
7
  6
CONTINUOUS
 70
0
 71
3
 72
19
 73
15
 74
0
 42
0.0000001
 43
0.0000001
 44
0.0000000001
 40
0.0
 40
0.0
 40
0.0
 40
0.0
 40
0.1447039351
 40
0.2741470125
 40
0.3338722016
 40
0.3908847618
 40
0.4459518904
 40
0.4999999225
 40
0.5540479177
 40
0.6091147579
 40
0.6661275458
 40
0.7258527823
 40
0.8552990128
 40
1.0
 40
1.0
 40
1.0
 40
1.0
 10
-21.9709469715
 20
11.0782001629
 30
0.0
 10
-21.9709469719
 20
11.3164015054
 30
0.0
 10
-21.9350819246
 20
11.7690428186
 30
0.0
 10
-21.7777877199
 20
12.3015249251
 30
0.0
 10
-21.5869199147
 20
12.6604130571
 30
0.0
 10
-21.418586973
 20
12.8890492723
 30
0.0
 10
-21.2228044456
 20
13.0817266336
 30
0.0
 10
-21.0014841318
 20
13.2361894511
 30
0.0
 10
-20.7570598181
 20
13.3506336363
 30
0.0
 10
-20.4923124806
 20
13.4238725826
 30
0.0
 10
-20.2101422204
 20
13.455351287
 30
0.0
 10
-19.8038963483
 20
13.4412158892
 30
0.0
 10
-19.2640971985
 20
13.311233138
 30
0.0
 10
-18.8541571312
 20
13.1159885578
 30
0.0
 10
-18.6478662828
 20
12.9969018094
 30
0.0
  0
SPLINE
  5
395
100
AcDbEntity
  8
ASSI
100
AcDbSpline
 62
7
  6
CONTINUOUS
 70
0
 71
3
 72
27
 73
23
 74
0
 42
0.0000001
 43
0.0000001
 44
0.0000000001
 40
0.0
 40
0.0
 40
0.0
 40
0.0
 40
0.0603444235
 40
0.11432438
 40
0.1392307089
 40
0.1630058308
 40
0.1859697484
 40
0.2085088323
 40
0.2310481134
 40
0.2540125284
 40
0.2777887139
 40
0.3026963074
 40
0.356680582
 40
0.4170269455
 40
0.4835768949
 40
0.5553836863
 40
0.6309668528
 40
0.7085169
 40
0.7860665258
 40
0.8616483558
 40
0.9334511437
 40
1.0
 40
1.0
 40
1.0
 40
1.0
 10
-31.234045805
 20
13.1607162284
 30
0.0
 10
-31.2340458046
 20
12.9225010594
 30
0.0
 10
-31.2699148087
 20
12.4698348003
 30
0.0
 10
-31.4272282827
 20
11.9373264997
 30
0.0
 10
-31.6181192271
 20
11.5784277307
 30
0.0
 10
-31.7864721674
 20
11.3497889129
 30
0.0
 10
-31.9822775589
 20
11.1571142727
 30
0.0
 10
-32.2036229778
 20
11.0026597808
 30
0.0
 10
-32.4480741953
 20
10.8882298433
 30
0.0
 10
-32.7128486303
 20
10.8150102889
 30
0.0
 10
-32.9950490518
 20
10.7835583646
 30
0.0
 10
-33.4013220154
 20
10.7977263736
 30
0.0
 10
-33.9412724841
 20
10.9278519358
 30
0.0
 10
-34.5893666489
 20
11.2364625159
 30
0.0
 10
-35.2342153258
 20
11.6884916692
 30
0.0
 10
-35.8526947319
 20
12.2671169515
 30
0.0
 10
-36.4224711124
 20
12.950906294
 30
0.0
 10
-36.9223360035
 20
13.7144143831
 30
0.0
 10
-37.3336112613
 20
14.529041389
 30
0.0
 10
-37.6409045675
 20
15.3644129637
 30
0.0
 10
-37.832730599
 20
16.1891235549
 30
0.0
 10
-37.8808495489
 20
16.735789667
 30
0.0
 10
-37.8808495482
 20
16.9984974057
 30
0.0
  0
SPLINE
  5
396
100
AcDbEntity
  8
ASSI
100
AcDbSpline
 62
7
  6
CONTINUOUS
 70
0
 71
3
 72
19
 73
15
 74
0
 42
0.0000001
 43
0.0000001
 44
0.0000000001
 40
0.0
 40
0.0
 40
0.0
 40
0.0
 40
0.1447039351
 40
0.2741470125
 40
0.3338722016
 40
0.3908847618
 40
0.4459518904
 40
0.4999999225
 40
0.5540479177
 40
0.6091147579
 40
0.6661275458
 40
0.7258527823
 40
0.8552990128
 40
1.0
 40
1.0
 40
1.0
 40
1.0
 10
-37.8808495482
 20
20.2643785128
 30
0.0
 10
-37.8808495486
 20
20.5025798553
 30
0.0
 10
-37.8449845013
 20
20.9552211684
 30
0.0
 10
-37.6876902966
 20
21.487703275
 30
0.0
 10
-37.4968224914
 20
21.846591407
 30
0.0
 10
-37.3284895497
 20
22.0752276222
 30
0.0
 10
-37.1327070223
 20
22.2679049835
 30
0.0
 10
-36.9113867085
 20
22.422367801
 30
0.0
 10
-36.6669623948
 20
22.5368119862
 30
0.0
 10
-36.4022150573
 20
22.6100509325
 30
0.0
 10
-36.1200447971
 20
22.6415296369
 30
0.0
 10
-35.713798925
 20
22.6273942391
 30
0.0
 10
-35.1739997752
 20
22.4974114879
 30
0.0
 10
-34.7640597079
 20
22.3021669077
 30
0.0
 10
-34.5577688595
 20
22.1830801592
 30
0.0
  0
SPLINE
  5
397
100
AcDbEntity
  8
ASSI
100
AcDbSpline
 62
7
  6
CONTINUOUS
 70
0
 71
3
 72
19
 73
15
 74
0
 42
0.0000001
 43
0.0000001
 44
0.0000000001
 40
0.0
 40
0.0
 40
0.0
 40
0.0
 40
0.0428399605
 40
0.0874488201
 40
0.1352609889
 40
0.1872025456
 40
0.243684755
 40
0.3046810523
 40
0.369820741
 40
0.4384729199
 40
0.582757397
 40
0.7298491847
 40
0.8713793213
 40
1.0
 40
1.0
 40
1.0
 40
1.0
 10
15.7708708792
 20
-15.0200355687
 30
0.0
 10
15.68458476
 20
-15.069856058
 30
0.0
 10
15.4943789526
 20
-15.1489169441
 30
0.0
 10
15.1803979824
 20
-15.1949350804
 30
0.0
 10
14.8432297942
 20
-15.1701147273
 30
0.0
 10
14.4903594541
 20
-15.0763578332
 30
0.0
 10
14.1287142141
 20
-14.9165247092
 30
0.0
 10
13.7655021648
 20
-14.6943092784
 30
0.0
 10
13.4080640171
 20
-14.4144908298
 30
0.0
 10
12.9416233764
 20
-13.9651677263
 30
0.0
 10
12.423325857
 20
-13.3014471498
 30
0.0
 10
11.9419743729
 20
-12.411853598
 30
0.0
 10
11.6296151017
 20
-11.4881972205
 30
0.0
 10
11.5459144576
 20
-10.859180724
 30
0.0
 10
11.5459144568
 20
-10.560037644
 30
0.0
  0
SPLINE
  5
398
100
AcDbEntity
  8
ASSI
100
AcDbSpline
 62
7
  6
CONTINUOUS
 70
0
 71
3
 72
19
 73
15
 74
0
 42
0.0000001
 43
0.0000001
 44
0.0000000001
 40
0.0
 40
0.0
 40
0.0
 40
0.0
 40
0.0428399605
 40
0.0874488201
 40
0.1352609889
 40
0.1872025456
 40
0.243684755
 40
0.3046810523
 40
0.369820741
 40
0.4384729199
 40
0.582757397
 40
0.7298491847
 40
0.8713793213
 40
1.0
 40
1.0
 40
1.0
 40
1.0
 10
31.6807734559
 20
-24.2062139185
 30
0.0
 10
31.5944873367
 20
-24.2560344079
 30
0.0
 10
31.4042815293
 20
-24.335095294
 30
0.0
 10
31.0903005591
 20
-24.3811134303
 30
0.0
 10
30.7531323709
 20
-24.3562930772
 30
0.0
 10
30.4002620308
 20
-24.262536183
 30
0.0
 10
30.0386167908
 20
-24.1027030591
 30
0.0
 10
29.6754047415
 20
-23.8804876282
 30
0.0
 10
29.3179665938
 20
-23.6006691797
 30
0.0
 10
28.8515259531
 20
-23.1513460762
 30
0.0
 10
28.3332284337
 20
-22.4876254996
 30
0.0
 10
27.8518769496
 20
-21.5980319478
 30
0.0
 10
27.5395176784
 20
-20.6743755704
 30
0.0
 10
27.4558170343
 20
-20.0453590738
 30
0.0
 10
27.4558170335
 20
-19.7462159938
 30
0.0
  0
SPLINE
  5
399
100
AcDbEntity
  8
ASSI
100
AcDbSpline
 62
7
  6
CONTINUOUS
 70
0
 71
3
 72
19
 73
15
 74
0
 42
0.0000001
 43
0.0000001
 44
0.0000000001
 40
0.0
 40
0.0
 40
0.0
 40
0.0
 40
0.0428399605
 40
0.0874488201
 40
0.1352609889
 40
0.1872025456
 40
0.243684755
 40
0.3046810523
 40
0.369820741
 40
0.4384729199
 40
0.582757397
 40
0.7298491847
 40
0.8713793213
 40
1.0
 40
1.0
 40
1.0
 40
1.0
 10
-16.0489342742
 20
3.3523211311
 30
0.0
 10
-16.1352203934
 20
3.3025006417
 30
0.0
 10
-16.3254262008
 20
3.2234397556
 30
0.0
 10
-16.639407171
 20
3.1774216193
 30
0.0
 10
-16.9765753592
 20
3.2022419724
 30
0.0
 10
-17.3294456993
 20
3.2959988666
 30
0.0
 10
-17.6910909393
 20
3.4558319905
 30
0.0
 10
-18.0543029886
 20
3.6780474214
 30
0.0
 10
-18.4117411363
 20
3.9578658699
 30
0.0
 10
-18.878181777
 20
4.4071889735
 30
0.0
 10
-19.3964792964
 20
5.07090955
 30
0.0
 10
-19.8778307805
 20
5.9605031018
 30
0.0
 10
-20.1901900517
 20
6.8841594793
 30
0.0
 10
-20.2738906958
 20
7.5131759758
 30
0.0
 10
-20.2738906966
 20
7.8123190558
 30
0.0
  0
SPLINE
  5
39A
100
AcDbEntity
  8
ASSI
100
AcDbSpline
 62
7
  6
CONTINUOUS
 70
0
 71
3
 72
15
 73
11
 74
0
 42
0.0000001
 43
0.0000001
 44
0.0000000001
 40
0.0
 40
0.0
 40
0.0
 40
0.0
 40
0.1141562538
 40
0.2373233739
 40
0.3669744829
 40
0.500000178
 40
0.6330258497
 40
0.7626765554
 40
0.8858475902
 40
1.0
 40
1.0
 40
1.0
 40
1.0
 10
-35.8302398827
 20
17.2026347023
 30
0.0
 10
-35.8302398838
 20
17.0069874197
 30
0.0
 10
-35.7944040618
 20
16.5998690709
 30
0.0
 10
-35.6515295862
 20
15.9856857817
 30
0.0
 10
-35.4226778172
 20
15.363562271
 30
0.0
 10
-35.1163677902
 20
14.7568934469
 30
0.0
 10
-34.7440966864
 20
14.1883117643
 30
0.0
 10
-34.3197248361
 20
13.6790696156
 30
0.0
 10
-33.8592325436
 20
13.2482783721
 30
0.0
 10
-33.5245622314
 20
13.0137042272
 30
0.0
 10
-33.3551269699
 20
12.9158933203
 30
0.0
  0
SPLINE
  5
39B
100
AcDbEntity
  8
ASSI
100
AcDbSpline
 62
7
  6
CONTINUOUS
 70
0
 71
3
 72
12
 73
8
 74
0
 42
0.0000001
 43
0.0000001
 44
0.0000000001
 40
0.0
 40
0.0
 40
0.0
 40
0.0
 40
0.2895876931
 40
0.5486316701
 40
0.7816352906
 40
0.8918372931
 40
1.0
 40
1.0
 40
1.0
 40
1.0
 10
27.4558170335
 20
-16.4803348867
 30
0.0
 10
27.4558170338
 20
-16.3029502498
 30
0.0
 10
27.4826901008
 20
-15.9656859698
 30
0.0
 10
27.619061246
 20
-15.5025721257
 30
0.0
 10
27.8150163987
 20
-15.1830370472
 30
0.0
 10
28.0129156935
 20
-14.988384742
 30
0.0
 10
28.1232311687
 20
-14.9113878015
 30
0.0
 10
28.1806080794
 20
-14.8782591153
 30
0.0
  0
SPLINE
  5
39C
100
AcDbEntity
  8
ASSI
100
AcDbSpline
 62
7
  6
CONTINUOUS
 70
0
 71
3
 72
12
 73
8
 74
0
 42
0.0000001
 43
0.0000001
 44
0.0000000001
 40
0.0
 40
0.0
 40
0.0
 40
0.0
 40
0.2895876931
 40
0.5486316701
 40
0.7816352906
 40
0.8918372931
 40
1.0
 40
1.0
 40
1.0
 40
1.0
 10
-36.1837932733
 20
20.2643785128
 30
0.0
 10
-36.183793273
 20
20.4417631497
 30
0.0
 10
-36.156920206
 20
20.7790274297
 30
0.0
 10
-36.0205490608
 20
21.2421412738
 30
0.0
 10
-35.8245939081
 20
21.5616763523
 30
0.0
 10
-35.6266946133
 20
21.7563286575
 30
0.0
 10
-35.5163791381
 20
21.833325598
 30
0.0
 10
-35.4590022274
 20
21.8664542842
 30
0.0
  0
SPLINE
  5
39D
100
AcDbEntity
  8
ASSI
100
AcDbSpline
 62
7
  6
CONTINUOUS
 70
0
 71
3
 72
15
 73
11
 74
0
 42
0.0000001
 43
0.0000001
 44
0.0000000001
 40
0.0
 40
0.0
 40
0.0
 40
0.0
 40
0.1141562538
 40
0.2373233739
 40
0.3669744829
 40
0.500000178
 40
0.6330258497
 40
0.7626765554
 40
0.8858475902
 40
1.0
 40
1.0
 40
1.0
 40
1.0
 10
27.8093704241
 20
-19.5420786972
 30
0.0
 10
27.809370423
 20
-19.7377259798
 30
0.0
 10
27.8452062449
 20
-20.1448443286
 30
0.0
 10
27.9880807206
 20
-20.7590276178
 30
0.0
 10
28.2169324896
 20
-21.3811511285
 30
0.0
 10
28.5232425166
 20
-21.9878199526
 30
0.0
 10
28.8955136204
 20
-22.5564016352
 30
0.0
 10
29.3198854707
 20
-23.0656437839
 30
0.0
 10
29.7803777632
 20
-23.4964350274
 30
0.0
 10
30.1150480754
 20
-23.7310091723
 30
0.0
 10
30.2844833369
 20
-23.8288200792
 30
0.0
  0
SPLINE
  5
39E
100
AcDbEntity
  8
ASSI
100
AcDbSpline
 62
7
  6
CONTINUOUS
 70
0
 71
3
 72
12
 73
8
 74
0
 42
0.0000001
 43
0.0000001
 44
0.0000000001
 40
0.0
 40
0.0
 40
0.0
 40
0.0
 40
0.2895876931
 40
0.5486316701
 40
0.7816352906
 40
0.8918372931
 40
1.0
 40
1.0
 40
1.0
 40
1.0
 10
11.5459144568
 20
-7.2941565368
 30
0.0
 10
11.5459144571
 20
-7.1167718999
 30
0.0
 10
11.5727875241
 20
-6.7795076199
 30
0.0
 10
11.7091586693
 20
-6.3163937758
 30
0.0
 10
11.905113822
 20
-5.9968586973
 30
0.0
 10
12.1030131168
 20
-5.8022063921
 30
0.0
 10
12.213328592
 20
-5.7252094516
 30
0.0
 10
12.2707055027
 20
-5.6920807654
 30
0.0
  0
SPLINE
  5
39F
100
AcDbEntity
  8
ASSI
100
AcDbSpline
 62
7
  6
CONTINUOUS
 70
0
 71
3
 72
15
 73
11
 74
0
 42
0.0000001
 43
0.0000001
 44
0.0000000001
 40
0.0
 40
0.0
 40
0.0
 40
0.0
 40
0.1141562538
 40
0.2373233739
 40
0.3669744829
 40
0.500000178
 40
0.6330258497
 40
0.7626765554
 40
0.8858475902
 40
1.0
 40
1.0
 40
1.0
 40
1.0
 10
-19.920337306
 20
8.0164563524
 30
0.0
 10
-19.9203373071
 20
7.8208090699
 30
0.0
 10
-19.8845014851
 20
7.413690721
 30
0.0
 10
-19.7416270095
 20
6.7995074318
 30
0.0
 10
-19.5127752405
 20
6.1773839211
 30
0.0
 10
-19.2064652135
 20
5.570715097
 30
0.0
 10
-18.8341941097
 20
5.0021334144
 30
0.0
 10
-18.4098222594
 20
4.4928912657
 30
0.0
 10
-17.9493299669
 20
4.0621000222
 30
0.0
 10
-17.6146596547
 20
3.8275258773
 30
0.0
 10
-17.4452243932
 20
3.7297149704
 30
0.0
  0
SPLINE
  5
3A0
100
AcDbEntity
  8
ASSI
100
AcDbSpline
 62
7
  6
CONTINUOUS
 70
0
 71
3
 72
19
 73
15
 74
0
 42
0.0000001
 43
0.0000001
 44
0.0000000001
 40
0.0
 40
0.0
 40
0.0
 40
0.0
 40
0.0428399605
 40
0.0874488201
 40
0.1352609889
 40
0.1872025456
 40
0.243684755
 40
0.3046810523
 40
0.369820741
 40
0.4384729199
 40
0.582757397
 40
0.7298491847
 40
0.8713793213
 40
1.0
 40
1.0
 40
1.0
 40
1.0
 10
-31.9588368509
 20
12.538499481
 30
0.0
 10
-32.0451229701
 20
12.4886789916
 30
0.0
 10
-32.2353287775
 20
12.4096181055
 30
0.0
 10
-32.5493097477
 20
12.3635999692
 30
0.0
 10
-32.8864779359
 20
12.3884203223
 30
0.0
 10
-33.239348276
 20
12.4821772165
 30
0.0
 10
-33.600993516
 20
12.6420103404
 30
0.0
 10
-33.9642055653
 20
12.8642257713
 30
0.0
 10
-34.321643713
 20
13.1440442198
 30
0.0
 10
-34.7880843537
 20
13.5933673233
 30
0.0
 10
-35.3063818731
 20
14.2570878999
 30
0.0
 10
-35.7877333572
 20
15.1466814517
 30
0.0
 10
-36.1000926284
 20
16.0703378291
 30
0.0
 10
-36.1837932725
 20
16.6993543257
 30
0.0
 10
-36.1837932733
 20
16.9984974057
 30
0.0
  0
SPLINE
  5
3A1
100
AcDbEntity
  8
ASSI
100
AcDbSpline
 62
7
  6
CONTINUOUS
 70
0
 71
3
 72
15
 73
11
 74
0
 42
0.0000001
 43
0.0000001
 44
0.0000000001
 40
0.0
 40
0.0
 40
0.0
 40
0.0
 40
0.1141562538
 40
0.2373233739
 40
0.3669744829
 40
0.500000178
 40
0.6330258497
 40
0.7626765554
 40
0.8858475902
 40
1.0
 40
1.0
 40
1.0
 40
1.0
 10
11.8994678474
 20
-10.3559003473
 30
0.0
 10
11.8994678463
 20
-10.5515476299
 30
0.0
 10
11.9353036683
 20
-10.9586659788
 30
0.0
 10
12.0781781439
 20
-11.5728492679
 30
0.0
 10
12.3070299129
 20
-12.1949727787
 30
0.0
 10
12.6133399399
 20
-12.8016416027
 30
0.0
 10
12.9856110437
 20
-13.3702232854
 30
0.0
 10
13.409982894
 20
-13.879465434
 30
0.0
 10
13.8704751865
 20
-14.3102566775
 30
0.0
 10
14.2051454987
 20
-14.5448308224
 30
0.0
 10
14.3745807602
 20
-14.6426417293
 30
0.0
  0
SPLINE
  5
3A2
100
AcDbEntity
  8
ASSI
100
AcDbSpline
 62
7
  6
CONTINUOUS
 70
0
 71
3
 72
12
 73
8
 74
0
 42
0.0000001
 43
0.0000001
 44
0.0000000001
 40
0.0
 40
0.0
 40
0.0
 40
0.0
 40
0.2895876931
 40
0.5486316701
 40
0.7816352906
 40
0.8918372931
 40
1.0
 40
1.0
 40
1.0
 40
1.0
 10
-4.3639881199
 20
1.8920218131
 30
0.0
 10
-4.3639881196
 20
2.06940645
 30
0.0
 10
-4.3371150526
 20
2.40667073
 30
0.0
 10
-4.2007439074
 20
2.869784574
 30
0.0
 10
-4.0047887547
 20
3.1893196525
 30
0.0
 10
-3.8068894599
 20
3.3839719577
 30
0.0
 10
-3.6965739847
 20
3.4609688982
 30
0.0
 10
-3.639197074
 20
3.4940975845
 30
0.0
  0
SPLINE
  5
3A3
100
AcDbEntity
  8
ASSI
100
AcDbSpline
 62
7
  6
CONTINUOUS
 70
0
 71
3
 72
12
 73
8
 74
0
 42
0.0000001
 43
0.0000001
 44
0.0000000001
 40
0.0
 40
0.0
 40
0.0
 40
0.0
 40
0.2895876931
 40
0.5486316701
 40
0.7816352906
 40
0.8918372931
 40
1.0
 40
1.0
 40
1.0
 40
1.0
 10
-20.2738906966
 20
11.0782001629
 30
0.0
 10
-20.2738906963
 20
11.2555847999
 30
0.0
 10
-20.2470176293
 20
11.5928490798
 30
0.0
 10
-20.1106464841
 20
12.0559629239
 30
0.0
 10
-19.9146913314
 20
12.3754980024
 30
0.0
 10
-19.7167920366
 20
12.5701503076
 30
0.0
 10
-19.6064765614
 20
12.6471472481
 30
0.0
 10
-19.5490996507
 20
12.6802759343
 30
0.0
  0
SPLINE
  5
3A4
100
AcDbEntity
  8
ASSI
100
AcDbSpline
 62
7
  6
CONTINUOUS
 70
0
 71
3
 72
15
 73
11
 74
0
 42
0.0000001
 43
0.0000001
 44
0.0000000001
 40
0.0
 40
0.0
 40
0.0
 40
0.0
 40
0.1141562538
 40
0.2373233739
 40
0.3669744829
 40
0.500000178
 40
0.6330258497
 40
0.7626765554
 40
0.8858475902
 40
1.0
 40
1.0
 40
1.0
 40
1.0
 10
-4.0104347293
 20
-1.1697219974
 30
0.0
 10
-4.0104347304
 20
-1.36536928
 30
0.0
 10
-3.9745989084
 20
-1.7724876289
 30
0.0
 10
-3.8317244328
 20
-2.386670918
 30
0.0
 10
-3.6028726638
 20
-3.0087944288
 30
0.0
 10
-3.2965626368
 20
-3.6154632529
 30
0.0
 10
-2.924291533
 20
-4.1840449355
 30
0.0
 10
-2.4999196827
 20
-4.6932870842
 30
0.0
 10
-2.0394273902
 20
-5.1240783277
 30
0.0
 10
-1.704757078
 20
-5.3586524725
 30
0.0
 10
-1.5353218165
 20
-5.4564633795
 30
0.0
  0
SPLINE
  5
3A5
100
AcDbEntity
  8
CURVE
100
AcDbSpline
 62
250
  6
CONTINUOUS
 70
0
 71
3
 72
9
 73
5
 74
0
 42
0.0000001
 43
0.0000001
 44
0.0000000001
 40
0.0
 40
0.0
 40
0.0
 40
0.0
 40
0.5206208722
 40
1.0
 40
1.0
 40
1.0
 40
1.0
 10
55.8132060822
 20
-56.8205490608
 30
0.0
 10
55.8922398199
 20
-56.7766340717
 30
0.0
 10
56.0648882423
 20
-56.746007799
 30
0.0
 10
56.095680935
 20
-56.9181651076
 30
0.0
 10
56.0973061603
 20
-56.998521905
 30
0.0
  0
SPLINE
  5
3A6
100
AcDbEntity
  8
CURVE
100
AcDbSpline
 62
250
  6
CONTINUOUS
 70
0
 71
3
 72
9
 73
5
 74
0
 42
0.0000001
 43
0.0000001
 44
0.0000000001
 40
0.0
 40
0.0
 40
0.0
 40
0.0
 40
0.5013510385
 40
1.0
 40
1.0
 40
1.0
 40
1.0
 10
55.5846702378
 20
-57.184252789
 30
0.0
 10
55.5911637067
 20
-57.1183172183
 30
0.0
 10
55.6404182635
 20
-56.9655065949
 30
0.0
 10
55.7572106383
 20
-56.8516759922
 30
0.0
 10
55.8132060822
 20
-56.8205490608
 30
0.0
  0
SPLINE
  5
3A7
100
AcDbEntity
  8
CURVE
100
AcDbSpline
 62
250
  6
CONTINUOUS
 70
0
 71
3
 72
9
 73
5
 74
0
 42
0.0000001
 43
0.0000001
 44
0.0000000001
 40
0.0
 40
0.0
 40
0.0
 40
0.0
 40
0.2703953699
 40
1.0
 40
1.0
 40
1.0
 40
1.0
 10
55.5954321237
 20
-57.5122131816
 30
0.0
 10
55.5908872597
 20
-57.4849252956
 30
0.0
 10
55.5759395642
 20
-57.3826610237
 30
0.0
 10
55.5762640618
 20
-57.2696291514
 30
0.0
 10
55.5846702378
 20
-57.184252789
 30
0.0
  0
SPLINE
  5
3A8
100
AcDbEntity
  8
CURVE
100
AcDbSpline
 62
250
  6
CONTINUOUS
 70
0
 71
3
 72
9
 73
5
 74
0
 42
0.0000001
 43
0.0000001
 44
0.0000000001
 40
0.0
 40
0.0
 40
0.0
 40
0.0
 40
0.2957417834
 40
1.0
 40
1.0
 40
1.0
 40
1.0
 10
55.3245890438
 20
-57.0168560249
 30
0.0
 10
55.2928285391
 20
-57.132099711
 30
0.0
 10
55.2410570234
 20
-57.5127397475
 30
0.0
 10
55.2729429907
 20
-57.8501871281
 30
0.0
 10
55.3053410338
 20
-58.0785924647
 30
0.0
  0
SPLINE
  5
3A9
100
AcDbEntity
  8
CURVE
100
AcDbSpline
 62
250
  6
CONTINUOUS
 70
0
 71
3
 72
17
 73
13
 74
0
 42
0.0000001
 43
0.0000001
 44
0.0000000001
 40
0.0
 40
0.0
 40
0.0
 40
0.0
 40
0.0559780952
 40
0.1687540387
 40
0.321006234
 40
0.4122750837
 40
0.516613223
 40
0.6013931059
 40
0.6776022439
 40
0.8103422694
 40
0.9200404832
 40
1.0
 40
1.0
 40
1.0
 40
1.0
 10
56.2479862723
 20
-56.47575298
 30
0.0
 10
56.2452665328
 20
-56.4536862659
 30
0.0
 10
56.2030699435
 20
-56.4165928896
 30
0.0
 10
56.1226314725
 20
-56.3607099266
 30
0.0
 10
55.998808935
 20
-56.3543411925
 30
0.0
 10
55.8696340012
 20
-56.3913553193
 30
0.0
 10
55.7624215027
 20
-56.4460241981
 30
0.0
 10
55.6622858988
 20
-56.5160488505
 30
0.0
 10
55.5558840081
 20
-56.6123816501
 30
0.0
 10
55.4516078356
 20
-56.741858208
 30
0.0
 10
55.3700611294
 20
-56.8893037534
 30
0.0
 10
55.3348907819
 20
-56.9794297396
 30
0.0
 10
55.3245890438
 20
-57.0168560249
 30
0.0
  0
SPLINE
  5
3AA
100
AcDbEntity
  8
CURVE
100
AcDbSpline
 62
250
  6
CONTINUOUS
 70
0
 71
3
 72
9
 73
5
 74
0
 42
0.0000001
 43
0.0000001
 44
0.0000000001
 40
0.0
 40
0.0
 40
0.0
 40
0.0
 40
0.2426586216
 40
1.0
 40
1.0
 40
1.0
 40
1.0
 10
56.6173588731
 20
-56.0313066841
 30
0.0
 10
56.5841375705
 20
-56.0592975805
 30
0.0
 10
56.449981855
 20
-56.1701249913
 30
0.0
 10
56.2985924459
 20
-56.3370683852
 30
0.0
 10
56.2587892864
 20
-56.4699363939
 30
0.0
  0
SPLINE
  5
3AB
100
AcDbEntity
  8
CURVE
100
AcDbSpline
 62
250
  6
CONTINUOUS
 70
0
 71
3
 72
9
 73
5
 74
0
 42
0.0000001
 43
0.0000001
 44
0.0000000001
 40
0.0
 40
0.0
 40
0.0
 40
0.0
 40
0.1980141723
 40
1.0
 40
1.0
 40
1.0
 40
1.0
 10
57.1121725642
 20
-55.6192460354
 30
0.0
 10
57.0795772521
 20
-55.646679188
 30
0.0
 10
56.9145962439
 20
-55.7838820367
 30
0.0
 10
56.7493462309
 20
-55.9200974418
 30
0.0
 10
56.6173588731
 20
-56.0313066841
 30
0.0
  0
SPLINE
  5
3AC
100
AcDbEntity
  8
CURVE
100
AcDbSpline
 62
250
  6
CONTINUOUS
 70
0
 71
3
 72
9
 73
5
 74
0
 42
0.0000001
 43
0.0000001
 44
0.0000000001
 40
0.0
 40
0.0
 40
0.0
 40
0.0
 40
0.5586214172
 40
1.0
 40
1.0
 40
1.0
 40
1.0
 10
56.5578052013
 20
-56.513811422
 30
0.0
 10
56.6587240862
 20
-56.4171480985
 30
0.0
 10
56.8455973742
 20
-56.2608684336
 30
0.0
 10
57.0303091526
 20
-56.0993881568
 30
0.0
 10
57.1121725642
 20
-56.0290358135
 30
0.0
  0
SPLINE
  5
3AD
100
AcDbEntity
  8
CURVE
100
AcDbSpline
 62
250
  6
CONTINUOUS
 70
0
 71
3
 72
9
 73
5
 74
0
 42
0.0000001
 43
0.0000001
 44
0.0000000001
 40
0.0
 40
0.0
 40
0.0
 40
0.0
 40
0.3559141631
 40
1.0
 40
1.0
 40
1.0
 40
1.0
 10
56.3967196481
 20
-56.8382292358
 30
0.0
 10
56.3967196481
 20
-56.8011039369
 30
0.0
 10
56.4168566099
 20
-56.683462214
 30
0.0
 10
56.5014618123
 20
-56.567753863
 30
0.0
 10
56.5578052013
 20
-56.513811422
 30
0.0
  0
ENDSEC
  0
SECTION
  2
OBJECTS
  0
DICTIONARY
  5
C
100
AcDbDictionary
280
0
281
1
  3
ACAD_GROUP
350
D
  3
ACAD_MLINESTYLE
350
17
  3
ACAD_LAYOUT
350
1A
  3
ACAD_PLOTSETTINGS
350
19
  3
ACAD_PLOTSTYLENAME
350
E
  0
DICTIONARY
  5
D
102
{ACAD_REACTORS
330
C
102
}
100
AcDbDictionary
280
0
281
1
  0
ACDBDICTIONARYWDFLT
  5
E
102
{ACAD_REACTORS
330
C
102
}
100
AcDbDictionary
281
1
  3
Normal
350
F
100
AcDbDictionaryWithDefault
340
F
  0
DICTIONARY
  5
17
102
{ACAD_REACTORS
330
C
102
}
100
AcDbDictionary
280
0
281
1
  3
Standard
350
18
  0
DICTIONARY
  5
19
102
{ACAD_REACTORS
330
C
102
}
100
AcDbDictionary
281
1
  0
DICTIONARY
  5
1A
102
{ACAD_REACTORS
330
C
102
}
100
AcDbDictionary
281
1
  3
Model
350
3AE
  3
Layout1
350
3AF
  0
ACDBPLACEHOLDER
  5
F
102
{ACAD_REACTORS
330
E
102
}
  0
MLINESTYLE
  5
18
102
{ACAD_REACTORS
330
17
102
}
100
AcDbMlineStyle
  2
STANDARD
 70
0
  3

 62
256
 51
90.0
 52
90.0
 71
2
 49
0.5
 62
256
  6
BYLAYER
 49
-0.5
 62
256
  6
BYLAYER
  0
LAYOUT
  5
3AE
102
{ACAD_REACTORS
330
1A
102
}
100
AcDbPlotSettings
  1

  2
none_device
  4
ISO_A4_(297.00_x_210.00_MM)
  6

 40
0.0
 41
0.0
 42
0.0
 43
0.0
 44
297.0
 45
210.0
 46
0.0
 47
0.0
 48
0.0
 49
0.0
140
0.0
141
0.0
142
1.0
143
1.0
 70
1024
 72
1
 73
0
 74
0
  7

 75
0
147
1.0
148
0.0
149
0.0
100
AcDbLayout
  1
Model
 70
0
 71
0
 10
0.0
 20
0.0
 11
297.0
 21
210.0
 12
0.0
 22
0.0
 32
0.0
 14
0.0
 24
0.0
 34
0.0
 15
0.0
 25
0.0
 35
0.0
146
0.0
 13
0.0
 23
0.0
 33
0.0
 16
1.0
 26
0.0
 36
0.0
 17
0.0
 27
1.0
 37
0.0
 76
0
330
21E
345
0
346
0
  0
LAYOUT
  5
3AF
102
{ACAD_REACTORS
330
1A
102
}
100
AcDbPlotSettings
  1

  2
none_device
  4
ISO_A4_(297.00_x_210.00_MM)
  6

 40
0.0
 41
0.0
 42
0.0
 43
0.0
 44
297.0
 45
210.0
 46
0.0
 47
0.0
 48
0.0
 49
0.0
140
0.0
141
0.0
142
1.0
143
1.0
 70
0
 72
1
 73
0
 74
0
  7

 75
0
147
1.0
148
0.0
149
0.0
100
AcDbLayout
  1
Layout1
 70
0
 71
1
 10
0.0
 20
0.0
 11
297.0
 21
210.0
 12
0.0
 22
0.0
 32
0.0
 14
0.0
 24
0.0
 34
0.0
 15
0.0
 25
0.0
 35
0.0
146
0.0
 13
0.0
 23
0.0
 33
0.0
 16
1.0
 26
0.0
 36
0.0
 17
0.0
 27
1.0
 37
0.0
 76
0
330
21F
345
0
346
0
  0
ENDSEC
  0
EOF
