  0
SECTION
  2
HEADER
  9
$ACADVER
  1
AC1024
  9
$DWGCODEPAGE
  3
ANSI_1252
  9
$EXTMAX
 10
297.0
 20
210.0
 30
0.0
  9
$EXTMIN
 10
0.0
 20
0.0
 30
0.0
  9
$LIMMIN
 10
0.0
 20
0.0
  9
$LIMMAX
 10
297.0
 20
210.0
  9
$VIEWCTR
 10
148.5
 20
105.0
  9
$VIEWSIZE
 40
210.0
  9
$CLAYER
  8
0
  9
$LTSCALE
 40
16.335
  9
$CELTYPE
  6
BYLAYER
  9
$DIMSCALE
 40
1.0
  9
$DIMASZ
 40
3.0
  9
$DIMEXO
 40
0.5
  9
$DIMDLI
 40
11.286
  9
$DIMEXE
 40
1.5
  9
$DIMCEN
 40
2.673
  9
$DIMLFAC
 40
1.0
  9
$DIMBLK
  1
_FILLED
  9
$DIMALT
 70
0
  9
$DIMALTF
 40
0.0393700787
  9
$DIMTXT
 40
3.0
  9
$DIMTOL
 70
1
  9
$DIMLIM
 70
0
  9
$DIMTFAC
 40
1.0
  9
$DIMTP
 40
0.01
  9
$DIMTM
 40
0.01
  9
$DIMGAP
 40
0.625
  9
$DIMDSEP
 70
44
  9
$AUNITS
 70
0
  9
$PDMODE
 70
3
  9
$PDSIZE
 40
3.0
  9
$HANDSEED
  5
3A4
  9
$TILEMODE
 70
1
  9
$MEASUREMENT
 70
1
  9
$INSUNITS
 70
4
  0
ENDSEC
  0
SECTION
  2
CLASSES
  0
CLASS
  1
ACDBDICTIONARYWDFLT
  2
AcDbDictionaryWithDefault
  3
AutoCAD 2000
 90
0
 91
1
280
0
281
0
  0
CLASS
  1
ACDBPLACEHOLDER
  2
AcDbPlaceHolder
  3
AutoCAD 2000
 90
0
 91
1
280
0
281
0
  0
CLASS
  1
LAYOUT
  2
AcDbLayout
  3
AutoCAD 2000
 90
0
 91
0
280
0
281
0
  0
ENDSEC
  0
SECTION
  2
TABLES
  0
TABLE
  2
VPORT
  5
8
100
AcDbSymbolTable
 70
2
  0
VPORT
  5
1F4
100
AcDbSymbolTableRecord
100
AcDbViewportTableRecord
  2
*ACTIVE
 70
0
 10
0.0
 20
0.0
 11
1.0
 21
1.0
 12
148.5
 22
105.0
 13
0.0
 23
0.0
 14
1.0
 24
1.0
 15
0.0
 25
0.0
 16
0.0
 26
0.0
 36
1.0
 17
0.0
 27
0.0
 37
0.0
 40
210.0
 41
1.4142857143
 42
50.0
 43
0.0
 44
0.0
 50
0.0
 51
0.0
 71
0
 72
100
 73
1
 74
1
 75
0
 76
0
 77
0
 78
0
  0
ENDTAB
  0
TABLE
  2
LTYPE
  5
5
100
AcDbSymbolTable
 70
6
  0
LTYPE
  5
14
100
AcDbSymbolTableRecord
100
AcDbLinetypeTableRecord
  2
BYBLOCK
 70
0
  3

 72
65
 73
0
 40
0.0
  0
LTYPE
  5
15
100
AcDbSymbolTableRecord
100
AcDbLinetypeTableRecord
  2
BYLAYER
 70
0
  3

 72
65
 73
0
 40
0.0
  0
LTYPE
  5
16
100
AcDbSymbolTableRecord
100
AcDbLinetypeTableRecord
  2
CONTINUOUS
 70
64
  3
Solid line
 72
65
 73
0
 40
0.0
  0
LTYPE
  5
1F5
100
AcDbSymbolTableRecord
100
AcDbLinetypeTableRecord
  2
CENTER
 70
64
  3
____ _ ____ _ ____ _ ____ _ ____ _ ____ _ ____
 72
65
 73
4
 40
0.6
 49
0.375
 74
0
 49
-0.075
 74
0
 49
0.075
 74
0
 49
-0.075
 74
0
  0
LTYPE
  5
1F6
100
AcDbSymbolTableRecord
100
AcDbLinetypeTableRecord
  2
HIDDEN
 70
64
  3
- - - - - - - - - - - - - - - - - - - -
 72
65
 73
2
 40
0.2
 49
0.1
 74
0
 49
-0.1
 74
0
  0
LTYPE
  5
1F7
100
AcDbSymbolTableRecord
100
AcDbLinetypeTableRecord
  2
PHANTOM
 70
64
  3
_____ _ _ _____ _ _ _____ _ _ _____
 72
65
 73
6
 40
0.8
 49
0.45
 74
0
 49
-0.05
 74
0
 49
0.1
 74
0
 49
-0.05
 74
0
 49
0.1
 74
0
 49
-0.05
 74
0
  0
LTYPE
  5
1F8
100
AcDbSymbolTableRecord
100
AcDbLinetypeTableRecord
  2
DOT
 70
64
  3
. . . . . . . . . . . . . . . . . . . .
 72
65
 73
2
 40
0.2
 49
0.1
 74
0
 49
-0.1
 74
0
  0
LTYPE
  5
1F9
100
AcDbSymbolTableRecord
100
AcDbLinetypeTableRecord
  2
DASHED
 70
64
  3
- - - - - - - - - - - - - - - - - - - -
 72
65
 73
2
 40
0.2
 49
0.1
 74
0
 49
-0.1
 74
0
  0
ENDTAB
  0
TABLE
  2
LAYER
  5
2
100
AcDbSymbolTable
 70
36
  0
LAYER
  5
10
100
AcDbSymbolTableRecord
100
AcDbLayerTableRecord
  2
0
 70
0
 62
7
  6
CONTINUOUS
370
-3
390
F
  0
LAYER
  5
1FA
100
AcDbSymbolTableRecord
100
AcDbLayerTableRecord
  2
DEFAULT_1
 70
0
 62
7
  6
CENTER
370
-3
390
F
  0
LAYER
  5
1FB
100
AcDbSymbolTableRecord
100
AcDbLayerTableRecord
  2
DEFAULT_2
 70
0
 62
7
  6
HIDDEN
370
-3
390
F
  0
LAYER
  5
1FC
100
AcDbSymbolTableRecord
100
AcDbLayerTableRecord
  2
DEFAULT_3
 70
0
 62
7
  6
PHANTOM
370
-3
390
F
  0
LAYER
  5
1FD
100
AcDbSymbolTableRecord
100
AcDbLayerTableRecord
  2
ASSI
 70
0
 62
7
  6
CONTINUOUS
370
-3
390
F
  0
LAYER
  5
1FE
100
AcDbSymbolTableRecord
100
AcDbLayerTableRecord
  2
COORDINATE
 70
0
 62
7
  6
CONTINUOUS
370
-3
390
F
  0
LAYER
  5
1FF
100
AcDbSymbolTableRecord
100
AcDbLayerTableRecord
  2
COORD_ORIGINE
 70
0
 62
7
  6
CONTINUOUS
370
-3
390
F
  0
LAYER
  5
200
100
AcDbSymbolTableRecord
100
AcDbLayerTableRecord
  2
COPY_PUBLISH
 70
0
 62
7
  6
CONTINUOUS
370
-3
390
F
  0
LAYER
  5
201
100
AcDbSymbolTableRecord
100
AcDbLayerTableRecord
  2
COSMETIC
 70
0
 62
7
  6
CONTINUOUS
370
-3
390
F
  0
LAYER
  5
202
100
AcDbSymbolTableRecord
100
AcDbLayerTableRecord
  2
COSMETICI
 70
0
 62
7
  6
CONTINUOUS
370
-3
390
F
  0
LAYER
  5
203
100
AcDbSymbolTableRecord
100
AcDbLayerTableRecord
  2
CURVE
 70
0
 62
7
  6
CONTINUOUS
370
-3
390
F
  0
LAYER
  5
204
100
AcDbSymbolTableRecord
100
AcDbLayerTableRecord
  2
DRAFT
 70
0
 62
7
  6
CONTINUOUS
370
-3
390
F
  0
LAYER
  5
205
100
AcDbSymbolTableRecord
100
AcDbLayerTableRecord
  2
IMPORT_IGES
 70
0
 62
7
  6
CONTINUOUS
370
-3
390
F
  0
LAYER
  5
206
100
AcDbSymbolTableRecord
100
AcDbLayerTableRecord
  2
INTFCLR_2
 70
0
 62
7
  6
CONTINUOUS
370
-3
390
F
  0
LAYER
  5
207
100
AcDbSymbolTableRecord
100
AcDbLayerTableRecord
  2
INTF_1
 70
0
 62
7
  6
CONTINUOUS
370
-3
390
F
  0
LAYER
  5
208
100
AcDbSymbolTableRecord
100
AcDbLayerTableRecord
  2
INTF_21
 70
0
 62
7
  6
CONTINUOUS
370
-3
390
F
  0
LAYER
  5
209
100
AcDbSymbolTableRecord
100
AcDbLayerTableRecord
  2
INTF_6
 70
0
 62
7
  6
CONTINUOUS
370
-3
390
F
  0
LAYER
  5
20A
100
AcDbSymbolTableRecord
100
AcDbLayerTableRecord
  2
INTF_7
 70
0
 62
7
  6
CONTINUOUS
370
-3
390
F
  0
LAYER
  5
20B
100
AcDbSymbolTableRecord
100
AcDbLayerTableRecord
  2
INTF_CYAN
 70
0
 62
7
  6
CONTINUOUS
370
-3
390
F
  0
LAYER
  5
20C
100
AcDbSymbolTableRecord
100
AcDbLayerTableRecord
  2
LINEA_CHIUSURA
 70
0
 62
7
  6
CONTINUOUS
370
-3
390
F
  0
LAYER
  5
20D
100
AcDbSymbolTableRecord
100
AcDbLayerTableRecord
  2
LIVELLO_1
 70
0
 62
7
  6
CONTINUOUS
370
-3
390
F
  0
LAYER
  5
20E
100
AcDbSymbolTableRecord
100
AcDbLayerTableRecord
  2
NOTE
 70
0
 62
7
  6
CONTINUOUS
370
-3
390
F
  0
LAYER
  5
20F
100
AcDbSymbolTableRecord
100
AcDbLayerTableRecord
  2
PIANI
 70
0
 62
7
  6
CONTINUOUS
370
-3
390
F
  0
LAYER
  5
210
100
AcDbSymbolTableRecord
100
AcDbLayerTableRecord
  2
PIANI_ORIGINE
 70
0
 62
7
  6
CONTINUOUS
370
-3
390
F
  0
LAYER
  5
211
100
AcDbSymbolTableRecord
100
AcDbLayerTableRecord
  2
PIANI_RIFERIMENTO
 70
0
 62
7
  6
CONTINUOUS
370
-3
390
F
  0
LAYER
  5
212
100
AcDbSymbolTableRecord
100
AcDbLayerTableRecord
  2
PUNTI
 70
0
 62
7
  6
CONTINUOUS
370
-3
390
F
  0
LAYER
  5
213
100
AcDbSymbolTableRecord
100
AcDbLayerTableRecord
  2
RACCORDO
 70
0
 62
7
  6
CONTINUOUS
370
-3
390
F
  0
LAYER
  5
214
100
AcDbSymbolTableRecord
100
AcDbLayerTableRecord
  2
RGB__255__255__255__
 70
0
 62
7
  6
CONTINUOUS
370
-3
390
F
  0
LAYER
  5
215
100
AcDbSymbolTableRecord
100
AcDbLayerTableRecord
  2
RGB____0____0____0__
 70
0
 62
7
  6
CONTINUOUS
370
-3
390
F
  0
LAYER
  5
216
100
AcDbSymbolTableRecord
100
AcDbLayerTableRecord
  2
SIMBOLI
 70
0
 62
7
  6
CONTINUOUS
370
-3
390
F
  0
LAYER
  5
217
100
AcDbSymbolTableRecord
100
AcDbLayerTableRecord
  2
SMUSSO
 70
0
 62
7
  6
CONTINUOUS
370
-3
390
F
  0
LAYER
  5
218
100
AcDbSymbolTableRecord
100
AcDbLayerTableRecord
  2
SUPERFICI
 70
0
 62
7
  6
CONTINUOUS
370
-3
390
F
  0
LAYER
  5
219
100
AcDbSymbolTableRecord
100
AcDbLayerTableRecord
  2
TRASH
 70
0
 62
7
  6
CONTINUOUS
370
-3
390
F
  0
LAYER
  5
21A
100
AcDbSymbolTableRecord
100
AcDbLayerTableRecord
  2
WHITE
 70
0
 62
7
  6
CONTINUOUS
370
-3
390
F
  0
LAYER
  5
21B
100
AcDbSymbolTableRecord
100
AcDbLayerTableRecord
  2
XSEC_DATUMS
 70
0
 62
7
  6
CONTINUOUS
370
-3
390
F
  0
ENDTAB
  0
TABLE
  2
STYLE
  5
3
100
AcDbSymbolTable
 70
1
  0
STYLE
  5
11
100
AcDbSymbolTableRecord
100
AcDbTextStyleTableRecord
  2
STANDARD
 70
0
 40
0.0
 41
0.8
 50
0.0
 71
0
 42
0.2
  3
txt
  4

  0
STYLE
  5
21C
100
AcDbSymbolTableRecord
100
AcDbTextStyleTableRecord
  2
TEXTSTYLE_1
 70
0
 40
0.0
 41
0.8
 50
0.0
 71
0
 42
0.2
  3
gdt
  4

  0
ENDTAB
  0
TABLE
  2
VIEW
  5
6
100
AcDbSymbolTable
 70
0
  0
ENDTAB
  0
TABLE
  2
UCS
  5
7
100
AcDbSymbolTable
 70
0
  0
ENDTAB
  0
TABLE
  2
APPID
  5
9
100
AcDbSymbolTable
 70
1
  0
APPID
  5
21D
100
AcDbSymbolTableRecord
100
AcDbRegAppTableRecord
  2
ACAD
 70
0
  0
ENDTAB
  0
TABLE
  2
BLOCK_RECORD
  5
1
100
AcDbSymbolTable
 70
0
  0
BLOCK_RECORD
  5
21E
100
AcDbSymbolTableRecord
100
AcDbBlockTableRecord
  2
*Model_Space
  0
BLOCK_RECORD
  5
21F
100
AcDbSymbolTableRecord
100
AcDbBlockTableRecord
  2
*Paper_Space
  0
BLOCK_RECORD
  5
220
100
AcDbSymbolTableRecord
100
AcDbBlockTableRecord
  2
_FILLED
  0
ENDTAB
  0
TABLE
  2
DIMSTYLE
  5
A
100
AcDbSymbolTable
 70
1
100
AcDbDimStyleTable
 71
0
  0
DIMSTYLE
105
221
100
AcDbSymbolTableRecord
100
AcDbDimStyleTableRecord
  2
STANDARD
 70
0
  3

  4

 40
1.0
 41
3.0
 42
0.5
 43
0.38
 44
1.5
 45
0.0
 46
0.0
 47
0.01
 48
0.01
140
3.0
141
0.09
142
0.0
143
25.4
144
1.0
145
0.0
146
1.0
147
0.625
 71
1
 72
0
 73
0
 74
0
 75
0
 76
0
 77
1
 78
8
 79
2
170
0
171
1
172
0
173
0
174
0
175
0
176
0
177
0
178
0
270
2
179
2
271
2
272
2
273
2
274
2
275
0
280
0
281
0
282
0
283
1
284
8
285
0
286
0
287
3
288
0
340
11
278
44
341
220
342
220
343
220
344
220
  0
ENDTAB
  0
ENDSEC
  0
SECTION
  2
BLOCKS
  0
BLOCK
  5
20
100
AcDbEntity
  8
0
100
AcDbBlockBegin
  2
*Model_Space
 70
0
 10
0.0
 20
0.0
 30
0.0
  3
*Model_Space
  1

  0
ENDBLK
  5
21
100
AcDbEntity
  8
0
100
AcDbBlockEnd
  0
BLOCK
  5
1C
100
AcDbEntity
  8
0
100
AcDbBlockBegin
  2
*Paper_Space
 70
0
 10
0.0
 20
0.0
 30
0.0
  3
*Paper_Space
  1

  0
ENDBLK
  5
1D
100
AcDbEntity
  8
0
100
AcDbBlockEnd
  0
BLOCK
  5
222
100
AcDbEntity
  8
0
100
AcDbBlockBegin
  2
_FILLED
 70
64
 10
0.0
 20
0.0
  3
_FILLED
  1

  0
SOLID
  5
223
100
AcDbEntity
  8
0
  6
BYBLOCK
 62
0
100
AcDbTrace
 10
0.0
 20
0.0
 11
-1.0
 21
0.3166666667
 12
-1.0
 22
-0.3166666667
 13
-1.0
 23
-0.3166666667
  0
ENDBLK
  5
224
100
AcDbEntity
  8
0
  6
BYBLOCK
 62
0
100
AcDbBlockEnd
  0
ENDSEC
  0
SECTION
  2
ENTITIES
  0
LINE
  5
225
100
AcDbEntity
  8
ASSI
100
AcDbLine
 62
7
  6
CONTINUOUS
 10
72.9742855178
 20
152.1703717291
 11
76.762099305
 21
154.6739386205
  0
LINE
  5
226
100
AcDbEntity
  8
ASSI
100
AcDbLine
 62
7
  6
CONTINUOUS
 10
73.6818227871
 20
152.578815923
 11
77.4696365742
 21
155.0823828143
  0
LINE
  5
227
100
AcDbEntity
  8
ASSI
100
AcDbLine
 62
7
  6
CONTINUOUS
 10
73.6610591729
 20
152.565976572
 11
73.6818227871
 21
152.578815923
  0
LINE
  5
228
100
AcDbEntity
  8
ASSI
100
AcDbLine
 62
7
  6
CONTINUOUS
 10
76.762099305
 20
154.6739386205
 11
77.4696365742
 21
155.0823828143
  0
LINE
  5
229
100
AcDbEntity
  8
ASSI
100
AcDbLine
 62
7
  6
CONTINUOUS
 10
73.6610591729
 20
152.565976572
 11
72.9746608253
 21
152.1697353676
  0
LINE
  5
22A
100
AcDbEntity
  8
ASSI
100
AcDbLine
 62
7
  6
CONTINUOUS
 10
73.2783698731
 20
151.1507481336
 11
72.9993939389
 21
150.9897020581
  0
LINE
  5
22B
100
AcDbEntity
  8
ASSI
100
AcDbLine
 62
7
  6
CONTINUOUS
 10
73.2783698731
 20
151.1507481336
 11
73.6610591729
 21
152.565976572
  0
LINE
  5
22C
100
AcDbEntity
  8
ASSI
100
AcDbLine
 62
7
  6
CONTINUOUS
 10
72.9993939389
 20
80.1580684587
 11
72.9746608253
 21
80.6143040362
  0
LINE
  5
22D
100
AcDbEntity
  8
ASSI
100
AcDbLine
 62
7
  6
CONTINUOUS
 10
72.9993939389
 20
150.9897020581
 11
72.9746608253
 21
152.1697353676
  0
LINE
  5
22E
100
AcDbEntity
  8
ASSI
100
AcDbLine
 62
7
  6
CONTINUOUS
 10
72.9746608253
 20
80.6143040362
 11
72.9742855178
 21
80.6384968969
  0
LINE
  5
22F
100
AcDbEntity
  8
ASSI
100
AcDbLine
 62
7
  6
CONTINUOUS
 10
72.9742855178
 20
152.1703717291
 11
72.9742855178
 21
80.6384968969
  0
LINE
  5
230
100
AcDbEntity
  8
ASSI
100
AcDbLine
 62
7
  6
CONTINUOUS
 10
72.9993939389
 20
150.9897020581
 11
72.9993939389
 21
80.1580684587
  0
LINE
  5
231
100
AcDbEntity
  8
ASSI
100
AcDbLine
 62
7
  6
CONTINUOUS
 10
183.9038160804
 20
16.1232450731
 11
185.3207752114
 21
15.7470656173
  0
LINE
  5
232
100
AcDbEntity
  8
ASSI
100
AcDbLine
 62
7
  6
CONTINUOUS
 10
72.9993939389
 20
80.1580684587
 11
73.2783698731
 21
79.6748679672
  0
LWPOLYLINE
  5
233
100
AcDbEntity
  8
CURVE
100
AcDbPolyline
 62
250
  6
CONTINUOUS
 90
73
 70
0
 10
181.4884002495
 20
20.5005026654
 10
181.4920724486
 20
20.4992364345
 10
181.4956340003
 20
20.4985470529
 10
181.4991041291
 20
20.4982996541
 10
181.5025020595
 20
20.4983593717
 10
181.5058470161
 20
20.4985913395
 10
181.5161708883
 20
20.4996532794
 10
181.5261897767
 20
20.5011742773
 10
181.5359344233
 20
20.5032415126
 10
181.5457776721
 20
20.5060284808
 10
181.5553613597
 20
20.5094321626
 10
181.5646877858
 20
20.5133880918
 10
181.5737592497
 20
20.5178318025
 10
181.5845157356
 20
20.5238596035
 10
181.5948841501
 20
20.5305214248
 10
181.6048548816
 20
20.537817208
 10
181.6144183186
 20
20.5457468947
 10
181.6228824
 20
20.5536334858
 10
181.630982077
 20
20.562049559
 10
181.6387087188
 20
20.5709836949
 10
181.6460536942
 20
20.5804244741
 10
181.6530083724
 20
20.5903604772
 10
181.6603720933
 20
20.6021430538
 10
181.6672221886
 20
20.614522194
 10
181.6735522071
 20
20.6274793805
 10
181.6793556977
 20
20.6409960957
 10
181.684626209
 20
20.6550538223
 10
181.6890860824
 20
20.668729899
 10
181.693073641
 20
20.6828434469
 10
181.696592279
 20
20.6973711637
 10
181.6996453908
 20
20.7122897473
 10
181.7022363706
 20
20.7275758956
 10
181.7043686128
 20
20.7432063064
 10
181.7061953896
 20
20.7608276506
 10
181.707484866
 20
20.778813074
 10
181.7082542723
 20
20.7971357806
 10
181.7085185815
 20
20.8171661652
 10
181.7082090994
 20
20.8375287268
 10
181.7073323677
 20
20.8581973057
 10
181.7062129132
 20
20.875077684
 10
181.7047124989
 20
20.8921349761
 10
181.7028150734
 20
20.9093639648
 10
181.7006458476
 20
20.9257848484
 10
181.6981028327
 20
20.9423455171
 10
181.6951805394
 20
20.9590373177
 10
181.6914886219
 20
20.9776982745
 10
181.6873210789
 20
20.9964874845
 10
181.6826759418
 20
21.0153824271
 10
181.6775512418
 20
21.0343605816
 10
181.6719450102
 20
21.0533994275
 10
181.6664153759
 20
21.070785714
 10
181.6604898879
 20
21.088185026
 10
181.6541743455
 20
21.10557868
 10
181.6474745482
 20
21.1229479923
 10
181.6403962952
 20
21.1402742795
 10
181.6318262636
 20
21.1600559978
 10
181.6227792908
 20
21.1797304273
 10
181.6132679738
 20
21.1992713425
 10
181.6033049095
 20
21.2186525181
 10
181.5930705573
 20
21.2375471148
 10
181.5824258895
 20
21.2562392451
 10
181.5713860025
 20
21.27470659
 10
181.5599659925
 20
21.2929268303
 10
181.5481809557
 20
21.3108776471
 10
181.5360459884
 20
21.3285367211
 10
181.5235761869
 20
21.3458817334
 10
181.5142834815
 20
21.3583090738
 10
181.5048202405
 20
21.3705200556
 10
181.4951858056
 20
21.3824770402
 10
181.4853795188
 20
21.3941423886
 10
181.4754007216
 20
21.4054784621
 10
181.465248756
 20
21.4164476219
 10
181.4549229636
 20
21.4270122292
  0
LWPOLYLINE
  5
234
100
AcDbEntity
  8
CURVE
100
AcDbPolyline
 62
250
  6
CONTINUOUS
 90
23
 70
0
 10
180.9662479058
 20
21.4430806455
 10
180.9780576018
 20
21.4385332369
 10
180.9898882256
 20
21.4338593815
 10
181.0017385721
 20
21.4290481501
 10
181.0136074363
 20
21.4240886135
 10
181.0254936134
 20
21.4189698424
 10
181.0373958984
 20
21.4136809075
 10
181.0493130862
 20
21.4082108796
 10
181.061243972
 20
21.4025488294
 10
181.0731873507
 20
21.3966838278
 10
181.0851420174
 20
21.3906049453
 10
181.0971067671
 20
21.3843012528
 10
181.1083490775
 20
21.3781704442
 10
181.1195965528
 20
21.3718379444
 10
181.1308465308
 20
21.3653099029
 10
181.1420963488
 20
21.3585924694
 10
181.1533433446
 20
21.3516917935
 10
181.1645848556
 20
21.3446140247
 10
181.1758182196
 20
21.3373653128
 10
181.187040774
 20
21.3299518074
 10
181.1982498565
 20
21.322379658
 10
181.2094428046
 20
21.3146550142
 10
181.2206169559
 20
21.3067840258
  0
LINE
  5
235
100
AcDbEntity
  8
SMUSSO
100
AcDbLine
 62
7
  6
CONTINUOUS
 10
93.3083979847
 20
102.2147803004
 11
93.3083979847
 21
105.4806614076
  0
LINE
  5
236
100
AcDbEntity
  8
ASSI
100
AcDbLine
 62
7
  6
CONTINUOUS
 10
93.3083979847
 20
102.2147803004
 11
93.3083979847
 21
105.4806614076
  0
LINE
  5
237
100
AcDbEntity
  8
SMUSSO
100
AcDbLine
 62
7
  6
CONTINUOUS
 10
95.0054542596
 20
102.2147803004
 11
95.0054542596
 21
105.4806614076
  0
LINE
  5
238
100
AcDbEntity
  8
ASSI
100
AcDbLine
 62
7
  6
CONTINUOUS
 10
95.0054542596
 20
102.2147803004
 11
95.0054542596
 21
105.4806614076
  0
LINE
  5
239
100
AcDbEntity
  8
SMUSSO
100
AcDbLine
 62
7
  6
CONTINUOUS
 10
95.3590076502
 20
105.6847987042
 11
95.3590076502
 21
102.4189175971
  0
LINE
  5
23A
100
AcDbEntity
  8
ASSI
100
AcDbLine
 62
7
  6
CONTINUOUS
 10
95.3590076502
 20
105.6847987042
 11
95.3590076502
 21
102.4189175971
  0
LWPOLYLINE
  5
23B
100
AcDbEntity
  8
SMUSSO
100
AcDbPolyline
 62
7
  6
CONTINUOUS
 90
36
 70
0
 10
93.3083979847
 20
105.4806614076
 10
93.3119005198
 20
105.653884302
 10
93.322217465
 20
105.8220933687
 10
93.3393488203
 20
105.9852886077
 10
93.3633581302
 20
106.1437874959
 10
93.3941818503
 20
106.2972725564
 10
93.4316293474
 20
106.4447913585
 10
93.4757418653
 20
106.5863066584
 10
93.5264781603
 20
106.7218556999
 10
93.5835238684
 20
106.8505977834
 10
93.6469182208
 20
106.9724904946
 10
93.7166219864
 20
107.0875762477
 10
93.7922031076
 20
107.1951415856
 10
93.8736980136
 20
107.2951396752
 10
93.9610702752
 20
107.3876173496
 10
94.0537785471
 20
107.4720016514
 10
94.1518559228
 20
107.5482423476
 10
94.2552693088
 20
107.6163896712
 10
94.3633780794
 20
107.6760213642
 10
94.4762114418
 20
107.7270846007
 10
94.5937401888
 20
107.7696322066
 10
94.715236073
 20
107.8034004018
 10
94.8407237646
 20
107.8283346601
 10
94.9701785935
 20
107.8444895077
 10
95.1027983014
 20
107.8517647434
 10
95.2386025302
 20
107.8501052088
 10
95.377571638
 20
107.8395660623
 10
95.5188444406
 20
107.8202125769
 10
95.662435231
 20
107.7919900163
 10
95.8083297162
 20
107.754953117
 10
95.9556238332
 20
107.7093313614
 10
96.104326283
 20
107.6550714355
 10
96.2544283646
 20
107.5922266535
 10
96.4049999118
 20
107.5211864408
 10
96.5560438474
 20
107.4418998961
 10
96.6314786757
 20
107.3993352815
  0
LWPOLYLINE
  5
23C
100
AcDbEntity
  8
ASSI
100
AcDbPolyline
 62
7
  6
CONTINUOUS
 90
36
 70
0
 10
93.3083979847
 20
105.4806614076
 10
93.3119005198
 20
105.653884302
 10
93.322217465
 20
105.8220933687
 10
93.3393488203
 20
105.9852886077
 10
93.3633581302
 20
106.1437874959
 10
93.3941818503
 20
106.2972725564
 10
93.4316293474
 20
106.4447913585
 10
93.4757418653
 20
106.5863066584
 10
93.5264781603
 20
106.7218556999
 10
93.5835238684
 20
106.8505977834
 10
93.6469182208
 20
106.9724904946
 10
93.7166219864
 20
107.0875762477
 10
93.7922031076
 20
107.1951415856
 10
93.8736980136
 20
107.2951396752
 10
93.9610702752
 20
107.3876173496
 10
94.0537785471
 20
107.4720016514
 10
94.1518559228
 20
107.5482423476
 10
94.2552693088
 20
107.6163896712
 10
94.3633780794
 20
107.6760213642
 10
94.4762114418
 20
107.7270846007
 10
94.5937401888
 20
107.7696322066
 10
94.715236073
 20
107.8034004018
 10
94.8407237646
 20
107.8283346601
 10
94.9701785935
 20
107.8444895077
 10
95.1027983014
 20
107.8517647434
 10
95.2386025302
 20
107.8501052088
 10
95.377571638
 20
107.8395660623
 10
95.5188444406
 20
107.8202125769
 10
95.662435231
 20
107.7919900163
 10
95.8083297162
 20
107.754953117
 10
95.9556238332
 20
107.7093313614
 10
96.104326283
 20
107.6550714355
 10
96.2544283646
 20
107.5922266535
 10
96.4049999118
 20
107.5211864408
 10
96.5560438474
 20
107.4418998961
 10
96.6314786757
 20
107.3993352815
  0
LWPOLYLINE
  5
23D
100
AcDbEntity
  8
SMUSSO
100
AcDbPolyline
 62
7
  6
CONTINUOUS
 90
18
 70
0
 10
95.0054542596
 20
105.4806614076
 10
95.0082569547
 20
105.6150033798
 10
95.0166588933
 20
105.7458069123
 10
95.0306413462
 20
105.8727755362
 10
95.0501730022
 20
105.9956217706
 10
95.075209886
 20
106.1140667671
 10
95.105695307
 20
106.2278410645
 10
95.1415603308
 20
106.3366866926
 10
95.182723893
 20
106.440357035
 10
95.2290926301
 20
106.5386165628
 10
95.2805615281
 20
106.631242544
 10
95.3370140844
 20
106.7180251362
 10
95.3983222586
 20
106.7987673991
 10
95.4643471152
 20
106.8732863353
 10
95.5349391432
 20
106.94141318
 10
95.6099383735
 20
107.002993531
 10
95.6891749016
 20
107.0578878763
 10
95.7302434332
 20
107.0827404216
  0
LWPOLYLINE
  5
23E
100
AcDbEntity
  8
ASSI
100
AcDbPolyline
 62
7
  6
CONTINUOUS
 90
18
 70
0
 10
95.0054542596
 20
105.4806614076
 10
95.0082569547
 20
105.6150033798
 10
95.0166588933
 20
105.7458069123
 10
95.0306413462
 20
105.8727755362
 10
95.0501730022
 20
105.9956217706
 10
95.075209886
 20
106.1140667671
 10
95.105695307
 20
106.2278410645
 10
95.1415603308
 20
106.3366866926
 10
95.182723893
 20
106.440357035
 10
95.2290926301
 20
106.5386165628
 10
95.2805615281
 20
106.631242544
 10
95.3370140844
 20
106.7180251362
 10
95.3983222586
 20
106.7987673991
 10
95.4643471152
 20
106.8732863353
 10
95.5349391432
 20
106.94141318
 10
95.6099383735
 20
107.002993531
 10
95.6891749016
 20
107.0578878763
 10
95.7302434332
 20
107.0827404216
  0
LINE
  5
23F
100
AcDbEntity
  8
SMUSSO
100
AcDbLine
 62
7
  6
CONTINUOUS
 10
95.3620836048
 20
105.8254528187
 11
95.3590076502
 21
105.6847987042
  0
LINE
  5
240
100
AcDbEntity
  8
ASSI
100
AcDbLine
 62
7
  6
CONTINUOUS
 10
95.3620836048
 20
105.8254528187
 11
95.3590076502
 21
105.6847987042
  0
LINE
  5
241
100
AcDbEntity
  8
SMUSSO
100
AcDbLine
 62
7
  6
CONTINUOUS
 10
95.3713040059
 20
105.9622072757
 11
95.3620836048
 21
105.8254528187
  0
LINE
  5
242
100
AcDbEntity
  8
ASSI
100
AcDbLine
 62
7
  6
CONTINUOUS
 10
95.3713040059
 20
105.9622072757
 11
95.3620836048
 21
105.8254528187
  0
LWPOLYLINE
  5
243
100
AcDbEntity
  8
SMUSSO
100
AcDbPolyline
 62
7
  6
CONTINUOUS
 90
11
 70
0
 10
95.789026339
 20
107.0462494256
 10
95.7220768878
 20
106.9652115832
 10
95.6603777252
 20
106.8774377009
 10
95.604082384
 20
106.7831462229
 10
95.5533307473
 20
106.6825715069
 10
95.5082490195
 20
106.5759637217
 10
95.4689494446
 20
106.46358856
 10
95.4355295765
 20
106.3457254257
 10
95.4080724064
 20
106.2226675393
 10
95.3866462075
 20
106.0947219462
 10
95.3713040059
 20
105.9622072757
  0
LWPOLYLINE
  5
244
100
AcDbEntity
  8
ASSI
100
AcDbPolyline
 62
7
  6
CONTINUOUS
 90
11
 70
0
 10
95.789026339
 20
107.0462494256
 10
95.7220768878
 20
106.9652115832
 10
95.6603777252
 20
106.8774377009
 10
95.604082384
 20
106.7831462229
 10
95.5533307473
 20
106.6825715069
 10
95.5082490195
 20
106.5759637217
 10
95.4689494446
 20
106.46358856
 10
95.4355295765
 20
106.3457254257
 10
95.4080724064
 20
106.2226675393
 10
95.3866462075
 20
106.0947219462
 10
95.3713040059
 20
105.9622072757
  0
LWPOLYLINE
  5
245
100
AcDbEntity
  8
SMUSSO
100
AcDbPolyline
 62
7
  6
CONTINUOUS
 90
3
 70
0
 10
95.9163057073
 20
107.1684444217
 10
95.861059514
 20
107.1203496638
 10
95.789026339
 20
107.0462494256
  0
LWPOLYLINE
  5
246
100
AcDbEntity
  8
ASSI
100
AcDbPolyline
 62
7
  6
CONTINUOUS
 90
3
 70
0
 10
95.9163057073
 20
107.1684444217
 10
95.861059514
 20
107.1203496638
 10
95.789026339
 20
107.0462494256
  0
LINE
  5
247
100
AcDbEntity
  8
SMUSSO
100
AcDbLine
 62
250
  6
CONTINUOUS
 10
95.3590076502
 20
105.6847987042
 11
95.0054542596
 21
105.4806614076
  0
LINE
  5
248
100
AcDbEntity
  8
ASSI
100
AcDbLine
 62
250
  6
CONTINUOUS
 10
95.3590076502
 20
105.6847987042
 11
95.0054542596
 21
105.4806614076
  0
LWPOLYLINE
  5
249
100
AcDbEntity
  8
SMUSSO
100
AcDbPolyline
 62
7
  6
CONTINUOUS
 90
15
 70
0
 10
95.7302434332
 20
107.0827404216
 10
95.7724692236
 20
107.1059718513
 10
95.8596325745
 20
107.1471364904
 10
95.9504675264
 20
107.1812885626
 10
96.0447682519
 20
107.208350689
 10
96.1423208991
 20
107.2282615383
 10
96.2429044506
 20
107.2409760624
 10
96.3462910113
 20
107.246465514
 10
96.4522460922
 20
107.2447175282
 10
96.5605296053
 20
107.2357361774
 10
96.6708962354
 20
107.2195419175
 10
96.7830957329
 20
107.1961715915
 10
96.8968738904
 20
107.1656782889
 10
97.0119729437
 20
107.1281312301
 10
97.0863753938
 20
107.0996180284
  0
LWPOLYLINE
  5
24A
100
AcDbEntity
  8
ASSI
100
AcDbPolyline
 62
7
  6
CONTINUOUS
 90
15
 70
0
 10
95.7302434332
 20
107.0827404216
 10
95.7724692236
 20
107.1059718513
 10
95.8596325745
 20
107.1471364904
 10
95.9504675264
 20
107.1812885626
 10
96.0447682519
 20
107.208350689
 10
96.1423208991
 20
107.2282615383
 10
96.2429044506
 20
107.2409760624
 10
96.3462910113
 20
107.246465514
 10
96.4522460922
 20
107.2447175282
 10
96.5605296053
 20
107.2357361774
 10
96.6708962354
 20
107.2195419175
 10
96.7830957329
 20
107.1961715915
 10
96.8968738904
 20
107.1656782889
 10
97.0119729437
 20
107.1281312301
 10
97.0863753938
 20
107.0996180284
  0
LINE
  5
24B
100
AcDbEntity
  8
ASSI
100
AcDbLine
 62
7
  6
CONTINUOUS
 10
73.2783698731
 20
79.6748679672
 11
73.6610591729
 21
79.4254272251
  0
LWPOLYLINE
  5
24C
100
AcDbEntity
  8
SMUSSO
100
AcDbPolyline
 62
7
  6
CONTINUOUS
 90
32
 70
0
 10
95.3630458344
 20
102.4191590807
 10
95.3709020002
 20
102.2877851948
 10
95.3856354584
 20
102.1369467791
 10
95.4062861629
 20
101.9833444306
 10
95.4327943895
 20
101.8273305515
 10
95.4649809659
 20
101.6699623484
 10
95.5028845547
 20
101.5112306525
 10
95.5464664933
 20
101.3511446325
 10
95.5954316208
 20
101.1907890011
 10
95.649816545
 20
101.030161998
 10
95.709584658
 20
100.8692653835
 10
95.7743309761
 20
100.7091891512
 10
95.8440891412
 20
100.5499392332
 10
95.9188255114
 20
100.3915096973
 10
95.9980341761
 20
100.2349727402
 10
96.0817454316
 20
100.0803411927
 10
96.1699289817
 20
99.9276022239
 10
96.2619880269
 20
99.777789538
 10
96.3579489609
 20
99.6309228076
 10
96.4577853901
 20
99.4869823601
 10
96.5608213342
 20
99.3469428815
 10
96.6670785323
 20
99.2108308385
 10
96.7765352453
 20
99.0786197645
 10
96.8884502761
 20
98.9512049462
 10
97.0028402565
 20
98.8286189987
 10
97.1196885548
 20
98.710829307
 10
97.2382040786
 20
98.5986333118
 10
97.3583981306
 20
98.4920689708
 10
97.4802594081
 20
98.3910983264
 10
97.6029629112
 20
98.2964049475
 10
97.7265143805
 20
98.2080314075
 10
97.8363465514
 20
98.1355453217
  0
LWPOLYLINE
  5
24D
100
AcDbEntity
  8
ASSI
100
AcDbPolyline
 62
7
  6
CONTINUOUS
 90
32
 70
0
 10
95.3630458344
 20
102.4191590807
 10
95.3709020002
 20
102.2877851948
 10
95.3856354584
 20
102.1369467791
 10
95.4062861629
 20
101.9833444306
 10
95.4327943895
 20
101.8273305515
 10
95.4649809659
 20
101.6699623484
 10
95.5028845547
 20
101.5112306525
 10
95.5464664933
 20
101.3511446325
 10
95.5954316208
 20
101.1907890011
 10
95.649816545
 20
101.030161998
 10
95.709584658
 20
100.8692653835
 10
95.7743309761
 20
100.7091891512
 10
95.8440891412
 20
100.5499392332
 10
95.9188255114
 20
100.3915096973
 10
95.9980341761
 20
100.2349727402
 10
96.0817454316
 20
100.0803411927
 10
96.1699289817
 20
99.9276022239
 10
96.2619880269
 20
99.777789538
 10
96.3579489609
 20
99.6309228076
 10
96.4577853901
 20
99.4869823601
 10
96.5608213342
 20
99.3469428815
 10
96.6670785323
 20
99.2108308385
 10
96.7765352453
 20
99.0786197645
 10
96.8884502761
 20
98.9512049462
 10
97.0028402565
 20
98.8286189987
 10
97.1196885548
 20
98.710829307
 10
97.2382040786
 20
98.5986333118
 10
97.3583981306
 20
98.4920689708
 10
97.4802594081
 20
98.3910983264
 10
97.6029629112
 20
98.2964049475
 10
97.7265143805
 20
98.2080314075
 10
97.8363465514
 20
98.1355453217
  0
LWPOLYLINE
  5
24E
100
AcDbEntity
  8
SMUSSO
100
AcDbPolyline
 62
7
  6
CONTINUOUS
 90
33
 70
0
 10
95.3590076502
 20
102.4189175971
 10
95.3620835892
 20
102.2747118187
 10
95.3713039476
 20
102.1273102096
 10
95.3866460858
 20
101.9770790444
 10
95.4080722071
 20
101.8243912647
 10
95.4355292921
 20
101.6696267273
 10
95.4689490748
 20
101.5131713105
 10
95.5082485736
 20
101.3554140592
 10
95.5533302394
 20
101.1967470372
 10
95.6040818271
 20
101.0375655758
 10
95.6603771379
 20
100.8782655761
 10
95.722076291
 20
100.7192429354
 10
95.7890257391
 20
100.560893435
 10
95.8610589127
 20
100.4036109932
 10
95.9379968123
 20
100.2477864013
 10
96.0196483022
 20
100.093806782
 10
96.1058104202
 20
99.942054928
 10
96.1962689494
 20
99.7929081667
 10
96.2907991175
 20
99.6467371514
 10
96.3891660033
 20
99.5039052139
 10
96.4911250057
 20
99.3647675954
 10
96.5964225484
 20
99.2296703849
 10
96.704796843
 20
99.0989494908
 10
96.8159784636
 20
98.972929926
 10
96.929690902
 20
98.8519251231
 10
97.0456514162
 20
98.7362359653
 10
97.1635717301
 20
98.6261500638
 10
97.2831586548
 20
98.5219411388
 10
97.4041148737
 20
98.4238682845
 10
97.5261396553
 20
98.3321753472
 10
97.6489295894
 20
98.2470903254
 10
97.7721793983
 20
98.168824761
 10
97.8341205633
 20
98.132172466
  0
LWPOLYLINE
  5
24F
100
AcDbEntity
  8
ASSI
100
AcDbPolyline
 62
7
  6
CONTINUOUS
 90
33
 70
0
 10
95.3590076502
 20
102.4189175971
 10
95.3620835892
 20
102.2747118187
 10
95.3713039476
 20
102.1273102096
 10
95.3866460858
 20
101.9770790444
 10
95.4080722071
 20
101.8243912647
 10
95.4355292921
 20
101.6696267273
 10
95.4689490748
 20
101.5131713105
 10
95.5082485736
 20
101.3554140592
 10
95.5533302394
 20
101.1967470372
 10
95.6040818271
 20
101.0375655758
 10
95.6603771379
 20
100.8782655761
 10
95.722076291
 20
100.7192429354
 10
95.7890257391
 20
100.560893435
 10
95.8610589127
 20
100.4036109932
 10
95.9379968123
 20
100.2477864013
 10
96.0196483022
 20
100.093806782
 10
96.1058104202
 20
99.942054928
 10
96.1962689494
 20
99.7929081667
 10
96.2907991175
 20
99.6467371514
 10
96.3891660033
 20
99.5039052139
 10
96.4911250057
 20
99.3647675954
 10
96.5964225484
 20
99.2296703849
 10
96.704796843
 20
99.0989494908
 10
96.8159784636
 20
98.972929926
 10
96.929690902
 20
98.8519251231
 10
97.0456514162
 20
98.7362359653
 10
97.1635717301
 20
98.6261500638
 10
97.2831586548
 20
98.5219411388
 10
97.4041148737
 20
98.4238682845
 10
97.5261396553
 20
98.3321753472
 10
97.6489295894
 20
98.2470903254
 10
97.7721793983
 20
98.168824761
 10
97.8341205633
 20
98.132172466
  0
LINE
  5
250
100
AcDbEntity
  8
SMUSSO
100
AcDbLine
 62
7
  6
CONTINUOUS
 10
99.9552017279
 20
101.6428802303
 11
99.9552017279
 21
98.3769991231
  0
LINE
  5
251
100
AcDbEntity
  8
ASSI
100
AcDbLine
 62
7
  6
CONTINUOUS
 10
99.9552017279
 20
101.6428802303
 11
99.9552017279
 21
98.3769991231
  0
LWPOLYLINE
  5
252
100
AcDbEntity
  8
SMUSSO
100
AcDbPolyline
 62
7
  6
CONTINUOUS
 90
70
 70
0
 10
99.9552017279
 20
98.3769991231
 10
99.9516991928
 20
98.2037762287
 10
99.9413822476
 20
98.0355671619
 10
99.9242508922
 20
97.8723719229
 10
99.9002415824
 20
97.7138730347
 10
99.8694178623
 20
97.5603879743
 10
99.8319703651
 20
97.4128691722
 10
99.7878578473
 20
97.2713538723
 10
99.7371215523
 20
97.1358048307
 10
99.6800758442
 20
97.0070627473
 10
99.6166814918
 20
96.8851700361
 10
99.5469777262
 20
96.770084283
 10
99.471396605
 20
96.662518945
 10
99.389901699
 20
96.5625208555
 10
99.3025294374
 20
96.4700431811
 10
99.2098211655
 20
96.3856588792
 10
99.1117437898
 20
96.3094181831
 10
99.0083304038
 20
96.2412708595
 10
98.9002216332
 20
96.1816391665
 10
98.7873882708
 20
96.13057593
 10
98.6698595238
 20
96.0880283241
 10
98.5483636396
 20
96.0542601288
 10
98.422875948
 20
96.0293258705
 10
98.2934211191
 20
96.0131710229
 10
98.1608014112
 20
96.0058957873
 10
98.0249971824
 20
96.0075553219
 10
97.8860280746
 20
96.0180944684
 10
97.744755272
 20
96.0374479537
 10
97.6011644816
 20
96.0656705143
 10
97.4552699964
 20
96.1027074137
 10
97.3079758794
 20
96.1483291692
 10
97.1592734296
 20
96.2025890951
 10
97.009171348
 20
96.2654338771
 10
96.8585998008
 20
96.3364740898
 10
96.7075558652
 20
96.4157606346
 10
96.5560424639
 20
96.50324261
 10
96.404998532
 20
96.5983778864
 10
96.2544269938
 20
96.7012139885
 10
96.1043249249
 20
96.8117033916
 10
95.9556224872
 20
96.9291613919
 10
95.8083283796
 20
97.0536312573
 10
95.6624339031
 20
97.1850697199
 10
95.5188431224
 20
97.3226622726
 10
95.3775703292
 20
97.4664471488
 10
95.2386012319
 20
97.616386115
 10
95.1027970202
 20
97.7715499634
 10
94.9701773374
 20
97.93197117
 10
94.8407225403
 20
98.0976172587
 10
94.7152348896
 20
98.2674615932
 10
94.5937390629
 20
98.4415301982
 10
94.4762103826
 20
98.6197970489
 10
94.3633770767
 20
98.8011574347
 10
94.2552683451
 20
98.9856304612
 10
94.151854988
 20
99.1731970228
 10
94.0537776332
 20
99.3626950914
 10
93.9610693675
 20
99.5541367038
 10
93.8736971043
 20
99.7475098233
 10
93.7922022116
 20
99.9416163119
 10
93.7166211256
 20
100.1364609321
 10
93.6469174102
 20
100.3320389214
 10
93.5835231255
 20
100.5271378541
 10
93.5264775097
 20
100.7217548267
 10
93.4757413247
 20
100.9158927427
 10
93.4316289161
 20
101.1083478875
 10
93.3941815279
 20
101.2991098685
 10
93.3633579162
 20
101.4881890782
 10
93.3393486946
 20
101.6744129799
 10
93.3222174011
 20
101.8573907281
 10
93.3119004978
 20
102.0375131682
 10
93.3083979847
 20
102.2147803004
  0
LWPOLYLINE
  5
253
100
AcDbEntity
  8
ASSI
100
AcDbPolyline
 62
7
  6
CONTINUOUS
 90
70
 70
0
 10
99.9552017279
 20
98.3769991231
 10
99.9516991928
 20
98.2037762287
 10
99.9413822476
 20
98.0355671619
 10
99.9242508922
 20
97.8723719229
 10
99.9002415824
 20
97.7138730347
 10
99.8694178623
 20
97.5603879743
 10
99.8319703651
 20
97.4128691722
 10
99.7878578473
 20
97.2713538723
 10
99.7371215523
 20
97.1358048307
 10
99.6800758442
 20
97.0070627473
 10
99.6166814918
 20
96.8851700361
 10
99.5469777262
 20
96.770084283
 10
99.471396605
 20
96.662518945
 10
99.389901699
 20
96.5625208555
 10
99.3025294374
 20
96.4700431811
 10
99.2098211655
 20
96.3856588792
 10
99.1117437898
 20
96.3094181831
 10
99.0083304038
 20
96.2412708595
 10
98.9002216332
 20
96.1816391665
 10
98.7873882708
 20
96.13057593
 10
98.6698595238
 20
96.0880283241
 10
98.5483636396
 20
96.0542601288
 10
98.422875948
 20
96.0293258705
 10
98.2934211191
 20
96.0131710229
 10
98.1608014112
 20
96.0058957873
 10
98.0249971824
 20
96.0075553219
 10
97.8860280746
 20
96.0180944684
 10
97.744755272
 20
96.0374479537
 10
97.6011644816
 20
96.0656705143
 10
97.4552699964
 20
96.1027074137
 10
97.3079758794
 20
96.1483291692
 10
97.1592734296
 20
96.2025890951
 10
97.009171348
 20
96.2654338771
 10
96.8585998008
 20
96.3364740898
 10
96.7075558652
 20
96.4157606346
 10
96.5560424639
 20
96.50324261
 10
96.404998532
 20
96.5983778864
 10
96.2544269938
 20
96.7012139885
 10
96.1043249249
 20
96.8117033916
 10
95.9556224872
 20
96.9291613919
 10
95.8083283796
 20
97.0536312573
 10
95.6624339031
 20
97.1850697199
 10
95.5188431224
 20
97.3226622726
 10
95.3775703292
 20
97.4664471488
 10
95.2386012319
 20
97.616386115
 10
95.1027970202
 20
97.7715499634
 10
94.9701773374
 20
97.93197117
 10
94.8407225403
 20
98.0976172587
 10
94.7152348896
 20
98.2674615932
 10
94.5937390629
 20
98.4415301982
 10
94.4762103826
 20
98.6197970489
 10
94.3633770767
 20
98.8011574347
 10
94.2552683451
 20
98.9856304612
 10
94.151854988
 20
99.1731970228
 10
94.0537776332
 20
99.3626950914
 10
93.9610693675
 20
99.5541367038
 10
93.8736971043
 20
99.7475098233
 10
93.7922022116
 20
99.9416163119
 10
93.7166211256
 20
100.1364609321
 10
93.6469174102
 20
100.3320389214
 10
93.5835231255
 20
100.5271378541
 10
93.5264775097
 20
100.7217548267
 10
93.4757413247
 20
100.9158927427
 10
93.4316289161
 20
101.1083478875
 10
93.3941815279
 20
101.2991098685
 10
93.3633579162
 20
101.4881890782
 10
93.3393486946
 20
101.6744129799
 10
93.3222174011
 20
101.8573907281
 10
93.3119004978
 20
102.0375131682
 10
93.3083979847
 20
102.2147803004
  0
LWPOLYLINE
  5
254
100
AcDbEntity
  8
SMUSSO
100
AcDbPolyline
 62
7
  6
CONTINUOUS
 90
18
 70
0
 10
99.9552017279
 20
99.3568581471
 10
99.9523990327
 20
99.2225161748
 10
99.9439970941
 20
99.0917126423
 10
99.9300146413
 20
98.9647440185
 10
99.9104829853
 20
98.8418977841
 10
99.8854461014
 20
98.7234527876
 10
99.8549606805
 20
98.6096784902
 10
99.8190956567
 20
98.5008328621
 10
99.7779320945
 20
98.3971625196
 10
99.7315633574
 20
98.2989029918
 10
99.6800944593
 20
98.2062770107
 10
99.623641903
 20
98.1194944184
 10
99.5623337288
 20
98.0387521555
 10
99.4963088722
 20
97.9642332193
 10
99.4257168443
 20
97.8961063747
 10
99.350717614
 20
97.8345260237
 10
99.2714810859
 20
97.7796316783
 10
99.2304125542
 20
97.7547791331
  0
LWPOLYLINE
  5
255
100
AcDbEntity
  8
ASSI
100
AcDbPolyline
 62
7
  6
CONTINUOUS
 90
18
 70
0
 10
99.9552017279
 20
99.3568581471
 10
99.9523990327
 20
99.2225161748
 10
99.9439970941
 20
99.0917126423
 10
99.9300146413
 20
98.9647440185
 10
99.9104829853
 20
98.8418977841
 10
99.8854461014
 20
98.7234527876
 10
99.8549606805
 20
98.6096784902
 10
99.8190956567
 20
98.5008328621
 10
99.7779320945
 20
98.3971625196
 10
99.7315633574
 20
98.2989029918
 10
99.6800944593
 20
98.2062770107
 10
99.623641903
 20
98.1194944184
 10
99.5623337288
 20
98.0387521555
 10
99.4963088722
 20
97.9642332193
 10
99.4257168443
 20
97.8961063747
 10
99.350717614
 20
97.8345260237
 10
99.2714810859
 20
97.7796316783
 10
99.2304125542
 20
97.7547791331
  0
LINE
  5
256
100
AcDbEntity
  8
SMUSSO
100
AcDbLine
 62
250
  6
CONTINUOUS
 10
95.3590076502
 20
102.4189175971
 11
95.0054542596
 21
102.2147803004
  0
LINE
  5
257
100
AcDbEntity
  8
ASSI
100
AcDbLine
 62
250
  6
CONTINUOUS
 10
95.3590076502
 20
102.4189175971
 11
95.0054542596
 21
102.2147803004
  0
LINE
  5
258
100
AcDbEntity
  8
ASSI
100
AcDbLine
 62
7
  6
CONTINUOUS
 10
73.6818227871
 20
79.4130063995
 11
184.634739294
 21
15.3501829751
  0
LINE
  5
259
100
AcDbEntity
  8
ASSI
100
AcDbLine
 62
7
  6
CONTINUOUS
 10
73.2783698731
 20
79.6748679672
 11
183.6248401463
 21
15.9621989975
  0
LINE
  5
25A
100
AcDbEntity
  8
CURVE
100
AcDbLine
 62
250
  6
CONTINUOUS
 10
180.6536260452
 20
20.1334816834
 11
180.9770142942
 21
19.9467613614
  0
LINE
  5
25B
100
AcDbEntity
  8
CURVE
100
AcDbLine
 62
250
  6
CONTINUOUS
 10
181.4742394742
 20
19.6596697742
 11
181.7865580562
 21
19.4793409392
  0
LINE
  5
25C
100
AcDbEntity
  8
CURVE
100
AcDbLine
 62
250
  6
CONTINUOUS
 10
180.5582797957
 20
20.1885337531
 11
180.2160653156
 21
20.3861241049
  0
LINE
  5
25D
100
AcDbEntity
  8
CURVE
100
AcDbLine
 62
250
  6
CONTINUOUS
 10
179.6001761453
 20
20.741730793
 11
179.2790042193
 21
20.9271714378
  0
LINE
  5
25E
100
AcDbEntity
  8
CURVE
100
AcDbLine
 62
250
  6
CONTINUOUS
 10
179.2280186576
 20
20.9566098622
 11
178.9103809857
 21
21.1400098729
  0
LINE
  5
25F
100
AcDbEntity
  8
CURVE
100
AcDbLine
 62
250
  6
CONTINUOUS
 10
178.4576090186
 20
21.4014347322
 11
178.4120711419
 21
21.4277277315
  0
LINE
  5
260
100
AcDbEntity
  8
CURVE
100
AcDbLine
 62
250
  6
CONTINUOUS
 10
177.9610955626
 20
21.6881153789
 11
177.6504686185
 21
21.8674674834
  0
LINE
  5
261
100
AcDbEntity
  8
CURVE
100
AcDbLine
 62
250
  6
CONTINUOUS
 10
176.5304841243
 20
22.5141324936
 11
176.2443465767
 21
22.6793447275
  0
LINE
  5
262
100
AcDbEntity
  8
CURVE
100
AcDbLine
 62
250
  6
CONTINUOUS
 10
177.1509801961
 20
22.1558658384
 11
177.4756752647
 21
21.9683909752
  0
LINE
  5
263
100
AcDbEntity
  8
CURVE
100
AcDbLine
 62
250
  6
CONTINUOUS
 10
180.1319521394
 20
20.793251769
 11
179.6897718232
 21
21.0485611417
  0
LINE
  5
264
100
AcDbEntity
  8
CURVE
100
AcDbLine
 62
250
  6
CONTINUOUS
 10
179.7561900234
 20
21.2876661886
 11
180.0670621652
 21
21.1081725101
  0
LINE
  5
265
100
AcDbEntity
  8
CURVE
100
AcDbLine
 62
250
  6
CONTINUOUS
 10
180.9770142942
 20
20.6496492393
 11
181.1511078455
 21
20.5491298047
  0
LINE
  5
266
100
AcDbEntity
  8
CURVE
100
AcDbLine
 62
250
  6
CONTINUOUS
 10
181.1518077191
 20
20.8428807883
 11
180.9662479058
 21
20.9500206989
  0
LINE
  5
267
100
AcDbEntity
  8
CURVE
100
AcDbLine
 62
250
  6
CONTINUOUS
 10
175.7512214415
 20
24.7601521306
 11
176.1039401607
 21
24.5564967627
  0
LINE
  5
268
100
AcDbEntity
  8
CURVE
100
AcDbLine
 62
250
  6
CONTINUOUS
 10
176.7060123305
 20
24.2088678377
 11
177.0304859063
 21
24.0215208616
  0
LINE
  5
269
100
AcDbEntity
  8
CURVE
100
AcDbLine
 62
250
  6
CONTINUOUS
 10
177.7909217035
 20
23.5824547628
 11
178.1153478695
 21
23.3951351606
  0
LINE
  5
26A
100
AcDbEntity
  8
CURVE
100
AcDbLine
 62
250
  6
CONTINUOUS
 10
178.7613082022
 20
23.0221657602
 11
179.0825616138
 21
22.8366780666
  0
LINE
  5
26B
100
AcDbEntity
  8
CURVE
100
AcDbLine
 62
250
  6
CONTINUOUS
 10
179.7669098291
 20
22.441543984
 11
180.0810125059
 21
22.260185035
  0
LINE
  5
26C
100
AcDbEntity
  8
CURVE
100
AcDbLine
 62
250
  6
CONTINUOUS
 10
177.4756752647
 20
23.7645818796
 11
177.1509801961
 21
23.9520567429
  0
LWPOLYLINE
  5
26D
100
AcDbEntity
  8
CURVE
100
AcDbPolyline
 62
250
  6
CONTINUOUS
 90
46
 70
0
 10
181.1511078455
 20
20.5491298047
 10
181.1564192909
 20
20.5459766514
 10
181.1617391527
 20
20.5426458671
 10
181.1670615457
 20
20.5391408667
 10
181.1723805847
 20
20.5354650652
 10
181.1776903842
 20
20.5316218775
 10
181.1829850592
 20
20.5276147184
 10
181.1882587243
 20
20.523447003
 10
181.1935054943
 20
20.519122146
 10
181.1987194839
 20
20.5146435624
 10
181.2038948078
 20
20.5100146672
 10
181.2090255809
 20
20.5052388751
 10
181.2141059178
 20
20.5003196012
 10
181.2191299332
 20
20.4952602604
 10
181.224091742
 20
20.4900642675
 10
181.2289854589
 20
20.4847350375
 10
181.2338051986
 20
20.4792759853
 10
181.2384253807
 20
20.4738353704
 10
181.242967389
 20
20.4682803526
 10
181.2474288784
 20
20.4626165518
 10
181.2518075037
 20
20.4568495878
 10
181.2561009197
 20
20.4509850802
 10
181.2603067813
 20
20.4450286488
 10
181.2644227433
 20
20.4389859134
 10
181.2684464605
 20
20.4328624937
 10
181.2723755879
 20
20.4266640095
 10
181.2762077802
 20
20.4203960805
 10
181.2799406923
 20
20.4140643265
 10
181.2835719791
 20
20.4076743672
 10
181.2870992953
 20
20.4012318224
 10
181.2907865074
 20
20.3942278905
 10
181.2943514486
 20
20.3871746836
 10
181.2977956121
 20
20.3800776003
 10
181.3011204915
 20
20.3729420395
 10
181.3043275799
 20
20.3657733998
 10
181.3074183709
 20
20.35857708
 10
181.3103943577
 20
20.3513584788
 10
181.3132570336
 20
20.3441229951
 10
181.3160078922
 20
20.3368760274
 10
181.3186484266
 20
20.3296229747
 10
181.3211801304
 20
20.3223692357
 10
181.3236044967
 20
20.315120209
 10
181.325923019
 20
20.3078812935
 10
181.3281371907
 20
20.3006578879
 10
181.330248505
 20
20.293455391
 10
181.3322584554
 20
20.2862792014
  0
LINE
  5
26E
100
AcDbEntity
  8
ASSI
100
AcDbLine
 62
7
  6
CONTINUOUS
 10
73.6818227871
 20
79.4130063995
 11
73.6610591729
 21
79.4254272251
  0
LINE
  5
26F
100
AcDbEntity
  8
ASSI
100
AcDbLine
 62
7
  6
CONTINUOUS
 10
183.6248401463
 20
15.9621989975
 11
184.6343768637
 21
15.3508244128
  0
LWPOLYLINE
  5
270
100
AcDbEntity
  8
SMUSSO
100
AcDbPolyline
 62
7
  6
CONTINUOUS
 90
51
 70
0
 10
99.2304125542
 20
97.7547791331
 10
99.1881867638
 20
97.7315477034
 10
99.1010234129
 20
97.6903830643
 10
99.010188461
 20
97.6562309921
 10
98.9158877355
 20
97.6291688657
 10
98.8183350884
 20
97.6092580163
 10
98.7177515368
 20
97.5965434922
 10
98.6143649762
 20
97.5910540407
 10
98.5084098952
 20
97.5928020264
 10
98.4001263822
 20
97.6017833773
 10
98.289759752
 20
97.6179776371
 10
98.1775602545
 20
97.6413479631
 10
98.0637820971
 20
97.6718412658
 10
97.9486830438
 20
97.7093883245
 10
97.8325240386
 20
97.7539038632
 10
97.715568618
 20
97.8052866873
 10
97.5980813388
 20
97.863420369
 10
97.4803273581
 20
97.928173622
 10
97.3625734203
 20
97.9993997571
 10
97.2450862344
 20
98.0769374442
 10
97.128130904
 20
98.1606118044
 10
97.0119719686
 20
98.2502337766
 10
96.8968729813
 20
98.345600219
 10
96.7830948849
 20
98.4464950783
 10
96.6708954419
 20
98.5526899178
 10
96.560528861
 20
98.6639442744
 10
96.4522453946
 20
98.7800060072
 10
96.3462903578
 20
98.9006122887
 10
96.2429038385
 20
99.0254899442
 10
96.1423203267
 20
99.1543558261
 10
96.0447677194
 20
99.2869180173
 10
95.9504670319
 20
99.422876247
 10
95.8596321128
 20
99.5619222388
 10
95.7724687904
 20
99.7037409292
 10
95.6891744927
 20
99.8480111036
 10
95.6099379805
 20
99.9944058247
 10
95.5349387558
 20
100.1425934487
 10
95.4643467286
 20
100.2922382557
 10
95.3983218745
 20
100.443001103
 10
95.3370137037
 20
100.5945405782
 10
95.280561154
 20
100.74651324
 10
95.2290922745
 20
100.8985742649
 10
95.1827235664
 20
101.0503792743
 10
95.1415600409
 20
101.2015842704
 10
95.1056950639
 20
101.3518458908
 10
95.0752096962
 20
101.5008239048
 10
95.0501728666
 20
101.6481807446
 10
95.0306412619
 20
101.7935814806
 10
95.0166588524
 20
101.9366964836
 10
95.0082569436
 20
102.0772021211
 10
95.0054542596
 20
102.2147803004
  0
LWPOLYLINE
  5
271
100
AcDbEntity
  8
ASSI
100
AcDbPolyline
 62
7
  6
CONTINUOUS
 90
51
 70
0
 10
99.2304125542
 20
97.7547791331
 10
99.1881867638
 20
97.7315477034
 10
99.1010234129
 20
97.6903830643
 10
99.010188461
 20
97.6562309921
 10
98.9158877355
 20
97.6291688657
 10
98.8183350884
 20
97.6092580163
 10
98.7177515368
 20
97.5965434922
 10
98.6143649762
 20
97.5910540407
 10
98.5084098952
 20
97.5928020264
 10
98.4001263822
 20
97.6017833773
 10
98.289759752
 20
97.6179776371
 10
98.1775602545
 20
97.6413479631
 10
98.0637820971
 20
97.6718412658
 10
97.9486830438
 20
97.7093883245
 10
97.8325240386
 20
97.7539038632
 10
97.715568618
 20
97.8052866873
 10
97.5980813388
 20
97.863420369
 10
97.4803273581
 20
97.928173622
 10
97.3625734203
 20
97.9993997571
 10
97.2450862344
 20
98.0769374442
 10
97.128130904
 20
98.1606118044
 10
97.0119719686
 20
98.2502337766
 10
96.8968729813
 20
98.345600219
 10
96.7830948849
 20
98.4464950783
 10
96.6708954419
 20
98.5526899178
 10
96.560528861
 20
98.6639442744
 10
96.4522453946
 20
98.7800060072
 10
96.3462903578
 20
98.9006122887
 10
96.2429038385
 20
99.0254899442
 10
96.1423203267
 20
99.1543558261
 10
96.0447677194
 20
99.2869180173
 10
95.9504670319
 20
99.422876247
 10
95.8596321128
 20
99.5619222388
 10
95.7724687904
 20
99.7037409292
 10
95.6891744927
 20
99.8480111036
 10
95.6099379805
 20
99.9944058247
 10
95.5349387558
 20
100.1425934487
 10
95.4643467286
 20
100.2922382557
 10
95.3983218745
 20
100.443001103
 10
95.3370137037
 20
100.5945405782
 10
95.280561154
 20
100.74651324
 10
95.2290922745
 20
100.8985742649
 10
95.1827235664
 20
101.0503792743
 10
95.1415600409
 20
101.2015842704
 10
95.1056950639
 20
101.3518458908
 10
95.0752096962
 20
101.5008239048
 10
95.0501728666
 20
101.6481807446
 10
95.0306412619
 20
101.7935814806
 10
95.0166588524
 20
101.9366964836
 10
95.0082569436
 20
102.0772021211
 10
95.0054542596
 20
102.2147803004
  0
LWPOLYLINE
  5
272
100
AcDbEntity
  8
SMUSSO
100
AcDbPolyline
 62
7
  6
CONTINUOUS
 90
32
 70
0
 10
111.2729484111
 20
93.2329807308
 10
111.2808045769
 20
93.1016068449
 10
111.2955380351
 20
92.9507684292
 10
111.3161887396
 20
92.7971660807
 10
111.3426969662
 20
92.6411522016
 10
111.3748835425
 20
92.4837839985
 10
111.4127871314
 20
92.3250523026
 10
111.45636907
 20
92.1649662826
 10
111.5053341975
 20
92.0046106512
 10
111.5597191217
 20
91.8439836481
 10
111.6194872347
 20
91.6830870337
 10
111.6842335528
 20
91.5230108013
 10
111.7539917179
 20
91.3637608833
 10
111.8287280881
 20
91.2053313474
 10
111.9079367528
 20
91.0487943903
 10
111.9916480083
 20
90.8941628428
 10
112.0798315584
 20
90.741423874
 10
112.1718906036
 20
90.5916111881
 10
112.2678515376
 20
90.4447444577
 10
112.3676879668
 20
90.3008040102
 10
112.4707239109
 20
90.1607645317
 10
112.576981109
 20
90.0246524886
 10
112.686437822
 20
89.8924414146
 10
112.7983528528
 20
89.7650265963
 10
112.9127428332
 20
89.6424406488
 10
113.0295911315
 20
89.5246509571
 10
113.1481066553
 20
89.412454962
 10
113.2683007072
 20
89.3058906209
 10
113.3901619848
 20
89.2049199765
 10
113.5128654879
 20
89.1102265976
 10
113.6364169572
 20
89.0218530577
 10
113.7462491281
 20
88.9493669719
  0
LWPOLYLINE
  5
273
100
AcDbEntity
  8
ASSI
100
AcDbPolyline
 62
7
  6
CONTINUOUS
 90
32
 70
0
 10
111.2729484111
 20
93.2329807308
 10
111.2808045769
 20
93.1016068449
 10
111.2955380351
 20
92.9507684292
 10
111.3161887396
 20
92.7971660807
 10
111.3426969662
 20
92.6411522016
 10
111.3748835425
 20
92.4837839985
 10
111.4127871314
 20
92.3250523026
 10
111.45636907
 20
92.1649662826
 10
111.5053341975
 20
92.0046106512
 10
111.5597191217
 20
91.8439836481
 10
111.6194872347
 20
91.6830870337
 10
111.6842335528
 20
91.5230108013
 10
111.7539917179
 20
91.3637608833
 10
111.8287280881
 20
91.2053313474
 10
111.9079367528
 20
91.0487943903
 10
111.9916480083
 20
90.8941628428
 10
112.0798315584
 20
90.741423874
 10
112.1718906036
 20
90.5916111881
 10
112.2678515376
 20
90.4447444577
 10
112.3676879668
 20
90.3008040102
 10
112.4707239109
 20
90.1607645317
 10
112.576981109
 20
90.0246524886
 10
112.686437822
 20
89.8924414146
 10
112.7983528528
 20
89.7650265963
 10
112.9127428332
 20
89.6424406488
 10
113.0295911315
 20
89.5246509571
 10
113.1481066553
 20
89.412454962
 10
113.2683007072
 20
89.3058906209
 10
113.3901619848
 20
89.2049199765
 10
113.5128654879
 20
89.1102265976
 10
113.6364169572
 20
89.0218530577
 10
113.7462491281
 20
88.9493669719
  0
LWPOLYLINE
  5
274
100
AcDbEntity
  8
SMUSSO
100
AcDbPolyline
 62
7
  6
CONTINUOUS
 90
33
 70
0
 10
111.2689102269
 20
93.2327392472
 10
111.2719861658
 20
93.0885334688
 10
111.2812065242
 20
92.9411318597
 10
111.2965486625
 20
92.7909006946
 10
111.3179747838
 20
92.6382129148
 10
111.3454318688
 20
92.4834483774
 10
111.3788516515
 20
92.3269929606
 10
111.4181511503
 20
92.1692357093
 10
111.4632328161
 20
92.0105686873
 10
111.5139844038
 20
91.8513872259
 10
111.5702797146
 20
91.6920872262
 10
111.6319788677
 20
91.5330645855
 10
111.6989283158
 20
91.3747150851
 10
111.7709614894
 20
91.2174326433
 10
111.847899389
 20
91.0616080514
 10
111.9295508789
 20
90.9076284322
 10
112.0157129969
 20
90.7558765781
 10
112.1061715261
 20
90.6067298168
 10
112.2007016942
 20
90.4605588015
 10
112.29906858
 20
90.317726864
 10
112.4010275824
 20
90.1785892455
 10
112.506325125
 20
90.0434920351
 10
112.6146994197
 20
89.9127711409
 10
112.7258810403
 20
89.7867515761
 10
112.8395934787
 20
89.6657467732
 10
112.9555539929
 20
89.5500576154
 10
113.0734743068
 20
89.4399717139
 10
113.1930612315
 20
89.3357627889
 10
113.3140174504
 20
89.2376899346
 10
113.436042232
 20
89.1459969974
 10
113.5588321661
 20
89.0609119755
 10
113.682081975
 20
88.9826464111
 10
113.74402314
 20
88.9459941162
  0
LWPOLYLINE
  5
275
100
AcDbEntity
  8
ASSI
100
AcDbPolyline
 62
7
  6
CONTINUOUS
 90
33
 70
0
 10
111.2689102269
 20
93.2327392472
 10
111.2719861658
 20
93.0885334688
 10
111.2812065242
 20
92.9411318597
 10
111.2965486625
 20
92.7909006946
 10
111.3179747838
 20
92.6382129148
 10
111.3454318688
 20
92.4834483774
 10
111.3788516515
 20
92.3269929606
 10
111.4181511503
 20
92.1692357093
 10
111.4632328161
 20
92.0105686873
 10
111.5139844038
 20
91.8513872259
 10
111.5702797146
 20
91.6920872262
 10
111.6319788677
 20
91.5330645855
 10
111.6989283158
 20
91.3747150851
 10
111.7709614894
 20
91.2174326433
 10
111.847899389
 20
91.0616080514
 10
111.9295508789
 20
90.9076284322
 10
112.0157129969
 20
90.7558765781
 10
112.1061715261
 20
90.6067298168
 10
112.2007016942
 20
90.4605588015
 10
112.29906858
 20
90.317726864
 10
112.4010275824
 20
90.1785892455
 10
112.506325125
 20
90.0434920351
 10
112.6146994197
 20
89.9127711409
 10
112.7258810403
 20
89.7867515761
 10
112.8395934787
 20
89.6657467732
 10
112.9555539929
 20
89.5500576154
 10
113.0734743068
 20
89.4399717139
 10
113.1930612315
 20
89.3357627889
 10
113.3140174504
 20
89.2376899346
 10
113.436042232
 20
89.1459969974
 10
113.5588321661
 20
89.0609119755
 10
113.682081975
 20
88.9826464111
 10
113.74402314
 20
88.9459941162
  0
LINE
  5
276
100
AcDbEntity
  8
SMUSSO
100
AcDbLine
 62
7
  6
CONTINUOUS
 10
109.2183005614
 20
93.0286019505
 11
109.2183005614
 21
96.2944830577
  0
LINE
  5
277
100
AcDbEntity
  8
ASSI
100
AcDbLine
 62
7
  6
CONTINUOUS
 10
109.2183005614
 20
93.0286019505
 11
109.2183005614
 21
96.2944830577
  0
LINE
  5
278
100
AcDbEntity
  8
SMUSSO
100
AcDbLine
 62
7
  6
CONTINUOUS
 10
110.9153568363
 20
93.0286019505
 11
110.9153568363
 21
96.2944830577
  0
LINE
  5
279
100
AcDbEntity
  8
ASSI
100
AcDbLine
 62
7
  6
CONTINUOUS
 10
110.9153568363
 20
93.0286019505
 11
110.9153568363
 21
96.2944830577
  0
LINE
  5
27A
100
AcDbEntity
  8
SMUSSO
100
AcDbLine
 62
7
  6
CONTINUOUS
 10
111.2689102269
 20
96.4986203543
 11
111.2689102269
 21
93.2327392472
  0
LINE
  5
27B
100
AcDbEntity
  8
ASSI
100
AcDbLine
 62
7
  6
CONTINUOUS
 10
111.2689102269
 20
96.4986203543
 11
111.2689102269
 21
93.2327392472
  0
LWPOLYLINE
  5
27C
100
AcDbEntity
  8
SMUSSO
100
AcDbPolyline
 62
7
  6
CONTINUOUS
 90
36
 70
0
 10
109.2183005614
 20
96.2944830577
 10
109.2218030965
 20
96.4677059521
 10
109.2321200417
 20
96.6359150188
 10
109.249251397
 20
96.7991102578
 10
109.2732607069
 20
96.957609146
 10
109.304084427
 20
97.1110942065
 10
109.3415319241
 20
97.2586130086
 10
109.385644442
 20
97.4001283085
 10
109.436380737
 20
97.53567735
 10
109.4934264451
 20
97.6644194335
 10
109.5568207975
 20
97.7863121447
 10
109.6265245631
 20
97.9013978978
 10
109.7021056843
 20
98.0089632358
 10
109.7836005903
 20
98.1089613253
 10
109.8709728519
 20
98.2014389997
 10
109.9636811238
 20
98.2858233016
 10
110.0617584995
 20
98.3620639977
 10
110.1651718855
 20
98.4302113213
 10
110.2732806561
 20
98.4898430143
 10
110.3861140185
 20
98.5409062508
 10
110.5036427655
 20
98.5834538567
 10
110.6251386497
 20
98.617222052
 10
110.7506263413
 20
98.6421563102
 10
110.8800811702
 20
98.6583111579
 10
111.0127008781
 20
98.6655863935
 10
111.1485051069
 20
98.6639268589
 10
111.2874742147
 20
98.6533877124
 10
111.4287470173
 20
98.6340342271
 10
111.5723378077
 20
98.6058116665
 10
111.7182322929
 20
98.5687747671
 10
111.8655264099
 20
98.5231530116
 10
112.0142288597
 20
98.4688930857
 10
112.1643309413
 20
98.4060483036
 10
112.3149024885
 20
98.335008091
 10
112.4659464241
 20
98.2557215462
 10
112.5413812524
 20
98.2131569316
  0
LWPOLYLINE
  5
27D
100
AcDbEntity
  8
ASSI
100
AcDbPolyline
 62
7
  6
CONTINUOUS
 90
36
 70
0
 10
109.2183005614
 20
96.2944830577
 10
109.2218030965
 20
96.4677059521
 10
109.2321200417
 20
96.6359150188
 10
109.249251397
 20
96.7991102578
 10
109.2732607069
 20
96.957609146
 10
109.304084427
 20
97.1110942065
 10
109.3415319241
 20
97.2586130086
 10
109.385644442
 20
97.4001283085
 10
109.436380737
 20
97.53567735
 10
109.4934264451
 20
97.6644194335
 10
109.5568207975
 20
97.7863121447
 10
109.6265245631
 20
97.9013978978
 10
109.7021056843
 20
98.0089632358
 10
109.7836005903
 20
98.1089613253
 10
109.8709728519
 20
98.2014389997
 10
109.9636811238
 20
98.2858233016
 10
110.0617584995
 20
98.3620639977
 10
110.1651718855
 20
98.4302113213
 10
110.2732806561
 20
98.4898430143
 10
110.3861140185
 20
98.5409062508
 10
110.5036427655
 20
98.5834538567
 10
110.6251386497
 20
98.617222052
 10
110.7506263413
 20
98.6421563102
 10
110.8800811702
 20
98.6583111579
 10
111.0127008781
 20
98.6655863935
 10
111.1485051069
 20
98.6639268589
 10
111.2874742147
 20
98.6533877124
 10
111.4287470173
 20
98.6340342271
 10
111.5723378077
 20
98.6058116665
 10
111.7182322929
 20
98.5687747671
 10
111.8655264099
 20
98.5231530116
 10
112.0142288597
 20
98.4688930857
 10
112.1643309413
 20
98.4060483036
 10
112.3149024885
 20
98.335008091
 10
112.4659464241
 20
98.2557215462
 10
112.5413812524
 20
98.2131569316
  0
LWPOLYLINE
  5
27E
100
AcDbEntity
  8
SMUSSO
100
AcDbPolyline
 62
7
  6
CONTINUOUS
 90
18
 70
0
 10
110.9153568363
 20
96.2944830577
 10
110.9181595314
 20
96.42882503
 10
110.92656147
 20
96.5596285624
 10
110.9405439229
 20
96.6865971863
 10
110.9600755789
 20
96.8094434207
 10
110.9851124627
 20
96.9278884172
 10
111.0155978837
 20
97.0416627146
 10
111.0514629075
 20
97.1505083427
 10
111.0926264697
 20
97.2541786851
 10
111.1389952068
 20
97.352438213
 10
111.1904641048
 20
97.4450641941
 10
111.2469166611
 20
97.5318467864
 10
111.3082248353
 20
97.6125890493
 10
111.3742496919
 20
97.6871079855
 10
111.4448417199
 20
97.7552348301
 10
111.5198409502
 20
97.8168151811
 10
111.5990774783
 20
97.8717095265
 10
111.6401460099
 20
97.8965620717
  0
LWPOLYLINE
  5
27F
100
AcDbEntity
  8
ASSI
100
AcDbPolyline
 62
7
  6
CONTINUOUS
 90
18
 70
0
 10
110.9153568363
 20
96.2944830577
 10
110.9181595314
 20
96.42882503
 10
110.92656147
 20
96.5596285624
 10
110.9405439229
 20
96.6865971863
 10
110.9600755789
 20
96.8094434207
 10
110.9851124627
 20
96.9278884172
 10
111.0155978837
 20
97.0416627146
 10
111.0514629075
 20
97.1505083427
 10
111.0926264697
 20
97.2541786851
 10
111.1389952068
 20
97.352438213
 10
111.1904641048
 20
97.4450641941
 10
111.2469166611
 20
97.5318467864
 10
111.3082248353
 20
97.6125890493
 10
111.3742496919
 20
97.6871079855
 10
111.4448417199
 20
97.7552348301
 10
111.5198409502
 20
97.8168151811
 10
111.5990774783
 20
97.8717095265
 10
111.6401460099
 20
97.8965620717
  0
LINE
  5
280
100
AcDbEntity
  8
SMUSSO
100
AcDbLine
 62
7
  6
CONTINUOUS
 10
111.2719861815
 20
96.6392744688
 11
111.2689102269
 21
96.4986203543
  0
LINE
  5
281
100
AcDbEntity
  8
ASSI
100
AcDbLine
 62
7
  6
CONTINUOUS
 10
111.2719861815
 20
96.6392744688
 11
111.2689102269
 21
96.4986203543
  0
LINE
  5
282
100
AcDbEntity
  8
SMUSSO
100
AcDbLine
 62
7
  6
CONTINUOUS
 10
111.2812065826
 20
96.7760289259
 11
111.2719861815
 21
96.6392744688
  0
LINE
  5
283
100
AcDbEntity
  8
ASSI
100
AcDbLine
 62
7
  6
CONTINUOUS
 10
111.2812065826
 20
96.7760289259
 11
111.2719861815
 21
96.6392744688
  0
LWPOLYLINE
  5
284
100
AcDbEntity
  8
SMUSSO
100
AcDbPolyline
 62
7
  6
CONTINUOUS
 90
11
 70
0
 10
111.6989289157
 20
97.8600710757
 10
111.6319794645
 20
97.7790332333
 10
111.5702803019
 20
97.6912593511
 10
111.5139849607
 20
97.5969678731
 10
111.4632333239
 20
97.496393157
 10
111.4181515962
 20
97.3897853718
 10
111.3788520213
 20
97.2774102101
 10
111.3454321532
 20
97.1595470758
 10
111.3179749831
 20
97.0364891894
 10
111.2965487842
 20
96.9085435963
 10
111.2812065826
 20
96.7760289259
  0
LWPOLYLINE
  5
285
100
AcDbEntity
  8
ASSI
100
AcDbPolyline
 62
7
  6
CONTINUOUS
 90
11
 70
0
 10
111.6989289157
 20
97.8600710757
 10
111.6319794645
 20
97.7790332333
 10
111.5702803019
 20
97.6912593511
 10
111.5139849607
 20
97.5969678731
 10
111.4632333239
 20
97.496393157
 10
111.4181515962
 20
97.3897853718
 10
111.3788520213
 20
97.2774102101
 10
111.3454321532
 20
97.1595470758
 10
111.3179749831
 20
97.0364891894
 10
111.2965487842
 20
96.9085435963
 10
111.2812065826
 20
96.7760289259
  0
LWPOLYLINE
  5
286
100
AcDbEntity
  8
SMUSSO
100
AcDbPolyline
 62
7
  6
CONTINUOUS
 90
3
 70
0
 10
111.826208284
 20
97.9822660719
 10
111.7709620907
 20
97.9341713139
 10
111.6989289157
 20
97.8600710757
  0
LWPOLYLINE
  5
287
100
AcDbEntity
  8
ASSI
100
AcDbPolyline
 62
7
  6
CONTINUOUS
 90
3
 70
0
 10
111.826208284
 20
97.9822660719
 10
111.7709620907
 20
97.9341713139
 10
111.6989289157
 20
97.8600710757
  0
LINE
  5
288
100
AcDbEntity
  8
SMUSSO
100
AcDbLine
 62
250
  6
CONTINUOUS
 10
111.2689102269
 20
96.4986203543
 11
110.9153568363
 21
96.2944830577
  0
LINE
  5
289
100
AcDbEntity
  8
ASSI
100
AcDbLine
 62
250
  6
CONTINUOUS
 10
111.2689102269
 20
96.4986203543
 11
110.9153568363
 21
96.2944830577
  0
LWPOLYLINE
  5
28A
100
AcDbEntity
  8
SMUSSO
100
AcDbPolyline
 62
7
  6
CONTINUOUS
 90
15
 70
0
 10
111.6401460099
 20
97.8965620717
 10
111.6823718003
 20
97.9197935014
 10
111.7695351512
 20
97.9609581405
 10
111.8603701031
 20
97.9951102127
 10
111.9546708286
 20
98.0221723391
 10
112.0522234758
 20
98.0420831884
 10
112.1528070273
 20
98.0547977125
 10
112.256193588
 20
98.0602871641
 10
112.3621486689
 20
98.0585391784
 10
112.4704321819
 20
98.0495578275
 10
112.5807988121
 20
98.0333635677
 10
112.6929983096
 20
98.0099932416
 10
112.8067764671
 20
97.979499939
 10
112.9218755204
 20
97.9419528803
 10
112.9962779705
 20
97.9134396785
  0
LWPOLYLINE
  5
28B
100
AcDbEntity
  8
ASSI
100
AcDbPolyline
 62
7
  6
CONTINUOUS
 90
15
 70
0
 10
111.6401460099
 20
97.8965620717
 10
111.6823718003
 20
97.9197935014
 10
111.7695351512
 20
97.9609581405
 10
111.8603701031
 20
97.9951102127
 10
111.9546708286
 20
98.0221723391
 10
112.0522234758
 20
98.0420831884
 10
112.1528070273
 20
98.0547977125
 10
112.256193588
 20
98.0602871641
 10
112.3621486689
 20
98.0585391784
 10
112.4704321819
 20
98.0495578275
 10
112.5807988121
 20
98.0333635677
 10
112.6929983096
 20
98.0099932416
 10
112.8067764671
 20
97.979499939
 10
112.9218755204
 20
97.9419528803
 10
112.9962779705
 20
97.9134396785
  0
LWPOLYLINE
  5
28C
100
AcDbEntity
  8
SMUSSO
100
AcDbPolyline
 62
7
  6
CONTINUOUS
 90
3
 70
0
 10
99.2785960924
 20
97.8355839349
 10
99.3769629985
 20
97.8648242043
 10
99.397329207
 20
97.8727978599
  0
LWPOLYLINE
  5
28D
100
AcDbEntity
  8
ASSI
100
AcDbPolyline
 62
7
  6
CONTINUOUS
 90
3
 70
0
 10
99.2785960924
 20
97.8355839349
 10
99.3769629985
 20
97.8648242043
 10
99.397329207
 20
97.8727978599
  0
LINE
  5
28E
100
AcDbEntity
  8
SMUSSO
100
AcDbLine
 62
250
  6
CONTINUOUS
 10
156.9480082915
 20
65.4700669009
 11
158.6450645664
 21
65.4700669009
  0
LINE
  5
28F
100
AcDbEntity
  8
ASSI
100
AcDbLine
 62
250
  6
CONTINUOUS
 10
156.9480082915
 20
65.4700669009
 11
158.6450645664
 21
65.4700669009
  0
LWPOLYLINE
  5
290
100
AcDbEntity
  8
CURVE
100
AcDbPolyline
 62
250
  6
CONTINUOUS
 90
49
 70
0
 10
181.2206169559
 20
21.3067840258
 10
181.2265678102
 20
21.3024576069
 10
181.2325190702
 20
21.2979452184
 10
181.2384641814
 20
21.2932511671
 10
181.2443965893
 20
21.2883797595
 10
181.2503097393
 20
21.2833353022
 10
181.2561970771
 20
21.278122102
 10
181.2620520481
 20
21.2727444654
 10
181.2678680978
 20
21.2672066991
 10
181.2736386716
 20
21.2615131097
 10
181.2793572151
 20
21.2556680038
 10
181.2850171738
 20
21.2496756881
 10
181.2906119931
 20
21.2435404693
 10
181.2961351185
 20
21.2372666539
 10
181.3015799957
 20
21.2308585485
 10
181.3069400699
 20
21.22432046
 10
181.3122087868
 20
21.2176566947
 10
181.3173795918
 20
21.2108715595
 10
181.3224459305
 20
21.2039693609
 10
181.3274012482
 20
21.1969544056
 10
181.3322389906
 20
21.1898310001
 10
181.3369526031
 20
21.1826034512
 10
181.3415355311
 20
21.1752760655
 10
181.3459812203
 20
21.1678531496
 10
181.350283116
 20
21.1603390102
 10
181.3544134644
 20
21.1527799735
 10
181.358393198
 20
21.1451441587
 10
181.3622204338
 20
21.1374407703
 10
181.3658932888
 20
21.1296790125
 10
181.3694098798
 20
21.1218680899
 10
181.3727683239
 20
21.114017207
 10
181.375966738
 20
21.106135568
 10
181.3790032389
 20
21.0982323775
 10
181.3818759436
 20
21.0903168399
 10
181.3845829692
 20
21.0823981596
 10
181.3871224324
 20
21.074485541
 10
181.3894924502
 20
21.0665881886
 10
181.3916911396
 20
21.0587153068
 10
181.3937166175
 20
21.0508761001
 10
181.3955670009
 20
21.0430797727
 10
181.3972404066
 20
21.0353355293
 10
181.3987349517
 20
21.0276525742
 10
181.400048753
 20
21.0200401118
 10
181.4011799274
 20
21.0125073466
 10
181.402126592
 20
21.0050634829
 10
181.4028868637
 20
20.9977177253
 10
181.4034588593
 20
20.9904792782
 10
181.4038406959
 20
20.9833573459
 10
181.4040304903
 20
20.976361133
  0
LINE
  5
291
100
AcDbEntity
  8
SMUSSO
100
AcDbLine
 62
7
  6
CONTINUOUS
 10
115.8651043046
 20
92.4567018804
 11
115.8651043046
 21
89.1908207732
  0
LINE
  5
292
100
AcDbEntity
  8
ASSI
100
AcDbLine
 62
7
  6
CONTINUOUS
 10
115.8651043046
 20
92.4567018804
 11
115.8651043046
 21
89.1908207732
  0
LWPOLYLINE
  5
293
100
AcDbEntity
  8
SMUSSO
100
AcDbPolyline
 62
7
  6
CONTINUOUS
 90
70
 70
0
 10
115.8651043046
 20
89.1908207732
 10
115.8616017695
 20
89.0175978788
 10
115.8512848243
 20
88.8493888121
 10
115.8341534689
 20
88.6861935731
 10
115.8101441591
 20
88.5276946849
 10
115.779320439
 20
88.3742096244
 10
115.7418729418
 20
88.2266908223
 10
115.697760424
 20
88.0851755224
 10
115.647024129
 20
87.9496264809
 10
115.5899784209
 20
87.8208843974
 10
115.5265840685
 20
87.6989916862
 10
115.4568803029
 20
87.5839059331
 10
115.3812991817
 20
87.4763405951
 10
115.2998042757
 20
87.3763425056
 10
115.2124320141
 20
87.2838648312
 10
115.1197237422
 20
87.1994805294
 10
115.0216463665
 20
87.1232398332
 10
114.9182329805
 20
87.0550925096
 10
114.8101242099
 20
86.9954608166
 10
114.6972908475
 20
86.9443975801
 10
114.5797621005
 20
86.9018499742
 10
114.4582662163
 20
86.868081779
 10
114.3327785247
 20
86.8431475207
 10
114.2033236958
 20
86.8269926731
 10
114.0707039879
 20
86.8197174374
 10
113.9348997591
 20
86.821376972
 10
113.7959306513
 20
86.8319161185
 10
113.6546578487
 20
86.8512696039
 10
113.5110670583
 20
86.8794921644
 10
113.3651725731
 20
86.9165290638
 10
113.2178784561
 20
86.9621508193
 10
113.0691760063
 20
87.0164107452
 10
112.9190739247
 20
87.0792555273
 10
112.7685023775
 20
87.15029574
 10
112.6174584419
 20
87.2295822847
 10
112.4659450406
 20
87.3170642602
 10
112.3149011087
 20
87.4121995366
 10
112.1643295705
 20
87.5150356386
 10
112.0142275016
 20
87.6255250417
 10
111.8655250639
 20
87.742983042
 10
111.7182309563
 20
87.8674529074
 10
111.5723364798
 20
87.9988913701
 10
111.4287456991
 20
88.1364839227
 10
111.2874729059
 20
88.2802687989
 10
111.1485038086
 20
88.4302077652
 10
111.0126995969
 20
88.5853716135
 10
110.8800799141
 20
88.7457928201
 10
110.750625117
 20
88.9114389089
 10
110.6251374663
 20
89.0812832433
 10
110.5036416396
 20
89.2553518483
 10
110.3861129593
 20
89.4336186991
 10
110.2732796534
 20
89.6149790848
 10
110.1651709218
 20
89.7994521114
 10
110.0617575647
 20
89.9870186729
 10
109.9636802099
 20
90.1765167415
 10
109.8709719442
 20
90.3679583539
 10
109.783599681
 20
90.5613314735
 10
109.7021047883
 20
90.755437962
 10
109.6265237023
 20
90.9502825822
 10
109.5568199869
 20
91.1458605715
 10
109.4934257022
 20
91.3409595042
 10
109.4363800864
 20
91.5355764768
 10
109.3856439014
 20
91.7297143929
 10
109.3415314928
 20
91.9221695377
 10
109.3040841046
 20
92.1129315186
 10
109.2732604929
 20
92.3020107283
 10
109.2492512713
 20
92.4882346301
 10
109.2321199778
 20
92.6712123782
 10
109.2218030745
 20
92.8513348184
 10
109.2183005614
 20
93.0286019505
  0
LWPOLYLINE
  5
294
100
AcDbEntity
  8
ASSI
100
AcDbPolyline
 62
7
  6
CONTINUOUS
 90
70
 70
0
 10
115.8651043046
 20
89.1908207732
 10
115.8616017695
 20
89.0175978788
 10
115.8512848243
 20
88.8493888121
 10
115.8341534689
 20
88.6861935731
 10
115.8101441591
 20
88.5276946849
 10
115.779320439
 20
88.3742096244
 10
115.7418729418
 20
88.2266908223
 10
115.697760424
 20
88.0851755224
 10
115.647024129
 20
87.9496264809
 10
115.5899784209
 20
87.8208843974
 10
115.5265840685
 20
87.6989916862
 10
115.4568803029
 20
87.5839059331
 10
115.3812991817
 20
87.4763405951
 10
115.2998042757
 20
87.3763425056
 10
115.2124320141
 20
87.2838648312
 10
115.1197237422
 20
87.1994805294
 10
115.0216463665
 20
87.1232398332
 10
114.9182329805
 20
87.0550925096
 10
114.8101242099
 20
86.9954608166
 10
114.6972908475
 20
86.9443975801
 10
114.5797621005
 20
86.9018499742
 10
114.4582662163
 20
86.868081779
 10
114.3327785247
 20
86.8431475207
 10
114.2033236958
 20
86.8269926731
 10
114.0707039879
 20
86.8197174374
 10
113.9348997591
 20
86.821376972
 10
113.7959306513
 20
86.8319161185
 10
113.6546578487
 20
86.8512696039
 10
113.5110670583
 20
86.8794921644
 10
113.3651725731
 20
86.9165290638
 10
113.2178784561
 20
86.9621508193
 10
113.0691760063
 20
87.0164107452
 10
112.9190739247
 20
87.0792555273
 10
112.7685023775
 20
87.15029574
 10
112.6174584419
 20
87.2295822847
 10
112.4659450406
 20
87.3170642602
 10
112.3149011087
 20
87.4121995366
 10
112.1643295705
 20
87.5150356386
 10
112.0142275016
 20
87.6255250417
 10
111.8655250639
 20
87.742983042
 10
111.7182309563
 20
87.8674529074
 10
111.5723364798
 20
87.9988913701
 10
111.4287456991
 20
88.1364839227
 10
111.2874729059
 20
88.2802687989
 10
111.1485038086
 20
88.4302077652
 10
111.0126995969
 20
88.5853716135
 10
110.8800799141
 20
88.7457928201
 10
110.750625117
 20
88.9114389089
 10
110.6251374663
 20
89.0812832433
 10
110.5036416396
 20
89.2553518483
 10
110.3861129593
 20
89.4336186991
 10
110.2732796534
 20
89.6149790848
 10
110.1651709218
 20
89.7994521114
 10
110.0617575647
 20
89.9870186729
 10
109.9636802099
 20
90.1765167415
 10
109.8709719442
 20
90.3679583539
 10
109.783599681
 20
90.5613314735
 10
109.7021047883
 20
90.755437962
 10
109.6265237023
 20
90.9502825822
 10
109.5568199869
 20
91.1458605715
 10
109.4934257022
 20
91.3409595042
 10
109.4363800864
 20
91.5355764768
 10
109.3856439014
 20
91.7297143929
 10
109.3415314928
 20
91.9221695377
 10
109.3040841046
 20
92.1129315186
 10
109.2732604929
 20
92.3020107283
 10
109.2492512713
 20
92.4882346301
 10
109.2321199778
 20
92.6712123782
 10
109.2218030745
 20
92.8513348184
 10
109.2183005614
 20
93.0286019505
  0
LWPOLYLINE
  5
295
100
AcDbEntity
  8
SMUSSO
100
AcDbPolyline
 62
7
  6
CONTINUOUS
 90
18
 70
0
 10
115.8651043046
 20
90.1706797972
 10
115.8623016094
 20
90.0363378249
 10
115.8538996708
 20
89.9055342925
 10
115.839917218
 20
89.7785656686
 10
115.8203855619
 20
89.6557194342
 10
115.7953486781
 20
89.5372744377
 10
115.7648632572
 20
89.4235001403
 10
115.7289982334
 20
89.3146545122
 10
115.6878346712
 20
89.2109841698
 10
115.6414659341
 20
89.1127246419
 10
115.589997036
 20
89.0200986608
 10
115.5335444797
 20
88.9333160685
 10
115.4722363055
 20
88.8525738056
 10
115.4062114489
 20
88.7780548694
 10
115.335619421
 20
88.7099280248
 10
115.2606201907
 20
88.6483476738
 10
115.1813836626
 20
88.5934533284
 10
115.1403151309
 20
88.5686007832
  0
LWPOLYLINE
  5
296
100
AcDbEntity
  8
ASSI
100
AcDbPolyline
 62
7
  6
CONTINUOUS
 90
18
 70
0
 10
115.8651043046
 20
90.1706797972
 10
115.8623016094
 20
90.0363378249
 10
115.8538996708
 20
89.9055342925
 10
115.839917218
 20
89.7785656686
 10
115.8203855619
 20
89.6557194342
 10
115.7953486781
 20
89.5372744377
 10
115.7648632572
 20
89.4235001403
 10
115.7289982334
 20
89.3146545122
 10
115.6878346712
 20
89.2109841698
 10
115.6414659341
 20
89.1127246419
 10
115.589997036
 20
89.0200986608
 10
115.5335444797
 20
88.9333160685
 10
115.4722363055
 20
88.8525738056
 10
115.4062114489
 20
88.7780548694
 10
115.335619421
 20
88.7099280248
 10
115.2606201907
 20
88.6483476738
 10
115.1813836626
 20
88.5934533284
 10
115.1403151309
 20
88.5686007832
  0
LINE
  5
297
100
AcDbEntity
  8
SMUSSO
100
AcDbLine
 62
250
  6
CONTINUOUS
 10
111.2689102269
 20
93.2327392472
 11
110.9153568363
 21
93.0286019505
  0
LINE
  5
298
100
AcDbEntity
  8
ASSI
100
AcDbLine
 62
250
  6
CONTINUOUS
 10
111.2689102269
 20
93.2327392472
 11
110.9153568363
 21
93.0286019505
  0
LINE
  5
299
100
AcDbEntity
  8
SMUSSO
100
AcDbLine
 62
250
  6
CONTINUOUS
 10
156.9480082915
 20
68.7359480081
 11
158.6450645664
 21
68.7359480081
  0
LINE
  5
29A
100
AcDbEntity
  8
ASSI
100
AcDbLine
 62
250
  6
CONTINUOUS
 10
156.9480082915
 20
68.7359480081
 11
158.6450645664
 21
68.7359480081
  0
LINE
  5
29B
100
AcDbEntity
  8
ASSI
100
AcDbLine
 62
7
  6
CONTINUOUS
 10
72.9742855178
 20
152.1703717291
 11
72.9746608253
 21
152.1697353676
  0
LINE
  5
29C
100
AcDbEntity
  8
SMUSSO
100
AcDbLine
 62
7
  6
CONTINUOUS
 10
125.1282031381
 20
83.8424236006
 11
125.1282031381
 21
87.1083047078
  0
LINE
  5
29D
100
AcDbEntity
  8
ASSI
100
AcDbLine
 62
7
  6
CONTINUOUS
 10
125.1282031381
 20
83.8424236006
 11
125.1282031381
 21
87.1083047078
  0
LWPOLYLINE
  5
29E
100
AcDbEntity
  8
SMUSSO
100
AcDbPolyline
 62
7
  6
CONTINUOUS
 90
36
 70
0
 10
125.1282031381
 20
87.1083047078
 10
125.1317056732
 20
87.2815276022
 10
125.1420226184
 20
87.449736669
 10
125.1591539737
 20
87.612931908
 10
125.1831632836
 20
87.7714307962
 10
125.2139870037
 20
87.9249158566
 10
125.2514345008
 20
88.0724346587
 10
125.2955470187
 20
88.2139499587
 10
125.3462833137
 20
88.3494990002
 10
125.4033290218
 20
88.4782410836
 10
125.4667233742
 20
88.6001337948
 10
125.5364271398
 20
88.7152195479
 10
125.6120082609
 20
88.8227848859
 10
125.693503167
 20
88.9227829755
 10
125.7808754285
 20
89.0152606498
 10
125.8735837005
 20
89.0996449517
 10
125.9716610762
 20
89.1758856478
 10
126.0750744622
 20
89.2440329714
 10
126.1831832328
 20
89.3036646645
 10
126.2960165952
 20
89.3547279009
 10
126.4135453422
 20
89.3972755068
 10
126.5350412264
 20
89.4310437021
 10
126.660528918
 20
89.4559779604
 10
126.7899837469
 20
89.472132808
 10
126.9226034548
 20
89.4794080436
 10
127.0584076836
 20
89.4777485091
 10
127.1973767914
 20
89.4672093625
 10
127.338649594
 20
89.4478558772
 10
127.4822403844
 20
89.4196333166
 10
127.6281348696
 20
89.3825964172
 10
127.7754289866
 20
89.3369746617
 10
127.9241314364
 20
89.2827147358
 10
128.074233518
 20
89.2198699538
 10
128.2248050652
 20
89.1488297411
 10
128.3758490008
 20
89.0695431963
 10
128.4512838291
 20
89.0269785817
  0
LWPOLYLINE
  5
29F
100
AcDbEntity
  8
ASSI
100
AcDbPolyline
 62
7
  6
CONTINUOUS
 90
36
 70
0
 10
125.1282031381
 20
87.1083047078
 10
125.1317056732
 20
87.2815276022
 10
125.1420226184
 20
87.449736669
 10
125.1591539737
 20
87.612931908
 10
125.1831632836
 20
87.7714307962
 10
125.2139870037
 20
87.9249158566
 10
125.2514345008
 20
88.0724346587
 10
125.2955470187
 20
88.2139499587
 10
125.3462833137
 20
88.3494990002
 10
125.4033290218
 20
88.4782410836
 10
125.4667233742
 20
88.6001337948
 10
125.5364271398
 20
88.7152195479
 10
125.6120082609
 20
88.8227848859
 10
125.693503167
 20
88.9227829755
 10
125.7808754285
 20
89.0152606498
 10
125.8735837005
 20
89.0996449517
 10
125.9716610762
 20
89.1758856478
 10
126.0750744622
 20
89.2440329714
 10
126.1831832328
 20
89.3036646645
 10
126.2960165952
 20
89.3547279009
 10
126.4135453422
 20
89.3972755068
 10
126.5350412264
 20
89.4310437021
 10
126.660528918
 20
89.4559779604
 10
126.7899837469
 20
89.472132808
 10
126.9226034548
 20
89.4794080436
 10
127.0584076836
 20
89.4777485091
 10
127.1973767914
 20
89.4672093625
 10
127.338649594
 20
89.4478558772
 10
127.4822403844
 20
89.4196333166
 10
127.6281348696
 20
89.3825964172
 10
127.7754289866
 20
89.3369746617
 10
127.9241314364
 20
89.2827147358
 10
128.074233518
 20
89.2198699538
 10
128.2248050652
 20
89.1488297411
 10
128.3758490008
 20
89.0695431963
 10
128.4512838291
 20
89.0269785817
  0
LWPOLYLINE
  5
2A0
100
AcDbEntity
  8
SMUSSO
100
AcDbPolyline
 62
7
  6
CONTINUOUS
 90
51
 70
0
 10
115.1403151309
 20
88.5686007832
 10
115.0980893405
 20
88.5453693535
 10
115.0109259896
 20
88.5042047144
 10
114.9200910377
 20
88.4700526422
 10
114.8257903122
 20
88.4429905158
 10
114.7282376651
 20
88.4230796665
 10
114.6276541135
 20
88.4103651424
 10
114.5242675529
 20
88.4048756908
 10
114.4183124719
 20
88.4066236765
 10
114.3100289589
 20
88.4156050274
 10
114.1996623287
 20
88.4317992872
 10
114.0874628312
 20
88.4551696133
 10
113.9736846738
 20
88.4856629159
 10
113.8585856205
 20
88.5232099746
 10
113.7424266153
 20
88.5677255133
 10
113.6254711947
 20
88.6191083374
 10
113.5079839155
 20
88.6772420192
 10
113.3902299348
 20
88.7419952721
 10
113.272475997
 20
88.8132214072
 10
113.1549888111
 20
88.8907590943
 10
113.0380334807
 20
88.9744334546
 10
112.9218745453
 20
89.0640554267
 10
112.806775558
 20
89.1594218692
 10
112.6929974616
 20
89.2603167285
 10
112.5807980186
 20
89.3665115679
 10
112.4704314377
 20
89.4777659246
 10
112.3621479713
 20
89.5938276573
 10
112.2561929345
 20
89.7144339388
 10
112.1528064152
 20
89.8393115943
 10
112.0522229034
 20
89.9681774762
 10
111.9546702961
 20
90.1007396674
 10
111.8603696086
 20
90.2366978971
 10
111.7695346895
 20
90.375743889
 10
111.6823713671
 20
90.5175625793
 10
111.5990770694
 20
90.6618327537
 10
111.5198405572
 20
90.8082274749
 10
111.4448413325
 20
90.9564150989
 10
111.3742493052
 20
91.1060599058
 10
111.3082244512
 20
91.2568227531
 10
111.2469162804
 20
91.4083622283
 10
111.1904637307
 20
91.5603348902
 10
111.1389948512
 20
91.7123959151
 10
111.092626143
 20
91.8642009245
 10
111.0514626176
 20
92.0154059205
 10
111.0155976406
 20
92.1656675409
 10
110.9851122729
 20
92.3146455549
 10
110.9600754433
 20
92.4620023948
 10
110.9405438386
 20
92.6074031308
 10
110.9265614291
 20
92.7505181337
 10
110.9181595203
 20
92.8910237712
 10
110.9153568363
 20
93.0286019505
  0
LWPOLYLINE
  5
2A1
100
AcDbEntity
  8
ASSI
100
AcDbPolyline
 62
7
  6
CONTINUOUS
 90
51
 70
0
 10
115.1403151309
 20
88.5686007832
 10
115.0980893405
 20
88.5453693535
 10
115.0109259896
 20
88.5042047144
 10
114.9200910377
 20
88.4700526422
 10
114.8257903122
 20
88.4429905158
 10
114.7282376651
 20
88.4230796665
 10
114.6276541135
 20
88.4103651424
 10
114.5242675529
 20
88.4048756908
 10
114.4183124719
 20
88.4066236765
 10
114.3100289589
 20
88.4156050274
 10
114.1996623287
 20
88.4317992872
 10
114.0874628312
 20
88.4551696133
 10
113.9736846738
 20
88.4856629159
 10
113.8585856205
 20
88.5232099746
 10
113.7424266153
 20
88.5677255133
 10
113.6254711947
 20
88.6191083374
 10
113.5079839155
 20
88.6772420192
 10
113.3902299348
 20
88.7419952721
 10
113.272475997
 20
88.8132214072
 10
113.1549888111
 20
88.8907590943
 10
113.0380334807
 20
88.9744334546
 10
112.9218745453
 20
89.0640554267
 10
112.806775558
 20
89.1594218692
 10
112.6929974616
 20
89.2603167285
 10
112.5807980186
 20
89.3665115679
 10
112.4704314377
 20
89.4777659246
 10
112.3621479713
 20
89.5938276573
 10
112.2561929345
 20
89.7144339388
 10
112.1528064152
 20
89.8393115943
 10
112.0522229034
 20
89.9681774762
 10
111.9546702961
 20
90.1007396674
 10
111.8603696086
 20
90.2366978971
 10
111.7695346895
 20
90.375743889
 10
111.6823713671
 20
90.5175625793
 10
111.5990770694
 20
90.6618327537
 10
111.5198405572
 20
90.8082274749
 10
111.4448413325
 20
90.9564150989
 10
111.3742493052
 20
91.1060599058
 10
111.3082244512
 20
91.2568227531
 10
111.2469162804
 20
91.4083622283
 10
111.1904637307
 20
91.5603348902
 10
111.1389948512
 20
91.7123959151
 10
111.092626143
 20
91.8642009245
 10
111.0514626176
 20
92.0154059205
 10
111.0155976406
 20
92.1656675409
 10
110.9851122729
 20
92.3146455549
 10
110.9600754433
 20
92.4620023948
 10
110.9405438386
 20
92.6074031308
 10
110.9265614291
 20
92.7505181337
 10
110.9181595203
 20
92.8910237712
 10
110.9153568363
 20
93.0286019505
  0
LWPOLYLINE
  5
2A2
100
AcDbEntity
  8
SMUSSO
100
AcDbPolyline
 62
7
  6
CONTINUOUS
 90
3
 70
0
 10
115.1884986691
 20
88.649405585
 10
115.2868655752
 20
88.6786458544
 10
115.3072317837
 20
88.68661951
  0
LWPOLYLINE
  5
2A3
100
AcDbEntity
  8
ASSI
100
AcDbPolyline
 62
7
  6
CONTINUOUS
 90
3
 70
0
 10
115.1884986691
 20
88.649405585
 10
115.2868655752
 20
88.6786458544
 10
115.3072317837
 20
88.68661951
  0
LINE
  5
2A4
100
AcDbEntity
  8
ASSI
100
AcDbLine
 62
7
  6
CONTINUOUS
 10
183.9038160804
 20
86.9548786724
 11
185.3207752114
 21
87.3024969486
  0
LINE
  5
2A5
100
AcDbEntity
  8
SMUSSO
100
AcDbLine
 62
250
  6
CONTINUOUS
 10
141.0381057148
 20
74.6562452508
 11
142.7351619897
 21
74.6562452508
  0
LINE
  5
2A6
100
AcDbEntity
  8
ASSI
100
AcDbLine
 62
250
  6
CONTINUOUS
 10
141.0381057148
 20
74.6562452508
 11
142.7351619897
 21
74.6562452508
  0
LINE
  5
2A7
100
AcDbEntity
  8
SMUSSO
100
AcDbLine
 62
250
  6
CONTINUOUS
 10
141.0381057148
 20
77.9221263579
 11
142.7351619897
 21
77.9221263579
  0
LINE
  5
2A8
100
AcDbEntity
  8
ASSI
100
AcDbLine
 62
250
  6
CONTINUOUS
 10
141.0381057148
 20
77.9221263579
 11
142.7351619897
 21
77.9221263579
  0
LWPOLYLINE
  5
2A9
100
AcDbEntity
  8
SMUSSO
100
AcDbPolyline
 62
7
  6
CONTINUOUS
 90
14
 70
0
 10
161.4737308701
 20
61.3874590665
 10
161.5351929481
 20
61.3528598546
 10
161.6584427573
 20
61.2887995868
 10
161.7812326925
 20
61.2320898277
 10
161.9032574757
 20
61.1828715623
 10
162.0242136954
 20
61.1412671633
 10
162.1438006193
 20
61.1073800608
 10
162.2617209319
 20
61.0812944941
 10
162.3776814467
 20
61.0630753091
 10
162.4913938873
 20
61.0527677892
 10
162.6025755122
 20
61.0503975539
 10
162.710949816
 20
61.0559704762
 10
162.8162473755
 20
61.0694726704
 10
162.9182063992
 20
61.0908705354
  0
LWPOLYLINE
  5
2AA
100
AcDbEntity
  8
ASSI
100
AcDbPolyline
 62
7
  6
CONTINUOUS
 90
14
 70
0
 10
161.4737308701
 20
61.3874590665
 10
161.5351929481
 20
61.3528598546
 10
161.6584427573
 20
61.2887995868
 10
161.7812326925
 20
61.2320898277
 10
161.9032574757
 20
61.1828715623
 10
162.0242136954
 20
61.1412671633
 10
162.1438006193
 20
61.1073800608
 10
162.2617209319
 20
61.0812944941
 10
162.3776814467
 20
61.0630753091
 10
162.4913938873
 20
61.0527677892
 10
162.6025755122
 20
61.0503975539
 10
162.710949816
 20
61.0559704762
 10
162.8162473755
 20
61.0694726704
 10
162.9182063992
 20
61.0908705354
  0
LWPOLYLINE
  5
2AB
100
AcDbEntity
  8
SMUSSO
100
AcDbPolyline
 62
7
  6
CONTINUOUS
 90
14
 70
0
 10
145.5638282934
 20
70.5736374164
 10
145.6252903714
 20
70.5390382045
 10
145.7485401806
 20
70.4749779367
 10
145.8713301158
 20
70.4182681776
 10
145.993354899
 20
70.3690499122
 10
146.1143111187
 20
70.3274455131
 10
146.2338980426
 20
70.2935584106
 10
146.3518183552
 20
70.267472844
 10
146.46777887
 20
70.249253659
 10
146.5814913106
 20
70.238946139
 10
146.6926729355
 20
70.2365759038
 10
146.8010472394
 20
70.2421488261
 10
146.9063447988
 20
70.2556510203
 10
147.0083038225
 20
70.2770488852
  0
LWPOLYLINE
  5
2AC
100
AcDbEntity
  8
ASSI
100
AcDbPolyline
 62
7
  6
CONTINUOUS
 90
14
 70
0
 10
145.5638282934
 20
70.5736374164
 10
145.6252903714
 20
70.5390382045
 10
145.7485401806
 20
70.4749779367
 10
145.8713301158
 20
70.4182681776
 10
145.993354899
 20
70.3690499122
 10
146.1143111187
 20
70.3274455131
 10
146.2338980426
 20
70.2935584106
 10
146.3518183552
 20
70.267472844
 10
146.46777887
 20
70.249253659
 10
146.5814913106
 20
70.238946139
 10
146.6926729355
 20
70.2365759038
 10
146.8010472394
 20
70.2421488261
 10
146.9063447988
 20
70.2556510203
 10
147.0083038225
 20
70.2770488852
  0
LWPOLYLINE
  5
2AD
100
AcDbEntity
  8
SMUSSO
100
AcDbPolyline
 62
7
  6
CONTINUOUS
 90
14
 70
0
 10
129.6539257167
 20
79.7598157663
 10
129.7153877947
 20
79.7252165544
 10
129.8386376039
 20
79.6611562866
 10
129.9614275391
 20
79.6044465275
 10
130.0834523223
 20
79.5552282621
 10
130.204408542
 20
79.513623863
 10
130.3239954659
 20
79.4797367605
 10
130.4419157785
 20
79.4536511939
 10
130.5578762933
 20
79.4354320089
 10
130.6715887339
 20
79.4251244889
 10
130.7827703588
 20
79.4227542537
 10
130.8911446627
 20
79.4283271759
 10
130.9964422221
 20
79.4418293701
 10
131.0984012458
 20
79.4632272351
  0
LWPOLYLINE
  5
2AE
100
AcDbEntity
  8
ASSI
100
AcDbPolyline
 62
7
  6
CONTINUOUS
 90
14
 70
0
 10
129.6539257167
 20
79.7598157663
 10
129.7153877947
 20
79.7252165544
 10
129.8386376039
 20
79.6611562866
 10
129.9614275391
 20
79.6044465275
 10
130.0834523223
 20
79.5552282621
 10
130.204408542
 20
79.513623863
 10
130.3239954659
 20
79.4797367605
 10
130.4419157785
 20
79.4536511939
 10
130.5578762933
 20
79.4354320089
 10
130.6715887339
 20
79.4251244889
 10
130.7827703588
 20
79.4227542537
 10
130.8911446627
 20
79.4283271759
 10
130.9964422221
 20
79.4418293701
 10
131.0984012458
 20
79.4632272351
  0
LWPOLYLINE
  5
2AF
100
AcDbEntity
  8
SMUSSO
100
AcDbPolyline
 62
7
  6
CONTINUOUS
 90
14
 70
0
 10
113.74402314
 20
88.9459941162
 10
113.805485218
 20
88.9113949042
 10
113.9287350272
 20
88.8473346365
 10
114.0515249625
 20
88.7906248773
 10
114.1735497456
 20
88.741406612
 10
114.2945059653
 20
88.6998022129
 10
114.4140928892
 20
88.6659151104
 10
114.5320132018
 20
88.6398295437
 10
114.6479737166
 20
88.6216103588
 10
114.7616861572
 20
88.6113028388
 10
114.8728677821
 20
88.6089326036
 10
114.981242086
 20
88.6145055258
 10
115.0865396454
 20
88.62800772
 10
115.1884986691
 20
88.649405585
  0
LWPOLYLINE
  5
2B0
100
AcDbEntity
  8
ASSI
100
AcDbPolyline
 62
7
  6
CONTINUOUS
 90
14
 70
0
 10
113.74402314
 20
88.9459941162
 10
113.805485218
 20
88.9113949042
 10
113.9287350272
 20
88.8473346365
 10
114.0515249625
 20
88.7906248773
 10
114.1735497456
 20
88.741406612
 10
114.2945059653
 20
88.6998022129
 10
114.4140928892
 20
88.6659151104
 10
114.5320132018
 20
88.6398295437
 10
114.6479737166
 20
88.6216103588
 10
114.7616861572
 20
88.6113028388
 10
114.8728677821
 20
88.6089326036
 10
114.981242086
 20
88.6145055258
 10
115.0865396454
 20
88.62800772
 10
115.1884986691
 20
88.649405585
  0
LWPOLYLINE
  5
2B1
100
AcDbEntity
  8
CURVE
100
AcDbPolyline
 62
250
  6
CONTINUOUS
 90
30
 70
0
 10
181.4549229636
 20
21.4270122292
 10
181.4361263775
 20
21.4453396757
 10
181.4171472693
 20
21.4631390435
 10
181.3980022669
 20
21.4804289716
 10
181.3787079985
 20
21.4972280988
 10
181.3592810921
 20
21.5135550641
 10
181.3397381757
 20
21.5294285063
 10
181.3200958775
 20
21.5448670644
 10
181.3003708256
 20
21.5598893773
 10
181.2805796479
 20
21.5745140838
 10
181.2607389725
 20
21.5887598229
 10
181.2408654276
 20
21.6026452334
 10
181.2209756411
 20
21.6161889544
 10
181.1917410865
 20
21.6355094759
 10
181.1625085965
 20
21.6541717203
 10
181.1332794012
 20
21.672215176
 10
181.1040547303
 20
21.6896793309
 10
181.0748358135
 20
21.7066036735
 10
181.0456238809
 20
21.7230276919
 10
181.0164201621
 20
21.7389908743
 10
180.9872258871
 20
21.754532709
 10
180.9500240216
 20
21.7737881926
 10
180.91284444
 20
21.7924488303
 10
180.8756920796
 20
21.8105403768
 10
180.8385718776
 20
21.8280885866
 10
180.8014887711
 20
21.8451192144
 10
180.7644476974
 20
21.8616580147
 10
180.7274535937
 20
21.8777307422
 10
180.6905113973
 20
21.8933631513
 10
180.6536260452
 20
21.9085809968
  0
LWPOLYLINE
  5
2B2
100
AcDbEntity
  8
SMUSSO
100
AcDbPolyline
 62
7
  6
CONTINUOUS
 90
32
 70
0
 10
127.1828509878
 20
84.046802381
 10
127.1907071536
 20
83.915428495
 10
127.2054406118
 20
83.7645900793
 10
127.2260913163
 20
83.6109877309
 10
127.2525995429
 20
83.4549738518
 10
127.2847861192
 20
83.2976056486
 10
127.3226897081
 20
83.1388739527
 10
127.3662716467
 20
82.9787879327
 10
127.4152367742
 20
82.8184323013
 10
127.4696216984
 20
82.6578052983
 10
127.5293898114
 20
82.4969086838
 10
127.5941361295
 20
82.3368324514
 10
127.6638942946
 20
82.1775825334
 10
127.7386306648
 20
82.0191529976
 10
127.8178393295
 20
81.8626160405
 10
127.901550585
 20
81.7079844929
 10
127.9897341351
 20
81.5552455242
 10
128.0817931803
 20
81.4054328383
 10
128.1777541143
 20
81.2585661079
 10
128.2775905435
 20
81.1146256603
 10
128.3806264876
 20
80.9745861818
 10
128.4868836857
 20
80.8384741388
 10
128.5963403987
 20
80.7062630648
 10
128.7082554295
 20
80.5788482464
 10
128.8226454099
 20
80.456262299
 10
128.9394937082
 20
80.3384726072
 10
129.058009232
 20
80.2262766121
 10
129.1782032839
 20
80.119712271
 10
129.3000645615
 20
80.0187416266
 10
129.4227680646
 20
79.9240482477
 10
129.5463195339
 20
79.8356747078
 10
129.6561517048
 20
79.763188622
  0
LWPOLYLINE
  5
2B3
100
AcDbEntity
  8
ASSI
100
AcDbPolyline
 62
7
  6
CONTINUOUS
 90
32
 70
0
 10
127.1828509878
 20
84.046802381
 10
127.1907071536
 20
83.915428495
 10
127.2054406118
 20
83.7645900793
 10
127.2260913163
 20
83.6109877309
 10
127.2525995429
 20
83.4549738518
 10
127.2847861192
 20
83.2976056486
 10
127.3226897081
 20
83.1388739527
 10
127.3662716467
 20
82.9787879327
 10
127.4152367742
 20
82.8184323013
 10
127.4696216984
 20
82.6578052983
 10
127.5293898114
 20
82.4969086838
 10
127.5941361295
 20
82.3368324514
 10
127.6638942946
 20
82.1775825334
 10
127.7386306648
 20
82.0191529976
 10
127.8178393295
 20
81.8626160405
 10
127.901550585
 20
81.7079844929
 10
127.9897341351
 20
81.5552455242
 10
128.0817931803
 20
81.4054328383
 10
128.1777541143
 20
81.2585661079
 10
128.2775905435
 20
81.1146256603
 10
128.3806264876
 20
80.9745861818
 10
128.4868836857
 20
80.8384741388
 10
128.5963403987
 20
80.7062630648
 10
128.7082554295
 20
80.5788482464
 10
128.8226454099
 20
80.456262299
 10
128.9394937082
 20
80.3384726072
 10
129.058009232
 20
80.2262766121
 10
129.1782032839
 20
80.119712271
 10
129.3000645615
 20
80.0187416266
 10
129.4227680646
 20
79.9240482477
 10
129.5463195339
 20
79.8356747078
 10
129.6561517048
 20
79.763188622
  0
LWPOLYLINE
  5
2B4
100
AcDbEntity
  8
SMUSSO
100
AcDbPolyline
 62
7
  6
CONTINUOUS
 90
33
 70
0
 10
127.1788128036
 20
84.0465608973
 10
127.1818887425
 20
83.902355119
 10
127.1911091009
 20
83.7549535099
 10
127.2064512392
 20
83.6047223447
 10
127.2278773605
 20
83.4520345649
 10
127.2553344455
 20
83.2972700275
 10
127.2887542282
 20
83.1408146108
 10
127.328053727
 20
82.9830573594
 10
127.3731353928
 20
82.8243903374
 10
127.4238869805
 20
82.665208876
 10
127.4801822913
 20
82.5059088763
 10
127.5418814444
 20
82.3468862356
 10
127.6088308925
 20
82.1885367352
 10
127.6808640661
 20
82.0312542934
 10
127.7578019657
 20
81.8754297015
 10
127.8394534556
 20
81.7214500823
 10
127.9256155736
 20
81.5696982282
 10
128.0160741028
 20
81.4205514669
 10
128.1106042709
 20
81.2743804516
 10
128.2089711567
 20
81.1315485141
 10
128.3109301591
 20
80.9924108956
 10
128.4162277017
 20
80.8573136852
 10
128.5246019964
 20
80.726592791
 10
128.635783617
 20
80.6005732263
 10
128.7494960554
 20
80.4795684233
 10
128.8654565696
 20
80.3638792655
 10
128.9833768835
 20
80.253793364
 10
129.1029638082
 20
80.1495844391
 10
129.2239200271
 20
80.0515115847
 10
129.3459448087
 20
79.9598186475
 10
129.4687347428
 20
79.8747336257
 10
129.5919845517
 20
79.7964680612
 10
129.6539257167
 20
79.7598157663
  0
LWPOLYLINE
  5
2B5
100
AcDbEntity
  8
ASSI
100
AcDbPolyline
 62
7
  6
CONTINUOUS
 90
33
 70
0
 10
127.1788128036
 20
84.0465608973
 10
127.1818887425
 20
83.902355119
 10
127.1911091009
 20
83.7549535099
 10
127.2064512392
 20
83.6047223447
 10
127.2278773605
 20
83.4520345649
 10
127.2553344455
 20
83.2972700275
 10
127.2887542282
 20
83.1408146108
 10
127.328053727
 20
82.9830573594
 10
127.3731353928
 20
82.8243903374
 10
127.4238869805
 20
82.665208876
 10
127.4801822913
 20
82.5059088763
 10
127.5418814444
 20
82.3468862356
 10
127.6088308925
 20
82.1885367352
 10
127.6808640661
 20
82.0312542934
 10
127.7578019657
 20
81.8754297015
 10
127.8394534556
 20
81.7214500823
 10
127.9256155736
 20
81.5696982282
 10
128.0160741028
 20
81.4205514669
 10
128.1106042709
 20
81.2743804516
 10
128.2089711567
 20
81.1315485141
 10
128.3109301591
 20
80.9924108956
 10
128.4162277017
 20
80.8573136852
 10
128.5246019964
 20
80.726592791
 10
128.635783617
 20
80.6005732263
 10
128.7494960554
 20
80.4795684233
 10
128.8654565696
 20
80.3638792655
 10
128.9833768835
 20
80.253793364
 10
129.1029638082
 20
80.1495844391
 10
129.2239200271
 20
80.0515115847
 10
129.3459448087
 20
79.9598186475
 10
129.4687347428
 20
79.8747336257
 10
129.5919845517
 20
79.7964680612
 10
129.6539257167
 20
79.7598157663
  0
LINE
  5
2B6
100
AcDbEntity
  8
SMUSSO
100
AcDbLine
 62
7
  6
CONTINUOUS
 10
126.825259413
 20
83.8424236006
 11
126.825259413
 21
87.1083047078
  0
LINE
  5
2B7
100
AcDbEntity
  8
ASSI
100
AcDbLine
 62
7
  6
CONTINUOUS
 10
126.825259413
 20
83.8424236006
 11
126.825259413
 21
87.1083047078
  0
LINE
  5
2B8
100
AcDbEntity
  8
SMUSSO
100
AcDbLine
 62
7
  6
CONTINUOUS
 10
127.1788128036
 20
87.3124420045
 11
127.1788128036
 21
84.0465608973
  0
LINE
  5
2B9
100
AcDbEntity
  8
ASSI
100
AcDbLine
 62
7
  6
CONTINUOUS
 10
127.1788128036
 20
87.3124420045
 11
127.1788128036
 21
84.0465608973
  0
LINE
  5
2BA
100
AcDbEntity
  8
SMUSSO
100
AcDbLine
 62
7
  6
CONTINUOUS
 10
131.7750068813
 20
83.2705235305
 11
131.7750068813
 21
80.0046424234
  0
LINE
  5
2BB
100
AcDbEntity
  8
ASSI
100
AcDbLine
 62
7
  6
CONTINUOUS
 10
131.7750068813
 20
83.2705235305
 11
131.7750068813
 21
80.0046424234
  0
LWPOLYLINE
  5
2BC
100
AcDbEntity
  8
SMUSSO
100
AcDbPolyline
 62
7
  6
CONTINUOUS
 90
70
 70
0
 10
131.7750068813
 20
80.0046424234
 10
131.7715043462
 20
79.8314195289
 10
131.761187401
 20
79.6632104622
 10
131.7440560456
 20
79.5000152232
 10
131.7200467357
 20
79.341516335
 10
131.6892230157
 20
79.1880312745
 10
131.6517755185
 20
79.0405124725
 10
131.6076630007
 20
78.8989971725
 10
131.5569267057
 20
78.763448131
 10
131.4998809976
 20
78.6347060475
 10
131.4364866452
 20
78.5128133364
 10
131.3667828796
 20
78.3977275832
 10
131.2912017584
 20
78.2901622453
 10
131.2097068524
 20
78.1901641557
 10
131.1223345908
 20
78.0976864813
 10
131.0296263189
 20
78.0133021795
 10
130.9315489432
 20
77.9370614833
 10
130.8281355572
 20
77.8689141597
 10
130.7200267866
 20
77.8092824667
 10
130.6071934242
 20
77.7582192302
 10
130.4896646772
 20
77.7156716243
 10
130.368168793
 20
77.6819034291
 10
130.2426811014
 20
77.6569691708
 10
130.1132262725
 20
77.6408143232
 10
129.9806065646
 20
77.6335390876
 10
129.8448023358
 20
77.6351986221
 10
129.705833228
 20
77.6457377687
 10
129.5645604254
 20
77.665091254
 10
129.420969635
 20
77.6933138146
 10
129.2750751498
 20
77.730350714
 10
129.1277810328
 20
77.7759724695
 10
128.979078583
 20
77.8302323954
 10
128.8289765014
 20
77.8930771774
 10
128.6784049542
 20
77.9641173901
 10
128.5273610185
 20
78.0434039349
 10
128.3758476173
 20
78.1308859103
 10
128.2248036854
 20
78.2260211867
 10
128.0742321472
 20
78.3288572888
 10
127.9241300783
 20
78.4393466918
 10
127.7754276406
 20
78.5568046922
 10
127.628133533
 20
78.6812745576
 10
127.4822390565
 20
78.8127130202
 10
127.3386482758
 20
78.9503055729
 10
127.1973754826
 20
79.0940904491
 10
127.0584063853
 20
79.2440294153
 10
126.9226021736
 20
79.3991932636
 10
126.7899824908
 20
79.5596144702
 10
126.6605276937
 20
79.725260559
 10
126.535040043
 20
79.8951048935
 10
126.4135442163
 20
80.0691734985
 10
126.296015536
 20
80.2474403492
 10
126.1831822301
 20
80.428800735
 10
126.0750734985
 20
80.6132737615
 10
125.9716601414
 20
80.800840323
 10
125.8735827866
 20
80.9903383916
 10
125.7808745209
 20
81.1817800041
 10
125.6935022577
 20
81.3751531236
 10
125.612007365
 20
81.5692596122
 10
125.536426279
 20
81.7641042324
 10
125.4667225636
 20
81.9596822216
 10
125.4033282789
 20
82.1547811544
 10
125.3462826631
 20
82.3493981269
 10
125.2955464781
 20
82.543536043
 10
125.2514340695
 20
82.7359911878
 10
125.2139866813
 20
82.9267531687
 10
125.1831630696
 20
83.1158323785
 10
125.159153848
 20
83.3020562802
 10
125.1420225545
 20
83.4850340283
 10
125.1317056512
 20
83.6651564685
 10
125.1282031381
 20
83.8424236006
  0
LWPOLYLINE
  5
2BD
100
AcDbEntity
  8
ASSI
100
AcDbPolyline
 62
7
  6
CONTINUOUS
 90
70
 70
0
 10
131.7750068813
 20
80.0046424234
 10
131.7715043462
 20
79.8314195289
 10
131.761187401
 20
79.6632104622
 10
131.7440560456
 20
79.5000152232
 10
131.7200467357
 20
79.341516335
 10
131.6892230157
 20
79.1880312745
 10
131.6517755185
 20
79.0405124725
 10
131.6076630007
 20
78.8989971725
 10
131.5569267057
 20
78.763448131
 10
131.4998809976
 20
78.6347060475
 10
131.4364866452
 20
78.5128133364
 10
131.3667828796
 20
78.3977275832
 10
131.2912017584
 20
78.2901622453
 10
131.2097068524
 20
78.1901641557
 10
131.1223345908
 20
78.0976864813
 10
131.0296263189
 20
78.0133021795
 10
130.9315489432
 20
77.9370614833
 10
130.8281355572
 20
77.8689141597
 10
130.7200267866
 20
77.8092824667
 10
130.6071934242
 20
77.7582192302
 10
130.4896646772
 20
77.7156716243
 10
130.368168793
 20
77.6819034291
 10
130.2426811014
 20
77.6569691708
 10
130.1132262725
 20
77.6408143232
 10
129.9806065646
 20
77.6335390876
 10
129.8448023358
 20
77.6351986221
 10
129.705833228
 20
77.6457377687
 10
129.5645604254
 20
77.665091254
 10
129.420969635
 20
77.6933138146
 10
129.2750751498
 20
77.730350714
 10
129.1277810328
 20
77.7759724695
 10
128.979078583
 20
77.8302323954
 10
128.8289765014
 20
77.8930771774
 10
128.6784049542
 20
77.9641173901
 10
128.5273610185
 20
78.0434039349
 10
128.3758476173
 20
78.1308859103
 10
128.2248036854
 20
78.2260211867
 10
128.0742321472
 20
78.3288572888
 10
127.9241300783
 20
78.4393466918
 10
127.7754276406
 20
78.5568046922
 10
127.628133533
 20
78.6812745576
 10
127.4822390565
 20
78.8127130202
 10
127.3386482758
 20
78.9503055729
 10
127.1973754826
 20
79.0940904491
 10
127.0584063853
 20
79.2440294153
 10
126.9226021736
 20
79.3991932636
 10
126.7899824908
 20
79.5596144702
 10
126.6605276937
 20
79.725260559
 10
126.535040043
 20
79.8951048935
 10
126.4135442163
 20
80.0691734985
 10
126.296015536
 20
80.2474403492
 10
126.1831822301
 20
80.428800735
 10
126.0750734985
 20
80.6132737615
 10
125.9716601414
 20
80.800840323
 10
125.8735827866
 20
80.9903383916
 10
125.7808745209
 20
81.1817800041
 10
125.6935022577
 20
81.3751531236
 10
125.612007365
 20
81.5692596122
 10
125.536426279
 20
81.7641042324
 10
125.4667225636
 20
81.9596822216
 10
125.4033282789
 20
82.1547811544
 10
125.3462826631
 20
82.3493981269
 10
125.2955464781
 20
82.543536043
 10
125.2514340695
 20
82.7359911878
 10
125.2139866813
 20
82.9267531687
 10
125.1831630696
 20
83.1158323785
 10
125.159153848
 20
83.3020562802
 10
125.1420225545
 20
83.4850340283
 10
125.1317056512
 20
83.6651564685
 10
125.1282031381
 20
83.8424236006
  0
LWPOLYLINE
  5
2BE
100
AcDbEntity
  8
SMUSSO
100
AcDbPolyline
 62
7
  6
CONTINUOUS
 90
18
 70
0
 10
126.825259413
 20
87.1083047078
 10
126.8280621081
 20
87.2426466801
 10
126.8364640467
 20
87.3734502126
 10
126.8504464996
 20
87.5004188364
 10
126.8699781556
 20
87.6232650709
 10
126.8950150394
 20
87.7417100673
 10
126.9255004604
 20
87.8554843647
 10
126.9613654842
 20
87.9643299928
 10
127.0025290464
 20
88.0680003353
 10
127.0488977835
 20
88.1662598631
 10
127.1003666815
 20
88.2588858442
 10
127.1568192378
 20
88.3456684365
 10
127.218127412
 20
88.4264106994
 10
127.2841522686
 20
88.5009296356
 10
127.3547442966
 20
88.5690564803
 10
127.4297435269
 20
88.6306368312
 10
127.508980055
 20
88.6855311766
 10
127.5500485866
 20
88.7103837218
  0
LWPOLYLINE
  5
2BF
100
AcDbEntity
  8
ASSI
100
AcDbPolyline
 62
7
  6
CONTINUOUS
 90
18
 70
0
 10
126.825259413
 20
87.1083047078
 10
126.8280621081
 20
87.2426466801
 10
126.8364640467
 20
87.3734502126
 10
126.8504464996
 20
87.5004188364
 10
126.8699781556
 20
87.6232650709
 10
126.8950150394
 20
87.7417100673
 10
126.9255004604
 20
87.8554843647
 10
126.9613654842
 20
87.9643299928
 10
127.0025290464
 20
88.0680003353
 10
127.0488977835
 20
88.1662598631
 10
127.1003666815
 20
88.2588858442
 10
127.1568192378
 20
88.3456684365
 10
127.218127412
 20
88.4264106994
 10
127.2841522686
 20
88.5009296356
 10
127.3547442966
 20
88.5690564803
 10
127.4297435269
 20
88.6306368312
 10
127.508980055
 20
88.6855311766
 10
127.5500485866
 20
88.7103837218
  0
LWPOLYLINE
  5
2C0
100
AcDbEntity
  8
SMUSSO
100
AcDbPolyline
 62
7
  6
CONTINUOUS
 90
18
 70
0
 10
131.7750068813
 20
80.9845014473
 10
131.7722041861
 20
80.8501594751
 10
131.7638022475
 20
80.7193559426
 10
131.7498197947
 20
80.5923873188
 10
131.7302881386
 20
80.4695410843
 10
131.7052512548
 20
80.3510960878
 10
131.6747658339
 20
80.2373217904
 10
131.6389008101
 20
80.1284761623
 10
131.5977372479
 20
80.0248058199
 10
131.5513685108
 20
79.9265462921
 10
131.4998996127
 20
79.8339203109
 10
131.4434470564
 20
79.7471377187
 10
131.3821388822
 20
79.6663954558
 10
131.3161140256
 20
79.5918765196
 10
131.2455219977
 20
79.5237496749
 10
131.1705227674
 20
79.462169324
 10
131.0912862393
 20
79.4072749786
 10
131.0502177076
 20
79.3824224333
  0
LWPOLYLINE
  5
2C1
100
AcDbEntity
  8
ASSI
100
AcDbPolyline
 62
7
  6
CONTINUOUS
 90
18
 70
0
 10
131.7750068813
 20
80.9845014473
 10
131.7722041861
 20
80.8501594751
 10
131.7638022475
 20
80.7193559426
 10
131.7498197947
 20
80.5923873188
 10
131.7302881386
 20
80.4695410843
 10
131.7052512548
 20
80.3510960878
 10
131.6747658339
 20
80.2373217904
 10
131.6389008101
 20
80.1284761623
 10
131.5977372479
 20
80.0248058199
 10
131.5513685108
 20
79.9265462921
 10
131.4998996127
 20
79.8339203109
 10
131.4434470564
 20
79.7471377187
 10
131.3821388822
 20
79.6663954558
 10
131.3161140256
 20
79.5918765196
 10
131.2455219977
 20
79.5237496749
 10
131.1705227674
 20
79.462169324
 10
131.0912862393
 20
79.4072749786
 10
131.0502177076
 20
79.3824224333
  0
LINE
  5
2C2
100
AcDbEntity
  8
SMUSSO
100
AcDbLine
 62
7
  6
CONTINUOUS
 10
127.1818887582
 20
87.453096119
 11
127.1788128036
 21
87.3124420045
  0
LINE
  5
2C3
100
AcDbEntity
  8
ASSI
100
AcDbLine
 62
7
  6
CONTINUOUS
 10
127.1818887582
 20
87.453096119
 11
127.1788128036
 21
87.3124420045
  0
LINE
  5
2C4
100
AcDbEntity
  8
SMUSSO
100
AcDbLine
 62
7
  6
CONTINUOUS
 10
127.1911091593
 20
87.589850576
 11
127.1818887582
 21
87.453096119
  0
LINE
  5
2C5
100
AcDbEntity
  8
ASSI
100
AcDbLine
 62
7
  6
CONTINUOUS
 10
127.1911091593
 20
87.589850576
 11
127.1818887582
 21
87.453096119
  0
LWPOLYLINE
  5
2C6
100
AcDbEntity
  8
SMUSSO
100
AcDbPolyline
 62
7
  6
CONTINUOUS
 90
11
 70
0
 10
127.6088314924
 20
88.6738927258
 10
127.5418820412
 20
88.5928548834
 10
127.4801828786
 20
88.5050810012
 10
127.4238875374
 20
88.4107895232
 10
127.3731359006
 20
88.3102148071
 10
127.3280541729
 20
88.2036070219
 10
127.288754598
 20
88.0912318603
 10
127.2553347299
 20
87.973368726
 10
127.2278775598
 20
87.8503108396
 10
127.2064513609
 20
87.7223652464
 10
127.1911091593
 20
87.589850576
  0
LWPOLYLINE
  5
2C7
100
AcDbEntity
  8
ASSI
100
AcDbPolyline
 62
7
  6
CONTINUOUS
 90
11
 70
0
 10
127.6088314924
 20
88.6738927258
 10
127.5418820412
 20
88.5928548834
 10
127.4801828786
 20
88.5050810012
 10
127.4238875374
 20
88.4107895232
 10
127.3731359006
 20
88.3102148071
 10
127.3280541729
 20
88.2036070219
 10
127.288754598
 20
88.0912318603
 10
127.2553347299
 20
87.973368726
 10
127.2278775598
 20
87.8503108396
 10
127.2064513609
 20
87.7223652464
 10
127.1911091593
 20
87.589850576
  0
LWPOLYLINE
  5
2C8
100
AcDbEntity
  8
SMUSSO
100
AcDbPolyline
 62
7
  6
CONTINUOUS
 90
3
 70
0
 10
127.7361108607
 20
88.796087722
 10
127.6808646674
 20
88.7479929641
 10
127.6088314924
 20
88.6738927258
  0
LWPOLYLINE
  5
2C9
100
AcDbEntity
  8
ASSI
100
AcDbPolyline
 62
7
  6
CONTINUOUS
 90
3
 70
0
 10
127.7361108607
 20
88.796087722
 10
127.6808646674
 20
88.7479929641
 10
127.6088314924
 20
88.6738927258
  0
LINE
  5
2CA
100
AcDbEntity
  8
SMUSSO
100
AcDbLine
 62
250
  6
CONTINUOUS
 10
127.1788128036
 20
87.3124420045
 11
126.825259413
 21
87.1083047078
  0
LINE
  5
2CB
100
AcDbEntity
  8
ASSI
100
AcDbLine
 62
250
  6
CONTINUOUS
 10
127.1788128036
 20
87.3124420045
 11
126.825259413
 21
87.1083047078
  0
LINE
  5
2CC
100
AcDbEntity
  8
SMUSSO
100
AcDbLine
 62
250
  6
CONTINUOUS
 10
127.1788128036
 20
84.0465608973
 11
126.825259413
 21
83.8424236006
  0
LINE
  5
2CD
100
AcDbEntity
  8
ASSI
100
AcDbLine
 62
250
  6
CONTINUOUS
 10
127.1788128036
 20
84.0465608973
 11
126.825259413
 21
83.8424236006
  0
LWPOLYLINE
  5
2CE
100
AcDbEntity
  8
SMUSSO
100
AcDbPolyline
 62
7
  6
CONTINUOUS
 90
15
 70
0
 10
127.5500485866
 20
88.7103837218
 10
127.592274377
 20
88.7336151515
 10
127.6794377279
 20
88.7747797906
 10
127.7702726798
 20
88.8089318628
 10
127.8645734053
 20
88.8359939892
 10
127.9621260525
 20
88.8559048386
 10
128.062709604
 20
88.8686193627
 10
128.1660961647
 20
88.8741088142
 10
128.2720512456
 20
88.8723608285
 10
128.3803347586
 20
88.8633794776
 10
128.4907013888
 20
88.8471852178
 10
128.6029008863
 20
88.8238148918
 10
128.7166790438
 20
88.7933215891
 10
128.8317780971
 20
88.7557745304
 10
128.9061805472
 20
88.7272613287
  0
LWPOLYLINE
  5
2CF
100
AcDbEntity
  8
ASSI
100
AcDbPolyline
 62
7
  6
CONTINUOUS
 90
15
 70
0
 10
127.5500485866
 20
88.7103837218
 10
127.592274377
 20
88.7336151515
 10
127.6794377279
 20
88.7747797906
 10
127.7702726798
 20
88.8089318628
 10
127.8645734053
 20
88.8359939892
 10
127.9621260525
 20
88.8559048386
 10
128.062709604
 20
88.8686193627
 10
128.1660961647
 20
88.8741088142
 10
128.2720512456
 20
88.8723608285
 10
128.3803347586
 20
88.8633794776
 10
128.4907013888
 20
88.8471852178
 10
128.6029008863
 20
88.8238148918
 10
128.7166790438
 20
88.7933215891
 10
128.8317780971
 20
88.7557745304
 10
128.9061805472
 20
88.7272613287
  0
LINE
  5
2D0
100
AcDbEntity
  8
SMUSSO
100
AcDbLine
 62
250
  6
CONTINUOUS
 10
125.1282031381
 20
83.8424236006
 11
126.825259413
 21
83.8424236006
  0
LINE
  5
2D1
100
AcDbEntity
  8
ASSI
100
AcDbLine
 62
250
  6
CONTINUOUS
 10
125.1282031381
 20
83.8424236006
 11
126.825259413
 21
83.8424236006
  0
LWPOLYLINE
  5
2D2
100
AcDbEntity
  8
SMUSSO
100
AcDbPolyline
 62
7
  6
CONTINUOUS
 90
14
 70
0
 10
97.8341205633
 20
98.132172466
 10
97.8955826413
 20
98.0975732541
 10
98.0188324505
 20
98.0335129863
 10
98.1416223858
 20
97.9768032272
 10
98.2636471689
 20
97.9275849618
 10
98.3846033886
 20
97.8859805628
 10
98.5041903125
 20
97.8520934603
 10
98.6221106251
 20
97.8260078936
 10
98.7380711399
 20
97.8077887086
 10
98.8517835805
 20
97.7974811887
 10
98.9629652054
 20
97.7951109534
 10
99.0713395093
 20
97.8006838757
 10
99.1766370687
 20
97.8141860699
 10
99.2785960924
 20
97.8355839349
  0
LWPOLYLINE
  5
2D3
100
AcDbEntity
  8
ASSI
100
AcDbPolyline
 62
7
  6
CONTINUOUS
 90
14
 70
0
 10
97.8341205633
 20
98.132172466
 10
97.8955826413
 20
98.0975732541
 10
98.0188324505
 20
98.0335129863
 10
98.1416223858
 20
97.9768032272
 10
98.2636471689
 20
97.9275849618
 10
98.3846033886
 20
97.8859805628
 10
98.5041903125
 20
97.8520934603
 10
98.6221106251
 20
97.8260078936
 10
98.7380711399
 20
97.8077887086
 10
98.8517835805
 20
97.7974811887
 10
98.9629652054
 20
97.7951109534
 10
99.0713395093
 20
97.8006838757
 10
99.1766370687
 20
97.8141860699
 10
99.2785960924
 20
97.8355839349
  0
LWPOLYLINE
  5
2D4
100
AcDbEntity
  8
SMUSSO
100
AcDbPolyline
 62
7
  6
CONTINUOUS
 90
51
 70
0
 10
131.0502177076
 20
79.3824224333
 10
131.0079919172
 20
79.3591910036
 10
130.9208285663
 20
79.3180263646
 10
130.8299936144
 20
79.2838742923
 10
130.7356928889
 20
79.2568121659
 10
130.6381402418
 20
79.2369013166
 10
130.5375566902
 20
79.2241867925
 10
130.4341701296
 20
79.2186973409
 10
130.3282150486
 20
79.2204453267
 10
130.2199315356
 20
79.2294266775
 10
130.1095649054
 20
79.2456209374
 10
129.9973654079
 20
79.2689912634
 10
129.8835872505
 20
79.299484566
 10
129.7684881972
 20
79.3370316248
 10
129.652329192
 20
79.3815471634
 10
129.5353737714
 20
79.4329299875
 10
129.4178864922
 20
79.4910636693
 10
129.3001325115
 20
79.5558169222
 10
129.1823785737
 20
79.6270430574
 10
129.0648913878
 20
79.7045807444
 10
128.9479360574
 20
79.7882551047
 10
128.831777122
 20
79.8778770768
 10
128.7166781347
 20
79.9732435193
 10
128.6029000383
 20
80.0741383786
 10
128.4907005953
 20
80.1803332181
 10
128.3803340144
 20
80.2915875747
 10
128.2720505479
 20
80.4076493074
 10
128.1660955112
 20
80.5282555889
 10
128.0627089919
 20
80.6531332445
 10
127.9621254801
 20
80.7819991263
 10
127.8645728728
 20
80.9145613176
 10
127.7702721853
 20
81.0505195472
 10
127.6794372662
 20
81.1895655391
 10
127.5922739438
 20
81.3313842294
 10
127.5089796461
 20
81.4756544038
 10
127.4297431339
 20
81.622049125
 10
127.3547439092
 20
81.770236749
 10
127.2841518819
 20
81.9198815559
 10
127.2181270279
 20
82.0706444033
 10
127.1568188571
 20
82.2221838784
 10
127.1003663074
 20
82.3741565403
 10
127.0488974279
 20
82.5262175652
 10
127.0025287197
 20
82.6780225746
 10
126.9613651943
 20
82.8292275706
 10
126.9255002173
 20
82.979489191
 10
126.8950148496
 20
83.128467205
 10
126.86997802
 20
83.2758240449
 10
126.8504464153
 20
83.4212247809
 10
126.8364640058
 20
83.5643397838
 10
126.828062097
 20
83.7048454214
 10
126.825259413
 20
83.8424236006
  0
LWPOLYLINE
  5
2D5
100
AcDbEntity
  8
ASSI
100
AcDbPolyline
 62
7
  6
CONTINUOUS
 90
51
 70
0
 10
131.0502177076
 20
79.3824224333
 10
131.0079919172
 20
79.3591910036
 10
130.9208285663
 20
79.3180263646
 10
130.8299936144
 20
79.2838742923
 10
130.7356928889
 20
79.2568121659
 10
130.6381402418
 20
79.2369013166
 10
130.5375566902
 20
79.2241867925
 10
130.4341701296
 20
79.2186973409
 10
130.3282150486
 20
79.2204453267
 10
130.2199315356
 20
79.2294266775
 10
130.1095649054
 20
79.2456209374
 10
129.9973654079
 20
79.2689912634
 10
129.8835872505
 20
79.299484566
 10
129.7684881972
 20
79.3370316248
 10
129.652329192
 20
79.3815471634
 10
129.5353737714
 20
79.4329299875
 10
129.4178864922
 20
79.4910636693
 10
129.3001325115
 20
79.5558169222
 10
129.1823785737
 20
79.6270430574
 10
129.0648913878
 20
79.7045807444
 10
128.9479360574
 20
79.7882551047
 10
128.831777122
 20
79.8778770768
 10
128.7166781347
 20
79.9732435193
 10
128.6029000383
 20
80.0741383786
 10
128.4907005953
 20
80.1803332181
 10
128.3803340144
 20
80.2915875747
 10
128.2720505479
 20
80.4076493074
 10
128.1660955112
 20
80.5282555889
 10
128.0627089919
 20
80.6531332445
 10
127.9621254801
 20
80.7819991263
 10
127.8645728728
 20
80.9145613176
 10
127.7702721853
 20
81.0505195472
 10
127.6794372662
 20
81.1895655391
 10
127.5922739438
 20
81.3313842294
 10
127.5089796461
 20
81.4756544038
 10
127.4297431339
 20
81.622049125
 10
127.3547439092
 20
81.770236749
 10
127.2841518819
 20
81.9198815559
 10
127.2181270279
 20
82.0706444033
 10
127.1568188571
 20
82.2221838784
 10
127.1003663074
 20
82.3741565403
 10
127.0488974279
 20
82.5262175652
 10
127.0025287197
 20
82.6780225746
 10
126.9613651943
 20
82.8292275706
 10
126.9255002173
 20
82.979489191
 10
126.8950148496
 20
83.128467205
 10
126.86997802
 20
83.2758240449
 10
126.8504464153
 20
83.4212247809
 10
126.8364640058
 20
83.5643397838
 10
126.828062097
 20
83.7048454214
 10
126.825259413
 20
83.8424236006
  0
LWPOLYLINE
  5
2D6
100
AcDbEntity
  8
SMUSSO
100
AcDbPolyline
 62
7
  6
CONTINUOUS
 90
3
 70
0
 10
131.0984012458
 20
79.4632272351
 10
131.1967681519
 20
79.4924675045
 10
131.2171343604
 20
79.5004411601
  0
LWPOLYLINE
  5
2D7
100
AcDbEntity
  8
ASSI
100
AcDbPolyline
 62
7
  6
CONTINUOUS
 90
3
 70
0
 10
131.0984012458
 20
79.4632272351
 10
131.1967681519
 20
79.4924675045
 10
131.2171343604
 20
79.5004411601
  0
LINE
  5
2D8
100
AcDbEntity
  8
SMUSSO
100
AcDbLine
 62
250
  6
CONTINUOUS
 10
125.1282031381
 20
87.1083047078
 11
126.825259413
 21
87.1083047078
  0
LINE
  5
2D9
100
AcDbEntity
  8
ASSI
100
AcDbLine
 62
250
  6
CONTINUOUS
 10
125.1282031381
 20
87.1083047078
 11
126.825259413
 21
87.1083047078
  0
LWPOLYLINE
  5
2DA
100
AcDbEntity
  8
SMUSSO
100
AcDbPolyline
 62
7
  6
CONTINUOUS
 90
36
 70
0
 10
96.6314786757
 20
107.3993352815
 10
96.7075572487
 20
107.3544179206
 10
96.8586011805
 20
107.2592826442
 10
97.0091727188
 20
107.1564465421
 10
97.1592747876
 20
107.0459571391
 10
97.3079772254
 20
106.9284991388
 10
97.455271333
 20
106.8040292734
 10
97.6011658095
 20
106.6725908107
 10
97.7447565902
 20
106.5349982581
 10
97.8860293834
 20
106.3912133818
 10
98.0249984807
 20
106.2412744156
 10
98.1608026924
 20
106.0861105673
 10
98.2934223752
 20
105.9256893607
 10
98.4228771723
 20
105.7600432719
 10
98.548364823
 20
105.5901989375
 10
98.6698606497
 20
105.4161303325
 10
98.78738933
 20
105.2378634817
 10
98.9002226359
 20
105.056503096
 10
99.0083313675
 20
104.8720300694
 10
99.1117447246
 20
104.6844635079
 10
99.2098220794
 20
104.4949654393
 10
99.302530345
 20
104.3035238269
 10
99.3899026083
 20
104.1101507073
 10
99.4713975009
 20
103.9160442188
 10
99.546978587
 20
103.7211995986
 10
99.6166823024
 20
103.5256216093
 10
99.6800765871
 20
103.3305226766
 10
99.7371222029
 20
103.135905704
 10
99.7878583879
 20
102.9417677879
 10
99.8319707965
 20
102.7493126431
 10
99.8694181847
 20
102.5585506622
 10
99.9002417964
 20
102.3694714525
 10
99.924251018
 20
102.1832475507
 10
99.9413823114
 20
102.0002698026
 10
99.9516992147
 20
101.8201473624
 10
99.9552017279
 20
101.6428802303
  0
LWPOLYLINE
  5
2DB
100
AcDbEntity
  8
ASSI
100
AcDbPolyline
 62
7
  6
CONTINUOUS
 90
36
 70
0
 10
96.6314786757
 20
107.3993352815
 10
96.7075572487
 20
107.3544179206
 10
96.8586011805
 20
107.2592826442
 10
97.0091727188
 20
107.1564465421
 10
97.1592747876
 20
107.0459571391
 10
97.3079772254
 20
106.9284991388
 10
97.455271333
 20
106.8040292734
 10
97.6011658095
 20
106.6725908107
 10
97.7447565902
 20
106.5349982581
 10
97.8860293834
 20
106.3912133818
 10
98.0249984807
 20
106.2412744156
 10
98.1608026924
 20
106.0861105673
 10
98.2934223752
 20
105.9256893607
 10
98.4228771723
 20
105.7600432719
 10
98.548364823
 20
105.5901989375
 10
98.6698606497
 20
105.4161303325
 10
98.78738933
 20
105.2378634817
 10
98.9002226359
 20
105.056503096
 10
99.0083313675
 20
104.8720300694
 10
99.1117447246
 20
104.6844635079
 10
99.2098220794
 20
104.4949654393
 10
99.302530345
 20
104.3035238269
 10
99.3899026083
 20
104.1101507073
 10
99.4713975009
 20
103.9160442188
 10
99.546978587
 20
103.7211995986
 10
99.6166823024
 20
103.5256216093
 10
99.6800765871
 20
103.3305226766
 10
99.7371222029
 20
103.135905704
 10
99.7878583879
 20
102.9417677879
 10
99.8319707965
 20
102.7493126431
 10
99.8694181847
 20
102.5585506622
 10
99.9002417964
 20
102.3694714525
 10
99.924251018
 20
102.1832475507
 10
99.9413823114
 20
102.0002698026
 10
99.9516992147
 20
101.8201473624
 10
99.9552017279
 20
101.6428802303
  0
LWPOLYLINE
  5
2DC
100
AcDbEntity
  8
SMUSSO
100
AcDbPolyline
 62
7
  6
CONTINUOUS
 90
36
 70
0
 10
112.5413812524
 20
98.2131569316
 10
112.6174598254
 20
98.1682395708
 10
112.7685037572
 20
98.0731042944
 10
112.9190752955
 20
97.9702681923
 10
113.0691773643
 20
97.8597787892
 10
113.2178798021
 20
97.7423207889
 10
113.3651739097
 20
97.6178509235
 10
113.5110683862
 20
97.4864124608
 10
113.6546591669
 20
97.3488199082
 10
113.7959319601
 20
97.205035032
 10
113.9349010574
 20
97.0550960658
 10
114.070705269
 20
96.8999322174
 10
114.2033249519
 20
96.7395110108
 10
114.332779749
 20
96.5738649221
 10
114.4582673997
 20
96.4040205876
 10
114.5797632264
 20
96.2299519826
 10
114.6972919067
 20
96.0516851318
 10
114.8101252126
 20
95.8703247461
 10
114.9182339442
 20
95.6858517196
 10
115.0216473013
 20
95.498285158
 10
115.1197246561
 20
95.3087870894
 10
115.2124329217
 20
95.117345477
 10
115.299805185
 20
94.9239723575
 10
115.3813000776
 20
94.7298658689
 10
115.4568811637
 20
94.5350212487
 10
115.5265848791
 20
94.3394432594
 10
115.5899791638
 20
94.1443443267
 10
115.6470247796
 20
93.9497273541
 10
115.6977609646
 20
93.7555894381
 10
115.7418733732
 20
93.5631342932
 10
115.7793207614
 20
93.3723723123
 10
115.8101443731
 20
93.1832931026
 10
115.8341535947
 20
92.9970692009
 10
115.8512848881
 20
92.8140914527
 10
115.8616017914
 20
92.6339690126
 10
115.8651043046
 20
92.4567018804
  0
LWPOLYLINE
  5
2DD
100
AcDbEntity
  8
ASSI
100
AcDbPolyline
 62
7
  6
CONTINUOUS
 90
36
 70
0
 10
112.5413812524
 20
98.2131569316
 10
112.6174598254
 20
98.1682395708
 10
112.7685037572
 20
98.0731042944
 10
112.9190752955
 20
97.9702681923
 10
113.0691773643
 20
97.8597787892
 10
113.2178798021
 20
97.7423207889
 10
113.3651739097
 20
97.6178509235
 10
113.5110683862
 20
97.4864124608
 10
113.6546591669
 20
97.3488199082
 10
113.7959319601
 20
97.205035032
 10
113.9349010574
 20
97.0550960658
 10
114.070705269
 20
96.8999322174
 10
114.2033249519
 20
96.7395110108
 10
114.332779749
 20
96.5738649221
 10
114.4582673997
 20
96.4040205876
 10
114.5797632264
 20
96.2299519826
 10
114.6972919067
 20
96.0516851318
 10
114.8101252126
 20
95.8703247461
 10
114.9182339442
 20
95.6858517196
 10
115.0216473013
 20
95.498285158
 10
115.1197246561
 20
95.3087870894
 10
115.2124329217
 20
95.117345477
 10
115.299805185
 20
94.9239723575
 10
115.3813000776
 20
94.7298658689
 10
115.4568811637
 20
94.5350212487
 10
115.5265848791
 20
94.3394432594
 10
115.5899791638
 20
94.1443443267
 10
115.6470247796
 20
93.9497273541
 10
115.6977609646
 20
93.7555894381
 10
115.7418733732
 20
93.5631342932
 10
115.7793207614
 20
93.3723723123
 10
115.8101443731
 20
93.1832931026
 10
115.8341535947
 20
92.9970692009
 10
115.8512848881
 20
92.8140914527
 10
115.8616017914
 20
92.6339690126
 10
115.8651043046
 20
92.4567018804
  0
LWPOLYLINE
  5
2DE
100
AcDbEntity
  8
SMUSSO
100
AcDbPolyline
 62
7
  6
CONTINUOUS
 90
36
 70
0
 10
128.4512838291
 20
89.0269785817
 10
128.527362402
 20
88.9820612209
 10
128.6784063339
 20
88.8869259445
 10
128.8289778722
 20
88.7840898424
 10
128.979079941
 20
88.6736004393
 10
129.1277823788
 20
88.556142439
 10
129.2750764864
 20
88.4316725736
 10
129.4209709629
 20
88.300234111
 10
129.5645617436
 20
88.1626415583
 10
129.7058345368
 20
88.0188566821
 10
129.8448036341
 20
87.8689177159
 10
129.9806078457
 20
87.7137538675
 10
130.1132275286
 20
87.5533326609
 10
130.2426823257
 20
87.3876865722
 10
130.3681699764
 20
87.2178422377
 10
130.4896658031
 20
87.0437736327
 10
130.6071944834
 20
86.865506782
 10
130.7200277893
 20
86.6841463962
 10
130.8281365209
 20
86.4996733697
 10
130.931549878
 20
86.3121068082
 10
131.0296272328
 20
86.1226087395
 10
131.1223354984
 20
85.9311671271
 10
131.2097077617
 20
85.7377940076
 10
131.2912026543
 20
85.543687519
 10
131.3667837404
 20
85.3488428988
 10
131.4364874558
 20
85.1532649096
 10
131.4998817405
 20
84.9581659768
 10
131.5569273563
 20
84.7635490042
 10
131.6076635413
 20
84.5694110882
 10
131.6517759499
 20
84.3769559434
 10
131.6892233381
 20
84.1861939624
 10
131.7200469498
 20
83.9971147527
 10
131.7440561714
 20
83.810890851
 10
131.7611874648
 20
83.6279131028
 10
131.7715043681
 20
83.4477906627
 10
131.7750068813
 20
83.2705235305
  0
LWPOLYLINE
  5
2DF
100
AcDbEntity
  8
ASSI
100
AcDbPolyline
 62
7
  6
CONTINUOUS
 90
36
 70
0
 10
128.4512838291
 20
89.0269785817
 10
128.527362402
 20
88.9820612209
 10
128.6784063339
 20
88.8869259445
 10
128.8289778722
 20
88.7840898424
 10
128.979079941
 20
88.6736004393
 10
129.1277823788
 20
88.556142439
 10
129.2750764864
 20
88.4316725736
 10
129.4209709629
 20
88.300234111
 10
129.5645617436
 20
88.1626415583
 10
129.7058345368
 20
88.0188566821
 10
129.8448036341
 20
87.8689177159
 10
129.9806078457
 20
87.7137538675
 10
130.1132275286
 20
87.5533326609
 10
130.2426823257
 20
87.3876865722
 10
130.3681699764
 20
87.2178422377
 10
130.4896658031
 20
87.0437736327
 10
130.6071944834
 20
86.865506782
 10
130.7200277893
 20
86.6841463962
 10
130.8281365209
 20
86.4996733697
 10
130.931549878
 20
86.3121068082
 10
131.0296272328
 20
86.1226087395
 10
131.1223354984
 20
85.9311671271
 10
131.2097077617
 20
85.7377940076
 10
131.2912026543
 20
85.543687519
 10
131.3667837404
 20
85.3488428988
 10
131.4364874558
 20
85.1532649096
 10
131.4998817405
 20
84.9581659768
 10
131.5569273563
 20
84.7635490042
 10
131.6076635413
 20
84.5694110882
 10
131.6517759499
 20
84.3769559434
 10
131.6892233381
 20
84.1861939624
 10
131.7200469498
 20
83.9971147527
 10
131.7440561714
 20
83.810890851
 10
131.7611874648
 20
83.6279131028
 10
131.7715043681
 20
83.4477906627
 10
131.7750068813
 20
83.2705235305
  0
LWPOLYLINE
  5
2E0
100
AcDbEntity
  8
SMUSSO
100
AcDbPolyline
 62
7
  6
CONTINUOUS
 90
36
 70
0
 10
144.3611864058
 20
79.8408002318
 10
144.4372649787
 20
79.795882871
 10
144.5883089106
 20
79.7007475946
 10
144.7388804489
 20
79.5979114925
 10
144.8889825177
 20
79.4874220895
 10
145.0376849555
 20
79.3699640891
 10
145.1849790631
 20
79.2454942237
 10
145.3308735396
 20
79.1140557611
 10
145.4744643203
 20
78.9764632084
 10
145.6157371135
 20
78.8326783322
 10
145.7547062108
 20
78.682739366
 10
145.8905104224
 20
78.5275755177
 10
146.0231301053
 20
78.367154311
 10
146.1525849024
 20
78.2015082223
 10
146.2780725531
 20
78.0316638878
 10
146.3995683798
 20
77.8575952828
 10
146.5170970601
 20
77.6793284321
 10
146.629930366
 20
77.4979680463
 10
146.7380390976
 20
77.3134950198
 10
146.8414524547
 20
77.1259284583
 10
146.9395298095
 20
76.9364303897
 10
147.0322380751
 20
76.7449887772
 10
147.1196103384
 20
76.5516156577
 10
147.201105231
 20
76.3575091691
 10
147.2766863171
 20
76.1626645489
 10
147.3463900325
 20
75.9670865597
 10
147.4097843172
 20
75.7719876269
 10
147.466829933
 20
75.5773706544
 10
147.517566118
 20
75.3832327383
 10
147.5616785266
 20
75.1907775935
 10
147.5991259148
 20
75.0000156126
 10
147.6299495265
 20
74.8109364028
 10
147.6539587481
 20
74.6247125011
 10
147.6710900415
 20
74.441734753
 10
147.6814069448
 20
74.2616123128
 10
147.684909458
 20
74.0843451807
  0
LWPOLYLINE
  5
2E1
100
AcDbEntity
  8
ASSI
100
AcDbPolyline
 62
7
  6
CONTINUOUS
 90
36
 70
0
 10
144.3611864058
 20
79.8408002318
 10
144.4372649787
 20
79.795882871
 10
144.5883089106
 20
79.7007475946
 10
144.7388804489
 20
79.5979114925
 10
144.8889825177
 20
79.4874220895
 10
145.0376849555
 20
79.3699640891
 10
145.1849790631
 20
79.2454942237
 10
145.3308735396
 20
79.1140557611
 10
145.4744643203
 20
78.9764632084
 10
145.6157371135
 20
78.8326783322
 10
145.7547062108
 20
78.682739366
 10
145.8905104224
 20
78.5275755177
 10
146.0231301053
 20
78.367154311
 10
146.1525849024
 20
78.2015082223
 10
146.2780725531
 20
78.0316638878
 10
146.3995683798
 20
77.8575952828
 10
146.5170970601
 20
77.6793284321
 10
146.629930366
 20
77.4979680463
 10
146.7380390976
 20
77.3134950198
 10
146.8414524547
 20
77.1259284583
 10
146.9395298095
 20
76.9364303897
 10
147.0322380751
 20
76.7449887772
 10
147.1196103384
 20
76.5516156577
 10
147.201105231
 20
76.3575091691
 10
147.2766863171
 20
76.1626645489
 10
147.3463900325
 20
75.9670865597
 10
147.4097843172
 20
75.7719876269
 10
147.466829933
 20
75.5773706544
 10
147.517566118
 20
75.3832327383
 10
147.5616785266
 20
75.1907775935
 10
147.5991259148
 20
75.0000156126
 10
147.6299495265
 20
74.8109364028
 10
147.6539587481
 20
74.6247125011
 10
147.6710900415
 20
74.441734753
 10
147.6814069448
 20
74.2616123128
 10
147.684909458
 20
74.0843451807
  0
LWPOLYLINE
  5
2E2
100
AcDbEntity
  8
SMUSSO
100
AcDbPolyline
 62
7
  6
CONTINUOUS
 90
36
 70
0
 10
160.2710889825
 20
70.654621882
 10
160.3471675554
 20
70.6097045211
 10
160.4982114873
 20
70.5145692447
 10
160.6487830255
 20
70.4117331427
 10
160.7988850944
 20
70.3012437396
 10
160.9475875322
 20
70.1837857393
 10
161.0948816398
 20
70.0593158739
 10
161.2407761163
 20
69.9278774112
 10
161.384366897
 20
69.7902848586
 10
161.5256396902
 20
69.6464999824
 10
161.6646087875
 20
69.4965610161
 10
161.8004129991
 20
69.3413971678
 10
161.933032682
 20
69.1809759612
 10
162.0624874791
 20
69.0153298724
 10
162.1879751298
 20
68.845485538
 10
162.3094709565
 20
68.671416933
 10
162.4269996368
 20
68.4931500822
 10
162.5398329427
 20
68.3117896965
 10
162.6479416743
 20
68.1273166699
 10
162.7513550314
 20
67.9397501084
 10
162.8494323862
 20
67.7502520398
 10
162.9421406518
 20
67.5588104274
 10
163.0295129151
 20
67.3654373078
 10
163.1110078077
 20
67.1713308193
 10
163.1865888938
 20
66.9764861991
 10
163.2562926092
 20
66.7809082098
 10
163.3196868939
 20
66.5858092771
 10
163.3767325097
 20
66.3911923045
 10
163.4274686947
 20
66.1970543884
 10
163.4715811033
 20
66.0045992436
 10
163.5090284915
 20
65.8138372627
 10
163.5398521032
 20
65.624758053
 10
163.5638613248
 20
65.4385341512
 10
163.5809926182
 20
65.2555564031
 10
163.5913095215
 20
65.0754339629
 10
163.5948120347
 20
64.8981668308
  0
LWPOLYLINE
  5
2E3
100
AcDbEntity
  8
ASSI
100
AcDbPolyline
 62
7
  6
CONTINUOUS
 90
36
 70
0
 10
160.2710889825
 20
70.654621882
 10
160.3471675554
 20
70.6097045211
 10
160.4982114873
 20
70.5145692447
 10
160.6487830255
 20
70.4117331427
 10
160.7988850944
 20
70.3012437396
 10
160.9475875322
 20
70.1837857393
 10
161.0948816398
 20
70.0593158739
 10
161.2407761163
 20
69.9278774112
 10
161.384366897
 20
69.7902848586
 10
161.5256396902
 20
69.6464999824
 10
161.6646087875
 20
69.4965610161
 10
161.8004129991
 20
69.3413971678
 10
161.933032682
 20
69.1809759612
 10
162.0624874791
 20
69.0153298724
 10
162.1879751298
 20
68.845485538
 10
162.3094709565
 20
68.671416933
 10
162.4269996368
 20
68.4931500822
 10
162.5398329427
 20
68.3117896965
 10
162.6479416743
 20
68.1273166699
 10
162.7513550314
 20
67.9397501084
 10
162.8494323862
 20
67.7502520398
 10
162.9421406518
 20
67.5588104274
 10
163.0295129151
 20
67.3654373078
 10
163.1110078077
 20
67.1713308193
 10
163.1865888938
 20
66.9764861991
 10
163.2562926092
 20
66.7809082098
 10
163.3196868939
 20
66.5858092771
 10
163.3767325097
 20
66.3911923045
 10
163.4274686947
 20
66.1970543884
 10
163.4715811033
 20
66.0045992436
 10
163.5090284915
 20
65.8138372627
 10
163.5398521032
 20
65.624758053
 10
163.5638613248
 20
65.4385341512
 10
163.5809926182
 20
65.2555564031
 10
163.5913095215
 20
65.0754339629
 10
163.5948120347
 20
64.8981668308
  0
LWPOLYLINE
  5
2E4
100
AcDbEntity
  8
SMUSSO
100
AcDbPolyline
 62
7
  6
CONTINUOUS
 90
32
 70
0
 10
143.0927535645
 20
74.8606240311
 10
143.1006097303
 20
74.7292501452
 10
143.1153431885
 20
74.5784117295
 10
143.135993893
 20
74.424809381
 10
143.1625021196
 20
74.2687955019
 10
143.1946886959
 20
74.1114272987
 10
143.2325922848
 20
73.9526956028
 10
143.2761742234
 20
73.7926095829
 10
143.3251393509
 20
73.6322539515
 10
143.3795242751
 20
73.4716269484
 10
143.4392923881
 20
73.3107303339
 10
143.5040387062
 20
73.1506541015
 10
143.5737968713
 20
72.9914041836
 10
143.6485332415
 20
72.8329746477
 10
143.7277419062
 20
72.6764376906
 10
143.8114531617
 20
72.5218061431
 10
143.8996367118
 20
72.3690671743
 10
143.991695757
 20
72.2192544884
 10
144.087656691
 20
72.072387758
 10
144.1874931202
 20
71.9284473104
 10
144.2905290643
 20
71.7884078319
 10
144.3967862624
 20
71.6522957889
 10
144.5062429754
 20
71.5200847149
 10
144.6181580062
 20
71.3926698965
 10
144.7325479866
 20
71.2700839491
 10
144.8493962849
 20
71.1522942573
 10
144.9679118087
 20
71.0400982622
 10
145.0881058606
 20
70.9335339212
 10
145.2099671382
 20
70.8325632768
 10
145.3326706413
 20
70.7378698979
 10
145.4562221106
 20
70.6494963579
 10
145.5660542815
 20
70.5770102721
  0
LWPOLYLINE
  5
2E5
100
AcDbEntity
  8
ASSI
100
AcDbPolyline
 62
7
  6
CONTINUOUS
 90
32
 70
0
 10
143.0927535645
 20
74.8606240311
 10
143.1006097303
 20
74.7292501452
 10
143.1153431885
 20
74.5784117295
 10
143.135993893
 20
74.424809381
 10
143.1625021196
 20
74.2687955019
 10
143.1946886959
 20
74.1114272987
 10
143.2325922848
 20
73.9526956028
 10
143.2761742234
 20
73.7926095829
 10
143.3251393509
 20
73.6322539515
 10
143.3795242751
 20
73.4716269484
 10
143.4392923881
 20
73.3107303339
 10
143.5040387062
 20
73.1506541015
 10
143.5737968713
 20
72.9914041836
 10
143.6485332415
 20
72.8329746477
 10
143.7277419062
 20
72.6764376906
 10
143.8114531617
 20
72.5218061431
 10
143.8996367118
 20
72.3690671743
 10
143.991695757
 20
72.2192544884
 10
144.087656691
 20
72.072387758
 10
144.1874931202
 20
71.9284473104
 10
144.2905290643
 20
71.7884078319
 10
144.3967862624
 20
71.6522957889
 10
144.5062429754
 20
71.5200847149
 10
144.6181580062
 20
71.3926698965
 10
144.7325479866
 20
71.2700839491
 10
144.8493962849
 20
71.1522942573
 10
144.9679118087
 20
71.0400982622
 10
145.0881058606
 20
70.9335339212
 10
145.2099671382
 20
70.8325632768
 10
145.3326706413
 20
70.7378698979
 10
145.4562221106
 20
70.6494963579
 10
145.5660542815
 20
70.5770102721
  0
LWPOLYLINE
  5
2E6
100
AcDbEntity
  8
SMUSSO
100
AcDbPolyline
 62
7
  6
CONTINUOUS
 90
33
 70
0
 10
143.0887153803
 20
74.8603825474
 10
143.0917913192
 20
74.7161767691
 10
143.1010116776
 20
74.56877516
 10
143.1163538159
 20
74.4185439948
 10
143.1377799372
 20
74.265856215
 10
143.1652370222
 20
74.1110916776
 10
143.1986568049
 20
73.9546362609
 10
143.2379563037
 20
73.7968790096
 10
143.2830379695
 20
73.6382119876
 10
143.3337895572
 20
73.4790305261
 10
143.390084868
 20
73.3197305264
 10
143.4517840211
 20
73.1607078857
 10
143.5187334692
 20
73.0023583854
 10
143.5907666428
 20
72.8450759435
 10
143.6677045424
 20
72.6892513517
 10
143.7493560323
 20
72.5352717324
 10
143.8355181503
 20
72.3835198783
 10
143.9259766795
 20
72.2343731171
 10
144.0205068476
 20
72.0882021018
 10
144.1188737334
 20
71.9453701643
 10
144.2208327358
 20
71.8062325458
 10
144.3261302784
 20
71.6711353353
 10
144.4345045731
 20
71.5404144411
 10
144.5456861937
 20
71.4143948764
 10
144.659398632
 20
71.2933900734
 10
144.7753591463
 20
71.1777009157
 10
144.8932794601
 20
71.0676150141
 10
145.0128663849
 20
70.9634060892
 10
145.1338226038
 20
70.8653332348
 10
145.2558473854
 20
70.7736402976
 10
145.3786373195
 20
70.6885552758
 10
145.5018871284
 20
70.6102897114
 10
145.5638282934
 20
70.5736374164
  0
LWPOLYLINE
  5
2E7
100
AcDbEntity
  8
ASSI
100
AcDbPolyline
 62
7
  6
CONTINUOUS
 90
33
 70
0
 10
143.0887153803
 20
74.8603825474
 10
143.0917913192
 20
74.7161767691
 10
143.1010116776
 20
74.56877516
 10
143.1163538159
 20
74.4185439948
 10
143.1377799372
 20
74.265856215
 10
143.1652370222
 20
74.1110916776
 10
143.1986568049
 20
73.9546362609
 10
143.2379563037
 20
73.7968790096
 10
143.2830379695
 20
73.6382119876
 10
143.3337895572
 20
73.4790305261
 10
143.390084868
 20
73.3197305264
 10
143.4517840211
 20
73.1607078857
 10
143.5187334692
 20
73.0023583854
 10
143.5907666428
 20
72.8450759435
 10
143.6677045424
 20
72.6892513517
 10
143.7493560323
 20
72.5352717324
 10
143.8355181503
 20
72.3835198783
 10
143.9259766795
 20
72.2343731171
 10
144.0205068476
 20
72.0882021018
 10
144.1188737334
 20
71.9453701643
 10
144.2208327358
 20
71.8062325458
 10
144.3261302784
 20
71.6711353353
 10
144.4345045731
 20
71.5404144411
 10
144.5456861937
 20
71.4143948764
 10
144.659398632
 20
71.2933900734
 10
144.7753591463
 20
71.1777009157
 10
144.8932794601
 20
71.0676150141
 10
145.0128663849
 20
70.9634060892
 10
145.1338226038
 20
70.8653332348
 10
145.2558473854
 20
70.7736402976
 10
145.3786373195
 20
70.6885552758
 10
145.5018871284
 20
70.6102897114
 10
145.5638282934
 20
70.5736374164
  0
LINE
  5
2E8
100
AcDbEntity
  8
SMUSSO
100
AcDbLine
 62
7
  6
CONTINUOUS
 10
141.0381057148
 20
74.6562452508
 11
141.0381057148
 21
77.9221263579
  0
LINE
  5
2E9
100
AcDbEntity
  8
ASSI
100
AcDbLine
 62
7
  6
CONTINUOUS
 10
141.0381057148
 20
74.6562452508
 11
141.0381057148
 21
77.9221263579
  0
LINE
  5
2EA
100
AcDbEntity
  8
SMUSSO
100
AcDbLine
 62
7
  6
CONTINUOUS
 10
142.7351619897
 20
74.6562452508
 11
142.7351619897
 21
77.9221263579
  0
LINE
  5
2EB
100
AcDbEntity
  8
ASSI
100
AcDbLine
 62
7
  6
CONTINUOUS
 10
142.7351619897
 20
74.6562452508
 11
142.7351619897
 21
77.9221263579
  0
LINE
  5
2EC
100
AcDbEntity
  8
SMUSSO
100
AcDbLine
 62
7
  6
CONTINUOUS
 10
143.0887153803
 20
78.1262636546
 11
143.0887153803
 21
74.8603825474
  0
LINE
  5
2ED
100
AcDbEntity
  8
ASSI
100
AcDbLine
 62
7
  6
CONTINUOUS
 10
143.0887153803
 20
78.1262636546
 11
143.0887153803
 21
74.8603825474
  0
LWPOLYLINE
  5
2EE
100
AcDbEntity
  8
SMUSSO
100
AcDbPolyline
 62
7
  6
CONTINUOUS
 90
36
 70
0
 10
141.0381057148
 20
77.9221263579
 10
141.0416082499
 20
78.0953492524
 10
141.0519251951
 20
78.2635583191
 10
141.0690565504
 20
78.4267535581
 10
141.0930658603
 20
78.5852524463
 10
141.1238895804
 20
78.7387375068
 10
141.1613370775
 20
78.8862563088
 10
141.2054495954
 20
79.0277716088
 10
141.2561858904
 20
79.1633206503
 10
141.3132315985
 20
79.2920627337
 10
141.3766259509
 20
79.4139554449
 10
141.4463297165
 20
79.5290411981
 10
141.5219108376
 20
79.636606536
 10
141.6034057437
 20
79.7366046256
 10
141.6907780052
 20
79.8290823
 10
141.7834862772
 20
79.9134666018
 10
141.8815636529
 20
79.989707298
 10
141.9849770389
 20
80.0578546216
 10
142.0930858095
 20
80.1174863146
 10
142.2059191719
 20
80.1685495511
 10
142.3234479189
 20
80.211097157
 10
142.444943803
 20
80.2448653522
 10
142.5704314947
 20
80.2697996105
 10
142.6998863236
 20
80.2859544581
 10
142.8325060315
 20
80.2932296937
 10
142.9683102603
 20
80.2915701592
 10
143.1072793681
 20
80.2810310126
 10
143.2485521707
 20
80.2616775273
 10
143.3921429611
 20
80.2334549667
 10
143.5380374463
 20
80.1964180673
 10
143.6853315633
 20
80.1507963118
 10
143.8340340131
 20
80.0965363859
 10
143.9841360947
 20
80.0336916039
 10
144.1347076419
 20
79.9626513912
 10
144.2857515775
 20
79.8833648464
 10
144.3611864058
 20
79.8408002318
  0
LWPOLYLINE
  5
2EF
100
AcDbEntity
  8
ASSI
100
AcDbPolyline
 62
7
  6
CONTINUOUS
 90
36
 70
0
 10
141.0381057148
 20
77.9221263579
 10
141.0416082499
 20
78.0953492524
 10
141.0519251951
 20
78.2635583191
 10
141.0690565504
 20
78.4267535581
 10
141.0930658603
 20
78.5852524463
 10
141.1238895804
 20
78.7387375068
 10
141.1613370775
 20
78.8862563088
 10
141.2054495954
 20
79.0277716088
 10
141.2561858904
 20
79.1633206503
 10
141.3132315985
 20
79.2920627337
 10
141.3766259509
 20
79.4139554449
 10
141.4463297165
 20
79.5290411981
 10
141.5219108376
 20
79.636606536
 10
141.6034057437
 20
79.7366046256
 10
141.6907780052
 20
79.8290823
 10
141.7834862772
 20
79.9134666018
 10
141.8815636529
 20
79.989707298
 10
141.9849770389
 20
80.0578546216
 10
142.0930858095
 20
80.1174863146
 10
142.2059191719
 20
80.1685495511
 10
142.3234479189
 20
80.211097157
 10
142.444943803
 20
80.2448653522
 10
142.5704314947
 20
80.2697996105
 10
142.6998863236
 20
80.2859544581
 10
142.8325060315
 20
80.2932296937
 10
142.9683102603
 20
80.2915701592
 10
143.1072793681
 20
80.2810310126
 10
143.2485521707
 20
80.2616775273
 10
143.3921429611
 20
80.2334549667
 10
143.5380374463
 20
80.1964180673
 10
143.6853315633
 20
80.1507963118
 10
143.8340340131
 20
80.0965363859
 10
143.9841360947
 20
80.0336916039
 10
144.1347076419
 20
79.9626513912
 10
144.2857515775
 20
79.8833648464
 10
144.3611864058
 20
79.8408002318
  0
LWPOLYLINE
  5
2F0
100
AcDbEntity
  8
SMUSSO
100
AcDbPolyline
 62
7
  6
CONTINUOUS
 90
18
 70
0
 10
142.7351619897
 20
77.9221263579
 10
142.7379646848
 20
78.0564683302
 10
142.7463666234
 20
78.1872718627
 10
142.7603490763
 20
78.3142404865
 10
142.7798807323
 20
78.437086721
 10
142.8049176161
 20
78.5555317174
 10
142.8354030371
 20
78.6693060149
 10
142.8712680609
 20
78.7781516429
 10
142.9124316231
 20
78.8818219854
 10
142.9588003602
 20
78.9800815132
 10
143.0102692582
 20
79.0727074943
 10
143.0667218145
 20
79.1594900866
 10
143.1280299887
 20
79.2402323495
 10
143.1940548453
 20
79.3147512857
 10
143.2646468732
 20
79.3828781304
 10
143.3396461036
 20
79.4444584813
 10
143.4188826317
 20
79.4993528267
 10
143.4599511633
 20
79.5242053719
  0
LWPOLYLINE
  5
2F1
100
AcDbEntity
  8
ASSI
100
AcDbPolyline
 62
7
  6
CONTINUOUS
 90
18
 70
0
 10
142.7351619897
 20
77.9221263579
 10
142.7379646848
 20
78.0564683302
 10
142.7463666234
 20
78.1872718627
 10
142.7603490763
 20
78.3142404865
 10
142.7798807323
 20
78.437086721
 10
142.8049176161
 20
78.5555317174
 10
142.8354030371
 20
78.6693060149
 10
142.8712680609
 20
78.7781516429
 10
142.9124316231
 20
78.8818219854
 10
142.9588003602
 20
78.9800815132
 10
143.0102692582
 20
79.0727074943
 10
143.0667218145
 20
79.1594900866
 10
143.1280299887
 20
79.2402323495
 10
143.1940548453
 20
79.3147512857
 10
143.2646468732
 20
79.3828781304
 10
143.3396461036
 20
79.4444584813
 10
143.4188826317
 20
79.4993528267
 10
143.4599511633
 20
79.5242053719
  0
LINE
  5
2F2
100
AcDbEntity
  8
SMUSSO
100
AcDbLine
 62
7
  6
CONTINUOUS
 10
143.0917913349
 20
78.2669177691
 11
143.0887153803
 21
78.1262636546
  0
LINE
  5
2F3
100
AcDbEntity
  8
ASSI
100
AcDbLine
 62
7
  6
CONTINUOUS
 10
143.0917913349
 20
78.2669177691
 11
143.0887153803
 21
78.1262636546
  0
LINE
  5
2F4
100
AcDbEntity
  8
SMUSSO
100
AcDbLine
 62
7
  6
CONTINUOUS
 10
143.101011736
 20
78.4036722261
 11
143.0917913349
 21
78.2669177691
  0
LINE
  5
2F5
100
AcDbEntity
  8
ASSI
100
AcDbLine
 62
7
  6
CONTINUOUS
 10
143.101011736
 20
78.4036722261
 11
143.0917913349
 21
78.2669177691
  0
LWPOLYLINE
  5
2F6
100
AcDbEntity
  8
SMUSSO
100
AcDbPolyline
 62
7
  6
CONTINUOUS
 90
3
 70
0
 10
143.6460134374
 20
79.6099093721
 10
143.5907672441
 20
79.5618146142
 10
143.5187340691
 20
79.487714376
  0
LWPOLYLINE
  5
2F7
100
AcDbEntity
  8
ASSI
100
AcDbPolyline
 62
7
  6
CONTINUOUS
 90
3
 70
0
 10
143.6460134374
 20
79.6099093721
 10
143.5907672441
 20
79.5618146142
 10
143.5187340691
 20
79.487714376
  0
LINE
  5
2F8
100
AcDbEntity
  8
SMUSSO
100
AcDbLine
 62
250
  6
CONTINUOUS
 10
143.0887153803
 20
78.1262636546
 11
142.7351619897
 21
77.9221263579
  0
LINE
  5
2F9
100
AcDbEntity
  8
ASSI
100
AcDbLine
 62
250
  6
CONTINUOUS
 10
143.0887153803
 20
78.1262636546
 11
142.7351619897
 21
77.9221263579
  0
LWPOLYLINE
  5
2FA
100
AcDbEntity
  8
SMUSSO
100
AcDbPolyline
 62
7
  6
CONTINUOUS
 90
15
 70
0
 10
143.4599511633
 20
79.5242053719
 10
143.5021769537
 20
79.5474368017
 10
143.5893403046
 20
79.5886014407
 10
143.6801752565
 20
79.6227535129
 10
143.774475982
 20
79.6498156394
 10
143.8720286292
 20
79.6697264887
 10
143.9726121807
 20
79.6824410128
 10
144.0759987414
 20
79.6879304644
 10
144.1819538223
 20
79.6861824786
 10
144.2902373353
 20
79.6772011278
 10
144.4006039655
 20
79.6610068679
 10
144.512803463
 20
79.6376365419
 10
144.6265816205
 20
79.6071432393
 10
144.7416806738
 20
79.5695961805
 10
144.8160831239
 20
79.5410829788
  0
LWPOLYLINE
  5
2FB
100
AcDbEntity
  8
ASSI
100
AcDbPolyline
 62
7
  6
CONTINUOUS
 90
15
 70
0
 10
143.4599511633
 20
79.5242053719
 10
143.5021769537
 20
79.5474368017
 10
143.5893403046
 20
79.5886014407
 10
143.6801752565
 20
79.6227535129
 10
143.774475982
 20
79.6498156394
 10
143.8720286292
 20
79.6697264887
 10
143.9726121807
 20
79.6824410128
 10
144.0759987414
 20
79.6879304644
 10
144.1819538223
 20
79.6861824786
 10
144.2902373353
 20
79.6772011278
 10
144.4006039655
 20
79.6610068679
 10
144.512803463
 20
79.6376365419
 10
144.6265816205
 20
79.6071432393
 10
144.7416806738
 20
79.5695961805
 10
144.8160831239
 20
79.5410829788
  0
LINE
  5
2FC
100
AcDbEntity
  8
SMUSSO
100
AcDbLine
 62
250
  6
CONTINUOUS
 10
109.2183005614
 20
93.0286019505
 11
110.9153568363
 21
93.0286019505
  0
LINE
  5
2FD
100
AcDbEntity
  8
ASSI
100
AcDbLine
 62
250
  6
CONTINUOUS
 10
109.2183005614
 20
93.0286019505
 11
110.9153568363
 21
93.0286019505
  0
LINE
  5
2FE
100
AcDbEntity
  8
SMUSSO
100
AcDbLine
 62
250
  6
CONTINUOUS
 10
109.2183005614
 20
96.2944830577
 11
110.9153568363
 21
96.2944830577
  0
LINE
  5
2FF
100
AcDbEntity
  8
ASSI
100
AcDbLine
 62
250
  6
CONTINUOUS
 10
109.2183005614
 20
96.2944830577
 11
110.9153568363
 21
96.2944830577
  0
LINE
  5
300
100
AcDbEntity
  8
ASSI
100
AcDbLine
 62
7
  6
CONTINUOUS
 10
184.6343768637
 20
15.3508244128
 11
184.634739294
 21
15.3501829751
  0
LINE
  5
301
100
AcDbEntity
  8
SMUSSO
100
AcDbLine
 62
7
  6
CONTINUOUS
 10
147.684909458
 20
74.0843451807
 11
147.684909458
 21
70.8184640735
  0
LINE
  5
302
100
AcDbEntity
  8
ASSI
100
AcDbLine
 62
7
  6
CONTINUOUS
 10
147.684909458
 20
74.0843451807
 11
147.684909458
 21
70.8184640735
  0
LWPOLYLINE
  5
303
100
AcDbEntity
  8
SMUSSO
100
AcDbPolyline
 62
7
  6
CONTINUOUS
 90
70
 70
0
 10
147.684909458
 20
70.8184640735
 10
147.6814069229
 20
70.645241179
 10
147.6710899777
 20
70.4770321123
 10
147.6539586223
 20
70.3138368733
 10
147.6299493124
 20
70.1553379851
 10
147.5991255924
 20
70.0018529246
 10
147.5616780952
 20
69.8543341226
 10
147.5175655774
 20
69.7128188226
 10
147.4668292824
 20
69.5772697811
 10
147.4097835743
 20
69.4485276977
 10
147.3463892219
 20
69.3266349865
 10
147.2766854563
 20
69.2115492334
 10
147.2011043351
 20
69.1039838954
 10
147.1196094291
 20
69.0039858058
 10
147.0322371675
 20
68.9115081314
 10
146.9395288956
 20
68.8271238296
 10
146.8414515199
 20
68.7508831335
 10
146.7380381339
 20
68.6827358099
 10
146.6299293633
 20
68.6231041168
 10
146.5170960009
 20
68.5720408804
 10
146.3995672539
 20
68.5294932744
 10
146.2780713697
 20
68.4957250792
 10
146.1525836781
 20
68.4707908209
 10
146.0231288492
 20
68.4546359733
 10
145.8905091413
 20
68.4473607377
 10
145.7547049125
 20
68.4490202722
 10
145.6157358047
 20
68.4595594188
 10
145.4744630021
 20
68.4789129041
 10
145.3308722117
 20
68.5071354647
 10
145.1849777265
 20
68.5441723641
 10
145.0376836095
 20
68.5897941196
 10
144.8889811597
 20
68.6440540455
 10
144.7388790781
 20
68.7068988275
 10
144.5883075309
 20
68.7779390402
 10
144.4372635952
 20
68.857225585
 10
144.285750194
 20
68.9447075604
 10
144.1347062621
 20
69.0398428368
 10
143.9841347239
 20
69.1426789389
 10
143.834032655
 20
69.253168342
 10
143.6853302173
 20
69.3706263423
 10
143.5380361097
 20
69.4950962077
 10
143.3921416332
 20
69.6265346703
 10
143.2485508525
 20
69.764127223
 10
143.1072780593
 20
69.9079120992
 10
142.968308962
 20
70.0578510654
 10
142.8325047503
 20
70.2130149138
 10
142.6998850675
 20
70.3734361204
 10
142.5704302704
 20
70.5390822091
 10
142.4449426197
 20
70.7089265436
 10
142.323446793
 20
70.8829951486
 10
142.2059181127
 20
71.0612619993
 10
142.0930848068
 20
71.2426223851
 10
141.9849760752
 20
71.4270954116
 10
141.8815627181
 20
71.6146619731
 10
141.7834853633
 20
71.8041600418
 10
141.6907770976
 20
71.9956016542
 10
141.6034048344
 20
72.1889747737
 10
141.5219099417
 20
72.3830812623
 10
141.4463288557
 20
72.5779258825
 10
141.3766251403
 20
72.7735038717
 10
141.3132308556
 20
72.9686028045
 10
141.2561852398
 20
73.1632197771
 10
141.2054490548
 20
73.3573576931
 10
141.1613366462
 20
73.5498128379
 10
141.123889258
 20
73.7405748189
 10
141.0930656463
 20
73.9296540286
 10
141.0690564247
 20
74.1158779303
 10
141.0519251312
 20
74.2988556785
 10
141.0416082279
 20
74.4789781186
 10
141.0381057148
 20
74.6562452508
  0
LWPOLYLINE
  5
304
100
AcDbEntity
  8
ASSI
100
AcDbPolyline
 62
7
  6
CONTINUOUS
 90
70
 70
0
 10
147.684909458
 20
70.8184640735
 10
147.6814069229
 20
70.645241179
 10
147.6710899777
 20
70.4770321123
 10
147.6539586223
 20
70.3138368733
 10
147.6299493124
 20
70.1553379851
 10
147.5991255924
 20
70.0018529246
 10
147.5616780952
 20
69.8543341226
 10
147.5175655774
 20
69.7128188226
 10
147.4668292824
 20
69.5772697811
 10
147.4097835743
 20
69.4485276977
 10
147.3463892219
 20
69.3266349865
 10
147.2766854563
 20
69.2115492334
 10
147.2011043351
 20
69.1039838954
 10
147.1196094291
 20
69.0039858058
 10
147.0322371675
 20
68.9115081314
 10
146.9395288956
 20
68.8271238296
 10
146.8414515199
 20
68.7508831335
 10
146.7380381339
 20
68.6827358099
 10
146.6299293633
 20
68.6231041168
 10
146.5170960009
 20
68.5720408804
 10
146.3995672539
 20
68.5294932744
 10
146.2780713697
 20
68.4957250792
 10
146.1525836781
 20
68.4707908209
 10
146.0231288492
 20
68.4546359733
 10
145.8905091413
 20
68.4473607377
 10
145.7547049125
 20
68.4490202722
 10
145.6157358047
 20
68.4595594188
 10
145.4744630021
 20
68.4789129041
 10
145.3308722117
 20
68.5071354647
 10
145.1849777265
 20
68.5441723641
 10
145.0376836095
 20
68.5897941196
 10
144.8889811597
 20
68.6440540455
 10
144.7388790781
 20
68.7068988275
 10
144.5883075309
 20
68.7779390402
 10
144.4372635952
 20
68.857225585
 10
144.285750194
 20
68.9447075604
 10
144.1347062621
 20
69.0398428368
 10
143.9841347239
 20
69.1426789389
 10
143.834032655
 20
69.253168342
 10
143.6853302173
 20
69.3706263423
 10
143.5380361097
 20
69.4950962077
 10
143.3921416332
 20
69.6265346703
 10
143.2485508525
 20
69.764127223
 10
143.1072780593
 20
69.9079120992
 10
142.968308962
 20
70.0578510654
 10
142.8325047503
 20
70.2130149138
 10
142.6998850675
 20
70.3734361204
 10
142.5704302704
 20
70.5390822091
 10
142.4449426197
 20
70.7089265436
 10
142.323446793
 20
70.8829951486
 10
142.2059181127
 20
71.0612619993
 10
142.0930848068
 20
71.2426223851
 10
141.9849760752
 20
71.4270954116
 10
141.8815627181
 20
71.6146619731
 10
141.7834853633
 20
71.8041600418
 10
141.6907770976
 20
71.9956016542
 10
141.6034048344
 20
72.1889747737
 10
141.5219099417
 20
72.3830812623
 10
141.4463288557
 20
72.5779258825
 10
141.3766251403
 20
72.7735038717
 10
141.3132308556
 20
72.9686028045
 10
141.2561852398
 20
73.1632197771
 10
141.2054490548
 20
73.3573576931
 10
141.1613366462
 20
73.5498128379
 10
141.123889258
 20
73.7405748189
 10
141.0930656463
 20
73.9296540286
 10
141.0690564247
 20
74.1158779303
 10
141.0519251312
 20
74.2988556785
 10
141.0416082279
 20
74.4789781186
 10
141.0381057148
 20
74.6562452508
  0
LWPOLYLINE
  5
305
100
AcDbEntity
  8
SMUSSO
100
AcDbPolyline
 62
7
  6
CONTINUOUS
 90
18
 70
0
 10
147.684909458
 20
71.7983230975
 10
147.6821067628
 20
71.6639811252
 10
147.6737048242
 20
71.5331775927
 10
147.6597223714
 20
71.4062089689
 10
147.6401907153
 20
71.2833627344
 10
147.6151538315
 20
71.164917738
 10
147.5846684106
 20
71.0511434405
 10
147.5488033868
 20
70.9422978125
 10
147.5076398246
 20
70.83862747
 10
147.4612710875
 20
70.7403679422
 10
147.4098021894
 20
70.6477419611
 10
147.3533496331
 20
70.5609593688
 10
147.2920414589
 20
70.4802171059
 10
147.2260166023
 20
70.4056981697
 10
147.1554245744
 20
70.337571325
 10
147.0804253441
 20
70.2759909741
 10
147.001188816
 20
70.2210966287
 10
146.9601202843
 20
70.1962440835
  0
LWPOLYLINE
  5
306
100
AcDbEntity
  8
ASSI
100
AcDbPolyline
 62
7
  6
CONTINUOUS
 90
18
 70
0
 10
147.684909458
 20
71.7983230975
 10
147.6821067628
 20
71.6639811252
 10
147.6737048242
 20
71.5331775927
 10
147.6597223714
 20
71.4062089689
 10
147.6401907153
 20
71.2833627344
 10
147.6151538315
 20
71.164917738
 10
147.5846684106
 20
71.0511434405
 10
147.5488033868
 20
70.9422978125
 10
147.5076398246
 20
70.83862747
 10
147.4612710875
 20
70.7403679422
 10
147.4098021894
 20
70.6477419611
 10
147.3533496331
 20
70.5609593688
 10
147.2920414589
 20
70.4802171059
 10
147.2260166023
 20
70.4056981697
 10
147.1554245744
 20
70.337571325
 10
147.0804253441
 20
70.2759909741
 10
147.001188816
 20
70.2210966287
 10
146.9601202843
 20
70.1962440835
  0
LWPOLYLINE
  5
307
100
AcDbEntity
  8
SMUSSO
100
AcDbPolyline
 62
7
  6
CONTINUOUS
 90
11
 70
0
 10
143.5187340691
 20
79.487714376
 10
143.4517846179
 20
79.4066765335
 10
143.3900854553
 20
79.3189026513
 10
143.3337901141
 20
79.2246111733
 10
143.2830384773
 20
79.1240364572
 10
143.2379567496
 20
79.017428672
 10
143.1986571747
 20
78.9050535104
 10
143.1652373066
 20
78.7871903761
 10
143.1377801365
 20
78.6641324897
 10
143.1163539376
 20
78.5361868966
 10
143.101011736
 20
78.4036722261
  0
LWPOLYLINE
  5
308
100
AcDbEntity
  8
ASSI
100
AcDbPolyline
 62
7
  6
CONTINUOUS
 90
11
 70
0
 10
143.5187340691
 20
79.487714376
 10
143.4517846179
 20
79.4066765335
 10
143.3900854553
 20
79.3189026513
 10
143.3337901141
 20
79.2246111733
 10
143.2830384773
 20
79.1240364572
 10
143.2379567496
 20
79.017428672
 10
143.1986571747
 20
78.9050535104
 10
143.1652373066
 20
78.7871903761
 10
143.1377801365
 20
78.6641324897
 10
143.1163539376
 20
78.5361868966
 10
143.101011736
 20
78.4036722261
  0
LINE
  5
309
100
AcDbEntity
  8
SMUSSO
100
AcDbLine
 62
250
  6
CONTINUOUS
 10
143.0887153803
 20
74.8603825474
 11
142.7351619897
 21
74.6562452508
  0
LINE
  5
30A
100
AcDbEntity
  8
ASSI
100
AcDbLine
 62
250
  6
CONTINUOUS
 10
143.0887153803
 20
74.8603825474
 11
142.7351619897
 21
74.6562452508
  0
LWPOLYLINE
  5
30B
100
AcDbEntity
  8
SMUSSO
100
AcDbPolyline
 62
7
  6
CONTINUOUS
 90
3
 70
0
 10
147.0083038225
 20
70.2770488852
 10
147.1066707286
 20
70.3062891546
 10
147.1270369371
 20
70.3142628103
  0
LWPOLYLINE
  5
30C
100
AcDbEntity
  8
ASSI
100
AcDbPolyline
 62
7
  6
CONTINUOUS
 90
3
 70
0
 10
147.0083038225
 20
70.2770488852
 10
147.1066707286
 20
70.3062891546
 10
147.1270369371
 20
70.3142628103
  0
LINE
  5
30D
100
AcDbEntity
  8
SMUSSO
100
AcDbLine
 62
250
  6
CONTINUOUS
 10
93.3083979847
 20
102.2147803004
 11
95.0054542596
 21
102.2147803004
  0
LINE
  5
30E
100
AcDbEntity
  8
ASSI
100
AcDbLine
 62
250
  6
CONTINUOUS
 10
93.3083979847
 20
102.2147803004
 11
95.0054542596
 21
102.2147803004
  0
LINE
  5
30F
100
AcDbEntity
  8
ASSI
100
AcDbLine
 62
7
  6
CONTINUOUS
 10
184.634739294
 20
88.5159924986
 11
188.6966722787
 21
90.8612864008
  0
LWPOLYLINE
  5
310
100
AcDbEntity
  8
SMUSSO
100
AcDbPolyline
 62
7
  6
CONTINUOUS
 90
51
 70
0
 10
146.9601202843
 20
70.1962440835
 10
146.9178944939
 20
70.1730126538
 10
146.830731143
 20
70.1318480147
 10
146.7398961911
 20
70.0976959425
 10
146.6455954656
 20
70.0706338161
 10
146.5480428185
 20
70.0507229667
 10
146.4474592669
 20
70.0380084426
 10
146.3440727062
 20
70.0325189911
 10
146.2381176253
 20
70.0342669768
 10
146.1298341123
 20
70.0432483276
 10
146.0194674821
 20
70.0594425875
 10
145.9072679846
 20
70.0828129135
 10
145.7934898272
 20
70.1133062162
 10
145.6783907739
 20
70.1508532749
 10
145.5622317687
 20
70.1953688136
 10
145.4452763481
 20
70.2467516377
 10
145.3277890689
 20
70.3048853194
 10
145.2100350882
 20
70.3696385723
 10
145.0922811504
 20
70.4408647075
 10
144.9747939645
 20
70.5184023946
 10
144.8578386341
 20
70.6020767548
 10
144.7416796987
 20
70.691698727
 10
144.6265807114
 20
70.7870651694
 10
144.512802615
 20
70.8879600287
 10
144.4006031719
 20
70.9941548682
 10
144.2902365911
 20
71.1054092248
 10
144.1819531246
 20
71.2214709576
 10
144.0759980879
 20
71.342077239
 10
143.9726115686
 20
71.4669548946
 10
143.8720280568
 20
71.5958207765
 10
143.7744754495
 20
71.7283829677
 10
143.680174762
 20
71.8643411974
 10
143.5893398429
 20
72.0033871892
 10
143.5021765205
 20
72.1452058795
 10
143.4188822227
 20
72.289476054
 10
143.3396457106
 20
72.4358707751
 10
143.2646464859
 20
72.5840583991
 10
143.1940544586
 20
72.7337032061
 10
143.1280296046
 20
72.8844660534
 10
143.0667214338
 20
73.0360055285
 10
143.0102688841
 20
73.1879781904
 10
142.9588000046
 20
73.3400392153
 10
142.9124312964
 20
73.4918442247
 10
142.871267771
 20
73.6430492207
 10
142.835402794
 20
73.7933108412
 10
142.8049174263
 20
73.9422888552
 10
142.7798805967
 20
74.089645695
 10
142.760348992
 20
74.235046431
 10
142.7463665825
 20
74.378161434
 10
142.7379646737
 20
74.5186670715
 10
142.7351619897
 20
74.6562452508
  0
LWPOLYLINE
  5
311
100
AcDbEntity
  8
ASSI
100
AcDbPolyline
 62
7
  6
CONTINUOUS
 90
51
 70
0
 10
146.9601202843
 20
70.1962440835
 10
146.9178944939
 20
70.1730126538
 10
146.830731143
 20
70.1318480147
 10
146.7398961911
 20
70.0976959425
 10
146.6455954656
 20
70.0706338161
 10
146.5480428185
 20
70.0507229667
 10
146.4474592669
 20
70.0380084426
 10
146.3440727062
 20
70.0325189911
 10
146.2381176253
 20
70.0342669768
 10
146.1298341123
 20
70.0432483276
 10
146.0194674821
 20
70.0594425875
 10
145.9072679846
 20
70.0828129135
 10
145.7934898272
 20
70.1133062162
 10
145.6783907739
 20
70.1508532749
 10
145.5622317687
 20
70.1953688136
 10
145.4452763481
 20
70.2467516377
 10
145.3277890689
 20
70.3048853194
 10
145.2100350882
 20
70.3696385723
 10
145.0922811504
 20
70.4408647075
 10
144.9747939645
 20
70.5184023946
 10
144.8578386341
 20
70.6020767548
 10
144.7416796987
 20
70.691698727
 10
144.6265807114
 20
70.7870651694
 10
144.512802615
 20
70.8879600287
 10
144.4006031719
 20
70.9941548682
 10
144.2902365911
 20
71.1054092248
 10
144.1819531246
 20
71.2214709576
 10
144.0759980879
 20
71.342077239
 10
143.9726115686
 20
71.4669548946
 10
143.8720280568
 20
71.5958207765
 10
143.7744754495
 20
71.7283829677
 10
143.680174762
 20
71.8643411974
 10
143.5893398429
 20
72.0033871892
 10
143.5021765205
 20
72.1452058795
 10
143.4188822227
 20
72.289476054
 10
143.3396457106
 20
72.4358707751
 10
143.2646464859
 20
72.5840583991
 10
143.1940544586
 20
72.7337032061
 10
143.1280296046
 20
72.8844660534
 10
143.0667214338
 20
73.0360055285
 10
143.0102688841
 20
73.1879781904
 10
142.9588000046
 20
73.3400392153
 10
142.9124312964
 20
73.4918442247
 10
142.871267771
 20
73.6430492207
 10
142.835402794
 20
73.7933108412
 10
142.8049174263
 20
73.9422888552
 10
142.7798805967
 20
74.089645695
 10
142.760348992
 20
74.235046431
 10
142.7463665825
 20
74.378161434
 10
142.7379646737
 20
74.5186670715
 10
142.7351619897
 20
74.6562452508
  0
LINE
  5
312
100
AcDbEntity
  8
SMUSSO
100
AcDbLine
 62
250
  6
CONTINUOUS
 10
93.3083979847
 20
105.4806614076
 11
95.0054542596
 21
105.4806614076
  0
LINE
  5
313
100
AcDbEntity
  8
ASSI
100
AcDbLine
 62
250
  6
CONTINUOUS
 10
93.3083979847
 20
105.4806614076
 11
95.0054542596
 21
105.4806614076
  0
LWPOLYLINE
  5
314
100
AcDbEntity
  8
SMUSSO
100
AcDbPolyline
 62
7
  6
CONTINUOUS
 90
32
 70
0
 10
159.0026561412
 20
65.6744456812
 10
159.010512307
 20
65.5430717953
 10
159.0252457652
 20
65.3922333796
 10
159.0458964697
 20
65.2386310311
 10
159.0724046963
 20
65.082617152
 10
159.1045912726
 20
64.9252489489
 10
159.1424948615
 20
64.766517253
 10
159.1860768001
 20
64.606431233
 10
159.2350419276
 20
64.4460756016
 10
159.2894268518
 20
64.2854485985
 10
159.3491949648
 20
64.124551984
 10
159.4139412828
 20
63.9644757517
 10
159.483699448
 20
63.8052258337
 10
159.5584358182
 20
63.6467962978
 10
159.6376444829
 20
63.4902593407
 10
159.7213557384
 20
63.3356277932
 10
159.8095392885
 20
63.1828888244
 10
159.9015983337
 20
63.0330761385
 10
159.9975592677
 20
62.8862094081
 10
160.0973956969
 20
62.7422689606
 10
160.200431641
 20
62.602229482
 10
160.3066888391
 20
62.466117439
 10
160.4161455521
 20
62.333906365
 10
160.5280605829
 20
62.2064915467
 10
160.6424505633
 20
62.0839055992
 10
160.7592988616
 20
61.9661159075
 10
160.8778143854
 20
61.8539199124
 10
160.9980084373
 20
61.7473555713
 10
161.1198697149
 20
61.6463849269
 10
161.242573218
 20
61.551691548
 10
161.3661246873
 20
61.463318008
 10
161.4759568582
 20
61.3908319222
  0
LWPOLYLINE
  5
315
100
AcDbEntity
  8
ASSI
100
AcDbPolyline
 62
7
  6
CONTINUOUS
 90
32
 70
0
 10
159.0026561412
 20
65.6744456812
 10
159.010512307
 20
65.5430717953
 10
159.0252457652
 20
65.3922333796
 10
159.0458964697
 20
65.2386310311
 10
159.0724046963
 20
65.082617152
 10
159.1045912726
 20
64.9252489489
 10
159.1424948615
 20
64.766517253
 10
159.1860768001
 20
64.606431233
 10
159.2350419276
 20
64.4460756016
 10
159.2894268518
 20
64.2854485985
 10
159.3491949648
 20
64.124551984
 10
159.4139412828
 20
63.9644757517
 10
159.483699448
 20
63.8052258337
 10
159.5584358182
 20
63.6467962978
 10
159.6376444829
 20
63.4902593407
 10
159.7213557384
 20
63.3356277932
 10
159.8095392885
 20
63.1828888244
 10
159.9015983337
 20
63.0330761385
 10
159.9975592677
 20
62.8862094081
 10
160.0973956969
 20
62.7422689606
 10
160.200431641
 20
62.602229482
 10
160.3066888391
 20
62.466117439
 10
160.4161455521
 20
62.333906365
 10
160.5280605829
 20
62.2064915467
 10
160.6424505633
 20
62.0839055992
 10
160.7592988616
 20
61.9661159075
 10
160.8778143854
 20
61.8539199124
 10
160.9980084373
 20
61.7473555713
 10
161.1198697149
 20
61.6463849269
 10
161.242573218
 20
61.551691548
 10
161.3661246873
 20
61.463318008
 10
161.4759568582
 20
61.3908319222
  0
LWPOLYLINE
  5
316
100
AcDbEntity
  8
SMUSSO
100
AcDbPolyline
 62
7
  6
CONTINUOUS
 90
33
 70
0
 10
158.998617957
 20
65.6742041976
 10
159.0016938959
 20
65.5299984192
 10
159.0109142543
 20
65.3825968101
 10
159.0262563926
 20
65.2323656449
 10
159.0476825139
 20
65.0796778652
 10
159.0751395989
 20
64.9249133278
 10
159.1085593816
 20
64.768457911
 10
159.1478588804
 20
64.6107006597
 10
159.1929405462
 20
64.4520336377
 10
159.2436921339
 20
64.2928521763
 10
159.2999874447
 20
64.1335521766
 10
159.3616865978
 20
63.9745295359
 10
159.4286360459
 20
63.8161800355
 10
159.5006692195
 20
63.6588975937
 10
159.5776071191
 20
63.5030730018
 10
159.659258609
 20
63.3490933825
 10
159.745420727
 20
63.1973415285
 10
159.8358792562
 20
63.0481947672
 10
159.9304094243
 20
62.9020237519
 10
160.0287763101
 20
62.7591918144
 10
160.1307353125
 20
62.6200541959
 10
160.2360328551
 20
62.4849569854
 10
160.3444071498
 20
62.3542360913
 10
160.4555887704
 20
62.2282165265
 10
160.5693012087
 20
62.1072117236
 10
160.685261723
 20
61.9915225658
 10
160.8031820368
 20
61.8814366643
 10
160.9227689616
 20
61.7772277393
 10
161.0437251805
 20
61.679154885
 10
161.1657499621
 20
61.5874619478
 10
161.2885398962
 20
61.5023769259
 10
161.4117897051
 20
61.4241113615
 10
161.4737308701
 20
61.3874590665
  0
LWPOLYLINE
  5
317
100
AcDbEntity
  8
ASSI
100
AcDbPolyline
 62
7
  6
CONTINUOUS
 90
33
 70
0
 10
158.998617957
 20
65.6742041976
 10
159.0016938959
 20
65.5299984192
 10
159.0109142543
 20
65.3825968101
 10
159.0262563926
 20
65.2323656449
 10
159.0476825139
 20
65.0796778652
 10
159.0751395989
 20
64.9249133278
 10
159.1085593816
 20
64.768457911
 10
159.1478588804
 20
64.6107006597
 10
159.1929405462
 20
64.4520336377
 10
159.2436921339
 20
64.2928521763
 10
159.2999874447
 20
64.1335521766
 10
159.3616865978
 20
63.9745295359
 10
159.4286360459
 20
63.8161800355
 10
159.5006692195
 20
63.6588975937
 10
159.5776071191
 20
63.5030730018
 10
159.659258609
 20
63.3490933825
 10
159.745420727
 20
63.1973415285
 10
159.8358792562
 20
63.0481947672
 10
159.9304094243
 20
62.9020237519
 10
160.0287763101
 20
62.7591918144
 10
160.1307353125
 20
62.6200541959
 10
160.2360328551
 20
62.4849569854
 10
160.3444071498
 20
62.3542360913
 10
160.4555887704
 20
62.2282165265
 10
160.5693012087
 20
62.1072117236
 10
160.685261723
 20
61.9915225658
 10
160.8031820368
 20
61.8814366643
 10
160.9227689616
 20
61.7772277393
 10
161.0437251805
 20
61.679154885
 10
161.1657499621
 20
61.5874619478
 10
161.2885398962
 20
61.5023769259
 10
161.4117897051
 20
61.4241113615
 10
161.4737308701
 20
61.3874590665
  0
LINE
  5
318
100
AcDbEntity
  8
SMUSSO
100
AcDbLine
 62
7
  6
CONTINUOUS
 10
156.9480082915
 20
65.4700669009
 11
156.9480082915
 21
68.7359480081
  0
LINE
  5
319
100
AcDbEntity
  8
ASSI
100
AcDbLine
 62
7
  6
CONTINUOUS
 10
156.9480082915
 20
65.4700669009
 11
156.9480082915
 21
68.7359480081
  0
LINE
  5
31A
100
AcDbEntity
  8
SMUSSO
100
AcDbLine
 62
7
  6
CONTINUOUS
 10
158.6450645664
 20
65.4700669009
 11
158.6450645664
 21
68.7359480081
  0
LINE
  5
31B
100
AcDbEntity
  8
ASSI
100
AcDbLine
 62
7
  6
CONTINUOUS
 10
158.6450645664
 20
65.4700669009
 11
158.6450645664
 21
68.7359480081
  0
LINE
  5
31C
100
AcDbEntity
  8
SMUSSO
100
AcDbLine
 62
7
  6
CONTINUOUS
 10
158.998617957
 20
68.9400853047
 11
158.998617957
 21
65.6742041976
  0
LINE
  5
31D
100
AcDbEntity
  8
ASSI
100
AcDbLine
 62
7
  6
CONTINUOUS
 10
158.998617957
 20
68.9400853047
 11
158.998617957
 21
65.6742041976
  0
LWPOLYLINE
  5
31E
100
AcDbEntity
  8
SMUSSO
100
AcDbPolyline
 62
7
  6
CONTINUOUS
 90
36
 70
0
 10
156.9480082915
 20
68.7359480081
 10
156.9515108266
 20
68.9091709025
 10
156.9618277718
 20
69.0773799692
 10
156.9789591271
 20
69.2405752082
 10
157.002968437
 20
69.3990740964
 10
157.0337921571
 20
69.5525591569
 10
157.0712396542
 20
69.700077959
 10
157.1153521721
 20
69.8415932589
 10
157.1660884671
 20
69.9771423004
 10
157.2231341752
 20
70.1058843839
 10
157.2865285276
 20
70.2277770951
 10
157.3562322932
 20
70.3428628482
 10
157.4318134143
 20
70.4504281861
 10
157.5133083203
 20
70.5504262757
 10
157.6006805819
 20
70.6429039501
 10
157.6933888539
 20
70.7272882519
 10
157.7914662296
 20
70.8035289481
 10
157.8948796156
 20
70.8716762717
 10
158.0029883862
 20
70.9313079647
 10
158.1158217486
 20
70.9823712012
 10
158.2333504956
 20
71.0249188071
 10
158.3548463797
 20
71.0586870023
 10
158.4803340714
 20
71.0836212606
 10
158.6097889003
 20
71.0997761082
 10
158.7424086082
 20
71.1070513439
 10
158.878212837
 20
71.1053918093
 10
159.0171819448
 20
71.0948526628
 10
159.1584547474
 20
71.0754991774
 10
159.3020455378
 20
71.0472766168
 10
159.447940023
 20
71.0102397175
 10
159.5952341399
 20
70.964617962
 10
159.7439365898
 20
70.9103580361
 10
159.8940386714
 20
70.847513254
 10
160.0446102186
 20
70.7764730413
 10
160.1956541542
 20
70.6971864966
 10
160.2710889825
 20
70.654621882
  0
LWPOLYLINE
  5
31F
100
AcDbEntity
  8
ASSI
100
AcDbPolyline
 62
7
  6
CONTINUOUS
 90
36
 70
0
 10
156.9480082915
 20
68.7359480081
 10
156.9515108266
 20
68.9091709025
 10
156.9618277718
 20
69.0773799692
 10
156.9789591271
 20
69.2405752082
 10
157.002968437
 20
69.3990740964
 10
157.0337921571
 20
69.5525591569
 10
157.0712396542
 20
69.700077959
 10
157.1153521721
 20
69.8415932589
 10
157.1660884671
 20
69.9771423004
 10
157.2231341752
 20
70.1058843839
 10
157.2865285276
 20
70.2277770951
 10
157.3562322932
 20
70.3428628482
 10
157.4318134143
 20
70.4504281861
 10
157.5133083203
 20
70.5504262757
 10
157.6006805819
 20
70.6429039501
 10
157.6933888539
 20
70.7272882519
 10
157.7914662296
 20
70.8035289481
 10
157.8948796156
 20
70.8716762717
 10
158.0029883862
 20
70.9313079647
 10
158.1158217486
 20
70.9823712012
 10
158.2333504956
 20
71.0249188071
 10
158.3548463797
 20
71.0586870023
 10
158.4803340714
 20
71.0836212606
 10
158.6097889003
 20
71.0997761082
 10
158.7424086082
 20
71.1070513439
 10
158.878212837
 20
71.1053918093
 10
159.0171819448
 20
71.0948526628
 10
159.1584547474
 20
71.0754991774
 10
159.3020455378
 20
71.0472766168
 10
159.447940023
 20
71.0102397175
 10
159.5952341399
 20
70.964617962
 10
159.7439365898
 20
70.9103580361
 10
159.8940386714
 20
70.847513254
 10
160.0446102186
 20
70.7764730413
 10
160.1956541542
 20
70.6971864966
 10
160.2710889825
 20
70.654621882
  0
LWPOLYLINE
  5
320
100
AcDbEntity
  8
SMUSSO
100
AcDbPolyline
 62
7
  6
CONTINUOUS
 90
18
 70
0
 10
158.6450645664
 20
68.7359480081
 10
158.6478672615
 20
68.8702899803
 10
158.6562692001
 20
69.0010935128
 10
158.670251653
 20
69.1280621367
 10
158.689783309
 20
69.2509083711
 10
158.7148201928
 20
69.3693533676
 10
158.7453056138
 20
69.483127665
 10
158.7811706376
 20
69.5919732931
 10
158.8223341998
 20
69.6956436355
 10
158.8687029369
 20
69.7939031633
 10
158.9201718349
 20
69.8865291445
 10
158.9766243912
 20
69.9733117367
 10
159.0379325654
 20
70.0540539996
 10
159.103957422
 20
70.1285729358
 10
159.1745494499
 20
70.1966997805
 10
159.2495486803
 20
70.2582801315
 10
159.3287852084
 20
70.3131744769
 10
159.36985374
 20
70.3380270221
  0
LWPOLYLINE
  5
321
100
AcDbEntity
  8
ASSI
100
AcDbPolyline
 62
7
  6
CONTINUOUS
 90
18
 70
0
 10
158.6450645664
 20
68.7359480081
 10
158.6478672615
 20
68.8702899803
 10
158.6562692001
 20
69.0010935128
 10
158.670251653
 20
69.1280621367
 10
158.689783309
 20
69.2509083711
 10
158.7148201928
 20
69.3693533676
 10
158.7453056138
 20
69.483127665
 10
158.7811706376
 20
69.5919732931
 10
158.8223341998
 20
69.6956436355
 10
158.8687029369
 20
69.7939031633
 10
158.9201718349
 20
69.8865291445
 10
158.9766243912
 20
69.9733117367
 10
159.0379325654
 20
70.0540539996
 10
159.103957422
 20
70.1285729358
 10
159.1745494499
 20
70.1966997805
 10
159.2495486803
 20
70.2582801315
 10
159.3287852084
 20
70.3131744769
 10
159.36985374
 20
70.3380270221
  0
LINE
  5
322
100
AcDbEntity
  8
SMUSSO
100
AcDbLine
 62
7
  6
CONTINUOUS
 10
159.0016939116
 20
69.0807394192
 11
158.998617957
 21
68.9400853047
  0
LINE
  5
323
100
AcDbEntity
  8
ASSI
100
AcDbLine
 62
7
  6
CONTINUOUS
 10
159.0016939116
 20
69.0807394192
 11
158.998617957
 21
68.9400853047
  0
LINE
  5
324
100
AcDbEntity
  8
SMUSSO
100
AcDbLine
 62
7
  6
CONTINUOUS
 10
159.0109143127
 20
69.2174938762
 11
159.0016939116
 21
69.0807394192
  0
LINE
  5
325
100
AcDbEntity
  8
ASSI
100
AcDbLine
 62
7
  6
CONTINUOUS
 10
159.0109143127
 20
69.2174938762
 11
159.0016939116
 21
69.0807394192
  0
LWPOLYLINE
  5
326
100
AcDbEntity
  8
SMUSSO
100
AcDbPolyline
 62
7
  6
CONTINUOUS
 90
3
 70
0
 10
159.5559160141
 20
70.4237310222
 10
159.5006698208
 20
70.3756362643
 10
159.4286366458
 20
70.3015360261
  0
LWPOLYLINE
  5
327
100
AcDbEntity
  8
ASSI
100
AcDbPolyline
 62
7
  6
CONTINUOUS
 90
3
 70
0
 10
159.5559160141
 20
70.4237310222
 10
159.5006698208
 20
70.3756362643
 10
159.4286366458
 20
70.3015360261
  0
LINE
  5
328
100
AcDbEntity
  8
ASSI
100
AcDbLine
 62
7
  6
CONTINUOUS
 10
185.3422765632
 20
87.2905020012
 11
189.404209548
 21
89.6357959034
  0
LINE
  5
329
100
AcDbEntity
  8
SMUSSO
100
AcDbLine
 62
250
  6
CONTINUOUS
 10
158.998617957
 20
68.9400853047
 11
158.6450645664
 21
68.7359480081
  0
LINE
  5
32A
100
AcDbEntity
  8
ASSI
100
AcDbLine
 62
250
  6
CONTINUOUS
 10
158.998617957
 20
68.9400853047
 11
158.6450645664
 21
68.7359480081
  0
LINE
  5
32B
100
AcDbEntity
  8
SMUSSO
100
AcDbLine
 62
250
  6
CONTINUOUS
 10
158.998617957
 20
65.6742041976
 11
158.6450645664
 21
65.4700669009
  0
LINE
  5
32C
100
AcDbEntity
  8
ASSI
100
AcDbLine
 62
250
  6
CONTINUOUS
 10
158.998617957
 20
65.6742041976
 11
158.6450645664
 21
65.4700669009
  0
LWPOLYLINE
  5
32D
100
AcDbEntity
  8
SMUSSO
100
AcDbPolyline
 62
7
  6
CONTINUOUS
 90
15
 70
0
 10
159.36985374
 20
70.3380270221
 10
159.4120795304
 20
70.3612584518
 10
159.4992428813
 20
70.4024230909
 10
159.5900778332
 20
70.4365751631
 10
159.6843785587
 20
70.4636372895
 10
159.7819312059
 20
70.4835481388
 10
159.8825147574
 20
70.4962626629
 10
159.9859013181
 20
70.5017521145
 10
160.091856399
 20
70.5000041287
 10
160.200139912
 20
70.4910227779
 10
160.3105065422
 20
70.474828518
 10
160.4227060397
 20
70.451458192
 10
160.5364841972
 20
70.4209648894
 10
160.6515832504
 20
70.3834178306
 10
160.7259857006
 20
70.3549046289
  0
LWPOLYLINE
  5
32E
100
AcDbEntity
  8
ASSI
100
AcDbPolyline
 62
7
  6
CONTINUOUS
 90
15
 70
0
 10
159.36985374
 20
70.3380270221
 10
159.4120795304
 20
70.3612584518
 10
159.4992428813
 20
70.4024230909
 10
159.5900778332
 20
70.4365751631
 10
159.6843785587
 20
70.4636372895
 10
159.7819312059
 20
70.4835481388
 10
159.8825147574
 20
70.4962626629
 10
159.9859013181
 20
70.5017521145
 10
160.091856399
 20
70.5000041287
 10
160.200139912
 20
70.4910227779
 10
160.3105065422
 20
70.474828518
 10
160.4227060397
 20
70.451458192
 10
160.5364841972
 20
70.4209648894
 10
160.6515832504
 20
70.3834178306
 10
160.7259857006
 20
70.3549046289
  0
LINE
  5
32F
100
AcDbEntity
  8
ASSI
100
AcDbLine
 62
7
  6
CONTINUOUS
 10
185.3207752114
 20
87.3024969486
 11
185.3422765632
 21
87.2905020012
  0
LINE
  5
330
100
AcDbEntity
  8
ASSI
100
AcDbLine
 62
7
  6
CONTINUOUS
 10
183.6248401463
 20
87.4380791639
 11
73.2783698731
 21
151.1507481336
  0
LINE
  5
331
100
AcDbEntity
  8
ASSI
100
AcDbLine
 62
7
  6
CONTINUOUS
 10
184.634739294
 20
88.5159924986
 11
73.6818227871
 21
152.578815923
  0
LINE
  5
332
100
AcDbEntity
  8
CURVE
100
AcDbLine
 62
250
  6
CONTINUOUS
 10
178.4120711419
 20
21.4277277315
 11
178.0311650601
 21
22.8204666964
  0
LINE
  5
333
100
AcDbEntity
  8
CURVE
100
AcDbLine
 62
250
  6
CONTINUOUS
 10
178.1153478695
 20
23.3951351606
 11
178.4366131336
 21
22.2124499061
  0
LINE
  5
334
100
AcDbEntity
  8
CURVE
100
AcDbLine
 62
250
  6
CONTINUOUS
 10
176.2443465767
 20
22.6793447275
 11
175.7512214415
 21
24.7601521306
  0
LINE
  5
335
100
AcDbEntity
  8
SMUSSO
100
AcDbLine
 62
7
  6
CONTINUOUS
 10
163.5948120347
 20
64.8981668308
 11
163.5948120347
 21
61.6322857236
  0
LINE
  5
336
100
AcDbEntity
  8
ASSI
100
AcDbLine
 62
7
  6
CONTINUOUS
 10
163.5948120347
 20
64.8981668308
 11
163.5948120347
 21
61.6322857236
  0
LWPOLYLINE
  5
337
100
AcDbEntity
  8
SMUSSO
100
AcDbPolyline
 62
7
  6
CONTINUOUS
 90
70
 70
0
 10
163.5948120347
 20
61.6322857236
 10
163.5913094996
 20
61.4590628292
 10
163.5809925544
 20
61.2908537625
 10
163.563861199
 20
61.1276585234
 10
163.5398518891
 20
60.9691596353
 10
163.5090281691
 20
60.8156745748
 10
163.4715806719
 20
60.6681557727
 10
163.4274681541
 20
60.5266404728
 10
163.3767318591
 20
60.3910914312
 10
163.319686151
 20
60.2623493478
 10
163.2562917986
 20
60.1404566366
 10
163.186588033
 20
60.0253708835
 10
163.1110069118
 20
59.9178055455
 10
163.0295120058
 20
59.817807456
 10
162.9421397442
 20
59.7253297816
 10
162.8494314723
 20
59.6409454797
 10
162.7513540966
 20
59.5647047836
 10
162.6479407106
 20
59.49655746
 10
162.53983194
 20
59.436925767
 10
162.4269985776
 20
59.3858625305
 10
162.3094698306
 20
59.3433149246
 10
162.1879739464
 20
59.3095467293
 10
162.0624862547
 20
59.2846124711
 10
161.9330314259
 20
59.2684576234
 10
161.800411718
 20
59.2611823878
 10
161.6646074892
 20
59.2628419224
 10
161.5256383814
 20
59.2733810689
 10
161.3843655788
 20
59.2927345542
 10
161.2407747884
 20
59.3209571148
 10
161.0948803032
 20
59.3579940142
 10
160.9475861862
 20
59.4036157697
 10
160.7988837364
 20
59.4578756956
 10
160.6487816548
 20
59.5207204777
 10
160.4982101076
 20
59.5917606903
 10
160.3471661719
 20
59.6710472351
 10
160.1956527707
 20
59.7585292105
 10
160.0446088388
 20
59.8536644869
 10
159.8940373006
 20
59.956500589
 10
159.7439352317
 20
60.0669899921
 10
159.595232794
 20
60.1844479924
 10
159.4479386864
 20
60.3089178578
 10
159.3020442099
 20
60.4403563204
 10
159.1584534292
 20
60.5779488731
 10
159.017180636
 20
60.7217337493
 10
158.8782115387
 20
60.8716727155
 10
158.742407327
 20
61.0268365639
 10
158.6097876442
 20
61.1872577705
 10
158.4803328471
 20
61.3529038592
 10
158.3548451964
 20
61.5227481937
 10
158.2333493697
 20
61.6968167987
 10
158.1158206894
 20
61.8750836495
 10
158.0029873835
 20
62.0564440352
 10
157.8948786519
 20
62.2409170617
 10
157.7914652948
 20
62.4284836233
 10
157.69338794
 20
62.6179816919
 10
157.6006796743
 20
62.8094233043
 10
157.5133074111
 20
63.0027964238
 10
157.4318125184
 20
63.1969029124
 10
157.3562314324
 20
63.3917475326
 10
157.286527717
 20
63.5873255219
 10
157.2231334323
 20
63.7824244546
 10
157.1660878165
 20
63.9770414272
 10
157.1153516315
 20
64.1711793432
 10
157.0712392229
 20
64.3636344881
 10
157.0337918347
 20
64.554396469
 10
157.002968223
 20
64.7434756787
 10
156.9789590014
 20
64.9296995804
 10
156.9618277079
 20
65.1126773286
 10
156.9515108046
 20
65.2927997687
 10
156.9480082915
 20
65.4700669009
  0
LWPOLYLINE
  5
338
100
AcDbEntity
  8
ASSI
100
AcDbPolyline
 62
7
  6
CONTINUOUS
 90
70
 70
0
 10
163.5948120347
 20
61.6322857236
 10
163.5913094996
 20
61.4590628292
 10
163.5809925544
 20
61.2908537625
 10
163.563861199
 20
61.1276585234
 10
163.5398518891
 20
60.9691596353
 10
163.5090281691
 20
60.8156745748
 10
163.4715806719
 20
60.6681557727
 10
163.4274681541
 20
60.5266404728
 10
163.3767318591
 20
60.3910914312
 10
163.319686151
 20
60.2623493478
 10
163.2562917986
 20
60.1404566366
 10
163.186588033
 20
60.0253708835
 10
163.1110069118
 20
59.9178055455
 10
163.0295120058
 20
59.817807456
 10
162.9421397442
 20
59.7253297816
 10
162.8494314723
 20
59.6409454797
 10
162.7513540966
 20
59.5647047836
 10
162.6479407106
 20
59.49655746
 10
162.53983194
 20
59.436925767
 10
162.4269985776
 20
59.3858625305
 10
162.3094698306
 20
59.3433149246
 10
162.1879739464
 20
59.3095467293
 10
162.0624862547
 20
59.2846124711
 10
161.9330314259
 20
59.2684576234
 10
161.800411718
 20
59.2611823878
 10
161.6646074892
 20
59.2628419224
 10
161.5256383814
 20
59.2733810689
 10
161.3843655788
 20
59.2927345542
 10
161.2407747884
 20
59.3209571148
 10
161.0948803032
 20
59.3579940142
 10
160.9475861862
 20
59.4036157697
 10
160.7988837364
 20
59.4578756956
 10
160.6487816548
 20
59.5207204777
 10
160.4982101076
 20
59.5917606903
 10
160.3471661719
 20
59.6710472351
 10
160.1956527707
 20
59.7585292105
 10
160.0446088388
 20
59.8536644869
 10
159.8940373006
 20
59.956500589
 10
159.7439352317
 20
60.0669899921
 10
159.595232794
 20
60.1844479924
 10
159.4479386864
 20
60.3089178578
 10
159.3020442099
 20
60.4403563204
 10
159.1584534292
 20
60.5779488731
 10
159.017180636
 20
60.7217337493
 10
158.8782115387
 20
60.8716727155
 10
158.742407327
 20
61.0268365639
 10
158.6097876442
 20
61.1872577705
 10
158.4803328471
 20
61.3529038592
 10
158.3548451964
 20
61.5227481937
 10
158.2333493697
 20
61.6968167987
 10
158.1158206894
 20
61.8750836495
 10
158.0029873835
 20
62.0564440352
 10
157.8948786519
 20
62.2409170617
 10
157.7914652948
 20
62.4284836233
 10
157.69338794
 20
62.6179816919
 10
157.6006796743
 20
62.8094233043
 10
157.5133074111
 20
63.0027964238
 10
157.4318125184
 20
63.1969029124
 10
157.3562314324
 20
63.3917475326
 10
157.286527717
 20
63.5873255219
 10
157.2231334323
 20
63.7824244546
 10
157.1660878165
 20
63.9770414272
 10
157.1153516315
 20
64.1711793432
 10
157.0712392229
 20
64.3636344881
 10
157.0337918347
 20
64.554396469
 10
157.002968223
 20
64.7434756787
 10
156.9789590014
 20
64.9296995804
 10
156.9618277079
 20
65.1126773286
 10
156.9515108046
 20
65.2927997687
 10
156.9480082915
 20
65.4700669009
  0
LWPOLYLINE
  5
339
100
AcDbEntity
  8
SMUSSO
100
AcDbPolyline
 62
7
  6
CONTINUOUS
 90
18
 70
0
 10
163.5948120347
 20
62.6121447476
 10
163.5920093395
 20
62.4778027753
 10
163.5836074009
 20
62.3469992428
 10
163.5696249481
 20
62.220030619
 10
163.550093292
 20
62.0971843846
 10
163.5250564082
 20
61.9787393881
 10
163.4945709873
 20
61.8649650907
 10
163.4587059634
 20
61.7561194626
 10
163.4175424013
 20
61.6524491201
 10
163.3711736642
 20
61.5541895923
 10
163.3197047661
 20
61.4615636112
 10
163.2632522098
 20
61.3747810189
 10
163.2019440356
 20
61.294038756
 10
163.135919179
 20
61.2195198198
 10
163.0653271511
 20
61.1513929752
 10
162.9903279208
 20
61.0898126242
 10
162.9110913927
 20
61.0349182788
 10
162.870022861
 20
61.0100657336
  0
LWPOLYLINE
  5
33A
100
AcDbEntity
  8
ASSI
100
AcDbPolyline
 62
7
  6
CONTINUOUS
 90
18
 70
0
 10
163.5948120347
 20
62.6121447476
 10
163.5920093395
 20
62.4778027753
 10
163.5836074009
 20
62.3469992428
 10
163.5696249481
 20
62.220030619
 10
163.550093292
 20
62.0971843846
 10
163.5250564082
 20
61.9787393881
 10
163.4945709873
 20
61.8649650907
 10
163.4587059634
 20
61.7561194626
 10
163.4175424013
 20
61.6524491201
 10
163.3711736642
 20
61.5541895923
 10
163.3197047661
 20
61.4615636112
 10
163.2632522098
 20
61.3747810189
 10
163.2019440356
 20
61.294038756
 10
163.135919179
 20
61.2195198198
 10
163.0653271511
 20
61.1513929752
 10
162.9903279208
 20
61.0898126242
 10
162.9110913927
 20
61.0349182788
 10
162.870022861
 20
61.0100657336
  0
LWPOLYLINE
  5
33B
100
AcDbEntity
  8
SMUSSO
100
AcDbPolyline
 62
7
  6
CONTINUOUS
 90
11
 70
0
 10
159.4286366458
 20
70.3015360261
 10
159.3616871946
 20
70.2204981837
 10
159.299988032
 20
70.1327243014
 10
159.2436926908
 20
70.0384328234
 10
159.192941054
 20
69.9378581074
 10
159.1478593263
 20
69.8312503222
 10
159.1085597514
 20
69.7188751605
 10
159.0751398833
 20
69.6010120262
 10
159.0476827132
 20
69.4779541398
 10
159.0262565143
 20
69.3500085467
 10
159.0109143127
 20
69.2174938762
  0
LWPOLYLINE
  5
33C
100
AcDbEntity
  8
ASSI
100
AcDbPolyline
 62
7
  6
CONTINUOUS
 90
11
 70
0
 10
159.4286366458
 20
70.3015360261
 10
159.3616871946
 20
70.2204981837
 10
159.299988032
 20
70.1327243014
 10
159.2436926908
 20
70.0384328234
 10
159.192941054
 20
69.9378581074
 10
159.1478593263
 20
69.8312503222
 10
159.1085597514
 20
69.7188751605
 10
159.0751398833
 20
69.6010120262
 10
159.0476827132
 20
69.4779541398
 10
159.0262565143
 20
69.3500085467
 10
159.0109143127
 20
69.2174938762
  0
LINE
  5
33D
100
AcDbEntity
  8
ASSI
100
AcDbLine
 62
7
  6
CONTINUOUS
 10
183.6248401463
 20
87.4380791639
 11
184.6343768637
 21
88.4913737597
  0
LWPOLYLINE
  5
33E
100
AcDbEntity
  8
SMUSSO
100
AcDbPolyline
 62
7
  6
CONTINUOUS
 90
51
 70
0
 10
162.870022861
 20
61.0100657336
 10
162.8277970706
 20
60.9868343039
 10
162.7406337197
 20
60.9456696648
 10
162.6497987678
 20
60.9115175926
 10
162.5554980423
 20
60.8844554662
 10
162.4579453952
 20
60.8645446168
 10
162.3573618436
 20
60.8518300927
 10
162.2539752829
 20
60.8463406412
 10
162.148020202
 20
60.8480886269
 10
162.039736689
 20
60.8570699778
 10
161.9293700588
 20
60.8732642376
 10
161.8171705613
 20
60.8966345636
 10
161.7033924039
 20
60.9271278663
 10
161.5882933506
 20
60.964674925
 10
161.4721343454
 20
61.0091904637
 10
161.3551789248
 20
61.0605732878
 10
161.2376916456
 20
61.1187069695
 10
161.1199376649
 20
61.1834602225
 10
161.0021837271
 20
61.2546863576
 10
160.8846965412
 20
61.3322240447
 10
160.7677412108
 20
61.4158984049
 10
160.6515822754
 20
61.5055203771
 10
160.5364832881
 20
61.6008868195
 10
160.4227051917
 20
61.7017816788
 10
160.3105057486
 20
61.8079765183
 10
160.2001391678
 20
61.919230875
 10
160.0918557013
 20
62.0352926077
 10
159.9859006646
 20
62.1558988892
 10
159.8825141453
 20
62.2807765447
 10
159.7819306335
 20
62.4096424266
 10
159.6843780262
 20
62.5422046178
 10
159.5900773387
 20
62.6781628475
 10
159.4992424196
 20
62.8172088393
 10
159.4120790972
 20
62.9590275297
 10
159.3287847994
 20
63.1032977041
 10
159.2495482873
 20
63.2496924252
 10
159.1745490626
 20
63.3978800492
 10
159.1039570353
 20
63.5475248562
 10
159.0379321813
 20
63.6982877035
 10
158.9766240105
 20
63.8498271787
 10
158.9201714608
 20
64.0017998406
 10
158.8687025813
 20
64.1538608654
 10
158.8223338731
 20
64.3056658749
 10
158.7811703477
 20
64.4568708709
 10
158.7453053707
 20
64.6071324913
 10
158.714820003
 20
64.7561105053
 10
158.6897831734
 20
64.9034673451
 10
158.6702515687
 20
65.0488680811
 10
158.6562691592
 20
65.1919830841
 10
158.6478672504
 20
65.3324887216
 10
158.6450645664
 20
65.4700669009
  0
LWPOLYLINE
  5
33F
100
AcDbEntity
  8
ASSI
100
AcDbPolyline
 62
7
  6
CONTINUOUS
 90
51
 70
0
 10
162.870022861
 20
61.0100657336
 10
162.8277970706
 20
60.9868343039
 10
162.7406337197
 20
60.9456696648
 10
162.6497987678
 20
60.9115175926
 10
162.5554980423
 20
60.8844554662
 10
162.4579453952
 20
60.8645446168
 10
162.3573618436
 20
60.8518300927
 10
162.2539752829
 20
60.8463406412
 10
162.148020202
 20
60.8480886269
 10
162.039736689
 20
60.8570699778
 10
161.9293700588
 20
60.8732642376
 10
161.8171705613
 20
60.8966345636
 10
161.7033924039
 20
60.9271278663
 10
161.5882933506
 20
60.964674925
 10
161.4721343454
 20
61.0091904637
 10
161.3551789248
 20
61.0605732878
 10
161.2376916456
 20
61.1187069695
 10
161.1199376649
 20
61.1834602225
 10
161.0021837271
 20
61.2546863576
 10
160.8846965412
 20
61.3322240447
 10
160.7677412108
 20
61.4158984049
 10
160.6515822754
 20
61.5055203771
 10
160.5364832881
 20
61.6008868195
 10
160.4227051917
 20
61.7017816788
 10
160.3105057486
 20
61.8079765183
 10
160.2001391678
 20
61.919230875
 10
160.0918557013
 20
62.0352926077
 10
159.9859006646
 20
62.1558988892
 10
159.8825141453
 20
62.2807765447
 10
159.7819306335
 20
62.4096424266
 10
159.6843780262
 20
62.5422046178
 10
159.5900773387
 20
62.6781628475
 10
159.4992424196
 20
62.8172088393
 10
159.4120790972
 20
62.9590275297
 10
159.3287847994
 20
63.1032977041
 10
159.2495482873
 20
63.2496924252
 10
159.1745490626
 20
63.3978800492
 10
159.1039570353
 20
63.5475248562
 10
159.0379321813
 20
63.6982877035
 10
158.9766240105
 20
63.8498271787
 10
158.9201714608
 20
64.0017998406
 10
158.8687025813
 20
64.1538608654
 10
158.8223338731
 20
64.3056658749
 10
158.7811703477
 20
64.4568708709
 10
158.7453053707
 20
64.6071324913
 10
158.714820003
 20
64.7561105053
 10
158.6897831734
 20
64.9034673451
 10
158.6702515687
 20
65.0488680811
 10
158.6562691592
 20
65.1919830841
 10
158.6478672504
 20
65.3324887216
 10
158.6450645664
 20
65.4700669009
  0
LWPOLYLINE
  5
340
100
AcDbEntity
  8
SMUSSO
100
AcDbPolyline
 62
7
  6
CONTINUOUS
 90
3
 70
0
 10
162.9182063992
 20
61.0908705354
 10
163.0165733053
 20
61.1201108048
 10
163.0369395138
 20
61.1280844604
  0
LWPOLYLINE
  5
341
100
AcDbEntity
  8
ASSI
100
AcDbPolyline
 62
7
  6
CONTINUOUS
 90
3
 70
0
 10
162.9182063992
 20
61.0908705354
 10
163.0165733053
 20
61.1201108048
 10
163.0369395138
 20
61.1280844604
  0
LINE
  5
342
100
AcDbEntity
  8
ASSI
100
AcDbLine
 62
7
  6
CONTINUOUS
 10
188.6966722787
 20
90.8612864008
 11
77.4696365742
 21
155.0823828143
  0
LWPOLYLINE
  5
343
100
AcDbEntity
  8
CURVE
100
AcDbPolyline
 62
250
  6
CONTINUOUS
 90
5
 70
0
 10
181.3322584554
 20
20.2862792014
 10
181.3376143951
 20
20.2662234201
 10
181.3427118375
 20
20.2462119587
 10
181.3475957122
 20
20.2262375449
 10
181.3523109486
 20
20.2062929064
  0
LINE
  5
344
100
AcDbEntity
  8
CURVE
100
AcDbLine
 62
250
  6
CONTINUOUS
 10
180.0810125059
 20
22.260185035
 11
180.5582797957
 21
20.1885337531
  0
LINE
  5
345
100
AcDbEntity
  8
CURVE
100
AcDbLine
 62
250
  6
CONTINUOUS
 10
181.3523109486
 20
20.2062929064
 11
181.361415225
 21
20.1664638662
  0
LINE
  5
346
100
AcDbEntity
  8
CURVE
100
AcDbLine
 62
250
  6
CONTINUOUS
 10
181.361415225
 20
20.1664638662
 11
181.42768127
 21
19.8717348806
  0
LWPOLYLINE
  5
347
100
AcDbEntity
  8
CURVE
100
AcDbPolyline
 62
250
  6
CONTINUOUS
 90
37
 70
0
 10
181.6602531802
 20
20.1021045495
 10
181.657025877
 20
20.1166679288
 10
181.6537049115
 20
20.1312502483
 10
181.6502739024
 20
20.1458520006
 10
181.6467164682
 20
20.1604736785
 10
181.6430162276
 20
20.1751157744
 10
181.6391567994
 20
20.189778781
 10
181.6351218021
 20
20.204463191
 10
181.6308948544
 20
20.2191694968
 10
181.626459575
 20
20.2338981912
 10
181.6217995825
 20
20.2486497667
 10
181.6168984956
 20
20.2634247159
 10
181.613389318
 20
20.273569738
 10
181.6097522694
 20
20.2837191172
 10
181.6059805697
 20
20.2938659862
 10
181.6020674386
 20
20.3040034776
 10
181.5980060961
 20
20.3141247241
 10
181.593789762
 20
20.3242228586
 10
181.5894116562
 20
20.3342910136
 10
181.5848649984
 20
20.3443223219
 10
181.5801430086
 20
20.3543099162
 10
181.5752389066
 20
20.3642469291
 10
181.5701459123
 20
20.3741264935
 10
181.5648572454
 20
20.383941742
 10
181.5598375909
 20
20.3928678201
 10
181.554653718
 20
20.4017192548
 10
181.5493112475
 20
20.4104811189
 10
181.5438158002
 20
20.419138485
 10
181.5381729969
 20
20.427676426
 10
181.5323884585
 20
20.4360800145
 10
181.5264678055
 20
20.4443343234
 10
181.520416659
 20
20.4524244254
 10
181.5142406396
 20
20.4603353932
 10
181.5079453682
 20
20.4680522996
 10
181.5015364655
 20
20.4755602173
 10
181.4950195524
 20
20.4828442191
 10
181.4884002495
 20
20.4898893777
  0
LINE
  5
348
100
AcDbEntity
  8
CURVE
100
AcDbLine
 62
250
  6
CONTINUOUS
 10
181.42768127
 20
19.8717348806
 11
181.4742394742
 21
19.6596697742
  0
LINE
  5
349
100
AcDbEntity
  8
CURVE
100
AcDbLine
 62
250
  6
CONTINUOUS
 10
181.6664923247
 20
20.0730326414
 11
181.6602531802
 21
20.1021045495
  0
LINE
  5
34A
100
AcDbEntity
  8
CURVE
100
AcDbLine
 62
250
  6
CONTINUOUS
 10
176.1039401607
 20
24.5564967627
 11
176.4004478666
 21
23.1489974593
  0
LINE
  5
34B
100
AcDbEntity
  8
CURVE
100
AcDbLine
 62
250
  6
CONTINUOUS
 10
180.2160653156
 20
20.3861241049
 11
180.1319521394
 21
20.793251769
  0
LINE
  5
34C
100
AcDbEntity
  8
CURVE
100
AcDbLine
 62
250
  6
CONTINUOUS
 10
181.6907231061
 20
19.9559227319
 11
181.6664923247
 21
20.0730326414
  0
LINE
  5
34D
100
AcDbEntity
  8
CURVE
100
AcDbLine
 62
250
  6
CONTINUOUS
 10
181.7865580562
 20
19.4793409392
 11
181.7717440605
 21
19.5520177932
  0
LINE
  5
34E
100
AcDbEntity
  8
CURVE
100
AcDbLine
 62
250
  6
CONTINUOUS
 10
181.7717440605
 20
19.5520177932
 11
181.6907231061
 21
19.9559227319
  0
LINE
  5
34F
100
AcDbEntity
  8
CURVE
100
AcDbLine
 62
250
  6
CONTINUOUS
 10
180.0670621652
 20
21.1081725101
 11
179.9178604862
 21
21.860868964
  0
LINE
  5
350
100
AcDbEntity
  8
CURVE
100
AcDbLine
 62
250
  6
CONTINUOUS
 10
179.0825616138
 20
22.8366780666
 11
179.2280186576
 21
20.9566098622
  0
LINE
  5
351
100
AcDbEntity
  8
CURVE
100
AcDbLine
 62
250
  6
CONTINUOUS
 10
178.9103809857
 20
21.1400098729
 11
178.8436716596
 21
22.3464463896
  0
LINE
  5
352
100
AcDbEntity
  8
CURVE
100
AcDbLine
 62
250
  6
CONTINUOUS
 10
177.1509801961
 20
23.9520567429
 11
177.1509801961
 21
22.1558658384
  0
LINE
  5
353
100
AcDbEntity
  8
CURVE
100
AcDbLine
 62
250
  6
CONTINUOUS
 10
177.4756752647
 20
21.9683909752
 11
177.4756752647
 21
23.7645818796
  0
LINE
  5
354
100
AcDbEntity
  8
ASSI
100
AcDbLine
 62
7
  6
CONTINUOUS
 10
183.9038160804
 20
86.9548786724
 11
183.6248401463
 21
87.4380791639
  0
LINE
  5
355
100
AcDbEntity
  8
ASSI
100
AcDbLine
 62
7
  6
CONTINUOUS
 10
185.3207752114
 20
87.3024969486
 11
184.6343768637
 21
88.4913737597
  0
LWPOLYLINE
  5
356
100
AcDbEntity
  8
CURVE
100
AcDbPolyline
 62
250
  6
CONTINUOUS
 90
58
 70
0
 10
181.4040304903
 20
20.976361133
 10
181.4040794058
 20
20.968005793
 10
181.4039986307
 20
20.9597012977
 10
181.4037801186
 20
20.9514611964
 10
181.4034158229
 20
20.9432990382
 10
181.4028976972
 20
20.9352283724
 10
181.4022176949
 20
20.9272627483
 10
181.4013677696
 20
20.9194157151
 10
181.4003398748
 20
20.911700822
 10
181.399125964
 20
20.9041316183
 10
181.3977179906
 20
20.8967216532
 10
181.3961079083
 20
20.8894844759
 10
181.3942876705
 20
20.8824336357
 10
181.3922492307
 20
20.8755826817
 10
181.3899845425
 20
20.8689451634
 10
181.3874855593
 20
20.8625346298
 10
181.3847442346
 20
20.8563646302
 10
181.3820166811
 20
20.8509373072
 10
181.3790836932
 20
20.8457299114
 10
181.3759497409
 20
20.8407493678
 10
181.3726192943
 20
20.8360026011
 10
181.3690968232
 20
20.8314965365
 10
181.3653867978
 20
20.8272380987
 10
181.361493688
 20
20.8232342127
 10
181.3574219639
 20
20.8194918035
 10
181.3531760955
 20
20.8160177959
 10
181.3487605527
 20
20.8128191149
 10
181.3441798056
 20
20.8099026855
 10
181.3394383242
 20
20.8072754325
 10
181.3345405786
 20
20.8049442809
 10
181.3294910386
 20
20.8029161555
 10
181.3240636899
 20
20.8011270669
 10
181.3184835195
 20
20.7996664382
 10
181.3127582183
 20
20.798525032
 10
181.3068954769
 20
20.797693611
 10
181.3009029862
 20
20.7971629377
 10
181.2947884369
 20
20.7969237748
 10
181.2885595198
 20
20.7969668847
 10
181.2822239257
 20
20.7972830302
 10
181.2757893453
 20
20.7978629738
 10
181.2692634694
 20
20.7986974781
 10
181.2626539887
 20
20.7997773056
 10
181.2559685941
 20
20.8010932191
 10
181.2492149762
 20
20.802635981
 10
181.242400826
 20
20.804396354
 10
181.235533834
 20
20.8063651006
 10
181.2286216911
 20
20.8085329834
 10
181.2216720881
 20
20.8108907651
 10
181.2146927158
 20
20.8134292083
 10
181.2076912648
 20
20.8161390754
 10
181.200675426
 20
20.8190111292
 10
181.1936528901
 20
20.8220361321
 10
181.1866313479
 20
20.8252048469
 10
181.1796184901
 20
20.828508036
 10
181.1726220076
 20
20.8319364621
 10
181.1656495911
 20
20.8354808878
 10
181.1587089313
 20
20.8391320757
 10
181.1518077191
 20
20.8428807883
  0
LINE
  5
357
100
AcDbEntity
  8
CURVE
100
AcDbLine
 62
250
  6
CONTINUOUS
 10
180.6536260452
 20
21.9085809968
 11
180.6536260452
 21
20.1334816834
  0
LINE
  5
358
100
AcDbEntity
  8
CURVE
100
AcDbLine
 62
250
  6
CONTINUOUS
 10
180.9662479058
 20
20.9500206989
 11
180.9662479058
 21
21.4430806455
  0
LINE
  5
359
100
AcDbEntity
  8
CURVE
100
AcDbLine
 62
250
  6
CONTINUOUS
 10
180.9770142942
 20
19.9467613614
 11
180.9770142942
 21
20.6496492393
  0
LINE
  5
35A
100
AcDbEntity
  8
CURVE
100
AcDbLine
 62
250
  6
CONTINUOUS
 10
181.4884002495
 20
20.4898893777
 11
181.4884002495
 21
20.5005026654
  0
LINE
  5
35B
100
AcDbEntity
  8
ASSI
100
AcDbLine
 62
7
  6
CONTINUOUS
 10
183.9038160804
 20
16.1232450731
 11
183.9038160804
 21
86.9548786724
  0
LINE
  5
35C
100
AcDbEntity
  8
ASSI
100
AcDbLine
 62
7
  6
CONTINUOUS
 10
185.3422765632
 20
15.758627169
 11
185.3422765632
 21
87.2905020012
  0
LINE
  5
35D
100
AcDbEntity
  8
ASSI
100
AcDbLine
 62
7
  6
CONTINUOUS
 10
184.634739294
 20
88.5159924986
 11
184.6343768637
 21
88.4913737597
  0
LINE
  5
35E
100
AcDbEntity
  8
CURVE
100
AcDbLine
 62
250
  6
CONTINUOUS
 10
178.0311650601
 20
22.8204666964
 11
177.9610955626
 21
21.6881153789
  0
LINE
  5
35F
100
AcDbEntity
  8
CURVE
100
AcDbLine
 62
250
  6
CONTINUOUS
 10
177.6504686185
 20
21.8674674834
 11
177.7909217035
 21
23.5824547628
  0
LINE
  5
360
100
AcDbEntity
  8
ASSI
100
AcDbLine
 62
7
  6
CONTINUOUS
 10
188.6966722787
 20
90.8612864008
 11
189.404209548
 21
89.6357959034
  0
LINE
  5
361
100
AcDbEntity
  8
ASSI
100
AcDbLine
 62
7
  6
CONTINUOUS
 10
189.404209548
 20
17.7874056833
 11
189.404209548
 21
89.6357959034
  0
LINE
  5
362
100
AcDbEntity
  8
CURVE
100
AcDbLine
 62
250
  6
CONTINUOUS
 10
176.4004478666
 20
23.1489974593
 11
176.7060123305
 21
24.2088678377
  0
LINE
  5
363
100
AcDbEntity
  8
CURVE
100
AcDbLine
 62
250
  6
CONTINUOUS
 10
179.9178604862
 20
21.860868964
 11
179.7561900234
 21
21.2876661886
  0
LINE
  5
364
100
AcDbEntity
  8
CURVE
100
AcDbLine
 62
250
  6
CONTINUOUS
 10
179.6897718232
 20
21.0485611417
 11
179.6001761453
 21
20.741730793
  0
LINE
  5
365
100
AcDbEntity
  8
CURVE
100
AcDbLine
 62
250
  6
CONTINUOUS
 10
179.2790042193
 20
20.9271714378
 11
179.7669098291
 21
22.441543984
  0
LINE
  5
366
100
AcDbEntity
  8
CURVE
100
AcDbLine
 62
250
  6
CONTINUOUS
 10
177.0304859063
 20
24.0215208616
 11
176.5304841243
 21
22.5141324936
  0
LINE
  5
367
100
AcDbEntity
  8
CURVE
100
AcDbLine
 62
250
  6
CONTINUOUS
 10
178.4366131336
 20
22.2124499061
 11
178.7613082022
 21
23.0221657602
  0
LINE
  5
368
100
AcDbEntity
  8
CURVE
100
AcDbLine
 62
250
  6
CONTINUOUS
 10
178.8436716596
 20
22.3464463896
 11
178.4576090186
 21
21.4014347322
  0
LINE
  5
369
100
AcDbEntity
  8
CURVE
100
AcDbLine
 62
7
  6
CONTINUOUS
 10
175.7675314605
 20
24.691329826
 11
175.8051918993
 21
24.7289902647
  0
LINE
  5
36A
100
AcDbEntity
  8
CURVE
100
AcDbLine
 62
7
  6
CONTINUOUS
 10
175.8480009835
 20
24.3517779209
 11
176.071468535
 21
24.5752454724
  0
LINE
  5
36B
100
AcDbEntity
  8
CURVE
100
AcDbLine
 62
7
  6
CONTINUOUS
 10
175.9284705064
 20
24.0122260158
 11
176.1681138204
 21
24.2518693298
  0
LINE
  5
36C
100
AcDbEntity
  8
CURVE
100
AcDbLine
 62
7
  6
CONTINUOUS
 10
176.0089400294
 20
23.6726741107
 11
176.2412001336
 21
23.904934215
  0
LINE
  5
36D
100
AcDbEntity
  8
CURVE
100
AcDbLine
 62
7
  6
CONTINUOUS
 10
176.0894095523
 20
23.3331222056
 11
176.3142864469
 21
23.5579991002
  0
LINE
  5
36E
100
AcDbEntity
  8
CURVE
100
AcDbLine
 62
7
  6
CONTINUOUS
 10
176.6010352308
 20
23.8447478841
 11
176.8702984423
 21
24.1140110957
  0
LINE
  5
36F
100
AcDbEntity
  8
CURVE
100
AcDbLine
 62
7
  6
CONTINUOUS
 10
176.1698790753
 20
22.9935703006
 11
176.3873727601
 21
23.2110639854
  0
LINE
  5
370
100
AcDbEntity
  8
CURVE
100
AcDbLine
 62
7
  6
CONTINUOUS
 10
176.4308872577
 20
23.254578483
 11
176.9474272629
 21
23.7711184882
  0
LINE
  5
371
100
AcDbEntity
  8
CURVE
100
AcDbLine
 62
7
  6
CONTINUOUS
 10
176.2642074886
 20
22.6678772859
 11
176.7389556936
 21
23.1426254909
  0
LINE
  5
372
100
AcDbEntity
  8
CURVE
100
AcDbLine
 62
7
  6
CONTINUOUS
 10
177.1509801961
 20
23.5546499934
 11
177.4029200383
 21
23.8065898355
  0
LINE
  5
373
100
AcDbEntity
  8
CURVE
100
AcDbLine
 62
7
  6
CONTINUOUS
 10
177.1509801961
 20
23.1346285654
 11
177.4756752647
 21
23.4593236339
  0
LINE
  5
374
100
AcDbEntity
  8
CURVE
100
AcDbLine
 62
7
  6
CONTINUOUS
 10
177.1509801961
 20
22.7146071374
 11
177.4756752647
 21
23.0393022059
  0
LINE
  5
375
100
AcDbEntity
  8
CURVE
100
AcDbLine
 62
7
  6
CONTINUOUS
 10
177.7705918069
 20
23.3342187481
 11
177.9354049854
 21
23.4990319266
  0
LINE
  5
376
100
AcDbEntity
  8
CURVE
100
AcDbLine
 62
7
  6
CONTINUOUS
 10
177.1509801961
 20
22.2945857093
 11
177.4756752647
 21
22.6192807779
  0
LINE
  5
377
100
AcDbEntity
  8
CURVE
100
AcDbLine
 62
7
  6
CONTINUOUS
 10
177.7331246592
 20
22.8767301724
 11
178.144438238
 21
23.2880437512
  0
LINE
  5
378
100
AcDbEntity
  8
CURVE
100
AcDbLine
 62
7
  6
CONTINUOUS
 10
177.3293140316
 20
22.0528981168
 11
177.4756752647
 21
22.1992593499
  0
LINE
  5
379
100
AcDbEntity
  8
CURVE
100
AcDbLine
 62
7
  6
CONTINUOUS
 10
177.6956575114
 20
22.4192415966
 11
178.0268302445
 21
22.7504143297
  0
LINE
  5
37A
100
AcDbEntity
  8
CURVE
100
AcDbLine
 62
7
  6
CONTINUOUS
 10
178.0452784899
 20
22.7688625751
 11
178.2341608009
 21
22.9577448861
  0
LINE
  5
37B
100
AcDbEntity
  8
CURVE
100
AcDbLine
 62
7
  6
CONTINUOUS
 10
177.6581903636
 20
21.9617530208
 11
177.9991250821
 21
22.3026877392
  0
LINE
  5
37C
100
AcDbEntity
  8
CURVE
100
AcDbLine
 62
7
  6
CONTINUOUS
 10
178.1354818351
 20
22.4390444923
 11
178.3238833638
 21
22.627446021
  0
LINE
  5
37D
100
AcDbEntity
  8
CURVE
100
AcDbLine
 62
7
  6
CONTINUOUS
 10
177.8618673032
 20
21.7454085323
 11
177.9714199196
 21
21.8549611488
  0
LINE
  5
37E
100
AcDbEntity
  8
CURVE
100
AcDbLine
 62
7
  6
CONTINUOUS
 10
178.2256851803
 20
22.1092264095
 11
178.4136059267
 21
22.2971471559
  0
LINE
  5
37F
100
AcDbEntity
  8
CURVE
100
AcDbLine
 62
7
  6
CONTINUOUS
 10
178.5087154166
 20
22.3922566457
 11
179.0005115284
 21
22.8840527576
  0
LINE
  5
380
100
AcDbEntity
  8
CURVE
100
AcDbLine
 62
7
  6
CONTINUOUS
 10
178.3158885255
 20
21.7794083267
 11
178.8165585221
 21
22.2800783232
  0
LINE
  5
381
100
AcDbEntity
  8
CURVE
100
AcDbLine
 62
7
  6
CONTINUOUS
 10
178.8457285094
 20
22.3092483105
 11
179.1034299441
 21
22.5669497452
  0
LINE
  5
382
100
AcDbEntity
  8
CURVE
100
AcDbLine
 62
7
  6
CONTINUOUS
 10
178.4060918708
 20
21.4495902438
 11
178.5264523102
 21
21.5699506833
  0
LINE
  5
383
100
AcDbEntity
  8
CURVE
100
AcDbLine
 62
7
  6
CONTINUOUS
 10
178.8677364723
 20
21.9112348454
 11
179.133592528
 21
22.1770909011
  0
LINE
  5
384
100
AcDbEntity
  8
CURVE
100
AcDbLine
 62
7
  6
CONTINUOUS
 10
178.8897444352
 20
21.5132213802
 11
179.1637551119
 21
21.7872320569
  0
LINE
  5
385
100
AcDbEntity
  8
CURVE
100
AcDbLine
 62
7
  6
CONTINUOUS
 10
179.7425935177
 20
22.3660704628
 11
179.7993414357
 21
22.4228183808
  0
LINE
  5
386
100
AcDbEntity
  8
CURVE
100
AcDbLine
 62
7
  6
CONTINUOUS
 10
178.9269738462
 20
21.1304293633
 11
179.1939176958
 21
21.3973732128
  0
LINE
  5
387
100
AcDbEntity
  8
CURVE
100
AcDbLine
 62
7
  6
CONTINUOUS
 10
179.5429467452
 20
21.7464022622
 11
180.0656180715
 21
22.2690735885
  0
LINE
  5
388
100
AcDbEntity
  8
CURVE
100
AcDbLine
 62
7
  6
CONTINUOUS
 10
179.193250482
 20
20.976684571
 11
179.2240802797
 21
21.0075143687
  0
LINE
  5
389
100
AcDbEntity
  8
CURVE
100
AcDbLine
 62
7
  6
CONTINUOUS
 10
179.3432999726
 20
21.1267340616
 11
179.85517169
 21
21.638605779
  0
LINE
  5
38A
100
AcDbEntity
  8
CURVE
100
AcDbLine
 62
7
  6
CONTINUOUS
 10
179.944258996
 20
21.727693085
 11
180.1551117788
 21
21.9385458678
  0
LINE
  5
38B
100
AcDbEntity
  8
CURVE
100
AcDbLine
 62
7
  6
CONTINUOUS
 10
179.4595271178
 20
20.8229397787
 11
179.862735503
 21
21.226148164
  0
LINE
  5
38C
100
AcDbEntity
  8
CURVE
100
AcDbLine
 62
7
  6
CONTINUOUS
 10
180.0137434533
 20
21.3771561143
 11
180.2337578724
 21
21.5971705334
  0
LINE
  5
38D
100
AcDbEntity
  8
CURVE
100
AcDbLine
 62
7
  6
CONTINUOUS
 10
179.9531174464
 20
20.8965086794
 11
180.312403966
 21
21.255795199
  0
LINE
  5
38E
100
AcDbEntity
  8
CURVE
100
AcDbLine
 62
7
  6
CONTINUOUS
 10
180.6536260452
 20
21.5970172782
 11
180.8698387796
 21
21.8132300126
  0
LINE
  5
38F
100
AcDbEntity
  8
CURVE
100
AcDbLine
 62
7
  6
CONTINUOUS
 10
180.1555693037
 20
20.6789391087
 11
180.3910500596
 21
20.9144198646
  0
LINE
  5
390
100
AcDbEntity
  8
CURVE
100
AcDbLine
 62
7
  6
CONTINUOUS
 10
180.6536260452
 20
21.1769958502
 11
181.1429434501
 21
21.666313255
  0
LINE
  5
391
100
AcDbEntity
  8
CURVE
100
AcDbLine
 62
7
  6
CONTINUOUS
 10
180.258357025
 20
20.361705402
 11
180.4696961532
 21
20.5730445301
  0
LINE
  5
392
100
AcDbEntity
  8
CURVE
100
AcDbLine
 62
7
  6
CONTINUOUS
 10
180.6536260452
 20
20.7569744222
 11
180.9662479058
 21
21.0695962827
  0
LINE
  5
393
100
AcDbEntity
  8
CURVE
100
AcDbLine
 62
7
  6
CONTINUOUS
 10
181.2104615003
 20
21.3138098772
 11
181.3866379092
 21
21.4899862861
  0
LINE
  5
394
100
AcDbEntity
  8
CURVE
100
AcDbLine
 62
7
  6
CONTINUOUS
 10
180.5246336608
 20
20.2079606097
 11
180.5483422469
 21
20.2316691957
  0
LINE
  5
395
100
AcDbEntity
  8
CURVE
100
AcDbLine
 62
7
  6
CONTINUOUS
 10
180.6536260452
 20
20.3369529941
 11
181.1568844513
 21
20.8402114002
  0
LINE
  5
396
100
AcDbEntity
  8
CURVE
100
AcDbLine
 62
7
  6
CONTINUOUS
 10
181.387978339
 20
21.0713052879
 11
181.5788986196
 21
21.2622255685
  0
LINE
  5
397
100
AcDbEntity
  8
CURVE
100
AcDbLine
 62
7
  6
CONTINUOUS
 10
180.7909100809
 20
20.0542156018
 11
180.9770142942
 21
20.2403198151
  0
LINE
  5
398
100
AcDbEntity
  8
CURVE
100
AcDbLine
 62
7
  6
CONTINUOUS
 10
181.2252512399
 20
20.4885567607
 11
181.6952539777
 21
20.9585594986
  0
LINE
  5
399
100
AcDbEntity
  8
CURVE
100
AcDbLine
 62
7
  6
CONTINUOUS
 10
181.3542996601
 20
20.1975837529
 11
181.5559639865
 21
20.3992480793
  0
LINE
  5
39A
100
AcDbEntity
  8
CURVE
100
AcDbLine
 62
7
  6
CONTINUOUS
 10
181.4313600233
 20
19.8546226881
 11
181.6635116729
 21
20.0867743377
  0
LINE
  5
39B
100
AcDbEntity
  8
CURVE
100
AcDbLine
 62
7
  6
CONTINUOUS
 10
181.5897399882
 20
19.592981225
 11
181.7346116953
 21
19.7378529321
  0
LINE
  5
39C
100
AcDbEntity
  8
ASSI
100
AcDbLine
 62
7
  6
CONTINUOUS
 10
183.6248401463
 20
15.9621989975
 11
183.9038160804
 21
16.1232450731
  0
LINE
  5
39D
100
AcDbEntity
  8
ASSI
100
AcDbLine
 62
7
  6
CONTINUOUS
 10
184.6343768637
 20
15.3508244128
 11
185.3207752114
 21
15.7470656173
  0
LINE
  5
39E
100
AcDbEntity
  8
ASSI
100
AcDbLine
 62
7
  6
CONTINUOUS
 10
189.404209548
 20
17.7874056833
 11
188.6966722787
 21
17.3789614894
  0
LINE
  5
39F
100
AcDbEntity
  8
ASSI
100
AcDbLine
 62
7
  6
CONTINUOUS
 10
185.3422765632
 20
15.758627169
 11
185.3207752114
 21
15.7470656173
  0
LINE
  5
3A0
100
AcDbEntity
  8
ASSI
100
AcDbLine
 62
7
  6
CONTINUOUS
 10
185.3422765632
 20
15.758627169
 11
189.404209548
 21
17.7874056833
  0
LINE
  5
3A1
100
AcDbEntity
  8
ASSI
100
AcDbLine
 62
7
  6
CONTINUOUS
 10
184.634739294
 20
15.3501829751
 11
188.6966722787
 21
17.3789614894
  0
ENDSEC
  0
SECTION
  2
OBJECTS
  0
DICTIONARY
  5
C
100
AcDbDictionary
280
0
281
1
  3
ACAD_GROUP
350
D
  3
ACAD_MLINESTYLE
350
17
  3
ACAD_LAYOUT
350
1A
  3
ACAD_PLOTSETTINGS
350
19
  3
ACAD_PLOTSTYLENAME
350
E
  0
DICTIONARY
  5
D
102
{ACAD_REACTORS
330
C
102
}
100
AcDbDictionary
280
0
281
1
  0
ACDBDICTIONARYWDFLT
  5
E
102
{ACAD_REACTORS
330
C
102
}
100
AcDbDictionary
281
1
  3
Normal
350
F
100
AcDbDictionaryWithDefault
340
F
  0
DICTIONARY
  5
17
102
{ACAD_REACTORS
330
C
102
}
100
AcDbDictionary
280
0
281
1
  3
Standard
350
18
  0
DICTIONARY
  5
19
102
{ACAD_REACTORS
330
C
102
}
100
AcDbDictionary
281
1
  0
DICTIONARY
  5
1A
102
{ACAD_REACTORS
330
C
102
}
100
AcDbDictionary
281
1
  3
Model
350
3A2
  3
Layout1
350
3A3
  0
ACDBPLACEHOLDER
  5
F
102
{ACAD_REACTORS
330
E
102
}
  0
MLINESTYLE
  5
18
102
{ACAD_REACTORS
330
17
102
}
100
AcDbMlineStyle
  2
STANDARD
 70
0
  3

 62
256
 51
90.0
 52
90.0
 71
2
 49
0.5
 62
256
  6
BYLAYER
 49
-0.5
 62
256
  6
BYLAYER
  0
LAYOUT
  5
3A2
102
{ACAD_REACTORS
330
1A
102
}
100
AcDbPlotSettings
  1

  2
none_device
  4
ISO_A4_(297.00_x_210.00_MM)
  6

 40
0.0
 41
0.0
 42
0.0
 43
0.0
 44
297.0
 45
210.0
 46
0.0
 47
0.0
 48
0.0
 49
0.0
140
0.0
141
0.0
142
1.0
143
1.0
 70
1024
 72
1
 73
0
 74
0
  7

 75
0
147
1.0
148
0.0
149
0.0
100
AcDbLayout
  1
Model
 70
0
 71
0
 10
0.0
 20
0.0
 11
297.0
 21
210.0
 12
0.0
 22
0.0
 32
0.0
 14
0.0
 24
0.0
 34
0.0
 15
0.0
 25
0.0
 35
0.0
146
0.0
 13
0.0
 23
0.0
 33
0.0
 16
1.0
 26
0.0
 36
0.0
 17
0.0
 27
1.0
 37
0.0
 76
0
330
21E
345
0
346
0
  0
LAYOUT
  5
3A3
102
{ACAD_REACTORS
330
1A
102
}
100
AcDbPlotSettings
  1

  2
none_device
  4
ISO_A4_(297.00_x_210.00_MM)
  6

 40
0.0
 41
0.0
 42
0.0
 43
0.0
 44
297.0
 45
210.0
 46
0.0
 47
0.0
 48
0.0
 49
0.0
140
0.0
141
0.0
142
1.0
143
1.0
 70
0
 72
1
 73
0
 74
0
  7

 75
0
147
1.0
148
0.0
149
0.0
100
AcDbLayout
  1
Layout1
 70
0
 71
1
 10
0.0
 20
0.0
 11
297.0
 21
210.0
 12
0.0
 22
0.0
 32
0.0
 14
0.0
 24
0.0
 34
0.0
 15
0.0
 25
0.0
 35
0.0
146
0.0
 13
0.0
 23
0.0
 33
0.0
 16
1.0
 26
0.0
 36
0.0
 17
0.0
 27
1.0
 37
0.0
 76
0
330
21F
345
0
346
0
  0
ENDSEC
  0
EOF
