  0
SECTION
  2
HEADER
  9
$ACADVER
  1
AC1024
  9
$DWGCODEPAGE
  3
ANSI_1252
  9
$EXTMAX
 10
297.0
 20
210.0
 30
0.0
  9
$EXTMIN
 10
0.0
 20
0.0
 30
0.0
  9
$LIMMIN
 10
0.0
 20
0.0
  9
$LIMMAX
 10
297.0
 20
210.0
  9
$VIEWCTR
 10
148.5
 20
105.0
  9
$VIEWSIZE
 40
210.0
  9
$CLAYER
  8
0
  9
$LTSCALE
 40
16.335
  9
$CELTYPE
  6
BYLAYER
  9
$DIMSCALE
 40
1.0
  9
$DIMASZ
 40
3.0
  9
$DIMEXO
 40
0.5
  9
$DIMDLI
 40
11.286
  9
$DIMEXE
 40
1.5
  9
$DIMCEN
 40
2.673
  9
$DIMLFAC
 40
1.0
  9
$DIMBLK
  1
_FILLED
  9
$DIMALT
 70
0
  9
$DIMALTF
 40
0.0393700787
  9
$DIMTXT
 40
3.0
  9
$DIMTOL
 70
1
  9
$DIMLIM
 70
0
  9
$DIMTFAC
 40
1.0
  9
$DIMTP
 40
0.01
  9
$DIMTM
 40
0.01
  9
$DIMGAP
 40
0.625
  9
$DIMDSEP
 70
44
  9
$AUNITS
 70
0
  9
$PDMODE
 70
3
  9
$PDSIZE
 40
3.0
  9
$HANDSEED
  5
307
  9
$TILEMODE
 70
1
  9
$MEASUREMENT
 70
1
  9
$INSUNITS
 70
4
  0
ENDSEC
  0
SECTION
  2
CLASSES
  0
CLASS
  1
ACDBDICTIONARYWDFLT
  2
AcDbDictionaryWithDefault
  3
AutoCAD 2000
 90
0
 91
1
280
0
281
0
  0
CLASS
  1
ACDBPLACEHOLDER
  2
AcDbPlaceHolder
  3
AutoCAD 2000
 90
0
 91
1
280
0
281
0
  0
CLASS
  1
LAYOUT
  2
AcDbLayout
  3
AutoCAD 2000
 90
0
 91
0
280
0
281
0
  0
ENDSEC
  0
SECTION
  2
TABLES
  0
TABLE
  2
VPORT
  5
8
100
AcDbSymbolTable
 70
2
  0
VPORT
  5
1F4
100
AcDbSymbolTableRecord
100
AcDbViewportTableRecord
  2
*ACTIVE
 70
0
 10
0.0
 20
0.0
 11
1.0
 21
1.0
 12
148.5
 22
105.0
 13
0.0
 23
0.0
 14
1.0
 24
1.0
 15
0.0
 25
0.0
 16
0.0
 26
0.0
 36
1.0
 17
0.0
 27
0.0
 37
0.0
 40
210.0
 41
1.4142857143
 42
50.0
 43
0.0
 44
0.0
 50
0.0
 51
0.0
 71
0
 72
100
 73
1
 74
1
 75
0
 76
0
 77
0
 78
0
  0
ENDTAB
  0
TABLE
  2
LTYPE
  5
5
100
AcDbSymbolTable
 70
6
  0
LTYPE
  5
14
100
AcDbSymbolTableRecord
100
AcDbLinetypeTableRecord
  2
BYBLOCK
 70
0
  3

 72
65
 73
0
 40
0.0
  0
LTYPE
  5
15
100
AcDbSymbolTableRecord
100
AcDbLinetypeTableRecord
  2
BYLAYER
 70
0
  3

 72
65
 73
0
 40
0.0
  0
LTYPE
  5
16
100
AcDbSymbolTableRecord
100
AcDbLinetypeTableRecord
  2
CONTINUOUS
 70
64
  3
Solid line
 72
65
 73
0
 40
0.0
  0
LTYPE
  5
1F5
100
AcDbSymbolTableRecord
100
AcDbLinetypeTableRecord
  2
CENTER
 70
64
  3
____ _ ____ _ ____ _ ____ _ ____ _ ____ _ ____
 72
65
 73
4
 40
0.6
 49
0.375
 74
0
 49
-0.075
 74
0
 49
0.075
 74
0
 49
-0.075
 74
0
  0
LTYPE
  5
1F6
100
AcDbSymbolTableRecord
100
AcDbLinetypeTableRecord
  2
HIDDEN
 70
64
  3
- - - - - - - - - - - - - - - - - - - -
 72
65
 73
2
 40
0.2
 49
0.1
 74
0
 49
-0.1
 74
0
  0
LTYPE
  5
1F7
100
AcDbSymbolTableRecord
100
AcDbLinetypeTableRecord
  2
PHANTOM
 70
64
  3
_____ _ _ _____ _ _ _____ _ _ _____
 72
65
 73
6
 40
0.8
 49
0.45
 74
0
 49
-0.05
 74
0
 49
0.1
 74
0
 49
-0.05
 74
0
 49
0.1
 74
0
 49
-0.05
 74
0
  0
LTYPE
  5
1F8
100
AcDbSymbolTableRecord
100
AcDbLinetypeTableRecord
  2
DOT
 70
64
  3
. . . . . . . . . . . . . . . . . . . .
 72
65
 73
2
 40
0.2
 49
0.1
 74
0
 49
-0.1
 74
0
  0
LTYPE
  5
1F9
100
AcDbSymbolTableRecord
100
AcDbLinetypeTableRecord
  2
DASHED
 70
64
  3
- - - - - - - - - - - - - - - - - - - -
 72
65
 73
2
 40
0.2
 49
0.1
 74
0
 49
-0.1
 74
0
  0
ENDTAB
  0
TABLE
  2
LAYER
  5
2
100
AcDbSymbolTable
 70
36
  0
LAYER
  5
10
100
AcDbSymbolTableRecord
100
AcDbLayerTableRecord
  2
0
 70
0
 62
7
  6
CONTINUOUS
370
-3
390
F
  0
LAYER
  5
1FA
100
AcDbSymbolTableRecord
100
AcDbLayerTableRecord
  2
DEFAULT_1
 70
0
 62
7
  6
CENTER
370
-3
390
F
  0
LAYER
  5
1FB
100
AcDbSymbolTableRecord
100
AcDbLayerTableRecord
  2
DEFAULT_2
 70
0
 62
7
  6
HIDDEN
370
-3
390
F
  0
LAYER
  5
1FC
100
AcDbSymbolTableRecord
100
AcDbLayerTableRecord
  2
DEFAULT_3
 70
0
 62
7
  6
PHANTOM
370
-3
390
F
  0
LAYER
  5
1FD
100
AcDbSymbolTableRecord
100
AcDbLayerTableRecord
  2
ASSI
 70
0
 62
7
  6
CONTINUOUS
370
-3
390
F
  0
LAYER
  5
1FE
100
AcDbSymbolTableRecord
100
AcDbLayerTableRecord
  2
COORDINATE
 70
0
 62
7
  6
CONTINUOUS
370
-3
390
F
  0
LAYER
  5
1FF
100
AcDbSymbolTableRecord
100
AcDbLayerTableRecord
  2
COORD_ORIGINE
 70
0
 62
7
  6
CONTINUOUS
370
-3
390
F
  0
LAYER
  5
200
100
AcDbSymbolTableRecord
100
AcDbLayerTableRecord
  2
COPY_PUBLISH
 70
0
 62
7
  6
CONTINUOUS
370
-3
390
F
  0
LAYER
  5
201
100
AcDbSymbolTableRecord
100
AcDbLayerTableRecord
  2
COSMETIC
 70
0
 62
7
  6
CONTINUOUS
370
-3
390
F
  0
LAYER
  5
202
100
AcDbSymbolTableRecord
100
AcDbLayerTableRecord
  2
COSMETICI
 70
0
 62
7
  6
CONTINUOUS
370
-3
390
F
  0
LAYER
  5
203
100
AcDbSymbolTableRecord
100
AcDbLayerTableRecord
  2
CURVE
 70
0
 62
7
  6
CONTINUOUS
370
-3
390
F
  0
LAYER
  5
204
100
AcDbSymbolTableRecord
100
AcDbLayerTableRecord
  2
CURVE_TASSELLI
 70
0
 62
7
  6
CONTINUOUS
370
-3
390
F
  0
LAYER
  5
205
100
AcDbSymbolTableRecord
100
AcDbLayerTableRecord
  2
DRAFT
 70
0
 62
7
  6
CONTINUOUS
370
-3
390
F
  0
LAYER
  5
206
100
AcDbSymbolTableRecord
100
AcDbLayerTableRecord
  2
IMPORT_IGES
 70
0
 62
7
  6
CONTINUOUS
370
-3
390
F
  0
LAYER
  5
207
100
AcDbSymbolTableRecord
100
AcDbLayerTableRecord
  2
INTFCLR_2
 70
0
 62
7
  6
CONTINUOUS
370
-3
390
F
  0
LAYER
  5
208
100
AcDbSymbolTableRecord
100
AcDbLayerTableRecord
  2
INTF_1
 70
0
 62
7
  6
CONTINUOUS
370
-3
390
F
  0
LAYER
  5
209
100
AcDbSymbolTableRecord
100
AcDbLayerTableRecord
  2
INTF_21
 70
0
 62
7
  6
CONTINUOUS
370
-3
390
F
  0
LAYER
  5
20A
100
AcDbSymbolTableRecord
100
AcDbLayerTableRecord
  2
INTF_6
 70
0
 62
7
  6
CONTINUOUS
370
-3
390
F
  0
LAYER
  5
20B
100
AcDbSymbolTableRecord
100
AcDbLayerTableRecord
  2
INTF_7
 70
0
 62
7
  6
CONTINUOUS
370
-3
390
F
  0
LAYER
  5
20C
100
AcDbSymbolTableRecord
100
AcDbLayerTableRecord
  2
INTF_CYAN
 70
0
 62
7
  6
CONTINUOUS
370
-3
390
F
  0
LAYER
  5
20D
100
AcDbSymbolTableRecord
100
AcDbLayerTableRecord
  2
LIVELLO_1
 70
0
 62
7
  6
CONTINUOUS
370
-3
390
F
  0
LAYER
  5
20E
100
AcDbSymbolTableRecord
100
AcDbLayerTableRecord
  2
NOTE
 70
0
 62
7
  6
CONTINUOUS
370
-3
390
F
  0
LAYER
  5
20F
100
AcDbSymbolTableRecord
100
AcDbLayerTableRecord
  2
PIANI
 70
0
 62
7
  6
CONTINUOUS
370
-3
390
F
  0
LAYER
  5
210
100
AcDbSymbolTableRecord
100
AcDbLayerTableRecord
  2
PIANI_ORIGINE
 70
0
 62
7
  6
CONTINUOUS
370
-3
390
F
  0
LAYER
  5
211
100
AcDbSymbolTableRecord
100
AcDbLayerTableRecord
  2
PIANI_RIFERIMENTO
 70
0
 62
7
  6
CONTINUOUS
370
-3
390
F
  0
LAYER
  5
212
100
AcDbSymbolTableRecord
100
AcDbLayerTableRecord
  2
PUNTI
 70
0
 62
7
  6
CONTINUOUS
370
-3
390
F
  0
LAYER
  5
213
100
AcDbSymbolTableRecord
100
AcDbLayerTableRecord
  2
RACCORDO
 70
0
 62
7
  6
CONTINUOUS
370
-3
390
F
  0
LAYER
  5
214
100
AcDbSymbolTableRecord
100
AcDbLayerTableRecord
  2
RGB__255__255__255__
 70
0
 62
7
  6
CONTINUOUS
370
-3
390
F
  0
LAYER
  5
215
100
AcDbSymbolTableRecord
100
AcDbLayerTableRecord
  2
RGB____0____0____0__
 70
0
 62
7
  6
CONTINUOUS
370
-3
390
F
  0
LAYER
  5
216
100
AcDbSymbolTableRecord
100
AcDbLayerTableRecord
  2
SIMBOLI
 70
0
 62
7
  6
CONTINUOUS
370
-3
390
F
  0
LAYER
  5
217
100
AcDbSymbolTableRecord
100
AcDbLayerTableRecord
  2
SMUSSO
 70
0
 62
7
  6
CONTINUOUS
370
-3
390
F
  0
LAYER
  5
218
100
AcDbSymbolTableRecord
100
AcDbLayerTableRecord
  2
SUPERFICI
 70
0
 62
7
  6
CONTINUOUS
370
-3
390
F
  0
LAYER
  5
219
100
AcDbSymbolTableRecord
100
AcDbLayerTableRecord
  2
TRASH
 70
0
 62
7
  6
CONTINUOUS
370
-3
390
F
  0
LAYER
  5
21A
100
AcDbSymbolTableRecord
100
AcDbLayerTableRecord
  2
WHITE
 70
0
 62
7
  6
CONTINUOUS
370
-3
390
F
  0
LAYER
  5
21B
100
AcDbSymbolTableRecord
100
AcDbLayerTableRecord
  2
XSEC_DATUMS
 70
0
 62
7
  6
CONTINUOUS
370
-3
390
F
  0
ENDTAB
  0
TABLE
  2
STYLE
  5
3
100
AcDbSymbolTable
 70
1
  0
STYLE
  5
11
100
AcDbSymbolTableRecord
100
AcDbTextStyleTableRecord
  2
STANDARD
 70
0
 40
0.0
 41
0.8
 50
0.0
 71
0
 42
0.2
  3
txt
  4

  0
STYLE
  5
21C
100
AcDbSymbolTableRecord
100
AcDbTextStyleTableRecord
  2
TEXTSTYLE_1
 70
0
 40
0.0
 41
0.8
 50
0.0
 71
0
 42
0.2
  3
gdt
  4

  0
ENDTAB
  0
TABLE
  2
VIEW
  5
6
100
AcDbSymbolTable
 70
0
  0
ENDTAB
  0
TABLE
  2
UCS
  5
7
100
AcDbSymbolTable
 70
0
  0
ENDTAB
  0
TABLE
  2
APPID
  5
9
100
AcDbSymbolTable
 70
1
  0
APPID
  5
21D
100
AcDbSymbolTableRecord
100
AcDbRegAppTableRecord
  2
ACAD
 70
0
  0
ENDTAB
  0
TABLE
  2
BLOCK_RECORD
  5
1
100
AcDbSymbolTable
 70
0
  0
BLOCK_RECORD
  5
21E
100
AcDbSymbolTableRecord
100
AcDbBlockTableRecord
  2
*Model_Space
  0
BLOCK_RECORD
  5
21F
100
AcDbSymbolTableRecord
100
AcDbBlockTableRecord
  2
*Paper_Space
  0
BLOCK_RECORD
  5
220
100
AcDbSymbolTableRecord
100
AcDbBlockTableRecord
  2
_FILLED
  0
ENDTAB
  0
TABLE
  2
DIMSTYLE
  5
A
100
AcDbSymbolTable
 70
1
100
AcDbDimStyleTable
 71
0
  0
DIMSTYLE
105
221
100
AcDbSymbolTableRecord
100
AcDbDimStyleTableRecord
  2
STANDARD
 70
0
  3

  4

 40
1.0
 41
3.0
 42
0.5
 43
0.38
 44
1.5
 45
0.0
 46
0.0
 47
0.01
 48
0.01
140
3.0
141
0.09
142
0.0
143
25.4
144
1.0
145
0.0
146
1.0
147
0.625
 71
1
 72
0
 73
0
 74
0
 75
0
 76
0
 77
1
 78
8
 79
2
170
0
171
1
172
0
173
0
174
0
175
0
176
0
177
0
178
0
270
2
179
2
271
2
272
2
273
2
274
2
275
0
280
0
281
0
282
0
283
1
284
8
285
0
286
0
287
3
288
0
340
11
278
44
341
220
342
220
343
220
344
220
  0
ENDTAB
  0
ENDSEC
  0
SECTION
  2
BLOCKS
  0
BLOCK
  5
20
100
AcDbEntity
  8
0
100
AcDbBlockBegin
  2
*Model_Space
 70
0
 10
0.0
 20
0.0
 30
0.0
  3
*Model_Space
  1

  0
ENDBLK
  5
21
100
AcDbEntity
  8
0
100
AcDbBlockEnd
  0
BLOCK
  5
1C
100
AcDbEntity
  8
0
100
AcDbBlockBegin
  2
*Paper_Space
 70
0
 10
0.0
 20
0.0
 30
0.0
  3
*Paper_Space
  1

  0
ENDBLK
  5
1D
100
AcDbEntity
  8
0
100
AcDbBlockEnd
  0
BLOCK
  5
222
100
AcDbEntity
  8
0
100
AcDbBlockBegin
  2
_FILLED
 70
64
 10
0.0
 20
0.0
  3
_FILLED
  1

  0
SOLID
  5
223
100
AcDbEntity
  8
0
  6
BYBLOCK
 62
0
100
AcDbTrace
 10
0.0
 20
0.0
 11
-1.0
 21
0.3166666667
 12
-1.0
 22
-0.3166666667
 13
-1.0
 23
-0.3166666667
  0
ENDBLK
  5
224
100
AcDbEntity
  8
0
  6
BYBLOCK
 62
0
100
AcDbBlockEnd
  0
ENDSEC
  0
SECTION
  2
ENTITIES
  0
LINE
  5
225
100
AcDbEntity
  8
0
100
AcDbLine
 62
7
  6
CONTINUOUS
 10
117.0763091671
 20
155.8444988492
 11
120.8641229543
 21
158.3480657406
  0
LINE
  5
226
100
AcDbEntity
  8
ASSI
100
AcDbLine
 62
7
  6
CONTINUOUS
 10
117.0763091671
 20
155.8444988492
 11
120.8641229543
 21
158.3480657406
  0
LINE
  5
227
100
AcDbEntity
  8
0
100
AcDbLine
 62
7
  6
CONTINUOUS
 10
117.7838464364
 20
156.2529430431
 11
121.5716602236
 21
158.7565099344
  0
LINE
  5
228
100
AcDbEntity
  8
ASSI
100
AcDbLine
 62
7
  6
CONTINUOUS
 10
117.7838464364
 20
156.2529430431
 11
121.5716602236
 21
158.7565099344
  0
LINE
  5
229
100
AcDbEntity
  8
0
100
AcDbLine
 62
7
  6
CONTINUOUS
 10
117.7630828223
 20
156.2401036921
 11
117.7838464364
 21
156.2529430431
  0
LINE
  5
22A
100
AcDbEntity
  8
ASSI
100
AcDbLine
 62
7
  6
CONTINUOUS
 10
117.7630828223
 20
156.2401036921
 11
117.7838464364
 21
156.2529430431
  0
LINE
  5
22B
100
AcDbEntity
  8
0
100
AcDbLine
 62
7
  6
CONTINUOUS
 10
120.8641229543
 20
158.3480657406
 11
121.5716602236
 21
158.7565099344
  0
LINE
  5
22C
100
AcDbEntity
  8
ASSI
100
AcDbLine
 62
7
  6
CONTINUOUS
 10
120.8641229543
 20
158.3480657406
 11
121.5716602236
 21
158.7565099344
  0
LINE
  5
22D
100
AcDbEntity
  8
0
100
AcDbLine
 62
7
  6
CONTINUOUS
 10
117.7630828223
 20
156.2401036921
 11
117.0766844746
 21
155.8438624877
  0
LINE
  5
22E
100
AcDbEntity
  8
ASSI
100
AcDbLine
 62
7
  6
CONTINUOUS
 10
117.7630828223
 20
156.2401036921
 11
117.0766844746
 21
155.8438624877
  0
LINE
  5
22F
100
AcDbEntity
  8
0
100
AcDbLine
 62
7
  6
CONTINUOUS
 10
117.3803935224
 20
154.8248752537
 11
117.1014175883
 21
154.6638291782
  0
LINE
  5
230
100
AcDbEntity
  8
ASSI
100
AcDbLine
 62
7
  6
CONTINUOUS
 10
117.3803935224
 20
154.8248752537
 11
117.1014175883
 21
154.6638291782
  0
LINE
  5
231
100
AcDbEntity
  8
CURVE
100
AcDbLine
 62
250
  6
CONTINUOUS
 10
182.8128584554
 20
54.1808983412
 11
181.5544576341
 21
53.9042755412
  0
LINE
  5
232
100
AcDbEntity
  8
CURVE
100
AcDbLine
 62
250
  6
CONTINUOUS
 10
181.5544576341
 20
54.3300125365
 11
183.3826488108
 21
54.6583057289
  0
LINE
  5
233
100
AcDbEntity
  8
CURVE
100
AcDbLine
 62
250
  6
CONTINUOUS
 10
182.056798163
 20
58.388977109
 11
182.7352632904
 21
58.5421516888
  0
LINE
  5
234
100
AcDbEntity
  8
CURVE
100
AcDbLine
 62
250
  6
CONTINUOUS
 10
183.017676985
 20
58.607063628
 11
183.3826488108
 21
58.6860148396
  0
LINE
  5
235
100
AcDbEntity
  8
CURVE
100
AcDbLine
 62
250
  6
CONTINUOUS
 10
183.3826488108
 20
58.2646092192
 11
181.5544576341
 21
57.920444661
  0
LINE
  5
236
100
AcDbEntity
  8
CURVE
100
AcDbLine
 62
250
  6
CONTINUOUS
 10
182.5694749138
 20
56.7214855226
 11
181.5544576341
 21
56.6010058326
  0
LINE
  5
237
100
AcDbEntity
  8
CURVE
100
AcDbLine
 62
250
  6
CONTINUOUS
 10
182.1938509213
 20
57.0533375856
 11
183.3826488108
 21
57.1868660044
  0
LINE
  5
238
100
AcDbEntity
  8
0
100
AcDbLine
 62
7
  6
CONTINUOUS
 10
117.3803935224
 20
154.8248752537
 11
117.7630828223
 21
156.2401036921
  0
LINE
  5
239
100
AcDbEntity
  8
ASSI
100
AcDbLine
 62
7
  6
CONTINUOUS
 10
117.3803935224
 20
154.8248752537
 11
117.7630828223
 21
156.2401036921
  0
LINE
  5
23A
100
AcDbEntity
  8
0
100
AcDbLine
 62
7
  6
CONTINUOUS
 10
179.0033397935
 20
48.0908015108
 11
180.4202989244
 21
47.714622055
  0
LINE
  5
23B
100
AcDbEntity
  8
ASSI
100
AcDbLine
 62
7
  6
CONTINUOUS
 10
179.0033397935
 20
48.0908015108
 11
180.4202989244
 21
47.714622055
  0
LINE
  5
23C
100
AcDbEntity
  8
0
100
AcDbLine
 62
7
  6
CONTINUOUS
 10
117.1014175883
 20
83.8321955788
 11
117.3803935224
 21
83.3489950873
  0
LINE
  5
23D
100
AcDbEntity
  8
ASSI
100
AcDbLine
 62
7
  6
CONTINUOUS
 10
117.1014175883
 20
83.8321955788
 11
117.3803935224
 21
83.3489950873
  0
LINE
  5
23E
100
AcDbEntity
  8
0
100
AcDbLine
 62
7
  6
CONTINUOUS
 10
117.1014175883
 20
83.8321955788
 11
117.0766844746
 21
84.2884311563
  0
LINE
  5
23F
100
AcDbEntity
  8
ASSI
100
AcDbLine
 62
7
  6
CONTINUOUS
 10
117.1014175883
 20
83.8321955788
 11
117.0766844746
 21
84.2884311563
  0
LINE
  5
240
100
AcDbEntity
  8
0
100
AcDbLine
 62
7
  6
CONTINUOUS
 10
117.3803935224
 20
83.3489950873
 11
117.7630828223
 21
83.0995543452
  0
LINE
  5
241
100
AcDbEntity
  8
ASSI
100
AcDbLine
 62
7
  6
CONTINUOUS
 10
117.3803935224
 20
83.3489950873
 11
117.7630828223
 21
83.0995543452
  0
LINE
  5
242
100
AcDbEntity
  8
0
100
AcDbLine
 62
7
  6
CONTINUOUS
 10
117.1014175883
 20
154.6638291782
 11
117.0766844746
 21
155.8438624877
  0
LINE
  5
243
100
AcDbEntity
  8
ASSI
100
AcDbLine
 62
7
  6
CONTINUOUS
 10
117.1014175883
 20
154.6638291782
 11
117.0766844746
 21
155.8438624877
  0
LINE
  5
244
100
AcDbEntity
  8
0
100
AcDbLine
 62
7
  6
CONTINUOUS
 10
117.0766844746
 20
84.2884311563
 11
117.0763091671
 21
84.312624017
  0
LINE
  5
245
100
AcDbEntity
  8
ASSI
100
AcDbLine
 62
7
  6
CONTINUOUS
 10
117.0766844746
 20
84.2884311563
 11
117.0763091671
 21
84.312624017
  0
LINE
  5
246
100
AcDbEntity
  8
0
100
AcDbLine
 62
7
  6
CONTINUOUS
 10
117.0763091671
 20
155.8444988492
 11
117.0763091671
 21
84.312624017
  0
LINE
  5
247
100
AcDbEntity
  8
ASSI
100
AcDbLine
 62
7
  6
CONTINUOUS
 10
117.0763091671
 20
155.8444988492
 11
117.0763091671
 21
84.312624017
  0
LINE
  5
248
100
AcDbEntity
  8
0
100
AcDbLine
 62
7
  6
CONTINUOUS
 10
117.1014175883
 20
154.6638291782
 11
117.1014175883
 21
83.8321955788
  0
LINE
  5
249
100
AcDbEntity
  8
ASSI
100
AcDbLine
 62
7
  6
CONTINUOUS
 10
117.1014175883
 20
154.6638291782
 11
117.1014175883
 21
83.8321955788
  0
LINE
  5
24A
100
AcDbEntity
  8
0
100
AcDbLine
 62
7
  6
CONTINUOUS
 10
117.7838464364
 20
83.0871335196
 11
179.734263007
 21
47.3177394128
  0
LINE
  5
24B
100
AcDbEntity
  8
ASSI
100
AcDbLine
 62
7
  6
CONTINUOUS
 10
117.7838464364
 20
83.0871335196
 11
179.734263007
 21
47.3177394128
  0
LINE
  5
24C
100
AcDbEntity
  8
0
100
AcDbLine
 62
7
  6
CONTINUOUS
 10
117.3803935224
 20
83.3489950873
 11
178.7243638594
 21
47.9297554352
  0
LINE
  5
24D
100
AcDbEntity
  8
ASSI
100
AcDbLine
 62
7
  6
CONTINUOUS
 10
117.3803935224
 20
83.3489950873
 11
178.7243638594
 21
47.9297554352
  0
LINE
  5
24E
100
AcDbEntity
  8
0
100
AcDbLine
 62
7
  6
CONTINUOUS
 10
117.7838464364
 20
83.0871335196
 11
117.7630828223
 21
83.0995543452
  0
LINE
  5
24F
100
AcDbEntity
  8
ASSI
100
AcDbLine
 62
7
  6
CONTINUOUS
 10
117.7838464364
 20
83.0871335196
 11
117.7630828223
 21
83.0995543452
  0
LINE
  5
250
100
AcDbEntity
  8
0
100
AcDbLine
 62
7
  6
CONTINUOUS
 10
178.7243638594
 20
47.9297554352
 11
179.7339005768
 21
47.3183808505
  0
LINE
  5
251
100
AcDbEntity
  8
ASSI
100
AcDbLine
 62
7
  6
CONTINUOUS
 10
178.7243638594
 20
47.9297554352
 11
179.7339005768
 21
47.3183808505
  0
LWPOLYLINE
  5
252
100
AcDbEntity
  8
ASSI
100
AcDbPolyline
 62
7
  6
CONTINUOUS
 90
46
 70
0
 10
145.8249923302
 20
103.6432393374
 10
145.8288948709
 20
103.4632237623
 10
145.8403466788
 20
103.2801631905
 10
145.8593477537
 20
103.0940576221
 10
145.8859827323
 20
102.9044300202
 10
145.9201669779
 20
102.7117574216
 10
145.961646581
 20
102.5174709368
 10
146.0104758635
 20
102.3215585485
 10
146.0666005036
 20
102.1240322741
 10
146.1296036251
 20
101.9263592753
 10
146.1995364463
 20
101.7285384598
 10
146.276347749
 20
101.5305709199
 10
146.3594670035
 20
101.3339270954
 10
146.4489411795
 20
101.1386168427
 10
146.5447233073
 20
100.9446303052
 10
146.6461019479
 20
100.753408353
 10
146.7531187735
 20
100.5649715714
 10
146.8657321119
 20
100.379299375
 10
146.9831055073
 20
100.1977708775
 10
147.1052744036
 20
100.0204169334
 10
147.2322033568
 20
99.8472066881
 10
147.3629495792
 20
99.679426692
 10
147.4975414948
 20
99.5171173794
 10
147.6359506797
 20
99.3602383159
 10
147.7771490747
 20
99.209954749
 10
147.9211574486
 20
99.0663157897
 10
148.0679550327
 20
98.929272327
 10
148.2164514614
 20
98.799842276
 10
148.3666593846
 20
98.678082327
 10
148.5185661524
 20
98.5639357897
 10
148.67104345
 20
98.4582505079
 10
148.8240955256
 20
98.3610894853
 10
148.977718131
 20
98.2723897183
 10
149.1307702066
 20
98.1928100404
 10
149.2832475042
 20
98.1224183608
 10
149.4351542721
 20
98.0611467704
 10
149.5853621952
 20
98.0094503748
 10
149.7338586239
 20
97.9674004721
 10
149.880656208
 20
97.9349257643
 10
150.0246645819
 20
97.9122674631
 10
150.1658629769
 20
97.8994986627
 10
150.3042721618
 20
97.8965462688
 10
150.4388640774
 20
97.903432211
 10
150.5696102999
 20
97.9202297467
 10
150.6965392531
 20
97.9468656184
 10
150.8116636619
 20
97.9810502203
  0
LWPOLYLINE
  5
253
100
AcDbEntity
  8
0
100
AcDbPolyline
 62
7
  6
CONTINUOUS
 90
17
 70
0
 10
145.3300175833
 20
103.3574471221
 10
145.3338404708
 20
103.5322581816
 10
145.3452998863
 20
103.7022229408
 10
145.3643677266
 20
103.8669186518
 10
145.3909970523
 20
104.0259360402
 10
145.4251220016
 20
104.1788790606
 10
145.4666577557
 20
104.3253660465
 10
145.5155012113
 20
104.4650325474
 10
145.5715311562
 20
104.5975312556
 10
145.6346080949
 20
104.7225318632
 10
145.7045752209
 20
104.8397234494
 10
145.7812586853
 20
104.9488146675
 10
145.8644675734
 20
105.0495338566
 10
145.9539948625
 20
105.141630498
 10
146.0496180742
 20
105.2248757928
 10
146.151099524
 20
105.2990628396
 10
146.2308269849
 20
105.3486024681
  0
LWPOLYLINE
  5
254
100
AcDbEntity
  8
ASSI
100
AcDbPolyline
 62
7
  6
CONTINUOUS
 90
17
 70
0
 10
145.3300175833
 20
103.3574471221
 10
145.3338404708
 20
103.5322581816
 10
145.3452998863
 20
103.7022229408
 10
145.3643677266
 20
103.8669186518
 10
145.3909970523
 20
104.0259360402
 10
145.4251220016
 20
104.1788790606
 10
145.4666577557
 20
104.3253660465
 10
145.5155012113
 20
104.4650325474
 10
145.5715311562
 20
104.5975312556
 10
145.6346080949
 20
104.7225318632
 10
145.7045752209
 20
104.8397234494
 10
145.7812586853
 20
104.9488146675
 10
145.8644675734
 20
105.0495338566
 10
145.9539948625
 20
105.141630498
 10
146.0496180742
 20
105.2248757928
 10
146.151099524
 20
105.2990628396
 10
146.2308269849
 20
105.3486024681
  0
LWPOLYLINE
  5
255
100
AcDbEntity
  8
0
100
AcDbPolyline
 62
7
  6
CONTINUOUS
 90
13
 70
0
 10
145.6835709739
 20
103.5615844188
 10
145.6873940286
 20
103.7363992498
 10
145.6988539254
 20
103.9063673471
 10
145.7179225299
 20
104.0710659562
 10
145.74455286
 20
104.2300857485
 10
145.7786790257
 20
104.3830307366
 10
145.8202162191
 20
104.5295194043
 10
145.8690613638
 20
104.6691873922
 10
145.9250932052
 20
104.8016872707
 10
145.9881721498
 20
104.9266885727
 10
146.0581413722
 20
105.0438804355
 10
146.1348269644
 20
105.1529715006
 10
146.2180377855
 20
105.2536899299
  0
LWPOLYLINE
  5
256
100
AcDbEntity
  8
0
100
AcDbPolyline
 62
7
  6
CONTINUOUS
 90
33
 70
0
 10
144.6229108021
 20
103.3574471221
 10
144.6272603496
 20
103.5531117421
 10
144.6400264805
 20
103.7424554663
 10
144.6612091949
 20
103.9254782947
 10
144.6909026319
 20
104.1026038501
 10
144.7290126524
 20
104.2734085096
 10
144.7752568392
 20
104.4366214047
 10
144.8296959599
 20
104.5921856919
 10
144.892269247
 20
104.7401582147
 10
144.9625119805
 20
104.8794386342
 10
145.0404813675
 20
105.0099619885
 10
145.126120201
 20
105.1317932395
 10
145.2187921395
 20
105.2440269351
 10
145.3185494535
 20
105.346591402
 10
145.4253398726
 20
105.4395583135
 10
145.5383702439
 20
105.5222372378
 10
145.6576869558
 20
105.5945515964
 10
145.78324362
 20
105.6565779678
 10
145.914107918
 20
105.7078556556
 10
146.0503194501
 20
105.7483046944
 10
146.1918386161
 20
105.7780050496
 10
146.3376142973
 20
105.7967359207
 10
146.4876782565
 20
105.804415604
 10
146.6419987309
 20
105.8011258032
 10
146.799429313
 20
105.7868908298
 10
146.9599931501
 20
105.7616291478
 10
147.1236670949
 20
105.7254222933
 10
147.2892352983
 20
105.6785391853
 10
147.4567118454
 20
105.6209003161
 10
147.6260826512
 20
105.5525851934
 10
147.7960896108
 20
105.4741012596
 10
147.9667374591
 20
105.3853727905
 10
148.0520478769
 20
105.3373871763
  0
LWPOLYLINE
  5
257
100
AcDbEntity
  8
ASSI
100
AcDbPolyline
 62
7
  6
CONTINUOUS
 90
33
 70
0
 10
144.6229108021
 20
103.3574471221
 10
144.6272603496
 20
103.5531117421
 10
144.6400264805
 20
103.7424554663
 10
144.6612091949
 20
103.9254782947
 10
144.6909026319
 20
104.1026038501
 10
144.7290126524
 20
104.2734085096
 10
144.7752568392
 20
104.4366214047
 10
144.8296959599
 20
104.5921856919
 10
144.892269247
 20
104.7401582147
 10
144.9625119805
 20
104.8794386342
 10
145.0404813675
 20
105.0099619885
 10
145.126120201
 20
105.1317932395
 10
145.2187921395
 20
105.2440269351
 10
145.3185494535
 20
105.346591402
 10
145.4253398726
 20
105.4395583135
 10
145.5383702439
 20
105.5222372378
 10
145.6576869558
 20
105.5945515964
 10
145.78324362
 20
105.6565779678
 10
145.914107918
 20
105.7078556556
 10
146.0503194501
 20
105.7483046944
 10
146.1918386161
 20
105.7780050496
 10
146.3376142973
 20
105.7967359207
 10
146.4876782565
 20
105.804415604
 10
146.6419987309
 20
105.8011258032
 10
146.799429313
 20
105.7868908298
 10
146.9599931501
 20
105.7616291478
 10
147.1236670949
 20
105.7254222933
 10
147.2892352983
 20
105.6785391853
 10
147.4567118454
 20
105.6209003161
 10
147.6260826512
 20
105.5525851934
 10
147.7960896108
 20
105.4741012596
 10
147.9667374591
 20
105.3853727905
 10
148.0520478769
 20
105.3373871763
  0
LWPOLYLINE
  5
258
100
AcDbEntity
  8
ASSI
100
AcDbPolyline
 62
7
  6
CONTINUOUS
 90
13
 70
0
 10
146.3594670035
 20
105.3353536239
 10
146.276347749
 20
105.2346938309
 10
146.1995364463
 20
105.1254260581
 10
146.1296036251
 20
105.0083619115
 10
146.0666005036
 20
104.8834433383
 10
146.0104758635
 20
104.7507283913
 10
145.961646581
 20
104.6112028347
 10
145.9201669779
 20
104.4648159557
 10
145.8859827323
 20
104.3116184672
 10
145.8593477537
 20
104.1527482709
 10
145.8403466788
 20
103.9885846674
 10
145.8288948709
 20
103.8187483563
 10
145.8249923302
 20
103.6432393374
  0
LINE
  5
259
100
AcDbEntity
  8
0
100
AcDbLine
 62
7
  6
CONTINUOUS
 10
146.2180377855
 20
105.2536899299
 11
146.3075666384
 21
105.3457852057
  0
LWPOLYLINE
  5
25A
100
AcDbEntity
  8
0
100
AcDbPolyline
 62
7
  6
CONTINUOUS
 90
3
 70
0
 10
146.3075666384
 20
105.3457852057
 10
146.4031910531
 20
105.4290287348
 10
146.4128318805
 20
105.4360763196
  0
LWPOLYLINE
  5
25B
100
AcDbEntity
  8
ASSI
100
AcDbPolyline
 62
7
  6
CONTINUOUS
 90
3
 70
0
 10
146.4952788884
 20
105.4676789913
 10
146.4489411795
 20
105.4273413409
 10
146.3594670035
 20
105.3353536239
  0
LWPOLYLINE
  5
25C
100
AcDbEntity
  8
0
100
AcDbPolyline
 62
7
  6
CONTINUOUS
 90
15
 70
0
 10
146.2308269849
 20
105.3486024681
 10
146.2581868584
 20
105.3640071698
 10
146.370613882
 20
105.4195473572
 10
146.4881013183
 20
105.4655454026
 10
146.6103571798
 20
105.501886911
 10
146.7370774647
 20
105.5284814405
 10
146.8679471481
 20
105.5452628153
 10
147.0026409378
 20
105.5521892561
 10
147.1408239212
 20
105.5492434751
 10
147.2821523888
 20
105.5364327595
 10
147.4262749395
 20
105.5137889431
 10
147.5728332818
 20
105.4813683002
 10
147.7214629504
 20
105.4392514426
 10
147.8717943902
 20
105.3875430876
 10
148.0234538618
 20
105.3263717851
  0
LWPOLYLINE
  5
25D
100
AcDbEntity
  8
ASSI
100
AcDbPolyline
 62
7
  6
CONTINUOUS
 90
15
 70
0
 10
146.2308269849
 20
105.3486024681
 10
146.2581868584
 20
105.3640071698
 10
146.370613882
 20
105.4195473572
 10
146.4881013183
 20
105.4655454026
 10
146.6103571798
 20
105.501886911
 10
146.7370774647
 20
105.5284814405
 10
146.8679471481
 20
105.5452628153
 10
147.0026409378
 20
105.5521892561
 10
147.1408239212
 20
105.5492434751
 10
147.2821523888
 20
105.5364327595
 10
147.4262749395
 20
105.5137889431
 10
147.5728332818
 20
105.4813683002
 10
147.7214629504
 20
105.4392514426
 10
147.8717943902
 20
105.3875430876
 10
148.0234538618
 20
105.3263717851
  0
LWPOLYLINE
  5
25E
100
AcDbEntity
  8
0
100
AcDbPolyline
 62
7
  6
CONTINUOUS
 90
14
 70
0
 10
150.5550400023
 20
97.8651505186
 10
150.4283202907
 20
97.8385578048
 10
150.2974513593
 20
97.8217780634
 10
150.1627584543
 20
97.814853058
 10
150.0245765226
 20
97.8178000684
 10
149.8832493518
 20
97.8306117835
 10
149.7391283764
 20
97.853256333
 10
149.5925718471
 20
97.8856774161
 10
149.443944198
 20
97.9277944019
 10
149.2936149893
 20
97.9795025467
 10
149.1419579307
 20
98.0406732866
 10
148.9893500154
 20
98.1111545498
 10
148.8361706625
 20
98.1907710961
 10
148.7597827374
 20
98.2337726131
  0
LWPOLYLINE
  5
25F
100
AcDbEntity
  8
0
100
AcDbPolyline
 62
7
  6
CONTINUOUS
 90
33
 70
0
 10
148.7597827374
 20
98.2337726131
 10
148.6828006958
 20
98.2793249808
 10
148.5296213424
 20
98.3765960881
 10
148.3770134263
 20
98.4823425967
 10
148.2253563664
 20
98.5963016034
 10
148.0750271552
 20
98.7181898381
 10
147.9263995029
 20
98.8477043138
 10
147.7798429692
 20
98.9845230157
 10
147.6357219867
 20
99.1283057373
 10
147.4943948057
 20
99.278695081
 10
147.3562128614
 20
99.4353170891
 10
147.221519942
 20
99.5977820752
 10
147.0906509934
 20
99.7656859727
 10
146.9639312632
 20
99.9386114308
 10
146.8416757374
 20
100.1161285642
 10
146.7241884882
 20
100.2977957929
 10
146.6117614339
 20
100.4831616664
 10
146.5046736429
 20
100.6717660936
 10
146.4031913179
 20
100.8631403559
 10
146.3075668991
 20
101.0568085317
 10
146.218038038
 20
101.252289457
 10
146.1348272053
 20
101.449097636
 10
146.0581415983
 20
101.6467432851
 10
145.9881723547
 20
101.8447338522
 10
145.9250933832
 20
102.0425771579
 10
145.8690615118
 20
102.2397812376
 10
145.8202163361
 20
102.4358544237
 10
145.778679112
 20
102.6303092656
 10
145.7445529179
 20
102.8226623715
 10
145.7179225639
 20
103.0124342856
 10
145.6988539412
 20
103.1991529299
 10
145.6873940327
 20
103.3823547225
 10
145.6835709739
 20
103.5615844188
  0
LINE
  5
260
100
AcDbEntity
  8
0
100
AcDbLine
 62
7
  6
CONTINUOUS
 10
179.734263007
 20
120.4835489363
 11
183.7961959918
 21
122.8288428385
  0
LINE
  5
261
100
AcDbEntity
  8
ASSI
100
AcDbLine
 62
7
  6
CONTINUOUS
 10
179.734263007
 20
120.4835489363
 11
183.7961959918
 21
122.8288428385
  0
LINE
  5
262
100
AcDbEntity
  8
0
100
AcDbLine
 62
7
  6
CONTINUOUS
 10
117.0763091671
 20
155.8444988492
 11
117.0766844746
 21
155.8438624877
  0
LINE
  5
263
100
AcDbEntity
  8
ASSI
100
AcDbLine
 62
7
  6
CONTINUOUS
 10
117.0763091671
 20
155.8444988492
 11
117.0766844746
 21
155.8438624877
  0
LINE
  5
264
100
AcDbEntity
  8
0
100
AcDbLine
 62
7
  6
CONTINUOUS
 10
179.7339005768
 20
47.3183808505
 11
179.734263007
 21
47.3177394128
  0
LINE
  5
265
100
AcDbEntity
  8
ASSI
100
AcDbLine
 62
7
  6
CONTINUOUS
 10
179.7339005768
 20
47.3183808505
 11
179.734263007
 21
47.3177394128
  0
LWPOLYLINE
  5
266
100
AcDbEntity
  8
0
100
AcDbPolyline
 62
7
  6
CONTINUOUS
 90
64
 70
0
 10
151.4818465797
 20
99.3971835668
 10
151.4774970322
 20
99.2015189468
 10
151.4647309013
 20
99.0121752226
 10
151.4435481869
 20
98.8291523943
 10
151.4138547499
 20
98.6520268389
 10
151.3757447294
 20
98.4812221793
 10
151.3295005426
 20
98.3180092843
 10
151.2750614219
 20
98.162444997
 10
151.2124881348
 20
98.0144724743
 10
151.1422454013
 20
97.8751920547
 10
151.0642760143
 20
97.7446687005
 10
150.9786371808
 20
97.6228374495
 10
150.8859652423
 20
97.5106037538
 10
150.7862079283
 20
97.4080392869
 10
150.6794175092
 20
97.3150723754
 10
150.5663871379
 20
97.2323934511
 10
150.447070426
 20
97.1600790925
 10
150.3215137618
 20
97.0980527211
 10
150.1906494638
 20
97.0467750334
 10
150.0544379317
 20
97.0063259946
 10
149.9129187656
 20
96.9766256394
 10
149.7671430845
 20
96.9578947682
 10
149.6170791252
 20
96.950215085
 10
149.4627586509
 20
96.9535048858
 10
149.3053280688
 20
96.9677398592
 10
149.1447642317
 20
96.9930015411
 10
148.9810902869
 20
97.0292083957
 10
148.8155220835
 20
97.0760915037
 10
148.6480455364
 20
97.1337303729
 10
148.4786747306
 20
97.2020454955
 10
148.308667771
 20
97.2805294293
 10
148.1380199227
 20
97.3692578985
 10
147.9667359206
 20
97.4681551789
 10
147.7960880735
 20
97.5764866555
 10
147.6260811161
 20
97.6943225852
 10
147.4567103138
 20
97.8215927112
 10
147.2892337716
 20
97.9573516485
 10
147.1236655727
 20
98.101662642
 10
146.9599916339
 20
98.2544624467
 10
146.7994278108
 20
98.4146159426
 10
146.6419972517
 20
98.5821779361
 10
146.4876768084
 20
98.7570936207
 10
146.3376128917
 20
98.9380634565
 10
146.1918372736
 20
99.1251324538
 10
146.0503181822
 20
99.3182556023
 10
145.9141067122
 20
99.5159983308
 10
145.7832424548
 20
99.7183948842
 10
145.6576858188
 20
99.9254110177
 10
145.5383691263
 20
100.135509426
 10
145.4253387574
 20
100.348713141
 10
145.3185483318
 20
100.5649991309
 10
145.218791031
 20
100.7827609943
 10
145.1261191341
 20
101.0020100402
 10
145.0404803619
 20
101.2227349597
 10
144.9625110584
 20
101.4432954251
 10
144.892268439
 20
101.6636903216
 10
144.8296952883
 20
101.8839207639
 10
144.7752563037
 20
102.1023497683
 10
144.7290122538
 20
102.3189639888
 10
144.69090237
 20
102.5337767714
 10
144.6612090438
 20
102.7451911705
 10
144.6400264057
 20
102.9526748711
 10
144.6272603251
 20
103.1567601883
 10
144.6229108021
 20
103.3574471221
  0
LWPOLYLINE
  5
267
100
AcDbEntity
  8
ASSI
100
AcDbPolyline
 62
7
  6
CONTINUOUS
 90
64
 70
0
 10
151.4818465797
 20
99.3971835668
 10
151.4774970322
 20
99.2015189468
 10
151.4647309013
 20
99.0121752226
 10
151.4435481869
 20
98.8291523943
 10
151.4138547499
 20
98.6520268389
 10
151.3757447294
 20
98.4812221793
 10
151.3295005426
 20
98.3180092843
 10
151.2750614219
 20
98.162444997
 10
151.2124881348
 20
98.0144724743
 10
151.1422454013
 20
97.8751920547
 10
151.0642760143
 20
97.7446687005
 10
150.9786371808
 20
97.6228374495
 10
150.8859652423
 20
97.5106037538
 10
150.7862079283
 20
97.4080392869
 10
150.6794175092
 20
97.3150723754
 10
150.5663871379
 20
97.2323934511
 10
150.447070426
 20
97.1600790925
 10
150.3215137618
 20
97.0980527211
 10
150.1906494638
 20
97.0467750334
 10
150.0544379317
 20
97.0063259946
 10
149.9129187656
 20
96.9766256394
 10
149.7671430845
 20
96.9578947682
 10
149.6170791252
 20
96.950215085
 10
149.4627586509
 20
96.9535048858
 10
149.3053280688
 20
96.9677398592
 10
149.1447642317
 20
96.9930015411
 10
148.9810902869
 20
97.0292083957
 10
148.8155220835
 20
97.0760915037
 10
148.6480455364
 20
97.1337303729
 10
148.4786747306
 20
97.2020454955
 10
148.308667771
 20
97.2805294293
 10
148.1380199227
 20
97.3692578985
 10
147.9667359206
 20
97.4681551789
 10
147.7960880735
 20
97.5764866555
 10
147.6260811161
 20
97.6943225852
 10
147.4567103138
 20
97.8215927112
 10
147.2892337716
 20
97.9573516485
 10
147.1236655727
 20
98.101662642
 10
146.9599916339
 20
98.2544624467
 10
146.7994278108
 20
98.4146159426
 10
146.6419972517
 20
98.5821779361
 10
146.4876768084
 20
98.7570936207
 10
146.3376128917
 20
98.9380634565
 10
146.1918372736
 20
99.1251324538
 10
146.0503181822
 20
99.3182556023
 10
145.9141067122
 20
99.5159983308
 10
145.7832424548
 20
99.7183948842
 10
145.6576858188
 20
99.9254110177
 10
145.5383691263
 20
100.135509426
 10
145.4253387574
 20
100.348713141
 10
145.3185483318
 20
100.5649991309
 10
145.218791031
 20
100.7827609943
 10
145.1261191341
 20
101.0020100402
 10
145.0404803619
 20
101.2227349597
 10
144.9625110584
 20
101.4432954251
 10
144.892268439
 20
101.6636903216
 10
144.8296952883
 20
101.8839207639
 10
144.7752563037
 20
102.1023497683
 10
144.7290122538
 20
102.3189639888
 10
144.69090237
 20
102.5337767714
 10
144.6612090438
 20
102.7451911705
 10
144.6400264057
 20
102.9526748711
 10
144.6272603251
 20
103.1567601883
 10
144.6229108021
 20
103.3574471221
  0
LINE
  5
268
100
AcDbEntity
  8
0
100
AcDbLine
 62
7
  6
CONTINUOUS
 10
151.4766869696
 20
99.6108209818
 11
151.4665642767
 21
99.4606823414
  0
LINE
  5
269
100
AcDbEntity
  8
ASSI
100
AcDbLine
 62
7
  6
CONTINUOUS
 10
151.4766869696
 20
99.6108209818
 11
151.4665642767
 21
99.4606823414
  0
LWPOLYLINE
  5
26A
100
AcDbEntity
  8
0
100
AcDbPolyline
 62
7
  6
CONTINUOUS
 90
15
 70
0
 10
151.4665642767
 20
99.4606823414
 10
151.4474964364
 20
99.2959866305
 10
151.4208671107
 20
99.1369692421
 10
151.3867421614
 20
98.9840262217
 10
151.3452064073
 20
98.8375392358
 10
151.2963629517
 20
98.6978727349
 10
151.2403330068
 20
98.5653740267
 10
151.1772560681
 20
98.4403734191
 10
151.107288942
 20
98.3231818328
 10
151.0306054777
 20
98.2140906148
 10
150.9473965896
 20
98.1133714257
 10
150.8578693005
 20
98.0212747843
 10
150.7622460887
 20
97.9380294895
 10
150.660764639
 20
97.8638424427
 10
150.5810371781
 20
97.8143028142
  0
LWPOLYLINE
  5
26B
100
AcDbEntity
  8
ASSI
100
AcDbPolyline
 62
7
  6
CONTINUOUS
 90
15
 70
0
 10
151.4665642767
 20
99.4606823414
 10
151.4474964364
 20
99.2959866305
 10
151.4208671107
 20
99.1369692421
 10
151.3867421614
 20
98.9840262217
 10
151.3452064073
 20
98.8375392358
 10
151.2963629517
 20
98.6978727349
 10
151.2403330068
 20
98.5653740267
 10
151.1772560681
 20
98.4403734191
 10
151.107288942
 20
98.3231818328
 10
151.0306054777
 20
98.2140906148
 10
150.9473965896
 20
98.1133714257
 10
150.8578693005
 20
98.0212747843
 10
150.7622460887
 20
97.9380294895
 10
150.660764639
 20
97.8638424427
 10
150.5810371781
 20
97.8143028142
  0
LINE
  5
26C
100
AcDbEntity
  8
0
100
AcDbLine
 62
7
  6
CONTINUOUS
 10
180.4418002763
 20
119.2580584389
 11
184.5037332611
 21
121.6033523411
  0
LINE
  5
26D
100
AcDbEntity
  8
ASSI
100
AcDbLine
 62
7
  6
CONTINUOUS
 10
180.4418002763
 20
119.2580584389
 11
184.5037332611
 21
121.6033523411
  0
LWPOLYLINE
  5
26E
100
AcDbEntity
  8
0
100
AcDbPolyline
 62
7
  6
CONTINUOUS
 90
49
 70
0
 10
150.5810371781
 20
97.8143028142
 10
150.5536773046
 20
97.7988981125
 10
150.4412502809
 20
97.7433579251
 10
150.3237628447
 20
97.6973598796
 10
150.2015069831
 20
97.6610183713
 10
150.0747866983
 20
97.6344238418
 10
149.9439170149
 20
97.617642467
 10
149.8092232251
 20
97.6107160262
 10
149.6710402418
 20
97.6136618071
 10
149.5297117742
 20
97.6264725227
 10
149.3855892235
 20
97.6491163392
 10
149.2390308812
 20
97.6815369821
 10
149.0904012126
 20
97.7236538397
 10
148.9400697728
 20
97.7753621947
 10
148.7884103011
 20
97.8365334972
 10
148.6357998805
 20
97.9070156551
 10
148.4826179425
 20
97.9866334316
 10
148.3292453356
 20
98.0751888781
 10
148.1760633964
 20
98.1724618158
 10
148.0234529729
 20
98.2782104
 10
147.8717934973
 20
98.3921717093
 10
147.7214620548
 20
98.5140623886
 10
147.5728323842
 20
98.6435794034
 10
147.4262740413
 20
98.7804007179
 10
147.2821514955
 20
98.924186064
 10
147.1408230403
 20
99.0745779672
 10
147.0026400743
 20
99.2312024739
 10
146.8679463039
 20
99.3936699674
 10
146.7370766437
 20
99.5615764082
 10
146.6103563839
 20
99.7345043803
 10
146.4881005406
 20
99.912023938
 10
146.3706131149
 20
100.0936935895
 10
146.2581860973
 20
100.2790617577
 10
146.1510987638
 20
100.4676679456
 10
146.049617306
 20
100.6590433426
 10
145.9539940854
 20
100.8527120581
 10
145.8644668015
 20
101.0481926885
 10
145.7812579317
 20
101.244999522
 10
145.7045744981
 20
101.4426429736
 10
145.634607425
 20
101.6406308863
 10
145.5715305587
 20
101.8384711503
 10
145.5155006986
 20
102.0356717752
 10
145.4666573386
 20
102.2317413541
 10
145.4251216853
 20
102.4261926024
 10
145.3909968335
 20
102.6185420179
 10
145.3643675944
 20
102.8083099968
 10
145.3452998234
 20
102.9950244442
 10
145.3338404541
 20
103.1782218844
 10
145.3300175833
 20
103.3574471221
  0
LWPOLYLINE
  5
26F
100
AcDbEntity
  8
ASSI
100
AcDbPolyline
 62
7
  6
CONTINUOUS
 90
49
 70
0
 10
150.5810371781
 20
97.8143028142
 10
150.5536773046
 20
97.7988981125
 10
150.4412502809
 20
97.7433579251
 10
150.3237628447
 20
97.6973598796
 10
150.2015069831
 20
97.6610183713
 10
150.0747866983
 20
97.6344238418
 10
149.9439170149
 20
97.617642467
 10
149.8092232251
 20
97.6107160262
 10
149.6710402418
 20
97.6136618071
 10
149.5297117742
 20
97.6264725227
 10
149.3855892235
 20
97.6491163392
 10
149.2390308812
 20
97.6815369821
 10
149.0904012126
 20
97.7236538397
 10
148.9400697728
 20
97.7753621947
 10
148.7884103011
 20
97.8365334972
 10
148.6357998805
 20
97.9070156551
 10
148.4826179425
 20
97.9866334316
 10
148.3292453356
 20
98.0751888781
 10
148.1760633964
 20
98.1724618158
 10
148.0234529729
 20
98.2782104
 10
147.8717934973
 20
98.3921717093
 10
147.7214620548
 20
98.5140623886
 10
147.5728323842
 20
98.6435794034
 10
147.4262740413
 20
98.7804007179
 10
147.2821514955
 20
98.924186064
 10
147.1408230403
 20
99.0745779672
 10
147.0026400743
 20
99.2312024739
 10
146.8679463039
 20
99.3936699674
 10
146.7370766437
 20
99.5615764082
 10
146.6103563839
 20
99.7345043803
 10
146.4881005406
 20
99.912023938
 10
146.3706131149
 20
100.0936935895
 10
146.2581860973
 20
100.2790617577
 10
146.1510987638
 20
100.4676679456
 10
146.049617306
 20
100.6590433426
 10
145.9539940854
 20
100.8527120581
 10
145.8644668015
 20
101.0481926885
 10
145.7812579317
 20
101.244999522
 10
145.7045744981
 20
101.4426429736
 10
145.634607425
 20
101.6406308863
 10
145.5715305587
 20
101.8384711503
 10
145.5155006986
 20
102.0356717752
 10
145.4666573386
 20
102.2317413541
 10
145.4251216853
 20
102.4261926024
 10
145.3909968335
 20
102.6185420179
 10
145.3643675944
 20
102.8083099968
 10
145.3452998234
 20
102.9950244442
 10
145.3338404541
 20
103.1782218844
 10
145.3300175833
 20
103.3574471221
  0
LINE
  5
270
100
AcDbEntity
  8
0
100
AcDbLine
 62
7
  6
CONTINUOUS
 10
150.7525815811
 20
97.9309643433
 11
150.6772955116
 21
97.901490059
  0
LINE
  5
271
100
AcDbEntity
  8
0
100
AcDbLine
 62
7
  6
CONTINUOUS
 10
150.6772955116
 20
97.901490059
 11
150.5550400023
 21
97.8651505186
  0
LWPOLYLINE
  5
272
100
AcDbEntity
  8
0
100
AcDbPolyline
 62
7
  6
CONTINUOUS
 90
3
 70
0
 10
148.0234538618
 20
105.3263717851
 10
148.1760642824
 20
105.2558896272
 10
148.2319922172
 20
105.2268205485
  0
LWPOLYLINE
  5
273
100
AcDbEntity
  8
ASSI
100
AcDbPolyline
 62
7
  6
CONTINUOUS
 90
3
 70
0
 10
148.0234538618
 20
105.3263717851
 10
148.1760642824
 20
105.2558896272
 10
148.2319922172
 20
105.2268205485
  0
LWPOLYLINE
  5
274
100
AcDbEntity
  8
0
100
AcDbPolyline
 62
7
  6
CONTINUOUS
 90
33
 70
0
 10
148.0520478769
 20
105.3373871763
 10
148.1380214612
 20
105.2864755101
 10
148.3086693083
 20
105.1781440334
 10
148.4786762657
 20
105.0603081037
 10
148.648047068
 20
104.9330379777
 10
148.8155236102
 20
104.7972790405
 10
148.9810918091
 20
104.652968047
 10
149.1447657479
 20
104.5001682422
 10
149.305329571
 20
104.3400147464
 10
149.4627601301
 20
104.1724527528
 10
149.6170805734
 20
103.9975370682
 10
149.7671444901
 20
103.8165672325
 10
149.9129201082
 20
103.6294982352
 10
150.0544391996
 20
103.4363750867
 10
150.1906506696
 20
103.2386323581
 10
150.321514927
 20
103.0362358048
 10
150.447071563
 20
102.8292196713
 10
150.5663882555
 20
102.619121263
 10
150.6794186244
 20
102.4059175479
 10
150.78620905
 20
102.1896315581
 10
150.8859663508
 20
101.9718696946
 10
150.9786382477
 20
101.7526206487
 10
151.0642770199
 20
101.5318957292
 10
151.1422463234
 20
101.3113352639
 10
151.2124889428
 20
101.0909403674
 10
151.2750620935
 20
100.870709925
 10
151.3295010781
 20
100.6522809206
 10
151.375745128
 20
100.4356667001
 10
151.4138550118
 20
100.2208539176
 10
151.443548338
 20
100.0094395184
 10
151.4647309761
 20
99.8019558178
 10
151.4774970567
 20
99.5978705006
 10
151.4818465797
 20
99.3971835668
  0
LWPOLYLINE
  5
275
100
AcDbEntity
  8
ASSI
100
AcDbPolyline
 62
7
  6
CONTINUOUS
 90
33
 70
0
 10
148.0520478769
 20
105.3373871763
 10
148.1380214612
 20
105.2864755101
 10
148.3086693083
 20
105.1781440334
 10
148.4786762657
 20
105.0603081037
 10
148.648047068
 20
104.9330379777
 10
148.8155236102
 20
104.7972790405
 10
148.9810918091
 20
104.652968047
 10
149.1447657479
 20
104.5001682422
 10
149.305329571
 20
104.3400147464
 10
149.4627601301
 20
104.1724527528
 10
149.6170805734
 20
103.9975370682
 10
149.7671444901
 20
103.8165672325
 10
149.9129201082
 20
103.6294982352
 10
150.0544391996
 20
103.4363750867
 10
150.1906506696
 20
103.2386323581
 10
150.321514927
 20
103.0362358048
 10
150.447071563
 20
102.8292196713
 10
150.5663882555
 20
102.619121263
 10
150.6794186244
 20
102.4059175479
 10
150.78620905
 20
102.1896315581
 10
150.8859663508
 20
101.9718696946
 10
150.9786382477
 20
101.7526206487
 10
151.0642770199
 20
101.5318957292
 10
151.1422463234
 20
101.3113352639
 10
151.2124889428
 20
101.0909403674
 10
151.2750620935
 20
100.870709925
 10
151.3295010781
 20
100.6522809206
 10
151.375745128
 20
100.4356667001
 10
151.4138550118
 20
100.2208539176
 10
151.443548338
 20
100.0094395184
 10
151.4647309761
 20
99.8019558178
 10
151.4774970567
 20
99.5978705006
 10
151.4818465797
 20
99.3971835668
  0
LINE
  5
276
100
AcDbEntity
  8
0
100
AcDbLine
 62
7
  6
CONTINUOUS
 10
178.7243638594
 20
119.4056356016
 11
179.7339005768
 21
120.4589301974
  0
LINE
  5
277
100
AcDbEntity
  8
ASSI
100
AcDbLine
 62
7
  6
CONTINUOUS
 10
178.7243638594
 20
119.4056356016
 11
179.7339005768
 21
120.4589301974
  0
LINE
  5
278
100
AcDbEntity
  8
0
100
AcDbLine
 62
7
  6
CONTINUOUS
 10
179.0033397935
 20
118.9224351101
 11
180.4202989244
 21
119.2700533863
  0
LINE
  5
279
100
AcDbEntity
  8
ASSI
100
AcDbLine
 62
7
  6
CONTINUOUS
 10
179.0033397935
 20
118.9224351101
 11
180.4202989244
 21
119.2700533863
  0
LWPOLYLINE
  5
27A
100
AcDbEntity
  8
CURVE
100
AcDbPolyline
 62
250
  6
CONTINUOUS
 90
73
 70
0
 10
182.5184625309
 20
60.6982359192
 10
182.5173195527
 20
60.7045719772
 10
182.5155675318
 20
60.7103757763
 10
182.5132740736
 20
60.7157007964
 10
182.5105067833
 20
60.7206005177
 10
182.507333266
 20
60.7251284202
 10
182.5038211272
 20
60.7293379841
 10
182.500037972
 20
60.7332826894
 10
182.4960514056
 20
60.7370160162
 10
182.4919290334
 20
60.7405914445
 10
182.4877384606
 20
60.7440624545
 10
182.4771452987
 20
60.7525474983
 10
182.4664943146
 20
60.76066203
 10
182.4557314619
 20
60.7683585812
 10
182.4448026942
 20
60.7755896833
 10
182.4336539652
 20
60.7823078677
 10
182.4222312284
 20
60.7884656658
 10
182.4104804374
 20
60.794015609
 10
182.3983475459
 20
60.7989102289
 10
182.3847696586
 20
60.8034175454
 10
182.3707202912
 20
60.8071160724
 10
182.3562367164
 20
60.8100168073
 10
182.3413562071
 20
60.8121307474
 10
182.326116036
 20
60.8134688902
 10
182.3105534761
 20
60.8140422329
 10
182.2947058
 20
60.8138617729
 10
182.2786102807
 20
60.8129385076
 10
182.262304191
 20
60.8112834343
 10
182.2458248037
 20
60.8089075504
 10
182.2292198429
 20
60.8058253469
 10
182.2124886839
 20
60.8020479267
 10
182.195640908
 20
60.7975886052
 10
182.1786860963
 20
60.7924606978
 10
182.1616338299
 20
60.7866775201
 10
182.1444936901
 20
60.7802523874
 10
182.1248055886
 20
60.7721390037
 10
182.1050401664
 20
60.7632307434
 10
182.0852224224
 20
60.7535542958
 10
182.0653773558
 20
60.7431363508
 10
182.0455299656
 20
60.7320035978
 10
182.0257052511
 20
60.7201827266
 10
182.0064207282
 20
60.7080135366
 10
181.9872049532
 20
60.6952040142
 10
181.9680813476
 20
60.6817426743
 10
181.9490733331
 20
60.6676180313
 10
181.9302043313
 20
60.6528186001
 10
181.9133814051
 20
60.6389323697
 10
181.8967101752
 20
60.624497959
 10
181.8802110858
 20
60.6095217183
 10
181.8639045813
 20
60.5940099982
 10
181.8478111059
 20
60.5779691492
 10
181.8305579836
 20
60.5599170113
 10
181.8136102493
 20
60.5412793345
 10
181.796996605
 20
60.5220901172
 10
181.7807457529
 20
60.5023833576
 10
181.7648863949
 20
60.4821930541
 10
181.7494472332
 20
60.461553205
 10
181.7344569699
 20
60.4404978086
 10
181.719944307
 20
60.4190608631
 10
181.7066996144
 20
60.3984938308
 10
181.6939169543
 20
60.3776412362
 10
181.6816067225
 20
60.3565275428
 10
181.6697793147
 20
60.3351772137
 10
181.6584451267
 20
60.3136147123
 10
181.6476145542
 20
60.2918645019
 10
181.637297993
 20
60.2699510457
 10
181.6301139348
 20
60.2538912303
 10
181.6232478652
 20
60.2377781971
 10
181.6167391543
 20
60.2216324634
 10
181.6106271724
 20
60.2054745468
 10
181.6049512896
 20
60.1893249648
 10
181.5997508762
 20
60.1732042348
 10
181.5950653024
 20
60.1571328743
  0
LWPOLYLINE
  5
27B
100
AcDbEntity
  8
CURVE
100
AcDbPolyline
 62
250
  6
CONTINUOUS
 90
22
 70
0
 10
181.8659083823
 20
59.6617757176
 10
181.8636807137
 20
59.6754519455
 10
181.8615539337
 20
59.6892005834
 10
181.8595450848
 20
59.7030333911
 10
181.8576712093
 20
59.7169621288
 10
181.8559493499
 20
59.7309985562
 10
181.8543965489
 20
59.7451544334
 10
181.8529263605
 20
59.7605773686
 10
181.8516730356
 20
59.7761481323
 10
181.8506366449
 20
59.791861704
 10
181.8498172589
 20
59.8077130632
 10
181.849214948
 20
59.8236971892
 10
181.8488297829
 20
59.8398090616
 10
181.8486618341
 20
59.8560436599
 10
181.8487111722
 20
59.8723959634
 10
181.8489778676
 20
59.8888609516
 10
181.849461991
 20
59.9054336041
 10
181.8501636129
 20
59.9221089002
 10
181.8510828039
 20
59.9388818194
 10
181.8522196344
 20
59.9557473411
 10
181.8535741751
 20
59.9727004449
 10
181.8551464964
 20
59.9897361102
  0
LINE
  5
27C
100
AcDbEntity
  8
0
100
AcDbLine
 62
7
  6
CONTINUOUS
 10
179.0033397935
 20
48.0908015108
 11
179.0033397935
 21
118.9224351101
  0
LINE
  5
27D
100
AcDbEntity
  8
ASSI
100
AcDbLine
 62
7
  6
CONTINUOUS
 10
179.0033397935
 20
48.0908015108
 11
179.0033397935
 21
118.9224351101
  0
LINE
  5
27E
100
AcDbEntity
  8
0
100
AcDbLine
 62
7
  6
CONTINUOUS
 10
180.4418002763
 20
47.7261836067
 11
180.4418002763
 21
119.2580584389
  0
LINE
  5
27F
100
AcDbEntity
  8
ASSI
100
AcDbLine
 62
7
  6
CONTINUOUS
 10
180.4418002763
 20
47.7261836067
 11
180.4418002763
 21
119.2580584389
  0
LINE
  5
280
100
AcDbEntity
  8
CURVE
100
AcDbLine
 62
250
  6
CONTINUOUS
 10
181.5543486624
 20
54.9140828267
 11
181.5543486624
 21
54.4880543516
  0
LINE
  5
281
100
AcDbEntity
  8
CURVE
100
AcDbLine
 62
250
  6
CONTINUOUS
 10
181.5544576341
 20
52.6515047767
 11
181.5544576341
 21
53.1143029908
  0
LINE
  5
282
100
AcDbEntity
  8
CURVE
100
AcDbLine
 62
250
  6
CONTINUOUS
 10
181.5544576341
 20
53.9042755412
 11
181.5544576341
 21
54.3300125365
  0
LINE
  5
283
100
AcDbEntity
  8
CURVE
100
AcDbLine
 62
250
  6
CONTINUOUS
 10
181.5544576341
 20
55.32777269
 11
181.5544576341
 21
55.75344845
  0
LINE
  5
284
100
AcDbEntity
  8
CURVE
100
AcDbLine
 62
250
  6
CONTINUOUS
 10
181.5544576341
 20
56.6010058326
 11
181.5544576341
 21
57.0225192271
  0
LINE
  5
285
100
AcDbEntity
  8
CURVE
100
AcDbLine
 62
250
  6
CONTINUOUS
 10
181.5544576341
 20
57.920444661
 11
181.5544576341
 21
58.3325759956
  0
LINE
  5
286
100
AcDbEntity
  8
0
100
AcDbLine
 62
7
  6
CONTINUOUS
 10
179.734263007
 20
120.4835489363
 11
179.7339005768
 21
120.4589301974
  0
LINE
  5
287
100
AcDbEntity
  8
ASSI
100
AcDbLine
 62
7
  6
CONTINUOUS
 10
179.734263007
 20
120.4835489363
 11
179.7339005768
 21
120.4589301974
  0
LINE
  5
288
100
AcDbEntity
  8
0
100
AcDbLine
 62
7
  6
CONTINUOUS
 10
180.4202989244
 20
119.2700533863
 11
180.4418002763
 21
119.2580584389
  0
LINE
  5
289
100
AcDbEntity
  8
ASSI
100
AcDbLine
 62
7
  6
CONTINUOUS
 10
180.4202989244
 20
119.2700533863
 11
180.4418002763
 21
119.2580584389
  0
LINE
  5
28A
100
AcDbEntity
  8
0
100
AcDbLine
 62
7
  6
CONTINUOUS
 10
178.7243638594
 20
119.4056356016
 11
117.3803935224
 21
154.8248752537
  0
LINE
  5
28B
100
AcDbEntity
  8
ASSI
100
AcDbLine
 62
7
  6
CONTINUOUS
 10
178.7243638594
 20
119.4056356016
 11
117.3803935224
 21
154.8248752537
  0
LINE
  5
28C
100
AcDbEntity
  8
0
100
AcDbLine
 62
7
  6
CONTINUOUS
 10
179.734263007
 20
120.4835489363
 11
117.7838464364
 21
156.2529430431
  0
LINE
  5
28D
100
AcDbEntity
  8
ASSI
100
AcDbLine
 62
7
  6
CONTINUOUS
 10
179.734263007
 20
120.4835489363
 11
117.7838464364
 21
156.2529430431
  0
LINE
  5
28E
100
AcDbEntity
  8
CURVE
100
AcDbLine
 62
250
  6
CONTINUOUS
 10
182.367782419
 20
60.1754669941
 11
182.367782419
 21
59.9319960029
  0
LINE
  5
28F
100
AcDbEntity
  8
CURVE
100
AcDbLine
 62
250
  6
CONTINUOUS
 10
182.6671959068
 20
60.1073334286
 11
182.6671959068
 21
60.3357596634
  0
LINE
  5
290
100
AcDbEntity
  8
CURVE
100
AcDbLine
 62
250
  6
CONTINUOUS
 10
182.7352632904
 20
58.5421516888
 11
182.7352632904
 21
58.9500439097
  0
LINE
  5
291
100
AcDbEntity
  8
CURVE
100
AcDbLine
 62
250
  6
CONTINUOUS
 10
183.017676985
 20
59.1872433243
 11
183.017676985
 21
58.607063628
  0
LINE
  5
292
100
AcDbEntity
  8
CURVE
100
AcDbLine
 62
250
  6
CONTINUOUS
 10
183.3826488108
 20
59.9431324919
 11
183.3826488108
 21
59.4941162961
  0
LINE
  5
293
100
AcDbEntity
  8
CURVE
100
AcDbLine
 62
250
  6
CONTINUOUS
 10
183.3826488108
 20
58.6860148396
 11
183.3826488108
 21
58.2646092192
  0
LINE
  5
294
100
AcDbEntity
  8
CURVE
100
AcDbLine
 62
250
  6
CONTINUOUS
 10
183.3826488108
 20
58.1977109106
 11
183.3826488108
 21
57.7809420249
  0
LINE
  5
295
100
AcDbEntity
  8
CURVE
100
AcDbLine
 62
250
  6
CONTINUOUS
 10
183.3826488108
 20
57.1868660044
 11
183.3826488108
 21
57.1271150766
  0
LINE
  5
296
100
AcDbEntity
  8
CURVE
100
AcDbLine
 62
250
  6
CONTINUOUS
 10
183.3826488108
 20
56.5353953894
 11
183.3826488108
 21
56.1278248578
  0
LINE
  5
297
100
AcDbEntity
  8
CURVE
100
AcDbLine
 62
250
  6
CONTINUOUS
 10
183.3826488108
 20
54.6583057289
 11
183.3826488108
 21
54.2828682016
  0
LINE
  5
298
100
AcDbEntity
  8
CURVE
100
AcDbLine
 62
250
  6
CONTINUOUS
 10
183.3826488108
 20
55.4724523313
 11
183.3826488108
 21
55.8984808065
  0
LINE
  5
299
100
AcDbEntity
  8
CURVE
100
AcDbLine
 62
250
  6
CONTINUOUS
 10
183.3826488229
 20
60.0682352267
 11
183.3826488229
 21
60.4925493932
  0
LINE
  5
29A
100
AcDbEntity
  8
CURVE
100
AcDbLine
 62
250
  6
CONTINUOUS
 10
183.3826488229
 20
61.1449530857
 11
183.3826488229
 21
61.5547428638
  0
LINE
  5
29B
100
AcDbEntity
  8
0
100
AcDbLine
 62
7
  6
CONTINUOUS
 10
184.5037332611
 20
49.754962121
 11
184.5037332611
 21
121.6033523411
  0
LINE
  5
29C
100
AcDbEntity
  8
ASSI
100
AcDbLine
 62
7
  6
CONTINUOUS
 10
184.5037332611
 20
49.754962121
 11
184.5037332611
 21
121.6033523411
  0
LWPOLYLINE
  5
29D
100
AcDbEntity
  8
CURVE
100
AcDbPolyline
 62
250
  6
CONTINUOUS
 90
48
 70
0
 10
182.6671959068
 20
60.3357596634
 10
182.6672705084
 20
60.3423594277
 10
182.6674951272
 20
60.3490516113
 10
182.6678709836
 20
60.3558301202
 10
182.6683992984
 20
60.3626888604
 10
182.669081292
 20
60.3696217379
 10
182.6699181852
 20
60.3766226587
 10
182.6709111985
 20
60.3836855288
 10
182.6720615526
 20
60.3908042542
 10
182.673370468
 20
60.397972741
 10
182.6748391655
 20
60.4051848951
 10
182.6764688654
 20
60.4124346225
 10
182.6782607886
 20
60.4197158293
 10
182.6802161556
 20
60.4270224214
 10
182.682336187
 20
60.4343483048
 10
182.6846221035
 20
60.4416873856
 10
182.6870751256
 20
60.4490335698
 10
182.6896964739
 20
60.4563807633
 10
182.6925595585
 20
60.4639101734
 10
182.6955954072
 20
60.4714298406
 10
182.698798488
 20
60.478935369
 10
182.7021632691
 20
60.4864223625
 10
182.7056842182
 20
60.4938864254
 10
182.7093558035
 20
60.5013231617
 10
182.713172493
 20
60.5087281755
 10
182.7171287545
 20
60.5160970709
 10
182.7212190561
 20
60.523425452
 10
182.7254378658
 20
60.5307089227
 10
182.7297796516
 20
60.5379430874
 10
182.7342388814
 20
60.5451235499
 10
182.7388100233
 20
60.5522459145
 10
182.7434875453
 20
60.5593057851
 10
182.7482659152
 20
60.5662987659
 10
182.7531396012
 20
60.573220461
 10
182.7581030712
 20
60.5800664744
 10
182.7631507931
 20
60.5868324103
 10
182.7682772351
 20
60.5935138726
 10
182.773476865
 20
60.6001064656
 10
182.7787441509
 20
60.6066057933
 10
182.7840735607
 20
60.6130074597
 10
182.7894595625
 20
60.619307069
 10
182.7948966241
 20
60.6255002252
 10
182.8003792137
 20
60.6315825325
 10
182.8059017992
 20
60.6375495949
 10
182.8114588486
 20
60.6433970164
 10
182.8170448299
 20
60.6491204013
 10
182.822654211
 20
60.6547153535
 10
182.82828146
 20
60.6601774772
  0
LINE
  5
29E
100
AcDbEntity
  8
0
100
AcDbLine
 62
7
  6
CONTINUOUS
 10
183.7961959918
 20
122.8288428385
 11
121.5716602236
 21
158.7565099344
  0
LINE
  5
29F
100
AcDbEntity
  8
ASSI
100
AcDbLine
 62
7
  6
CONTINUOUS
 10
183.7961959918
 20
122.8288428385
 11
121.5716602236
 21
158.7565099344
  0
LINE
  5
2A0
100
AcDbEntity
  8
0
100
AcDbLine
 62
7
  6
CONTINUOUS
 10
179.0033397935
 20
118.9224351101
 11
178.7243638594
 21
119.4056356016
  0
LINE
  5
2A1
100
AcDbEntity
  8
ASSI
100
AcDbLine
 62
7
  6
CONTINUOUS
 10
179.0033397935
 20
118.9224351101
 11
178.7243638594
 21
119.4056356016
  0
LINE
  5
2A2
100
AcDbEntity
  8
0
100
AcDbLine
 62
7
  6
CONTINUOUS
 10
180.4202989244
 20
119.2700533863
 11
179.7339005768
 21
120.4589301974
  0
LINE
  5
2A3
100
AcDbEntity
  8
ASSI
100
AcDbLine
 62
7
  6
CONTINUOUS
 10
180.4202989244
 20
119.2700533863
 11
179.7339005768
 21
120.4589301974
  0
LWPOLYLINE
  5
2A4
100
AcDbEntity
  8
CURVE
100
AcDbPolyline
 62
250
  6
CONTINUOUS
 90
49
 70
0
 10
181.8551464964
 20
59.9897361102
 10
181.856052885
 20
59.9980321807
 10
181.857148329
 20
60.0064305752
 10
181.8584322972
 20
60.0149224076
 10
181.8599042579
 20
60.0234987916
 10
181.8615636798
 20
60.032150841
 10
181.8634100312
 20
60.0408696694
 10
181.8654427808
 20
60.0496463906
 10
181.8676613971
 20
60.0584721184
 10
181.8700653486
 20
60.0673379665
 10
181.8726541037
 20
60.0762350486
 10
181.8754271311
 20
60.0851544786
 10
181.8783838992
 20
60.09408737
 10
181.8815238766
 20
60.1030248368
 10
181.8848465317
 20
60.1119579926
 10
181.8883513332
 20
60.1208779511
 10
181.8920377495
 20
60.1297758262
 10
181.8959052491
 20
60.1386427315
 10
181.8999533006
 20
60.1474697809
 10
181.9041813725
 20
60.1562480879
 10
181.9085889332
 20
60.1649687665
 10
181.9131754514
 20
60.1736229303
 10
181.9179403955
 20
60.1822016931
 10
181.9228832341
 20
60.1906961686
 10
181.9280034357
 20
60.1990974705
 10
181.933270157
 20
60.2073525766
 10
181.9387035466
 20
60.2154998006
 10
181.9442953422
 20
60.2235322234
 10
181.9500372815
 20
60.2314429254
 10
181.9559211022
 20
60.2392249875
 10
181.961938542
 20
60.2468714902
 10
181.9680813388
 20
60.2543755143
 10
181.9743412301
 20
60.2617301402
 10
181.9807099538
 20
60.2689284488
 10
181.9871792476
 20
60.2759635207
 10
181.9937408491
 20
60.2828284365
 10
182.0003864961
 20
60.2895162769
 10
182.0071079263
 20
60.2960201226
 10
182.0138968775
 20
60.3023330541
 10
182.0207450874
 20
60.3084481522
 10
182.0276442936
 20
60.3143584975
 10
182.034586234
 20
60.3200571707
 10
182.0415626462
 20
60.3255372524
 10
182.048565268
 20
60.3307918233
 10
182.0555858371
 20
60.335813964
 10
182.0626160912
 20
60.3405967552
 10
182.069647768
 20
60.3451332776
 10
182.0766726053
 20
60.3494166118
 10
182.0836823408
 20
60.3534398384
  0
LINE
  5
2A5
100
AcDbEntity
  8
0
100
AcDbLine
 62
7
  6
CONTINUOUS
 10
183.7961959918
 20
122.8288428385
 11
184.5037332611
 21
121.6033523411
  0
LINE
  5
2A6
100
AcDbEntity
  8
ASSI
100
AcDbLine
 62
7
  6
CONTINUOUS
 10
183.7961959918
 20
122.8288428385
 11
184.5037332611
 21
121.6033523411
  0
LWPOLYLINE
  5
2A7
100
AcDbEntity
  8
CURVE
100
AcDbPolyline
 62
250
  6
CONTINUOUS
 90
32
 70
0
 10
181.5950653024
 20
60.1571328743
 10
181.5874625892
 20
60.1283782699
 10
181.5805135618
 20
60.0997388583
 10
181.5741865098
 20
60.0712184772
 10
181.5684497231
 20
60.0428209641
 10
181.5632714914
 20
60.0145501568
 10
181.5586201045
 20
59.9864098929
 10
181.5544638521
 20
59.9584040101
 10
181.5507710239
 20
59.9305363459
 10
181.5475099096
 20
59.9028107382
 10
181.5446487991
 20
59.8752310244
 10
181.5421559821
 20
59.8478010424
 10
181.5399997484
 20
59.8205246297
 10
181.537334205
 20
59.7797946555
 10
181.535330687
 20
59.739410084
 10
181.5339615955
 20
59.6993602626
 10
181.5331993313
 20
59.6596345383
 10
181.5330162954
 20
59.6202222585
 10
181.5333848887
 20
59.5811127702
 10
181.5342775122
 20
59.5422954207
 10
181.5356665668
 20
59.5037595572
 10
181.5375244535
 20
59.465494527
 10
181.5398235733
 20
59.4274896771
 10
181.5425363269
 20
59.3897343548
 10
181.5456351155
 20
59.3522179073
 10
181.54909234
 20
59.3149296818
 10
181.5528804012
 20
59.2778590256
 10
181.5569717002
 20
59.2409952857
 10
181.5613386379
 20
59.2043278095
 10
181.5659536152
 20
59.1678459441
 10
181.5707890331
 20
59.1315390367
 10
181.5758172925
 20
59.0953964345
  0
LINE
  5
2A8
100
AcDbEntity
  8
CURVE
100
AcDbLine
 62
7
  6
CONTINUOUS
 10
181.7710123395
 20
60.4894272158
 11
181.9472426993
 21
60.6656575756
  0
LINE
  5
2A9
100
AcDbEntity
  8
CURVE
100
AcDbLine
 62
7
  6
CONTINUOUS
 10
181.5778373976
 20
60.0862415599
 11
182.3050772209
 21
60.8134813831
  0
LINE
  5
2AA
100
AcDbEntity
  8
CURVE
100
AcDbLine
 62
7
  6
CONTINUOUS
 10
181.5417943872
 20
59.8401878354
 11
182.4639274017
 21
60.7623208499
  0
LINE
  5
2AB
100
AcDbEntity
  8
CURVE
100
AcDbLine
 62
7
  6
CONTINUOUS
 10
181.5336981305
 20
59.6220808647
 11
181.851133499
 21
59.9395162331
  0
LINE
  5
2AC
100
AcDbEntity
  8
CURVE
100
AcDbLine
 62
7
  6
CONTINUOUS
 10
182.2927687748
 20
60.381151509
 11
183.3826488229
 21
61.471031557
  0
LINE
  5
2AD
100
AcDbEntity
  8
CURVE
100
AcDbLine
 62
7
  6
CONTINUOUS
 10
181.5407504964
 20
59.4191225166
 11
181.8557455998
 21
59.73411762
  0
LINE
  5
2AE
100
AcDbEntity
  8
CURVE
100
AcDbLine
 62
7
  6
CONTINUOUS
 10
182.3628709883
 20
60.2412430085
 11
183.3826488229
 21
61.261020843
  0
LWPOLYLINE
  5
2AF
100
AcDbEntity
  8
CURVE
100
AcDbPolyline
 62
250
  6
CONTINUOUS
 90
59
 70
0
 10
182.0836823408
 20
60.3534398384
 10
182.0916200574
 20
60.3577371032
 10
182.099619156
 20
60.3618419007
 10
182.1076686811
 20
60.3657482324
 10
182.1157576769
 20
60.3694500997
 10
182.1238751881
 20
60.3729415042
 10
182.132010259
 20
60.3762164473
 10
182.1401519339
 20
60.3792689304
 10
182.1482892575
 20
60.3820929551
 10
182.156411274
 20
60.3846825228
 10
182.164507028
 20
60.387031635
 10
182.1725655637
 20
60.3891342932
 10
182.1805759258
 20
60.3909844987
 10
182.1885271585
 20
60.3925762532
 10
182.1964083064
 20
60.393903558
 10
182.2042084138
 20
60.3949604147
 10
182.2119165252
 20
60.3957408246
 10
182.219521685
 20
60.3962387893
 10
182.2270129376
 20
60.3964483103
 10
182.2343793275
 20
60.396363389
 10
182.2416098991
 20
60.3959780268
 10
182.2486936968
 20
60.3952862253
 10
182.255619765
 20
60.3942819859
 10
182.2623771482
 20
60.3929593102
 10
182.2689548909
 20
60.3913121994
 10
182.2753420373
 20
60.3893346553
 10
182.281527632
 20
60.3870206791
 10
182.2875007193
 20
60.3843642723
 10
182.2932503438
 20
60.3813594366
 10
182.2987655498
 20
60.3780001732
 10
182.3040353818
 20
60.3742804837
 10
182.3089858597
 20
60.3702549508
 10
182.3136921747
 20
60.3658861117
 10
182.3181596463
 20
60.361187297
 10
182.3223935944
 20
60.3561718374
 10
182.3263993385
 20
60.3508530635
 10
182.3301821984
 20
60.3452443059
 10
182.3337474937
 20
60.3393588954
 10
182.3371005441
 20
60.3332101624
 10
182.3402466692
 20
60.3268114378
 10
182.3431911888
 20
60.320176052
 10
182.3459394225
 20
60.3133173359
 10
182.34849669
 20
60.3062486199
 10
182.350868311
 20
60.2989832347
 10
182.353059605
 20
60.2915345111
 10
182.3550758919
 20
60.2839157795
 10
182.3569224913
 20
60.2761403708
 10
182.3586047228
 20
60.2682216154
 10
182.3601279062
 20
60.260172844
 10
182.3614973611
 20
60.2520073874
 10
182.3627184071
 20
60.2437385761
 10
182.363796364
 20
60.2353797407
 10
182.3647365515
 20
60.226944212
 10
182.3655442891
 20
60.2184453205
 10
182.3662248966
 20
60.2098963969
 10
182.3667836937
 20
60.2013107718
 10
182.367226
 20
60.1927017759
 10
182.3675571352
 20
60.1840827398
 10
182.367782419
 20
60.1754669941
  0
LINE
  5
2B0
100
AcDbEntity
  8
CURVE
100
AcDbLine
 62
250
  6
CONTINUOUS
 10
182.529265545
 20
60.7040525053
 11
182.5184625309
 21
60.6982359192
  0
LINE
  5
2B1
100
AcDbEntity
  8
CURVE
100
AcDbLine
 62
7
  6
CONTINUOUS
 10
181.5587784636
 20
59.2271397697
 11
182.1421480942
 21
59.8105094004
  0
LINE
  5
2B2
100
AcDbEntity
  8
CURVE
100
AcDbLine
 62
7
  6
CONTINUOUS
 10
182.367782419
 20
60.0361437251
 11
182.6671959068
 21
60.3355572129
  0
LINE
  5
2B3
100
AcDbEntity
  8
CURVE
100
AcDbLine
 62
7
  6
CONTINUOUS
 10
181.7084679372
 20
59.1668185293
 11
182.6671959068
 21
60.1255464989
  0
LINE
  5
2B4
100
AcDbEntity
  8
CURVE
100
AcDbLine
 62
7
  6
CONTINUOUS
 10
182.16345269
 20
59.4117925681
 11
183.0827223427
 21
60.3310622208
  0
LINE
  5
2B5
100
AcDbEntity
  8
CURVE
100
AcDbLine
 62
7
  6
CONTINUOUS
 10
182.6184374428
 20
59.6567666069
 11
183.3826488229
 21
60.420977987
  0
LINE
  5
2B6
100
AcDbEntity
  8
CURVE
100
AcDbLine
 62
7
  6
CONTINUOUS
 10
183.0734221956
 20
59.9017406457
 11
183.3826488229
 21
60.210967273
  0
LINE
  5
2B7
100
AcDbEntity
  8
CURVE
100
AcDbLine
 62
7
  6
CONTINUOUS
 10
181.5544576341
 20
58.1727653702
 11
182.8969108437
 21
59.5152185798
  0
LINE
  5
2B8
100
AcDbEntity
  8
CURVE
100
AcDbLine
 62
7
  6
CONTINUOUS
 10
181.5544576341
 20
57.9627546562
 11
183.3826488108
 21
59.7909458329
  0
LINE
  5
2B9
100
AcDbEntity
  8
CURVE
100
AcDbLine
 62
7
  6
CONTINUOUS
 10
181.7610502725
 20
57.9593365805
 11
182.2297338575
 21
58.4280201655
  0
LINE
  5
2BA
100
AcDbEntity
  8
CURVE
100
AcDbLine
 62
7
  6
CONTINUOUS
 10
182.7352632904
 20
58.9335495984
 11
183.3826488108
 21
59.5809351189
  0
LINE
  5
2BB
100
AcDbEntity
  8
CURVE
100
AcDbLine
 62
7
  6
CONTINUOUS
 10
182.0197651294
 20
58.0080407235
 11
182.5009836382
 21
58.4892592323
  0
LINE
  5
2BC
100
AcDbEntity
  8
CURVE
100
AcDbLine
 62
7
  6
CONTINUOUS
 10
182.7352632904
 20
58.7235388844
 11
183.017676985
 21
59.005952579
  0
LINE
  5
2BD
100
AcDbEntity
  8
CURVE
100
AcDbLine
 62
7
  6
CONTINUOUS
 10
182.2784799864
 20
58.0567448665
 11
183.017676985
 21
58.795941865
  0
LINE
  5
2BE
100
AcDbEntity
  8
CURVE
100
AcDbLine
 62
7
  6
CONTINUOUS
 10
182.5371948434
 20
58.1054490094
 11
183.0446427291
 21
58.6128968952
  0
LINE
  5
2BF
100
AcDbEntity
  8
CURVE
100
AcDbLine
 62
7
  6
CONTINUOUS
 10
181.5544576341
 20
56.9127010862
 11
181.8619135485
 21
57.2201570005
  0
LINE
  5
2C0
100
AcDbEntity
  8
CURVE
100
AcDbLine
 62
7
  6
CONTINUOUS
 10
182.7959097004
 20
58.1541531524
 11
183.3126233918
 21
58.6708668439
  0
LINE
  5
2C1
100
AcDbEntity
  8
CURVE
100
AcDbLine
 62
7
  6
CONTINUOUS
 10
181.5544576341
 20
56.7026903721
 11
182.4498768446
 21
57.5981095827
  0
LINE
  5
2C2
100
AcDbEntity
  8
CURVE
100
AcDbLine
 62
7
  6
CONTINUOUS
 10
183.0546245574
 20
58.2028572954
 11
183.3826488108
 21
58.5308815488
  0
LINE
  5
2C3
100
AcDbEntity
  8
CURVE
100
AcDbLine
 62
7
  6
CONTINUOUS
 10
181.6773735855
 20
56.6155956095
 11
183.0378401408
 21
57.9760621648
  0
LINE
  5
2C4
100
AcDbEntity
  8
CURVE
100
AcDbLine
 62
7
  6
CONTINUOUS
 10
183.3133394144
 20
58.2515614384
 11
183.3826488108
 21
58.3208708348
  0
LINE
  5
2C5
100
AcDbEntity
  8
CURVE
100
AcDbLine
 62
7
  6
CONTINUOUS
 10
181.9156693331
 20
56.6438806431
 11
182.3417371897
 21
57.0699484997
  0
LINE
  5
2C6
100
AcDbEntity
  8
CURVE
100
AcDbLine
 62
7
  6
CONTINUOUS
 10
182.5322335763
 20
57.2604448863
 11
183.3826488108
 21
58.1108601208
  0
LINE
  5
2C7
100
AcDbEntity
  8
CURVE
100
AcDbLine
 62
7
  6
CONTINUOUS
 10
182.1539650806
 20
56.6721656766
 11
182.5783215888
 21
57.0965221848
  0
LINE
  5
2C8
100
AcDbEntity
  8
CURVE
100
AcDbLine
 62
7
  6
CONTINUOUS
 10
183.0735688738
 20
57.5917694698
 11
183.3826488108
 21
57.9008494068
  0
LINE
  5
2C9
100
AcDbEntity
  8
CURVE
100
AcDbLine
 62
7
  6
CONTINUOUS
 10
182.3922608282
 20
56.7004507102
 11
182.8149059879
 21
57.1230958698
  0
LINE
  5
2CA
100
AcDbEntity
  8
CURVE
100
AcDbLine
 62
7
  6
CONTINUOUS
 10
181.5544576341
 20
55.6526368021
 11
183.0514903869
 21
57.1496695549
  0
LINE
  5
2CB
100
AcDbEntity
  8
CURVE
100
AcDbLine
 62
7
  6
CONTINUOUS
 10
181.5544576341
 20
55.4426260881
 11
183.288074786
 21
57.1762432399
  0
LINE
  5
2CC
100
AcDbEntity
  8
CURVE
100
AcDbLine
 62
7
  6
CONTINUOUS
 10
181.7236621521
 20
55.401819892
 11
182.4071201634
 21
56.0852779033
  0
LINE
  5
2CD
100
AcDbEntity
  8
CURVE
100
AcDbLine
 62
7
  6
CONTINUOUS
 10
182.0970938875
 20
55.5652409135
 11
182.7970461544
 21
56.2651931803
  0
LINE
  5
2CE
100
AcDbEntity
  8
CURVE
100
AcDbLine
 62
7
  6
CONTINUOUS
 10
181.5543486624
 20
54.8124849743
 11
181.7744587362
 21
55.0325950481
  0
LINE
  5
2CF
100
AcDbEntity
  8
CURVE
100
AcDbLine
 62
7
  6
CONTINUOUS
 10
182.470525623
 20
55.7286619349
 11
183.1869721455
 21
56.4451084574
  0
LINE
  5
2D0
100
AcDbEntity
  8
CURVE
100
AcDbLine
 62
7
  6
CONTINUOUS
 10
181.5543486624
 20
54.6024742603
 11
182.229443489
 21
55.2775690869
  0
LINE
  5
2D1
100
AcDbEntity
  8
CURVE
100
AcDbLine
 62
7
  6
CONTINUOUS
 10
182.8439573584
 20
55.8920829563
 11
183.3826488108
 21
56.4307744087
  0
LINE
  5
2D2
100
AcDbEntity
  8
CURVE
100
AcDbLine
 62
7
  6
CONTINUOUS
 10
181.7614445676
 20
54.5995594515
 11
182.6844282418
 21
55.5225431257
  0
LINE
  5
2D3
100
AcDbEntity
  8
CURVE
100
AcDbLine
 62
7
  6
CONTINUOUS
 10
183.2173890939
 20
56.0555039778
 11
183.3826488108
 21
56.2207636947
  0
LINE
  5
2D4
100
AcDbEntity
  8
CURVE
100
AcDbLine
 62
7
  6
CONTINUOUS
 10
181.5544576341
 20
54.182561804
 11
181.7341819427
 21
54.3622861125
  0
LINE
  5
2D5
100
AcDbEntity
  8
CURVE
100
AcDbLine
 62
7
  6
CONTINUOUS
 10
182.2164293204
 20
54.8445334903
 11
183.1394129946
 21
55.7675171645
  0
LINE
  5
2D6
100
AcDbEntity
  8
CURVE
100
AcDbLine
 62
7
  6
CONTINUOUS
 10
181.5544576341
 20
53.97255109
 11
181.9901591747
 21
54.4082526306
  0
LINE
  5
2D7
100
AcDbEntity
  8
CURVE
100
AcDbLine
 62
7
  6
CONTINUOUS
 10
182.6714140732
 20
55.089507529
 11
183.3826488108
 21
55.8007422667
  0
LINE
  5
2D8
100
AcDbEntity
  8
CURVE
100
AcDbLine
 62
7
  6
CONTINUOUS
 10
181.73612767
 20
53.9442104119
 11
182.2461364068
 21
54.4542191486
  0
LINE
  5
2D9
100
AcDbEntity
  8
CURVE
100
AcDbLine
 62
7
  6
CONTINUOUS
 10
183.126398826
 20
55.3344815678
 11
183.3826488108
 21
55.5907315526
  0
LINE
  5
2DA
100
AcDbEntity
  8
CURVE
100
AcDbLine
 62
7
  6
CONTINUOUS
 10
182.0053103664
 20
54.0033823942
 11
182.5021136389
 21
54.5001856667
  0
LINE
  5
2DB
100
AcDbEntity
  8
CURVE
100
AcDbLine
 62
7
  6
CONTINUOUS
 10
182.2744930627
 20
54.0625543765
 11
182.7580908709
 21
54.5461521847
  0
LINE
  5
2DC
100
AcDbEntity
  8
CURVE
100
AcDbLine
 62
250
  6
CONTINUOUS
 10
183.3826488108
 20
57.1271150766
 11
182.1888747907
 21
55.9845775715
  0
LINE
  5
2DD
100
AcDbEntity
  8
CURVE
100
AcDbLine
 62
250
  6
CONTINUOUS
 10
181.5544576341
 20
55.75344845
 11
182.5694749138
 21
56.7214855226
  0
LWPOLYLINE
  5
2DE
100
AcDbEntity
  8
CURVE
100
AcDbPolyline
 62
250
  6
CONTINUOUS
 90
7
 70
0
 10
182.82828146
 20
60.6601774772
 10
182.8535811258
 20
60.6841546202
 10
182.8790110811
 20
60.707779816
 10
182.9045569264
 20
60.731091207
 10
182.9302042623
 20
60.7541269358
 10
182.9559386893
 20
60.7769251448
 10
182.9817458078
 20
60.7995239767
  0
LINE
  5
2DF
100
AcDbEntity
  8
CURVE
100
AcDbLine
 62
250
  6
CONTINUOUS
 10
181.5544576341
 20
58.3325759956
 11
183.3826488108
 21
59.9431324919
  0
LINE
  5
2E0
100
AcDbEntity
  8
CURVE
100
AcDbLine
 62
250
  6
CONTINUOUS
 10
182.9817458078
 20
60.7995239767
 11
183.0335205216
 21
60.844276079
  0
LINE
  5
2E1
100
AcDbEntity
  8
CURVE
100
AcDbLine
 62
250
  6
CONTINUOUS
 10
183.1373086707
 20
60.9330660284
 11
183.3826488229
 21
61.1449530857
  0
LWPOLYLINE
  5
2E2
100
AcDbEntity
  8
CURVE
100
AcDbPolyline
 62
250
  6
CONTINUOUS
 90
44
 70
0
 10
182.8312241219
 20
61.0949517328
 10
182.8170549578
 20
61.0827776171
 10
182.8028203823
 20
61.0703528989
 10
182.788490972
 20
61.0576005762
 10
182.780616102
 20
61.0504721102
 10
182.7727121084
 20
61.0432253601
 10
182.7647869351
 20
61.0358627401
 10
182.7568485261
 20
61.0283866643
 10
182.7489048252
 20
61.020799547
 10
182.7409637763
 20
61.0131038023
 10
182.7330333234
 20
61.0053018444
 10
182.7251214103
 20
60.9973960875
 10
182.717235981
 20
60.9893889458
 10
182.7093849793
 20
60.9812828335
 10
182.7015763492
 20
60.9730801648
 10
182.6938180345
 20
60.9647833538
 10
182.6861179792
 20
60.9563948148
 10
182.6784841272
 20
60.9479169619
 10
182.6709244223
 20
60.9393522094
 10
182.6634468085
 20
60.9307029713
 10
182.6560592296
 20
60.921971662
 10
182.6487696297
 20
60.9131606956
 10
182.6415859525
 20
60.9042724862
 10
182.634516142
 20
60.8953094482
 10
182.627568142
 20
60.8862739956
 10
182.6207498966
 20
60.8771685426
 10
182.6140693496
 20
60.8679955035
 10
182.6075344448
 20
60.8587572924
 10
182.6011531262
 20
60.8494563235
 10
182.5949333378
 20
60.8400950111
 10
182.5888830233
 20
60.8306757692
 10
182.5830101267
 20
60.8212010121
 10
182.577322592
 20
60.811673154
 10
182.5718283629
 20
60.8020946091
 10
182.5665353835
 20
60.7924677915
 10
182.5614515975
 20
60.7827951155
 10
182.556584949
 20
60.7730789951
 10
182.5519433818
 20
60.7633218448
 10
182.5475348399
 20
60.7535260785
 10
182.543367267
 20
60.7436941105
 10
182.5394486072
 20
60.733828355
 10
182.5357868044
 20
60.7239312262
 10
182.5323898023
 20
60.7140051382
 10
182.529265545
 20
60.7040525053
  0
LINE
  5
2E3
100
AcDbEntity
  8
CURVE
100
AcDbLine
 62
250
  6
CONTINUOUS
 10
183.0335205216
 20
60.844276079
 11
183.1373086707
 21
60.9330660284
  0
LINE
  5
2E4
100
AcDbEntity
  8
CURVE
100
AcDbLine
 62
250
  6
CONTINUOUS
 10
182.8594839093
 20
61.1188561656
 11
182.8312241219
 21
61.0949517328
  0
LINE
  5
2E5
100
AcDbEntity
  8
CURVE
100
AcDbLine
 62
250
  6
CONTINUOUS
 10
183.3826488108
 20
59.4941162961
 11
183.017676985
 21
59.1872433243
  0
LINE
  5
2E6
100
AcDbEntity
  8
CURVE
100
AcDbLine
 62
250
  6
CONTINUOUS
 10
183.0199763216
 20
61.2533323374
 11
182.8594839093
 21
61.1188561656
  0
LINE
  5
2E7
100
AcDbEntity
  8
CURVE
100
AcDbLine
 62
250
  6
CONTINUOUS
 10
183.3826488229
 20
61.5547428638
 11
183.3173790942
 21
61.5001628909
  0
LINE
  5
2E8
100
AcDbEntity
  8
CURVE
100
AcDbLine
 62
250
  6
CONTINUOUS
 10
183.3173790942
 20
61.5001628909
 11
183.0199763216
 21
61.2533323374
  0
LINE
  5
2E9
100
AcDbEntity
  8
CURVE
100
AcDbLine
 62
250
  6
CONTINUOUS
 10
182.7352632904
 20
58.9500439097
 11
182.056798163
 21
58.388977109
  0
LINE
  5
2EA
100
AcDbEntity
  8
CURVE
100
AcDbLine
 62
250
  6
CONTINUOUS
 10
181.5544576341
 20
57.0225192271
 11
183.3826488108
 21
58.1977109106
  0
LINE
  5
2EB
100
AcDbEntity
  8
CURVE
100
AcDbLine
 62
250
  6
CONTINUOUS
 10
183.3826488108
 20
57.7809420249
 11
182.1938509213
 21
57.0533375856
  0
LINE
  5
2EC
100
AcDbEntity
  8
CURVE
100
AcDbLine
 62
250
  6
CONTINUOUS
 10
183.3826488229
 20
60.4925493932
 11
182.6671959068
 21
60.1073334286
  0
LINE
  5
2ED
100
AcDbEntity
  8
CURVE
100
AcDbLine
 62
250
  6
CONTINUOUS
 10
182.367782419
 20
59.9319960029
 11
181.8659083823
 21
59.6617757176
  0
LINE
  5
2EE
100
AcDbEntity
  8
CURVE
100
AcDbLine
 62
250
  6
CONTINUOUS
 10
181.5758172925
 20
59.0953964345
 11
183.3826488229
 21
60.0682352267
  0
LINE
  5
2EF
100
AcDbEntity
  8
CURVE
100
AcDbLine
 62
250
  6
CONTINUOUS
 10
183.3826488108
 20
55.8984808065
 11
181.5543486624
 21
54.9140828267
  0
LINE
  5
2F0
100
AcDbEntity
  8
CURVE
100
AcDbLine
 62
250
  6
CONTINUOUS
 10
182.1888747907
 20
55.9845775715
 11
183.3826488108
 21
56.5353953894
  0
LINE
  5
2F1
100
AcDbEntity
  8
CURVE
100
AcDbLine
 62
250
  6
CONTINUOUS
 10
183.3826488108
 20
56.1278248578
 11
181.5544576341
 21
55.32777269
  0
LINE
  5
2F2
100
AcDbEntity
  8
CURVE
100
AcDbLine
 62
7
  6
CONTINUOUS
 10
182.5436757591
 20
54.1217263589
 11
183.014068103
 21
54.5921187028
  0
LINE
  5
2F3
100
AcDbEntity
  8
CURVE
100
AcDbLine
 62
7
  6
CONTINUOUS
 10
181.5544576341
 20
52.9224975199
 11
183.270045335
 21
54.6380852208
  0
LINE
  5
2F4
100
AcDbEntity
  8
CURVE
100
AcDbLine
 62
7
  6
CONTINUOUS
 10
181.5544576341
 20
52.7124868059
 11
183.3826488108
 21
54.5406779826
  0
LINE
  5
2F5
100
AcDbEntity
  8
CURVE
100
AcDbLine
 62
7
  6
CONTINUOUS
 10
182.9386777156
 20
53.8866961734
 11
183.3826488108
 21
54.3306672686
  0
LINE
  5
2F6
100
AcDbEntity
  8
CURVE
100
AcDbLine
 62
250
  6
CONTINUOUS
 10
183.3826488108
 20
54.2828682016
 11
181.5544576341
 21
52.6515047767
  0
LINE
  5
2F7
100
AcDbEntity
  8
CURVE
100
AcDbLine
 62
250
  6
CONTINUOUS
 10
181.5544576341
 20
53.1143029908
 11
182.8128584554
 21
54.1808983412
  0
LINE
  5
2F8
100
AcDbEntity
  8
0
100
AcDbLine
 62
7
  6
CONTINUOUS
 10
178.7243638594
 20
47.9297554352
 11
179.0033397935
 21
48.0908015108
  0
LINE
  5
2F9
100
AcDbEntity
  8
ASSI
100
AcDbLine
 62
7
  6
CONTINUOUS
 10
178.7243638594
 20
47.9297554352
 11
179.0033397935
 21
48.0908015108
  0
LINE
  5
2FA
100
AcDbEntity
  8
0
100
AcDbLine
 62
7
  6
CONTINUOUS
 10
179.7339005768
 20
47.3183808505
 11
180.4202989244
 21
47.714622055
  0
LINE
  5
2FB
100
AcDbEntity
  8
ASSI
100
AcDbLine
 62
7
  6
CONTINUOUS
 10
179.7339005768
 20
47.3183808505
 11
180.4202989244
 21
47.714622055
  0
LINE
  5
2FC
100
AcDbEntity
  8
0
100
AcDbLine
 62
7
  6
CONTINUOUS
 10
184.5037332611
 20
49.754962121
 11
183.7961959918
 21
49.3465179271
  0
LINE
  5
2FD
100
AcDbEntity
  8
ASSI
100
AcDbLine
 62
7
  6
CONTINUOUS
 10
184.5037332611
 20
49.754962121
 11
183.7961959918
 21
49.3465179271
  0
LINE
  5
2FE
100
AcDbEntity
  8
CURVE
100
AcDbLine
 62
250
  6
CONTINUOUS
 10
181.5543486624
 20
54.4880543516
 11
183.3826488108
 21
55.4724523313
  0
LINE
  5
2FF
100
AcDbEntity
  8
0
100
AcDbLine
 62
7
  6
CONTINUOUS
 10
180.4418002763
 20
47.7261836067
 11
180.4202989244
 21
47.714622055
  0
LINE
  5
300
100
AcDbEntity
  8
ASSI
100
AcDbLine
 62
7
  6
CONTINUOUS
 10
180.4418002763
 20
47.7261836067
 11
180.4202989244
 21
47.714622055
  0
LINE
  5
301
100
AcDbEntity
  8
0
100
AcDbLine
 62
7
  6
CONTINUOUS
 10
180.4418002763
 20
47.7261836067
 11
184.5037332611
 21
49.754962121
  0
LINE
  5
302
100
AcDbEntity
  8
ASSI
100
AcDbLine
 62
7
  6
CONTINUOUS
 10
180.4418002763
 20
47.7261836067
 11
184.5037332611
 21
49.754962121
  0
LINE
  5
303
100
AcDbEntity
  8
0
100
AcDbLine
 62
7
  6
CONTINUOUS
 10
179.734263007
 20
47.3177394128
 11
183.7961959918
 21
49.3465179271
  0
LINE
  5
304
100
AcDbEntity
  8
ASSI
100
AcDbLine
 62
7
  6
CONTINUOUS
 10
179.734263007
 20
47.3177394128
 11
183.7961959918
 21
49.3465179271
  0
ENDSEC
  0
SECTION
  2
OBJECTS
  0
DICTIONARY
  5
C
100
AcDbDictionary
280
0
281
1
  3
ACAD_GROUP
350
D
  3
ACAD_MLINESTYLE
350
17
  3
ACAD_LAYOUT
350
1A
  3
ACAD_PLOTSETTINGS
350
19
  3
ACAD_PLOTSTYLENAME
350
E
  0
DICTIONARY
  5
D
102
{ACAD_REACTORS
330
C
102
}
100
AcDbDictionary
280
0
281
1
  0
ACDBDICTIONARYWDFLT
  5
E
102
{ACAD_REACTORS
330
C
102
}
100
AcDbDictionary
281
1
  3
Normal
350
F
100
AcDbDictionaryWithDefault
340
F
  0
DICTIONARY
  5
17
102
{ACAD_REACTORS
330
C
102
}
100
AcDbDictionary
280
0
281
1
  3
Standard
350
18
  0
DICTIONARY
  5
19
102
{ACAD_REACTORS
330
C
102
}
100
AcDbDictionary
281
1
  0
DICTIONARY
  5
1A
102
{ACAD_REACTORS
330
C
102
}
100
AcDbDictionary
281
1
  3
Model
350
305
  3
Layout1
350
306
  0
ACDBPLACEHOLDER
  5
F
102
{ACAD_REACTORS
330
E
102
}
  0
MLINESTYLE
  5
18
102
{ACAD_REACTORS
330
17
102
}
100
AcDbMlineStyle
  2
STANDARD
 70
0
  3

 62
256
 51
90.0
 52
90.0
 71
2
 49
0.5
 62
256
  6
BYLAYER
 49
-0.5
 62
256
  6
BYLAYER
  0
LAYOUT
  5
305
102
{ACAD_REACTORS
330
1A
102
}
100
AcDbPlotSettings
  1

  2
none_device
  4
ISO_A4_(297.00_x_210.00_MM)
  6

 40
0.0
 41
0.0
 42
0.0
 43
0.0
 44
297.0
 45
210.0
 46
0.0
 47
0.0
 48
0.0
 49
0.0
140
0.0
141
0.0
142
1.0
143
1.0
 70
1024
 72
1
 73
0
 74
0
  7

 75
0
147
1.0
148
0.0
149
0.0
100
AcDbLayout
  1
Model
 70
0
 71
0
 10
0.0
 20
0.0
 11
297.0
 21
210.0
 12
0.0
 22
0.0
 32
0.0
 14
0.0
 24
0.0
 34
0.0
 15
0.0
 25
0.0
 35
0.0
146
0.0
 13
0.0
 23
0.0
 33
0.0
 16
1.0
 26
0.0
 36
0.0
 17
0.0
 27
1.0
 37
0.0
 76
0
330
21E
345
0
346
0
  0
LAYOUT
  5
306
102
{ACAD_REACTORS
330
1A
102
}
100
AcDbPlotSettings
  1

  2
none_device
  4
ISO_A4_(297.00_x_210.00_MM)
  6

 40
0.0
 41
0.0
 42
0.0
 43
0.0
 44
297.0
 45
210.0
 46
0.0
 47
0.0
 48
0.0
 49
0.0
140
0.0
141
0.0
142
1.0
143
1.0
 70
0
 72
1
 73
0
 74
0
  7

 75
0
147
1.0
148
0.0
149
0.0
100
AcDbLayout
  1
Layout1
 70
0
 71
1
 10
0.0
 20
0.0
 11
297.0
 21
210.0
 12
0.0
 22
0.0
 32
0.0
 14
0.0
 24
0.0
 34
0.0
 15
0.0
 25
0.0
 35
0.0
146
0.0
 13
0.0
 23
0.0
 33
0.0
 16
1.0
 26
0.0
 36
0.0
 17
0.0
 27
1.0
 37
0.0
 76
0
330
21F
345
0
346
0
  0
ENDSEC
  0
EOF
