  0
SECTION
  2
HEADER
  9
$ACADVER
  1
AC1024
  9
$DWGCODEPAGE
  3
ANSI_1252
  9
$EXTMAX
 10
297.0
 20
210.0
 30
0.0
  9
$EXTMIN
 10
0.0
 20
0.0
 30
0.0
  9
$LIMMIN
 10
0.0
 20
0.0
  9
$LIMMAX
 10
297.0
 20
210.0
  9
$VIEWCTR
 10
148.5
 20
105.0
  9
$VIEWSIZE
 40
210.0
  9
$CLAYER
  8
0
  9
$LTSCALE
 40
16.335
  9
$CELTYPE
  6
BYLAYER
  9
$DIMSCALE
 40
1.0
  9
$DIMASZ
 40
3.0
  9
$DIMEXO
 40
0.5
  9
$DIMDLI
 40
11.286
  9
$DIMEXE
 40
1.5
  9
$DIMCEN
 40
2.673
  9
$DIMLFAC
 40
1.0
  9
$DIMBLK
  1
_FILLED
  9
$DIMALT
 70
0
  9
$DIMALTF
 40
0.0393700787
  9
$DIMTXT
 40
3.0
  9
$DIMTOL
 70
1
  9
$DIMLIM
 70
0
  9
$DIMTFAC
 40
1.0
  9
$DIMTP
 40
0.01
  9
$DIMTM
 40
0.01
  9
$DIMGAP
 40
0.625
  9
$DIMDSEP
 70
44
  9
$AUNITS
 70
0
  9
$PDMODE
 70
3
  9
$PDSIZE
 40
3.0
  9
$HANDSEED
  5
31B
  9
$TILEMODE
 70
1
  9
$MEASUREMENT
 70
1
  9
$INSUNITS
 70
4
  0
ENDSEC
  0
SECTION
  2
CLASSES
  0
CLASS
  1
ACDBDICTIONARYWDFLT
  2
AcDbDictionaryWithDefault
  3
AutoCAD 2000
 90
0
 91
1
280
0
281
0
  0
CLASS
  1
ACDBPLACEHOLDER
  2
AcDbPlaceHolder
  3
AutoCAD 2000
 90
0
 91
1
280
0
281
0
  0
CLASS
  1
LAYOUT
  2
AcDbLayout
  3
AutoCAD 2000
 90
0
 91
0
280
0
281
0
  0
ENDSEC
  0
SECTION
  2
TABLES
  0
TABLE
  2
VPORT
  5
8
100
AcDbSymbolTable
 70
2
  0
VPORT
  5
1F4
100
AcDbSymbolTableRecord
100
AcDbViewportTableRecord
  2
*ACTIVE
 70
0
 10
0.0
 20
0.0
 11
1.0
 21
1.0
 12
148.5
 22
105.0
 13
0.0
 23
0.0
 14
1.0
 24
1.0
 15
0.0
 25
0.0
 16
0.0
 26
0.0
 36
1.0
 17
0.0
 27
0.0
 37
0.0
 40
210.0
 41
1.4142857143
 42
50.0
 43
0.0
 44
0.0
 50
0.0
 51
0.0
 71
0
 72
100
 73
1
 74
1
 75
0
 76
0
 77
0
 78
0
  0
ENDTAB
  0
TABLE
  2
LTYPE
  5
5
100
AcDbSymbolTable
 70
6
  0
LTYPE
  5
14
100
AcDbSymbolTableRecord
100
AcDbLinetypeTableRecord
  2
BYBLOCK
 70
0
  3

 72
65
 73
0
 40
0.0
  0
LTYPE
  5
15
100
AcDbSymbolTableRecord
100
AcDbLinetypeTableRecord
  2
BYLAYER
 70
0
  3

 72
65
 73
0
 40
0.0
  0
LTYPE
  5
16
100
AcDbSymbolTableRecord
100
AcDbLinetypeTableRecord
  2
CONTINUOUS
 70
64
  3
Solid line
 72
65
 73
0
 40
0.0
  0
LTYPE
  5
1F5
100
AcDbSymbolTableRecord
100
AcDbLinetypeTableRecord
  2
CENTER
 70
64
  3
____ _ ____ _ ____ _ ____ _ ____ _ ____ _ ____
 72
65
 73
4
 40
0.6
 49
0.375
 74
0
 49
-0.075
 74
0
 49
0.075
 74
0
 49
-0.075
 74
0
  0
LTYPE
  5
1F6
100
AcDbSymbolTableRecord
100
AcDbLinetypeTableRecord
  2
HIDDEN
 70
64
  3
- - - - - - - - - - - - - - - - - - - -
 72
65
 73
2
 40
0.2
 49
0.1
 74
0
 49
-0.1
 74
0
  0
LTYPE
  5
1F7
100
AcDbSymbolTableRecord
100
AcDbLinetypeTableRecord
  2
PHANTOM
 70
64
  3
_____ _ _ _____ _ _ _____ _ _ _____
 72
65
 73
6
 40
0.8
 49
0.45
 74
0
 49
-0.05
 74
0
 49
0.1
 74
0
 49
-0.05
 74
0
 49
0.1
 74
0
 49
-0.05
 74
0
  0
LTYPE
  5
1F8
100
AcDbSymbolTableRecord
100
AcDbLinetypeTableRecord
  2
DOT
 70
64
  3
. . . . . . . . . . . . . . . . . . . .
 72
65
 73
2
 40
0.2
 49
0.1
 74
0
 49
-0.1
 74
0
  0
LTYPE
  5
1F9
100
AcDbSymbolTableRecord
100
AcDbLinetypeTableRecord
  2
DASHED
 70
64
  3
- - - - - - - - - - - - - - - - - - - -
 72
65
 73
2
 40
0.2
 49
0.1
 74
0
 49
-0.1
 74
0
  0
ENDTAB
  0
TABLE
  2
LAYER
  5
2
100
AcDbSymbolTable
 70
36
  0
LAYER
  5
10
100
AcDbSymbolTableRecord
100
AcDbLayerTableRecord
  2
0
 70
0
 62
7
  6
CONTINUOUS
370
-3
390
F
  0
LAYER
  5
1FA
100
AcDbSymbolTableRecord
100
AcDbLayerTableRecord
  2
DEFAULT_1
 70
0
 62
7
  6
CENTER
370
-3
390
F
  0
LAYER
  5
1FB
100
AcDbSymbolTableRecord
100
AcDbLayerTableRecord
  2
DEFAULT_2
 70
0
 62
7
  6
HIDDEN
370
-3
390
F
  0
LAYER
  5
1FC
100
AcDbSymbolTableRecord
100
AcDbLayerTableRecord
  2
DEFAULT_3
 70
0
 62
7
  6
PHANTOM
370
-3
390
F
  0
LAYER
  5
1FD
100
AcDbSymbolTableRecord
100
AcDbLayerTableRecord
  2
ASSI
 70
0
 62
7
  6
CONTINUOUS
370
-3
390
F
  0
LAYER
  5
1FE
100
AcDbSymbolTableRecord
100
AcDbLayerTableRecord
  2
COORDINATE
 70
0
 62
7
  6
CONTINUOUS
370
-3
390
F
  0
LAYER
  5
1FF
100
AcDbSymbolTableRecord
100
AcDbLayerTableRecord
  2
COORD_ORIGINE
 70
0
 62
7
  6
CONTINUOUS
370
-3
390
F
  0
LAYER
  5
200
100
AcDbSymbolTableRecord
100
AcDbLayerTableRecord
  2
COPY_PUBLISH
 70
0
 62
7
  6
CONTINUOUS
370
-3
390
F
  0
LAYER
  5
201
100
AcDbSymbolTableRecord
100
AcDbLayerTableRecord
  2
COSMETIC
 70
0
 62
7
  6
CONTINUOUS
370
-3
390
F
  0
LAYER
  5
202
100
AcDbSymbolTableRecord
100
AcDbLayerTableRecord
  2
COSMETICI
 70
0
 62
7
  6
CONTINUOUS
370
-3
390
F
  0
LAYER
  5
203
100
AcDbSymbolTableRecord
100
AcDbLayerTableRecord
  2
CURVE
 70
0
 62
7
  6
CONTINUOUS
370
-3
390
F
  0
LAYER
  5
204
100
AcDbSymbolTableRecord
100
AcDbLayerTableRecord
  2
CURVE_TASSELLI
 70
0
 62
7
  6
CONTINUOUS
370
-3
390
F
  0
LAYER
  5
205
100
AcDbSymbolTableRecord
100
AcDbLayerTableRecord
  2
DRAFT
 70
0
 62
7
  6
CONTINUOUS
370
-3
390
F
  0
LAYER
  5
206
100
AcDbSymbolTableRecord
100
AcDbLayerTableRecord
  2
IMPORT_IGES
 70
0
 62
7
  6
CONTINUOUS
370
-3
390
F
  0
LAYER
  5
207
100
AcDbSymbolTableRecord
100
AcDbLayerTableRecord
  2
INTFCLR_2
 70
0
 62
7
  6
CONTINUOUS
370
-3
390
F
  0
LAYER
  5
208
100
AcDbSymbolTableRecord
100
AcDbLayerTableRecord
  2
INTF_1
 70
0
 62
7
  6
CONTINUOUS
370
-3
390
F
  0
LAYER
  5
209
100
AcDbSymbolTableRecord
100
AcDbLayerTableRecord
  2
INTF_21
 70
0
 62
7
  6
CONTINUOUS
370
-3
390
F
  0
LAYER
  5
20A
100
AcDbSymbolTableRecord
100
AcDbLayerTableRecord
  2
INTF_6
 70
0
 62
7
  6
CONTINUOUS
370
-3
390
F
  0
LAYER
  5
20B
100
AcDbSymbolTableRecord
100
AcDbLayerTableRecord
  2
INTF_7
 70
0
 62
7
  6
CONTINUOUS
370
-3
390
F
  0
LAYER
  5
20C
100
AcDbSymbolTableRecord
100
AcDbLayerTableRecord
  2
INTF_CYAN
 70
0
 62
7
  6
CONTINUOUS
370
-3
390
F
  0
LAYER
  5
20D
100
AcDbSymbolTableRecord
100
AcDbLayerTableRecord
  2
LIVELLO_1
 70
0
 62
7
  6
CONTINUOUS
370
-3
390
F
  0
LAYER
  5
20E
100
AcDbSymbolTableRecord
100
AcDbLayerTableRecord
  2
NOTE
 70
0
 62
7
  6
CONTINUOUS
370
-3
390
F
  0
LAYER
  5
20F
100
AcDbSymbolTableRecord
100
AcDbLayerTableRecord
  2
PIANI
 70
0
 62
7
  6
CONTINUOUS
370
-3
390
F
  0
LAYER
  5
210
100
AcDbSymbolTableRecord
100
AcDbLayerTableRecord
  2
PIANI_ORIGINE
 70
0
 62
7
  6
CONTINUOUS
370
-3
390
F
  0
LAYER
  5
211
100
AcDbSymbolTableRecord
100
AcDbLayerTableRecord
  2
PIANI_RIFERIMENTO
 70
0
 62
7
  6
CONTINUOUS
370
-3
390
F
  0
LAYER
  5
212
100
AcDbSymbolTableRecord
100
AcDbLayerTableRecord
  2
PUNTI
 70
0
 62
7
  6
CONTINUOUS
370
-3
390
F
  0
LAYER
  5
213
100
AcDbSymbolTableRecord
100
AcDbLayerTableRecord
  2
RACCORDO
 70
0
 62
7
  6
CONTINUOUS
370
-3
390
F
  0
LAYER
  5
214
100
AcDbSymbolTableRecord
100
AcDbLayerTableRecord
  2
RGB__255__255__255__
 70
0
 62
7
  6
CONTINUOUS
370
-3
390
F
  0
LAYER
  5
215
100
AcDbSymbolTableRecord
100
AcDbLayerTableRecord
  2
RGB____0____0____0__
 70
0
 62
7
  6
CONTINUOUS
370
-3
390
F
  0
LAYER
  5
216
100
AcDbSymbolTableRecord
100
AcDbLayerTableRecord
  2
SIMBOLI
 70
0
 62
7
  6
CONTINUOUS
370
-3
390
F
  0
LAYER
  5
217
100
AcDbSymbolTableRecord
100
AcDbLayerTableRecord
  2
SMUSSO
 70
0
 62
7
  6
CONTINUOUS
370
-3
390
F
  0
LAYER
  5
218
100
AcDbSymbolTableRecord
100
AcDbLayerTableRecord
  2
SUPERFICI
 70
0
 62
7
  6
CONTINUOUS
370
-3
390
F
  0
LAYER
  5
219
100
AcDbSymbolTableRecord
100
AcDbLayerTableRecord
  2
TRASH
 70
0
 62
7
  6
CONTINUOUS
370
-3
390
F
  0
LAYER
  5
21A
100
AcDbSymbolTableRecord
100
AcDbLayerTableRecord
  2
WHITE
 70
0
 62
7
  6
CONTINUOUS
370
-3
390
F
  0
LAYER
  5
21B
100
AcDbSymbolTableRecord
100
AcDbLayerTableRecord
  2
XSEC_DATUMS
 70
0
 62
7
  6
CONTINUOUS
370
-3
390
F
  0
ENDTAB
  0
TABLE
  2
STYLE
  5
3
100
AcDbSymbolTable
 70
1
  0
STYLE
  5
11
100
AcDbSymbolTableRecord
100
AcDbTextStyleTableRecord
  2
STANDARD
 70
0
 40
0.0
 41
0.8
 50
0.0
 71
0
 42
0.2
  3
txt
  4

  0
STYLE
  5
21C
100
AcDbSymbolTableRecord
100
AcDbTextStyleTableRecord
  2
TEXTSTYLE_1
 70
0
 40
0.0
 41
0.8
 50
0.0
 71
0
 42
0.2
  3
gdt
  4

  0
ENDTAB
  0
TABLE
  2
VIEW
  5
6
100
AcDbSymbolTable
 70
0
  0
ENDTAB
  0
TABLE
  2
UCS
  5
7
100
AcDbSymbolTable
 70
0
  0
ENDTAB
  0
TABLE
  2
APPID
  5
9
100
AcDbSymbolTable
 70
1
  0
APPID
  5
21D
100
AcDbSymbolTableRecord
100
AcDbRegAppTableRecord
  2
ACAD
 70
0
  0
ENDTAB
  0
TABLE
  2
BLOCK_RECORD
  5
1
100
AcDbSymbolTable
 70
0
  0
BLOCK_RECORD
  5
21E
100
AcDbSymbolTableRecord
100
AcDbBlockTableRecord
  2
*Model_Space
  0
BLOCK_RECORD
  5
21F
100
AcDbSymbolTableRecord
100
AcDbBlockTableRecord
  2
*Paper_Space
  0
BLOCK_RECORD
  5
220
100
AcDbSymbolTableRecord
100
AcDbBlockTableRecord
  2
_FILLED
  0
ENDTAB
  0
TABLE
  2
DIMSTYLE
  5
A
100
AcDbSymbolTable
 70
1
100
AcDbDimStyleTable
 71
0
  0
DIMSTYLE
105
221
100
AcDbSymbolTableRecord
100
AcDbDimStyleTableRecord
  2
STANDARD
 70
0
  3

  4

 40
1.0
 41
3.0
 42
0.5
 43
0.38
 44
1.5
 45
0.0
 46
0.0
 47
0.01
 48
0.01
140
3.0
141
0.09
142
0.0
143
25.4
144
1.0
145
0.0
146
1.0
147
0.625
 71
1
 72
0
 73
0
 74
0
 75
0
 76
0
 77
1
 78
8
 79
2
170
0
171
1
172
0
173
0
174
0
175
0
176
0
177
0
178
0
270
2
179
2
271
2
272
2
273
2
274
2
275
0
280
0
281
0
282
0
283
1
284
8
285
0
286
0
287
3
288
0
340
11
278
44
341
220
342
220
343
220
344
220
  0
ENDTAB
  0
ENDSEC
  0
SECTION
  2
BLOCKS
  0
BLOCK
  5
20
100
AcDbEntity
  8
0
100
AcDbBlockBegin
  2
*Model_Space
 70
0
 10
0.0
 20
0.0
 30
0.0
  3
*Model_Space
  1

  0
ENDBLK
  5
21
100
AcDbEntity
  8
0
100
AcDbBlockEnd
  0
BLOCK
  5
1C
100
AcDbEntity
  8
0
100
AcDbBlockBegin
  2
*Paper_Space
 70
0
 10
0.0
 20
0.0
 30
0.0
  3
*Paper_Space
  1

  0
ENDBLK
  5
1D
100
AcDbEntity
  8
0
100
AcDbBlockEnd
  0
BLOCK
  5
222
100
AcDbEntity
  8
0
100
AcDbBlockBegin
  2
_FILLED
 70
64
 10
0.0
 20
0.0
  3
_FILLED
  1

  0
SOLID
  5
223
100
AcDbEntity
  8
0
  6
BYBLOCK
 62
0
100
AcDbTrace
 10
0.0
 20
0.0
 11
-1.0
 21
0.3166666667
 12
-1.0
 22
-0.3166666667
 13
-1.0
 23
-0.3166666667
  0
ENDBLK
  5
224
100
AcDbEntity
  8
0
  6
BYBLOCK
 62
0
100
AcDbBlockEnd
  0
ENDSEC
  0
SECTION
  2
ENTITIES
  0
LINE
  5
225
100
AcDbEntity
  8
0
100
AcDbLine
 62
7
  6
CONTINUOUS
 10
117.0763091671
 20
155.8444988492
 11
120.8641229543
 21
158.3480657406
  0
LINE
  5
226
100
AcDbEntity
  8
ASSI
100
AcDbLine
 62
7
  6
CONTINUOUS
 10
117.0763091671
 20
155.8444988492
 11
120.8641229543
 21
158.3480657406
  0
LINE
  5
227
100
AcDbEntity
  8
0
100
AcDbLine
 62
7
  6
CONTINUOUS
 10
117.7838464364
 20
156.2529430431
 11
121.5716602236
 21
158.7565099344
  0
LINE
  5
228
100
AcDbEntity
  8
ASSI
100
AcDbLine
 62
7
  6
CONTINUOUS
 10
117.7838464364
 20
156.2529430431
 11
121.5716602236
 21
158.7565099344
  0
LINE
  5
229
100
AcDbEntity
  8
0
100
AcDbLine
 62
7
  6
CONTINUOUS
 10
117.7630828223
 20
156.2401036921
 11
117.7838464364
 21
156.2529430431
  0
LINE
  5
22A
100
AcDbEntity
  8
ASSI
100
AcDbLine
 62
7
  6
CONTINUOUS
 10
117.7630828223
 20
156.2401036921
 11
117.7838464364
 21
156.2529430431
  0
LINE
  5
22B
100
AcDbEntity
  8
0
100
AcDbLine
 62
7
  6
CONTINUOUS
 10
120.8641229543
 20
158.3480657406
 11
121.5716602236
 21
158.7565099344
  0
LINE
  5
22C
100
AcDbEntity
  8
ASSI
100
AcDbLine
 62
7
  6
CONTINUOUS
 10
120.8641229543
 20
158.3480657406
 11
121.5716602236
 21
158.7565099344
  0
LINE
  5
22D
100
AcDbEntity
  8
0
100
AcDbLine
 62
7
  6
CONTINUOUS
 10
117.7630828223
 20
156.2401036921
 11
117.0766844746
 21
155.8438624877
  0
LINE
  5
22E
100
AcDbEntity
  8
ASSI
100
AcDbLine
 62
7
  6
CONTINUOUS
 10
117.7630828223
 20
156.2401036921
 11
117.0766844746
 21
155.8438624877
  0
LINE
  5
22F
100
AcDbEntity
  8
0
100
AcDbLine
 62
7
  6
CONTINUOUS
 10
117.3803935224
 20
154.8248752537
 11
117.1014175883
 21
154.6638291782
  0
LINE
  5
230
100
AcDbEntity
  8
ASSI
100
AcDbLine
 62
7
  6
CONTINUOUS
 10
117.3803935224
 20
154.8248752537
 11
117.1014175883
 21
154.6638291782
  0
LINE
  5
231
100
AcDbEntity
  8
CURVE
100
AcDbLine
 62
250
  6
CONTINUOUS
 10
182.8128584554
 20
54.1808983412
 11
181.5544576341
 21
53.9042755412
  0
LINE
  5
232
100
AcDbEntity
  8
CURVE
100
AcDbLine
 62
250
  6
CONTINUOUS
 10
181.5544576341
 20
54.3300125365
 11
183.3826488108
 21
54.6583057289
  0
LINE
  5
233
100
AcDbEntity
  8
CURVE
100
AcDbLine
 62
250
  6
CONTINUOUS
 10
182.056798163
 20
58.388977109
 11
182.7352632904
 21
58.5421516888
  0
LINE
  5
234
100
AcDbEntity
  8
CURVE
100
AcDbLine
 62
250
  6
CONTINUOUS
 10
183.017676985
 20
58.607063628
 11
183.3826488108
 21
58.6860148396
  0
LINE
  5
235
100
AcDbEntity
  8
CURVE
100
AcDbLine
 62
250
  6
CONTINUOUS
 10
183.3826488108
 20
58.2646092192
 11
181.5544576341
 21
57.920444661
  0
LINE
  5
236
100
AcDbEntity
  8
CURVE
100
AcDbLine
 62
250
  6
CONTINUOUS
 10
182.5694749138
 20
56.7214855226
 11
181.5544576341
 21
56.6010058326
  0
LINE
  5
237
100
AcDbEntity
  8
CURVE
100
AcDbLine
 62
250
  6
CONTINUOUS
 10
182.1938509213
 20
57.0533375856
 11
183.3826488108
 21
57.1868660044
  0
LINE
  5
238
100
AcDbEntity
  8
0
100
AcDbLine
 62
7
  6
CONTINUOUS
 10
117.3803935224
 20
154.8248752537
 11
117.7630828223
 21
156.2401036921
  0
LINE
  5
239
100
AcDbEntity
  8
ASSI
100
AcDbLine
 62
7
  6
CONTINUOUS
 10
117.3803935224
 20
154.8248752537
 11
117.7630828223
 21
156.2401036921
  0
LINE
  5
23A
100
AcDbEntity
  8
0
100
AcDbLine
 62
7
  6
CONTINUOUS
 10
179.0033397935
 20
48.0908015108
 11
180.4202989244
 21
47.714622055
  0
LINE
  5
23B
100
AcDbEntity
  8
ASSI
100
AcDbLine
 62
7
  6
CONTINUOUS
 10
179.0033397935
 20
48.0908015108
 11
180.4202989244
 21
47.714622055
  0
LINE
  5
23C
100
AcDbEntity
  8
0
100
AcDbLine
 62
7
  6
CONTINUOUS
 10
117.1014175883
 20
83.8321955788
 11
117.3803935224
 21
83.3489950873
  0
LINE
  5
23D
100
AcDbEntity
  8
ASSI
100
AcDbLine
 62
7
  6
CONTINUOUS
 10
117.1014175883
 20
83.8321955788
 11
117.3803935224
 21
83.3489950873
  0
LINE
  5
23E
100
AcDbEntity
  8
0
100
AcDbLine
 62
7
  6
CONTINUOUS
 10
117.1014175883
 20
83.8321955788
 11
117.0766844746
 21
84.2884311563
  0
LINE
  5
23F
100
AcDbEntity
  8
ASSI
100
AcDbLine
 62
7
  6
CONTINUOUS
 10
117.1014175883
 20
83.8321955788
 11
117.0766844746
 21
84.2884311563
  0
LINE
  5
240
100
AcDbEntity
  8
0
100
AcDbLine
 62
7
  6
CONTINUOUS
 10
117.3803935224
 20
83.3489950873
 11
117.7630828223
 21
83.0995543452
  0
LINE
  5
241
100
AcDbEntity
  8
ASSI
100
AcDbLine
 62
7
  6
CONTINUOUS
 10
117.3803935224
 20
83.3489950873
 11
117.7630828223
 21
83.0995543452
  0
LINE
  5
242
100
AcDbEntity
  8
0
100
AcDbLine
 62
7
  6
CONTINUOUS
 10
117.1014175883
 20
154.6638291782
 11
117.0766844746
 21
155.8438624877
  0
LINE
  5
243
100
AcDbEntity
  8
ASSI
100
AcDbLine
 62
7
  6
CONTINUOUS
 10
117.1014175883
 20
154.6638291782
 11
117.0766844746
 21
155.8438624877
  0
LINE
  5
244
100
AcDbEntity
  8
0
100
AcDbLine
 62
7
  6
CONTINUOUS
 10
117.0766844746
 20
84.2884311563
 11
117.0763091671
 21
84.312624017
  0
LINE
  5
245
100
AcDbEntity
  8
ASSI
100
AcDbLine
 62
7
  6
CONTINUOUS
 10
117.0766844746
 20
84.2884311563
 11
117.0763091671
 21
84.312624017
  0
LINE
  5
246
100
AcDbEntity
  8
0
100
AcDbLine
 62
7
  6
CONTINUOUS
 10
117.0763091671
 20
155.8444988492
 11
117.0763091671
 21
84.312624017
  0
LINE
  5
247
100
AcDbEntity
  8
ASSI
100
AcDbLine
 62
7
  6
CONTINUOUS
 10
117.0763091671
 20
155.8444988492
 11
117.0763091671
 21
84.312624017
  0
LINE
  5
248
100
AcDbEntity
  8
0
100
AcDbLine
 62
7
  6
CONTINUOUS
 10
117.1014175883
 20
154.6638291782
 11
117.1014175883
 21
83.8321955788
  0
LINE
  5
249
100
AcDbEntity
  8
ASSI
100
AcDbLine
 62
7
  6
CONTINUOUS
 10
117.1014175883
 20
154.6638291782
 11
117.1014175883
 21
83.8321955788
  0
LINE
  5
24A
100
AcDbEntity
  8
0
100
AcDbLine
 62
7
  6
CONTINUOUS
 10
117.7838464364
 20
83.0871335196
 11
179.734263007
 21
47.3177394128
  0
LINE
  5
24B
100
AcDbEntity
  8
ASSI
100
AcDbLine
 62
7
  6
CONTINUOUS
 10
117.7838464364
 20
83.0871335196
 11
179.734263007
 21
47.3177394128
  0
LINE
  5
24C
100
AcDbEntity
  8
0
100
AcDbLine
 62
7
  6
CONTINUOUS
 10
117.3803935224
 20
83.3489950873
 11
178.7243638594
 21
47.9297554352
  0
LINE
  5
24D
100
AcDbEntity
  8
ASSI
100
AcDbLine
 62
7
  6
CONTINUOUS
 10
117.3803935224
 20
83.3489950873
 11
178.7243638594
 21
47.9297554352
  0
LINE
  5
24E
100
AcDbEntity
  8
0
100
AcDbLine
 62
7
  6
CONTINUOUS
 10
117.7838464364
 20
83.0871335196
 11
117.7630828223
 21
83.0995543452
  0
LINE
  5
24F
100
AcDbEntity
  8
ASSI
100
AcDbLine
 62
7
  6
CONTINUOUS
 10
117.7838464364
 20
83.0871335196
 11
117.7630828223
 21
83.0995543452
  0
LINE
  5
250
100
AcDbEntity
  8
0
100
AcDbLine
 62
7
  6
CONTINUOUS
 10
178.7243638594
 20
47.9297554352
 11
179.7339005768
 21
47.3183808505
  0
LINE
  5
251
100
AcDbEntity
  8
ASSI
100
AcDbLine
 62
7
  6
CONTINUOUS
 10
178.7243638594
 20
47.9297554352
 11
179.7339005768
 21
47.3183808505
  0
LWPOLYLINE
  5
252
100
AcDbEntity
  8
0
100
AcDbPolyline
 62
7
  6
CONTINUOUS
 90
46
 70
0
 10
137.8700410418
 20
108.2363285124
 10
137.8739435826
 20
108.0563129373
 10
137.8853953904
 20
107.8732523655
 10
137.9043964654
 20
107.687146797
 10
137.9310314439
 20
107.4975191951
 10
137.9652156895
 20
107.3048465965
 10
138.0066952926
 20
107.1105601117
 10
138.0555245752
 20
106.9146477235
 10
138.1116492152
 20
106.717121449
 10
138.1746523368
 20
106.5194484502
 10
138.2445851579
 20
106.3216276347
 10
138.3213964606
 20
106.1236600949
 10
138.4045157151
 20
105.9270162703
 10
138.4939898911
 20
105.7317060176
 10
138.5897720189
 20
105.5377194802
 10
138.6911506595
 20
105.3464975279
 10
138.7981674852
 20
105.1580607463
 10
138.9107808236
 20
104.97238855
 10
139.028154219
 20
104.7908600525
 10
139.1503231152
 20
104.6135061083
 10
139.2772520684
 20
104.440295863
 10
139.4079982909
 20
104.2725158669
 10
139.5425902065
 20
104.1102065543
 10
139.6809993913
 20
103.9533274908
 10
139.8221977863
 20
103.803043924
 10
139.9662061603
 20
103.6594049646
 10
140.1130037443
 20
103.522361502
 10
140.2615001731
 20
103.392931451
 10
140.4117080962
 20
103.2711715019
 10
140.5636148641
 20
103.1570249646
 10
140.7160921617
 20
103.0513396829
 10
140.8691442373
 20
102.9541786602
 10
141.0227668427
 20
102.8654788932
 10
141.1758189183
 20
102.7858992153
 10
141.3282962159
 20
102.7155075358
 10
141.4802029837
 20
102.6542359453
 10
141.6304109069
 20
102.6025395497
 10
141.7789073356
 20
102.5604896471
 10
141.9257049197
 20
102.5280149393
 10
142.0697132936
 20
102.5053566381
 10
142.2109116886
 20
102.4925878376
 10
142.3493208735
 20
102.4896354438
 10
142.4839127891
 20
102.496521386
 10
142.6146590115
 20
102.5133189216
 10
142.7415879647
 20
102.5399547933
 10
142.8567123736
 20
102.5741393952
  0
LWPOLYLINE
  5
253
100
AcDbEntity
  8
ASSI
100
AcDbPolyline
 62
7
  6
CONTINUOUS
 90
46
 70
0
 10
137.8700410418
 20
108.2363285124
 10
137.8739435826
 20
108.0563129373
 10
137.8853953904
 20
107.8732523655
 10
137.9043964654
 20
107.687146797
 10
137.9310314439
 20
107.4975191951
 10
137.9652156895
 20
107.3048465965
 10
138.0066952926
 20
107.1105601117
 10
138.0555245752
 20
106.9146477235
 10
138.1116492152
 20
106.717121449
 10
138.1746523368
 20
106.5194484502
 10
138.2445851579
 20
106.3216276347
 10
138.3213964606
 20
106.1236600949
 10
138.4045157151
 20
105.9270162703
 10
138.4939898911
 20
105.7317060176
 10
138.5897720189
 20
105.5377194802
 10
138.6911506595
 20
105.3464975279
 10
138.7981674852
 20
105.1580607463
 10
138.9107808236
 20
104.97238855
 10
139.028154219
 20
104.7908600525
 10
139.1503231152
 20
104.6135061083
 10
139.2772520684
 20
104.440295863
 10
139.4079982909
 20
104.2725158669
 10
139.5425902065
 20
104.1102065543
 10
139.6809993913
 20
103.9533274908
 10
139.8221977863
 20
103.803043924
 10
139.9662061603
 20
103.6594049646
 10
140.1130037443
 20
103.522361502
 10
140.2615001731
 20
103.392931451
 10
140.4117080962
 20
103.2711715019
 10
140.5636148641
 20
103.1570249646
 10
140.7160921617
 20
103.0513396829
 10
140.8691442373
 20
102.9541786602
 10
141.0227668427
 20
102.8654788932
 10
141.1758189183
 20
102.7858992153
 10
141.3282962159
 20
102.7155075358
 10
141.4802029837
 20
102.6542359453
 10
141.6304109069
 20
102.6025395497
 10
141.7789073356
 20
102.5604896471
 10
141.9257049197
 20
102.5280149393
 10
142.0697132936
 20
102.5053566381
 10
142.2109116886
 20
102.4925878376
 10
142.3493208735
 20
102.4896354438
 10
142.4839127891
 20
102.496521386
 10
142.6146590115
 20
102.5133189216
 10
142.7415879647
 20
102.5399547933
 10
142.8567123736
 20
102.5741393952
  0
LWPOLYLINE
  5
254
100
AcDbEntity
  8
0
100
AcDbPolyline
 62
7
  6
CONTINUOUS
 90
17
 70
0
 10
137.375066295
 20
107.9505362971
 10
137.3788891825
 20
108.1253473565
 10
137.3903485979
 20
108.2953121158
 10
137.4094164382
 20
108.4600078267
 10
137.4360457639
 20
108.6190252152
 10
137.4701707133
 20
108.7719682356
 10
137.5117064674
 20
108.9184552215
 10
137.5605499229
 20
109.0581217223
 10
137.6165798679
 20
109.1906204305
 10
137.6796568065
 20
109.3156210381
 10
137.7496239326
 20
109.4328126244
 10
137.8263073969
 20
109.5419038424
 10
137.909516285
 20
109.6426230316
 10
137.9990435742
 20
109.7347196729
 10
138.0946667859
 20
109.8179649677
 10
138.1961482356
 20
109.8921520146
 10
138.2758756965
 20
109.941691643
  0
LWPOLYLINE
  5
255
100
AcDbEntity
  8
ASSI
100
AcDbPolyline
 62
7
  6
CONTINUOUS
 90
17
 70
0
 10
137.375066295
 20
107.9505362971
 10
137.3788891825
 20
108.1253473565
 10
137.3903485979
 20
108.2953121158
 10
137.4094164382
 20
108.4600078267
 10
137.4360457639
 20
108.6190252152
 10
137.4701707133
 20
108.7719682356
 10
137.5117064674
 20
108.9184552215
 10
137.5605499229
 20
109.0581217223
 10
137.6165798679
 20
109.1906204305
 10
137.6796568065
 20
109.3156210381
 10
137.7496239326
 20
109.4328126244
 10
137.8263073969
 20
109.5419038424
 10
137.909516285
 20
109.6426230316
 10
137.9990435742
 20
109.7347196729
 10
138.0946667859
 20
109.8179649677
 10
138.1961482356
 20
109.8921520146
 10
138.2758756965
 20
109.941691643
  0
LWPOLYLINE
  5
256
100
AcDbEntity
  8
0
100
AcDbPolyline
 62
7
  6
CONTINUOUS
 90
33
 70
0
 10
136.6679595138
 20
107.9505362971
 10
136.6723090612
 20
108.1462009171
 10
136.6850751921
 20
108.3355446413
 10
136.7062579066
 20
108.5185674696
 10
136.7359513435
 20
108.695693025
 10
136.774061364
 20
108.8664976846
 10
136.8203055508
 20
109.0297105796
 10
136.8747446716
 20
109.1852748669
 10
136.9373179586
 20
109.3332473896
 10
137.0075606921
 20
109.4725278092
 10
137.0855300791
 20
109.6030511634
 10
137.1711689126
 20
109.7248824144
 10
137.2638408511
 20
109.8371161101
 10
137.3635981652
 20
109.939680577
 10
137.4703885842
 20
110.0326474885
 10
137.5834189555
 20
110.1153264128
 10
137.7027356675
 20
110.1876407714
 10
137.8282923316
 20
110.2496671428
 10
137.9591566297
 20
110.3009448305
 10
138.0953681618
 20
110.3413938693
 10
138.2368873278
 20
110.3710942245
 10
138.382663009
 20
110.3898250957
 10
138.5327269682
 20
110.3975047789
 10
138.6870474426
 20
110.3942149781
 10
138.8444780247
 20
110.3799800047
 10
139.0050418618
 20
110.3547183228
 10
139.1687158066
 20
110.3185114682
 10
139.3342840099
 20
110.2716283602
 10
139.5017605571
 20
110.213989491
 10
139.6711313628
 20
110.1456743684
 10
139.8411383224
 20
110.0671904346
 10
140.0117861707
 20
109.9784619654
 10
140.0970965886
 20
109.9304763513
  0
LWPOLYLINE
  5
257
100
AcDbEntity
  8
ASSI
100
AcDbPolyline
 62
7
  6
CONTINUOUS
 90
33
 70
0
 10
136.6679595138
 20
107.9505362971
 10
136.6723090612
 20
108.1462009171
 10
136.6850751921
 20
108.3355446413
 10
136.7062579066
 20
108.5185674696
 10
136.7359513435
 20
108.695693025
 10
136.774061364
 20
108.8664976846
 10
136.8203055508
 20
109.0297105796
 10
136.8747446716
 20
109.1852748669
 10
136.9373179586
 20
109.3332473896
 10
137.0075606921
 20
109.4725278092
 10
137.0855300791
 20
109.6030511634
 10
137.1711689126
 20
109.7248824144
 10
137.2638408511
 20
109.8371161101
 10
137.3635981652
 20
109.939680577
 10
137.4703885842
 20
110.0326474885
 10
137.5834189555
 20
110.1153264128
 10
137.7027356675
 20
110.1876407714
 10
137.8282923316
 20
110.2496671428
 10
137.9591566297
 20
110.3009448305
 10
138.0953681618
 20
110.3413938693
 10
138.2368873278
 20
110.3710942245
 10
138.382663009
 20
110.3898250957
 10
138.5327269682
 20
110.3975047789
 10
138.6870474426
 20
110.3942149781
 10
138.8444780247
 20
110.3799800047
 10
139.0050418618
 20
110.3547183228
 10
139.1687158066
 20
110.3185114682
 10
139.3342840099
 20
110.2716283602
 10
139.5017605571
 20
110.213989491
 10
139.6711313628
 20
110.1456743684
 10
139.8411383224
 20
110.0671904346
 10
140.0117861707
 20
109.9784619654
 10
140.0970965886
 20
109.9304763513
  0
LWPOLYLINE
  5
258
100
AcDbEntity
  8
0
100
AcDbPolyline
 62
7
  6
CONTINUOUS
 90
13
 70
0
 10
138.4045157151
 20
109.9284427988
 10
138.3213964606
 20
109.8277830059
 10
138.2445851579
 20
109.7185152331
 10
138.1746523368
 20
109.6014510864
 10
138.1116492152
 20
109.4765325133
 10
138.0555245752
 20
109.3438175663
 10
138.0066952926
 20
109.2042920096
 10
137.9652156895
 20
109.0579051307
 10
137.9310314439
 20
108.9047076421
 10
137.9043964654
 20
108.7458374458
 10
137.8853953904
 20
108.5816738424
 10
137.8739435826
 20
108.4118375313
 10
137.8700410418
 20
108.2363285124
  0
LWPOLYLINE
  5
259
100
AcDbEntity
  8
ASSI
100
AcDbPolyline
 62
7
  6
CONTINUOUS
 90
13
 70
0
 10
138.4045157151
 20
109.9284427988
 10
138.3213964606
 20
109.8277830059
 10
138.2445851579
 20
109.7185152331
 10
138.1746523368
 20
109.6014510864
 10
138.1116492152
 20
109.4765325133
 10
138.0555245752
 20
109.3438175663
 10
138.0066952926
 20
109.2042920096
 10
137.9652156895
 20
109.0579051307
 10
137.9310314439
 20
108.9047076421
 10
137.9043964654
 20
108.7458374458
 10
137.8853953904
 20
108.5816738424
 10
137.8739435826
 20
108.4118375313
 10
137.8700410418
 20
108.2363285124
  0
LWPOLYLINE
  5
25A
100
AcDbEntity
  8
0
100
AcDbPolyline
 62
7
  6
CONTINUOUS
 90
3
 70
0
 10
138.5403276001
 20
110.0607681663
 10
138.4939898911
 20
110.0204305158
 10
138.4045157151
 20
109.9284427988
  0
LWPOLYLINE
  5
25B
100
AcDbEntity
  8
ASSI
100
AcDbPolyline
 62
7
  6
CONTINUOUS
 90
3
 70
0
 10
138.5403276001
 20
110.0607681663
 10
138.4939898911
 20
110.0204305158
 10
138.4045157151
 20
109.9284427988
  0
LWPOLYLINE
  5
25C
100
AcDbEntity
  8
0
100
AcDbPolyline
 62
7
  6
CONTINUOUS
 90
15
 70
0
 10
138.2758756965
 20
109.941691643
 10
138.30323557
 20
109.9570963447
 10
138.4156625937
 20
110.0126365321
 10
138.53315003
 20
110.0586345776
 10
138.6554058915
 20
110.0949760859
 10
138.7821261763
 20
110.1215706154
 10
138.9129958597
 20
110.1383519903
 10
139.0476896495
 20
110.1452784311
 10
139.1858726328
 20
110.1423326501
 10
139.3272011005
 20
110.1295219345
 10
139.4713236511
 20
110.106878118
 10
139.6178819935
 20
110.0744574752
 10
139.766511662
 20
110.0323406175
 10
139.9168431018
 20
109.9806322625
 10
140.0685025735
 20
109.91946096
  0
LWPOLYLINE
  5
25D
100
AcDbEntity
  8
ASSI
100
AcDbPolyline
 62
7
  6
CONTINUOUS
 90
15
 70
0
 10
138.2758756965
 20
109.941691643
 10
138.30323557
 20
109.9570963447
 10
138.4156625937
 20
110.0126365321
 10
138.53315003
 20
110.0586345776
 10
138.6554058915
 20
110.0949760859
 10
138.7821261763
 20
110.1215706154
 10
138.9129958597
 20
110.1383519903
 10
139.0476896495
 20
110.1452784311
 10
139.1858726328
 20
110.1423326501
 10
139.3272011005
 20
110.1295219345
 10
139.4713236511
 20
110.106878118
 10
139.6178819935
 20
110.0744574752
 10
139.766511662
 20
110.0323406175
 10
139.9168431018
 20
109.9806322625
 10
140.0685025735
 20
109.91946096
  0
LWPOLYLINE
  5
25E
100
AcDbEntity
  8
0
100
AcDbPolyline
 62
7
  6
CONTINUOUS
 90
64
 70
0
 10
143.5268952913
 20
103.9902727418
 10
143.5225457439
 20
103.7946081217
 10
143.509779613
 20
103.6052643976
 10
143.4885968985
 20
103.4222415692
 10
143.4589034616
 20
103.2451160138
 10
143.4207934411
 20
103.0743113543
 10
143.3745492542
 20
102.9110984592
 10
143.3201101335
 20
102.755534172
 10
143.2575368465
 20
102.6075616492
 10
143.187294113
 20
102.4682812296
 10
143.1093247259
 20
102.3377578754
 10
143.0236858925
 20
102.2159266244
 10
142.931013954
 20
102.1036929287
 10
142.8312566399
 20
102.0011284619
 10
142.7244662208
 20
101.9081615504
 10
142.6114358496
 20
101.8254826261
 10
142.4921191376
 20
101.7531682675
 10
142.3665624735
 20
101.6911418961
 10
142.2356981754
 20
101.6398642083
 10
142.0994866433
 20
101.5994151695
 10
141.9579674773
 20
101.5697148143
 10
141.8121917961
 20
101.5509839431
 10
141.6621278369
 20
101.5433042599
 10
141.5078073625
 20
101.5465940607
 10
141.3503767804
 20
101.5608290341
 10
141.1898129433
 20
101.5860907161
 10
141.0261389985
 20
101.6222975706
 10
140.8605707952
 20
101.6691806786
 10
140.693094248
 20
101.7268195478
 10
140.5237234423
 20
101.7951346704
 10
140.3537164826
 20
101.8736186043
 10
140.1830686344
 20
101.9623470734
 10
140.0117846322
 20
102.0612443538
 10
139.8411367852
 20
102.1695758305
 10
139.6711298278
 20
102.2874117602
 10
139.5017590255
 20
102.4146818861
 10
139.3342824833
 20
102.5504408234
 10
139.1687142843
 20
102.6947518169
 10
139.0050403455
 20
102.8475516217
 10
138.8444765225
 20
103.0077051175
 10
138.6870459634
 20
103.1752671111
 10
138.53272552
 20
103.3501827957
 10
138.3826616033
 20
103.5311526314
 10
138.2368859853
 20
103.7182216287
 10
138.0953668938
 20
103.9113447772
 10
137.9591554239
 20
104.1090875057
 10
137.8282911664
 20
104.3114840591
 10
137.7027345305
 20
104.5185001926
 10
137.5834178379
 20
104.7285986009
 10
137.470387469
 20
104.9418023159
 10
137.3635970435
 20
105.1580883058
 10
137.2638397427
 20
105.3758501692
 10
137.1711678457
 20
105.5950992152
 10
137.0855290735
 20
105.8158241347
 10
137.00755977
 20
106.0363846
 10
136.9373171507
 20
106.2567794965
 10
136.874744
 20
106.4770099388
 10
136.8203050154
 20
106.6954389433
 10
136.7740609655
 20
106.9120531637
 10
136.7359510817
 20
107.1268659463
 10
136.7062577554
 20
107.3382803455
 10
136.6850751173
 20
107.5457640461
 10
136.6723090368
 20
107.7498493633
 10
136.6679595138
 20
107.9505362971
  0
LWPOLYLINE
  5
25F
100
AcDbEntity
  8
ASSI
100
AcDbPolyline
 62
7
  6
CONTINUOUS
 90
64
 70
0
 10
143.5268952913
 20
103.9902727418
 10
143.5225457439
 20
103.7946081217
 10
143.509779613
 20
103.6052643976
 10
143.4885968985
 20
103.4222415692
 10
143.4589034616
 20
103.2451160138
 10
143.4207934411
 20
103.0743113543
 10
143.3745492542
 20
102.9110984592
 10
143.3201101335
 20
102.755534172
 10
143.2575368465
 20
102.6075616492
 10
143.187294113
 20
102.4682812296
 10
143.1093247259
 20
102.3377578754
 10
143.0236858925
 20
102.2159266244
 10
142.931013954
 20
102.1036929287
 10
142.8312566399
 20
102.0011284619
 10
142.7244662208
 20
101.9081615504
 10
142.6114358496
 20
101.8254826261
 10
142.4921191376
 20
101.7531682675
 10
142.3665624735
 20
101.6911418961
 10
142.2356981754
 20
101.6398642083
 10
142.0994866433
 20
101.5994151695
 10
141.9579674773
 20
101.5697148143
 10
141.8121917961
 20
101.5509839431
 10
141.6621278369
 20
101.5433042599
 10
141.5078073625
 20
101.5465940607
 10
141.3503767804
 20
101.5608290341
 10
141.1898129433
 20
101.5860907161
 10
141.0261389985
 20
101.6222975706
 10
140.8605707952
 20
101.6691806786
 10
140.693094248
 20
101.7268195478
 10
140.5237234423
 20
101.7951346704
 10
140.3537164826
 20
101.8736186043
 10
140.1830686344
 20
101.9623470734
 10
140.0117846322
 20
102.0612443538
 10
139.8411367852
 20
102.1695758305
 10
139.6711298278
 20
102.2874117602
 10
139.5017590255
 20
102.4146818861
 10
139.3342824833
 20
102.5504408234
 10
139.1687142843
 20
102.6947518169
 10
139.0050403455
 20
102.8475516217
 10
138.8444765225
 20
103.0077051175
 10
138.6870459634
 20
103.1752671111
 10
138.53272552
 20
103.3501827957
 10
138.3826616033
 20
103.5311526314
 10
138.2368859853
 20
103.7182216287
 10
138.0953668938
 20
103.9113447772
 10
137.9591554239
 20
104.1090875057
 10
137.8282911664
 20
104.3114840591
 10
137.7027345305
 20
104.5185001926
 10
137.5834178379
 20
104.7285986009
 10
137.470387469
 20
104.9418023159
 10
137.3635970435
 20
105.1580883058
 10
137.2638397427
 20
105.3758501692
 10
137.1711678457
 20
105.5950992152
 10
137.0855290735
 20
105.8158241347
 10
137.00755977
 20
106.0363846
 10
136.9373171507
 20
106.2567794965
 10
136.874744
 20
106.4770099388
 10
136.8203050154
 20
106.6954389433
 10
136.7740609655
 20
106.9120531637
 10
136.7359510817
 20
107.1268659463
 10
136.7062577554
 20
107.3382803455
 10
136.6850751173
 20
107.5457640461
 10
136.6723090368
 20
107.7498493633
 10
136.6679595138
 20
107.9505362971
  0
LINE
  5
260
100
AcDbEntity
  8
0
100
AcDbLine
 62
7
  6
CONTINUOUS
 10
143.5217356812
 20
104.2039101567
 11
143.5116129884
 21
104.0537715164
  0
LINE
  5
261
100
AcDbEntity
  8
ASSI
100
AcDbLine
 62
7
  6
CONTINUOUS
 10
143.5217356812
 20
104.2039101567
 11
143.5116129884
 21
104.0537715164
  0
LWPOLYLINE
  5
262
100
AcDbEntity
  8
0
100
AcDbPolyline
 62
7
  6
CONTINUOUS
 90
15
 70
0
 10
143.5116129884
 20
104.0537715164
 10
143.4925451481
 20
103.8890758054
 10
143.4659158224
 20
103.730058417
 10
143.431790873
 20
103.5771153966
 10
143.3902551189
 20
103.4306284107
 10
143.3414116633
 20
103.2909619099
 10
143.2853817184
 20
103.1584632016
 10
143.2223047797
 20
103.033462594
 10
143.1523376537
 20
102.9162710078
 10
143.0756541894
 20
102.8071797897
 10
142.9924453012
 20
102.7064606006
 10
142.9029180121
 20
102.6143639592
 10
142.8072948004
 20
102.5311186644
 10
142.7058133507
 20
102.4569316176
 10
142.6260858897
 20
102.4073919891
  0
LWPOLYLINE
  5
263
100
AcDbEntity
  8
ASSI
100
AcDbPolyline
 62
7
  6
CONTINUOUS
 90
15
 70
0
 10
143.5116129884
 20
104.0537715164
 10
143.4925451481
 20
103.8890758054
 10
143.4659158224
 20
103.730058417
 10
143.431790873
 20
103.5771153966
 10
143.3902551189
 20
103.4306284107
 10
143.3414116633
 20
103.2909619099
 10
143.2853817184
 20
103.1584632016
 10
143.2223047797
 20
103.033462594
 10
143.1523376537
 20
102.9162710078
 10
143.0756541894
 20
102.8071797897
 10
142.9924453012
 20
102.7064606006
 10
142.9029180121
 20
102.6143639592
 10
142.8072948004
 20
102.5311186644
 10
142.7058133507
 20
102.4569316176
 10
142.6260858897
 20
102.4073919891
  0
LINE
  5
264
100
AcDbEntity
  8
0
100
AcDbLine
 62
7
  6
CONTINUOUS
 10
179.734263007
 20
120.4835489363
 11
183.7961959918
 21
122.8288428385
  0
LINE
  5
265
100
AcDbEntity
  8
ASSI
100
AcDbLine
 62
7
  6
CONTINUOUS
 10
179.734263007
 20
120.4835489363
 11
183.7961959918
 21
122.8288428385
  0
LWPOLYLINE
  5
266
100
AcDbEntity
  8
0
100
AcDbPolyline
 62
7
  6
CONTINUOUS
 90
49
 70
0
 10
142.6260858897
 20
102.4073919891
 10
142.5987260163
 20
102.3919872874
 10
142.4862989926
 20
102.3364471
 10
142.3688115563
 20
102.2904490546
 10
142.2465556948
 20
102.2541075463
 10
142.11983541
 20
102.2275130167
 10
141.9889657266
 20
102.2107316419
 10
141.8542719368
 20
102.2038052011
 10
141.7160889534
 20
102.2067509821
 10
141.5747604858
 20
102.2195616977
 10
141.4306379352
 20
102.2422055141
 10
141.2840795928
 20
102.274626157
 10
141.1354499242
 20
102.3167430147
 10
140.9851184845
 20
102.3684513696
 10
140.8334590128
 20
102.4296226721
 10
140.6808485922
 20
102.50010483
 10
140.5276666542
 20
102.5797226065
 10
140.3742940472
 20
102.668278053
 10
140.2211121081
 20
102.7655509908
 10
140.0685016845
 20
102.8712995749
 10
139.9168422089
 20
102.9852608843
 10
139.7665107664
 20
103.1071515636
 10
139.6178810959
 20
103.2366685784
 10
139.4713227529
 20
103.3734898928
 10
139.3272002071
 20
103.5172752389
 10
139.1858717519
 20
103.6676671421
 10
139.047688786
 20
103.8242916488
 10
138.9129950155
 20
103.9867591423
 10
138.7821253554
 20
104.1546655832
 10
138.6554050956
 20
104.3275935553
 10
138.5331492523
 20
104.5051131129
 10
138.4156618265
 20
104.6867827644
 10
138.3032348089
 20
104.8721509326
 10
138.1961474755
 20
105.0607571205
 10
138.0946660177
 20
105.2521325175
 10
137.999042797
 20
105.4458012331
 10
137.9095155132
 20
105.6412818634
 10
137.8263066433
 20
105.838088697
 10
137.7496232098
 20
106.0357321485
 10
137.6796561366
 20
106.2337200612
 10
137.6165792703
 20
106.4315603252
 10
137.5605494102
 20
106.6287609501
 10
137.5117060502
 20
106.8248305291
 10
137.4701703969
 20
107.0192817773
 10
137.4360455451
 20
107.2116311928
 10
137.4094163061
 20
107.4013991717
 10
137.3903485351
 20
107.5881136191
 10
137.3788891658
 20
107.7713110593
 10
137.375066295
 20
107.9505362971
  0
LWPOLYLINE
  5
267
100
AcDbEntity
  8
ASSI
100
AcDbPolyline
 62
7
  6
CONTINUOUS
 90
49
 70
0
 10
142.6260858897
 20
102.4073919891
 10
142.5987260163
 20
102.3919872874
 10
142.4862989926
 20
102.3364471
 10
142.3688115563
 20
102.2904490546
 10
142.2465556948
 20
102.2541075463
 10
142.11983541
 20
102.2275130167
 10
141.9889657266
 20
102.2107316419
 10
141.8542719368
 20
102.2038052011
 10
141.7160889534
 20
102.2067509821
 10
141.5747604858
 20
102.2195616977
 10
141.4306379352
 20
102.2422055141
 10
141.2840795928
 20
102.274626157
 10
141.1354499242
 20
102.3167430147
 10
140.9851184845
 20
102.3684513696
 10
140.8334590128
 20
102.4296226721
 10
140.6808485922
 20
102.50010483
 10
140.5276666542
 20
102.5797226065
 10
140.3742940472
 20
102.668278053
 10
140.2211121081
 20
102.7655509908
 10
140.0685016845
 20
102.8712995749
 10
139.9168422089
 20
102.9852608843
 10
139.7665107664
 20
103.1071515636
 10
139.6178810959
 20
103.2366685784
 10
139.4713227529
 20
103.3734898928
 10
139.3272002071
 20
103.5172752389
 10
139.1858717519
 20
103.6676671421
 10
139.047688786
 20
103.8242916488
 10
138.9129950155
 20
103.9867591423
 10
138.7821253554
 20
104.1546655832
 10
138.6554050956
 20
104.3275935553
 10
138.5331492523
 20
104.5051131129
 10
138.4156618265
 20
104.6867827644
 10
138.3032348089
 20
104.8721509326
 10
138.1961474755
 20
105.0607571205
 10
138.0946660177
 20
105.2521325175
 10
137.999042797
 20
105.4458012331
 10
137.9095155132
 20
105.6412818634
 10
137.8263066433
 20
105.838088697
 10
137.7496232098
 20
106.0357321485
 10
137.6796561366
 20
106.2337200612
 10
137.6165792703
 20
106.4315603252
 10
137.5605494102
 20
106.6287609501
 10
137.5117060502
 20
106.8248305291
 10
137.4701703969
 20
107.0192817773
 10
137.4360455451
 20
107.2116311928
 10
137.4094163061
 20
107.4013991717
 10
137.3903485351
 20
107.5881136191
 10
137.3788891658
 20
107.7713110593
 10
137.375066295
 20
107.9505362971
  0
LWPOLYLINE
  5
268
100
AcDbEntity
  8
0
100
AcDbPolyline
 62
7
  6
CONTINUOUS
 90
3
 70
0
 10
155.9784051502
 20
100.7332826102
 10
156.1310155708
 20
100.6628004522
 10
156.1869435056
 20
100.6337313736
  0
LWPOLYLINE
  5
269
100
AcDbEntity
  8
ASSI
100
AcDbPolyline
 62
7
  6
CONTINUOUS
 90
3
 70
0
 10
155.9784051502
 20
100.7332826102
 10
156.1310155708
 20
100.6628004522
 10
156.1869435056
 20
100.6337313736
  0
LWPOLYLINE
  5
26A
100
AcDbEntity
  8
0
100
AcDbPolyline
 62
7
  6
CONTINUOUS
 90
33
 70
0
 10
140.0970965886
 20
109.9304763513
 10
140.1830701728
 20
109.879564685
 10
140.3537180199
 20
109.7712332084
 10
140.5237249773
 20
109.6533972787
 10
140.6930957796
 20
109.5261271527
 10
140.8605723218
 20
109.3903682154
 10
141.0261405208
 20
109.2460572219
 10
141.1898144596
 20
109.0932574171
 10
141.3503782826
 20
108.9331039213
 10
141.5078088417
 20
108.7655419278
 10
141.662129285
 20
108.5906262432
 10
141.8121932017
 20
108.4096564074
 10
141.9579688198
 20
108.2225874101
 10
142.0994879113
 20
108.0294642616
 10
142.2356993812
 20
107.8317215331
 10
142.3665636387
 20
107.6293249797
 10
142.4921202746
 20
107.4223088462
 10
142.6114369672
 20
107.2122104379
 10
142.7244673361
 20
106.9990067229
 10
142.8312577616
 20
106.782720733
 10
142.9310150624
 20
106.5649588696
 10
143.0236869593
 20
106.3457098237
 10
143.1093257316
 20
106.1249849042
 10
143.1872950351
 20
105.9044244388
 10
143.2575376544
 20
105.6840295423
 10
143.3201108051
 20
105.4637991
 10
143.3745497897
 20
105.2453700955
 10
143.4207938396
 20
105.0287558751
 10
143.4589037234
 20
104.8139430925
 10
143.4885970496
 20
104.6025286934
 10
143.5097796878
 20
104.3950449928
 10
143.5225457683
 20
104.1909596756
 10
143.5268952913
 20
103.9902727418
  0
LWPOLYLINE
  5
26B
100
AcDbEntity
  8
ASSI
100
AcDbPolyline
 62
7
  6
CONTINUOUS
 90
33
 70
0
 10
140.0970965886
 20
109.9304763513
 10
140.1830701728
 20
109.879564685
 10
140.3537180199
 20
109.7712332084
 10
140.5237249773
 20
109.6533972787
 10
140.6930957796
 20
109.5261271527
 10
140.8605723218
 20
109.3903682154
 10
141.0261405208
 20
109.2460572219
 10
141.1898144596
 20
109.0932574171
 10
141.3503782826
 20
108.9331039213
 10
141.5078088417
 20
108.7655419278
 10
141.662129285
 20
108.5906262432
 10
141.8121932017
 20
108.4096564074
 10
141.9579688198
 20
108.2225874101
 10
142.0994879113
 20
108.0294642616
 10
142.2356993812
 20
107.8317215331
 10
142.3665636387
 20
107.6293249797
 10
142.4921202746
 20
107.4223088462
 10
142.6114369672
 20
107.2122104379
 10
142.7244673361
 20
106.9990067229
 10
142.8312577616
 20
106.782720733
 10
142.9310150624
 20
106.5649588696
 10
143.0236869593
 20
106.3457098237
 10
143.1093257316
 20
106.1249849042
 10
143.1872950351
 20
105.9044244388
 10
143.2575376544
 20
105.6840295423
 10
143.3201108051
 20
105.4637991
 10
143.3745497897
 20
105.2453700955
 10
143.4207938396
 20
105.0287558751
 10
143.4589037234
 20
104.8139430925
 10
143.4885970496
 20
104.6025286934
 10
143.5097796878
 20
104.3950449928
 10
143.5225457683
 20
104.1909596756
 10
143.5268952913
 20
103.9902727418
  0
LINE
  5
26C
100
AcDbEntity
  8
0
100
AcDbLine
 62
7
  6
CONTINUOUS
 10
117.0763091671
 20
155.8444988492
 11
117.0766844746
 21
155.8438624877
  0
LINE
  5
26D
100
AcDbEntity
  8
ASSI
100
AcDbLine
 62
7
  6
CONTINUOUS
 10
117.0763091671
 20
155.8444988492
 11
117.0766844746
 21
155.8438624877
  0
LINE
  5
26E
100
AcDbEntity
  8
0
100
AcDbLine
 62
7
  6
CONTINUOUS
 10
179.7339005768
 20
47.3183808505
 11
179.734263007
 21
47.3177394128
  0
LINE
  5
26F
100
AcDbEntity
  8
ASSI
100
AcDbLine
 62
7
  6
CONTINUOUS
 10
179.7339005768
 20
47.3183808505
 11
179.734263007
 21
47.3177394128
  0
LWPOLYLINE
  5
270
100
AcDbEntity
  8
0
100
AcDbPolyline
 62
7
  6
CONTINUOUS
 90
46
 70
0
 10
153.7799436185
 20
99.0501501625
 10
153.7838461593
 20
98.8701345874
 10
153.7952979671
 20
98.6870740156
 10
153.8142990421
 20
98.5009684471
 10
153.8409340206
 20
98.3113408452
 10
153.8751182662
 20
98.1186682467
 10
153.9165978693
 20
97.9243817618
 10
153.9654271519
 20
97.7284693736
 10
154.0215517919
 20
97.5309430991
 10
154.0845549135
 20
97.3332701004
 10
154.1544877346
 20
97.1354492848
 10
154.2312990373
 20
96.937481745
 10
154.3144182918
 20
96.7408379205
 10
154.4038924678
 20
96.5455276677
 10
154.4996745956
 20
96.3515411303
 10
154.6010532362
 20
96.1603191781
 10
154.7080700619
 20
95.9718823965
 10
154.8206834003
 20
95.7862102001
 10
154.9380567957
 20
95.6046817026
 10
155.0602256919
 20
95.4273277584
 10
155.1871546451
 20
95.2541175132
 10
155.3179008676
 20
95.0863375171
 10
155.4524927832
 20
94.9240282044
 10
155.590901968
 20
94.7671491409
 10
155.732100363
 20
94.6168655741
 10
155.876108737
 20
94.4732266148
 10
156.022906321
 20
94.3361831521
 10
156.1714027498
 20
94.2067531011
 10
156.3216106729
 20
94.0849931521
 10
156.4735174408
 20
93.9708466147
 10
156.6259947384
 20
93.865161333
 10
156.779046814
 20
93.7680003104
 10
156.9326694194
 20
93.6793005433
 10
157.085721495
 20
93.5997208654
 10
157.2381987926
 20
93.5293291859
 10
157.3901055604
 20
93.4680575954
 10
157.5403134836
 20
93.4163611999
 10
157.6888099123
 20
93.3743112972
 10
157.8356074964
 20
93.3418365894
 10
157.9796158703
 20
93.3191782882
 10
158.1208142653
 20
93.3064094877
 10
158.2592234502
 20
93.3034570939
 10
158.3938153657
 20
93.3103430361
 10
158.5245615882
 20
93.3271405718
 10
158.6514905414
 20
93.3537764435
 10
158.7666149503
 20
93.3879610453
  0
LWPOLYLINE
  5
271
100
AcDbEntity
  8
ASSI
100
AcDbPolyline
 62
7
  6
CONTINUOUS
 90
46
 70
0
 10
153.7799436185
 20
99.0501501625
 10
153.7838461593
 20
98.8701345874
 10
153.7952979671
 20
98.6870740156
 10
153.8142990421
 20
98.5009684471
 10
153.8409340206
 20
98.3113408452
 10
153.8751182662
 20
98.1186682467
 10
153.9165978693
 20
97.9243817618
 10
153.9654271519
 20
97.7284693736
 10
154.0215517919
 20
97.5309430991
 10
154.0845549135
 20
97.3332701004
 10
154.1544877346
 20
97.1354492848
 10
154.2312990373
 20
96.937481745
 10
154.3144182918
 20
96.7408379205
 10
154.4038924678
 20
96.5455276677
 10
154.4996745956
 20
96.3515411303
 10
154.6010532362
 20
96.1603191781
 10
154.7080700619
 20
95.9718823965
 10
154.8206834003
 20
95.7862102001
 10
154.9380567957
 20
95.6046817026
 10
155.0602256919
 20
95.4273277584
 10
155.1871546451
 20
95.2541175132
 10
155.3179008676
 20
95.0863375171
 10
155.4524927832
 20
94.9240282044
 10
155.590901968
 20
94.7671491409
 10
155.732100363
 20
94.6168655741
 10
155.876108737
 20
94.4732266148
 10
156.022906321
 20
94.3361831521
 10
156.1714027498
 20
94.2067531011
 10
156.3216106729
 20
94.0849931521
 10
156.4735174408
 20
93.9708466147
 10
156.6259947384
 20
93.865161333
 10
156.779046814
 20
93.7680003104
 10
156.9326694194
 20
93.6793005433
 10
157.085721495
 20
93.5997208654
 10
157.2381987926
 20
93.5293291859
 10
157.3901055604
 20
93.4680575954
 10
157.5403134836
 20
93.4163611999
 10
157.6888099123
 20
93.3743112972
 10
157.8356074964
 20
93.3418365894
 10
157.9796158703
 20
93.3191782882
 10
158.1208142653
 20
93.3064094877
 10
158.2592234502
 20
93.3034570939
 10
158.3938153657
 20
93.3103430361
 10
158.5245615882
 20
93.3271405718
 10
158.6514905414
 20
93.3537764435
 10
158.7666149503
 20
93.3879610453
  0
LWPOLYLINE
  5
272
100
AcDbEntity
  8
0
100
AcDbPolyline
 62
7
  6
CONTINUOUS
 90
17
 70
0
 10
153.2849688717
 20
98.7643579472
 10
153.2887917592
 20
98.9391690067
 10
153.3002511746
 20
99.1091337659
 10
153.3193190149
 20
99.2738294769
 10
153.3459483406
 20
99.4328468653
 10
153.38007329
 20
99.5857898857
 10
153.4216090441
 20
99.7322768716
 10
153.4704524996
 20
99.8719433724
 10
153.5264824446
 20
100.0044420806
 10
153.5895593832
 20
100.1294426882
 10
153.6595265093
 20
100.2466342745
 10
153.7362099736
 20
100.3557254926
 10
153.8194188617
 20
100.4564446817
 10
153.9089461509
 20
100.5485413231
 10
154.0045693626
 20
100.6317866179
 10
154.1060508123
 20
100.7059736647
 10
154.1857782732
 20
100.7555132932
  0
LWPOLYLINE
  5
273
100
AcDbEntity
  8
ASSI
100
AcDbPolyline
 62
7
  6
CONTINUOUS
 90
17
 70
0
 10
153.2849688717
 20
98.7643579472
 10
153.2887917592
 20
98.9391690067
 10
153.3002511746
 20
99.1091337659
 10
153.3193190149
 20
99.2738294769
 10
153.3459483406
 20
99.4328468653
 10
153.38007329
 20
99.5857898857
 10
153.4216090441
 20
99.7322768716
 10
153.4704524996
 20
99.8719433724
 10
153.5264824446
 20
100.0044420806
 10
153.5895593832
 20
100.1294426882
 10
153.6595265093
 20
100.2466342745
 10
153.7362099736
 20
100.3557254926
 10
153.8194188617
 20
100.4564446817
 10
153.9089461509
 20
100.5485413231
 10
154.0045693626
 20
100.6317866179
 10
154.1060508123
 20
100.7059736647
 10
154.1857782732
 20
100.7555132932
  0
LWPOLYLINE
  5
274
100
AcDbEntity
  8
0
100
AcDbPolyline
 62
7
  6
CONTINUOUS
 90
33
 70
0
 10
152.5778620905
 20
98.7643579472
 10
152.5822116379
 20
98.9600225672
 10
152.5949777688
 20
99.1493662914
 10
152.6161604833
 20
99.3323891197
 10
152.6458539202
 20
99.5095146751
 10
152.6839639407
 20
99.6803193347
 10
152.7302081275
 20
99.8435322298
 10
152.7846472483
 20
99.999096517
 10
152.8472205353
 20
100.1470690397
 10
152.9174632688
 20
100.2863494593
 10
152.9954326558
 20
100.4168728135
 10
153.0810714893
 20
100.5387040645
 10
153.1737434278
 20
100.6509377602
 10
153.2735007419
 20
100.7535022271
 10
153.3802911609
 20
100.8464691386
 10
153.4933215322
 20
100.9291480629
 10
153.6126382442
 20
101.0014624215
 10
153.7381949083
 20
101.0634887929
 10
153.8690592064
 20
101.1147664806
 10
154.0052707385
 20
101.1552155194
 10
154.1467899045
 20
101.1849158746
 10
154.2925655857
 20
101.2036467458
 10
154.4426295449
 20
101.211326429
 10
154.5969500193
 20
101.2080366283
 10
154.7543806014
 20
101.1938016548
 10
154.9149444385
 20
101.1685399729
 10
155.0786183832
 20
101.1323331183
 10
155.2441865866
 20
101.0854500103
 10
155.4116631338
 20
101.0278111411
 10
155.5810339395
 20
100.9594960185
 10
155.7510408991
 20
100.8810120847
 10
155.9216887474
 20
100.7922836155
 10
156.0069991653
 20
100.7442980014
  0
LWPOLYLINE
  5
275
100
AcDbEntity
  8
ASSI
100
AcDbPolyline
 62
7
  6
CONTINUOUS
 90
33
 70
0
 10
152.5778620905
 20
98.7643579472
 10
152.5822116379
 20
98.9600225672
 10
152.5949777688
 20
99.1493662914
 10
152.6161604833
 20
99.3323891197
 10
152.6458539202
 20
99.5095146751
 10
152.6839639407
 20
99.6803193347
 10
152.7302081275
 20
99.8435322298
 10
152.7846472483
 20
99.999096517
 10
152.8472205353
 20
100.1470690397
 10
152.9174632688
 20
100.2863494593
 10
152.9954326558
 20
100.4168728135
 10
153.0810714893
 20
100.5387040645
 10
153.1737434278
 20
100.6509377602
 10
153.2735007419
 20
100.7535022271
 10
153.3802911609
 20
100.8464691386
 10
153.4933215322
 20
100.9291480629
 10
153.6126382442
 20
101.0014624215
 10
153.7381949083
 20
101.0634887929
 10
153.8690592064
 20
101.1147664806
 10
154.0052707385
 20
101.1552155194
 10
154.1467899045
 20
101.1849158746
 10
154.2925655857
 20
101.2036467458
 10
154.4426295449
 20
101.211326429
 10
154.5969500193
 20
101.2080366283
 10
154.7543806014
 20
101.1938016548
 10
154.9149444385
 20
101.1685399729
 10
155.0786183832
 20
101.1323331183
 10
155.2441865866
 20
101.0854500103
 10
155.4116631338
 20
101.0278111411
 10
155.5810339395
 20
100.9594960185
 10
155.7510408991
 20
100.8810120847
 10
155.9216887474
 20
100.7922836155
 10
156.0069991653
 20
100.7442980014
  0
LWPOLYLINE
  5
276
100
AcDbEntity
  8
0
100
AcDbPolyline
 62
7
  6
CONTINUOUS
 90
13
 70
0
 10
154.3144182918
 20
100.7422644489
 10
154.2312990373
 20
100.641604656
 10
154.1544877346
 20
100.5323368832
 10
154.0845549135
 20
100.4152727366
 10
154.0215517919
 20
100.2903541634
 10
153.9654271519
 20
100.1576392164
 10
153.9165978693
 20
100.0181136597
 10
153.8751182662
 20
99.8717267808
 10
153.8409340206
 20
99.7185292922
 10
153.8142990421
 20
99.5596590959
 10
153.7952979671
 20
99.3954954925
 10
153.7838461593
 20
99.2256591814
 10
153.7799436185
 20
99.0501501625
  0
LWPOLYLINE
  5
277
100
AcDbEntity
  8
ASSI
100
AcDbPolyline
 62
7
  6
CONTINUOUS
 90
13
 70
0
 10
154.3144182918
 20
100.7422644489
 10
154.2312990373
 20
100.641604656
 10
154.1544877346
 20
100.5323368832
 10
154.0845549135
 20
100.4152727366
 10
154.0215517919
 20
100.2903541634
 10
153.9654271519
 20
100.1576392164
 10
153.9165978693
 20
100.0181136597
 10
153.8751182662
 20
99.8717267808
 10
153.8409340206
 20
99.7185292922
 10
153.8142990421
 20
99.5596590959
 10
153.7952979671
 20
99.3954954925
 10
153.7838461593
 20
99.2256591814
 10
153.7799436185
 20
99.0501501625
  0
LWPOLYLINE
  5
278
100
AcDbEntity
  8
0
100
AcDbPolyline
 62
7
  6
CONTINUOUS
 90
3
 70
0
 10
154.4502301768
 20
100.8745898164
 10
154.4038924678
 20
100.8342521659
 10
154.3144182918
 20
100.7422644489
  0
LWPOLYLINE
  5
279
100
AcDbEntity
  8
ASSI
100
AcDbPolyline
 62
7
  6
CONTINUOUS
 90
3
 70
0
 10
154.4502301768
 20
100.8745898164
 10
154.4038924678
 20
100.8342521659
 10
154.3144182918
 20
100.7422644489
  0
LINE
  5
27A
100
AcDbEntity
  8
0
100
AcDbLine
 62
7
  6
CONTINUOUS
 10
180.4418002763
 20
119.2580584389
 11
184.5037332611
 21
121.6033523411
  0
LINE
  5
27B
100
AcDbEntity
  8
ASSI
100
AcDbLine
 62
7
  6
CONTINUOUS
 10
180.4418002763
 20
119.2580584389
 11
184.5037332611
 21
121.6033523411
  0
LWPOLYLINE
  5
27C
100
AcDbEntity
  8
0
100
AcDbPolyline
 62
7
  6
CONTINUOUS
 90
15
 70
0
 10
154.1857782732
 20
100.7555132932
 10
154.2131381467
 20
100.7709179948
 10
154.3255651704
 20
100.8264581823
 10
154.4430526067
 20
100.8724562277
 10
154.5653084682
 20
100.908797736
 10
154.692028753
 20
100.9353922655
 10
154.8228984364
 20
100.9521736404
 10
154.9575922262
 20
100.9591000812
 10
155.0957752095
 20
100.9561543002
 10
155.2371036772
 20
100.9433435846
 10
155.3812262278
 20
100.9206997682
 10
155.5277845702
 20
100.8882791253
 10
155.6764142387
 20
100.8461622676
 10
155.8267456785
 20
100.7944539127
 10
155.9784051502
 20
100.7332826102
  0
LWPOLYLINE
  5
27D
100
AcDbEntity
  8
ASSI
100
AcDbPolyline
 62
7
  6
CONTINUOUS
 90
15
 70
0
 10
154.1857782732
 20
100.7555132932
 10
154.2131381467
 20
100.7709179948
 10
154.3255651704
 20
100.8264581823
 10
154.4430526067
 20
100.8724562277
 10
154.5653084682
 20
100.908797736
 10
154.692028753
 20
100.9353922655
 10
154.8228984364
 20
100.9521736404
 10
154.9575922262
 20
100.9591000812
 10
155.0957752095
 20
100.9561543002
 10
155.2371036772
 20
100.9433435846
 10
155.3812262278
 20
100.9206997682
 10
155.5277845702
 20
100.8882791253
 10
155.6764142387
 20
100.8461622676
 10
155.8267456785
 20
100.7944539127
 10
155.9784051502
 20
100.7332826102
  0
LWPOLYLINE
  5
27E
100
AcDbEntity
  8
0
100
AcDbPolyline
 62
7
  6
CONTINUOUS
 90
3
 70
0
 10
140.0685025735
 20
109.91946096
 10
140.2211129941
 20
109.8489788021
 10
140.2770409289
 20
109.8199097234
  0
LWPOLYLINE
  5
27F
100
AcDbEntity
  8
ASSI
100
AcDbPolyline
 62
7
  6
CONTINUOUS
 90
3
 70
0
 10
140.0685025735
 20
109.91946096
 10
140.2211129941
 20
109.8489788021
 10
140.2770409289
 20
109.8199097234
  0
LWPOLYLINE
  5
280
100
AcDbEntity
  8
0
100
AcDbPolyline
 62
7
  6
CONTINUOUS
 90
33
 70
0
 10
156.0069991653
 20
100.7442980014
 10
156.0929727495
 20
100.6933863352
 10
156.2636205966
 20
100.5850548585
 10
156.433627554
 20
100.4672189288
 10
156.6029983563
 20
100.3399488028
 10
156.7704748985
 20
100.2041898656
 10
156.9360430975
 20
100.059878872
 10
157.0997170363
 20
99.9070790673
 10
157.2602808593
 20
99.7469255714
 10
157.4177114184
 20
99.5793635779
 10
157.5720318617
 20
99.4044478933
 10
157.7220957784
 20
99.2234780575
 10
157.8678713965
 20
99.0364090602
 10
158.009390488
 20
98.8432859118
 10
158.1456019579
 20
98.6455431832
 10
158.2764662154
 20
98.4431466298
 10
158.4020228513
 20
98.2361304963
 10
158.5213395439
 20
98.0260320881
 10
158.6343699128
 20
97.812828373
 10
158.7411603383
 20
97.5965423832
 10
158.8409176391
 20
97.3787805197
 10
158.933589536
 20
97.1595314738
 10
159.0192283083
 20
96.9388065543
 10
159.0971976118
 20
96.7182460889
 10
159.1674402311
 20
96.4978511924
 10
159.2300133818
 20
96.2776207501
 10
159.2844523664
 20
96.0591917457
 10
159.3306964163
 20
95.8425775252
 10
159.3688063001
 20
95.6277647426
 10
159.3984996263
 20
95.4163503435
 10
159.4196822645
 20
95.2088666429
 10
159.432448345
 20
95.0047813257
 10
159.436797868
 20
94.8040943919
  0
LWPOLYLINE
  5
281
100
AcDbEntity
  8
ASSI
100
AcDbPolyline
 62
7
  6
CONTINUOUS
 90
33
 70
0
 10
156.0069991653
 20
100.7442980014
 10
156.0929727495
 20
100.6933863352
 10
156.2636205966
 20
100.5850548585
 10
156.433627554
 20
100.4672189288
 10
156.6029983563
 20
100.3399488028
 10
156.7704748985
 20
100.2041898656
 10
156.9360430975
 20
100.059878872
 10
157.0997170363
 20
99.9070790673
 10
157.2602808593
 20
99.7469255714
 10
157.4177114184
 20
99.5793635779
 10
157.5720318617
 20
99.4044478933
 10
157.7220957784
 20
99.2234780575
 10
157.8678713965
 20
99.0364090602
 10
158.009390488
 20
98.8432859118
 10
158.1456019579
 20
98.6455431832
 10
158.2764662154
 20
98.4431466298
 10
158.4020228513
 20
98.2361304963
 10
158.5213395439
 20
98.0260320881
 10
158.6343699128
 20
97.812828373
 10
158.7411603383
 20
97.5965423832
 10
158.8409176391
 20
97.3787805197
 10
158.933589536
 20
97.1595314738
 10
159.0192283083
 20
96.9388065543
 10
159.0971976118
 20
96.7182460889
 10
159.1674402311
 20
96.4978511924
 10
159.2300133818
 20
96.2776207501
 10
159.2844523664
 20
96.0591917457
 10
159.3306964163
 20
95.8425775252
 10
159.3688063001
 20
95.6277647426
 10
159.3984996263
 20
95.4163503435
 10
159.4196822645
 20
95.2088666429
 10
159.432448345
 20
95.0047813257
 10
159.436797868
 20
94.8040943919
  0
LWPOLYLINE
  5
282
100
AcDbEntity
  8
0
100
AcDbPolyline
 62
7
  6
CONTINUOUS
 90
64
 70
0
 10
159.436797868
 20
94.8040943919
 10
159.4324483206
 20
94.6084297719
 10
159.4196821897
 20
94.4190860477
 10
159.3984994752
 20
94.2360632193
 10
159.3688060382
 20
94.0589376639
 10
159.3306960178
 20
93.8881330044
 10
159.2844518309
 20
93.7249201093
 10
159.2300127102
 20
93.5693558221
 10
159.1674394232
 20
93.4213832993
 10
159.0971966897
 20
93.2821028798
 10
159.0192273026
 20
93.1515795256
 10
158.9335884692
 20
93.0297482745
 10
158.8409165307
 20
92.9175145789
 10
158.7411592166
 20
92.814950112
 10
158.6343687975
 20
92.7219832005
 10
158.5213384263
 20
92.6393042762
 10
158.4020217143
 20
92.5669899176
 10
158.2764650502
 20
92.5049635462
 10
158.1456007521
 20
92.4536858584
 10
158.00938922
 20
92.4132368196
 10
157.867870054
 20
92.3835364644
 10
157.7220943728
 20
92.3648055933
 10
157.5720304136
 20
92.35712591
 10
157.4177099392
 20
92.3604157108
 10
157.2602793571
 20
92.3746506842
 10
157.09971552
 20
92.3999123662
 10
156.9360415752
 20
92.4361192207
 10
156.7704733719
 20
92.4830023288
 10
156.6029968247
 20
92.5406411979
 10
156.433626019
 20
92.6089563206
 10
156.2636190593
 20
92.6874402544
 10
156.0929712111
 20
92.7761687236
 10
155.9216872089
 20
92.8750660039
 10
155.7510393619
 20
92.9833974806
 10
155.5810324045
 20
93.1012334103
 10
155.4116616022
 20
93.2285035363
 10
155.24418506
 20
93.3642624735
 10
155.078616861
 20
93.508573467
 10
154.9149429222
 20
93.6613732718
 10
154.7543790991
 20
93.8215267677
 10
154.5969485401
 20
93.9890887612
 10
154.4426280967
 20
94.1640044458
 10
154.29256418
 20
94.3449742815
 10
154.146788562
 20
94.5320432789
 10
154.0052694705
 20
94.7251664273
 10
153.8690580006
 20
94.9229091559
 10
153.7381937431
 20
95.1253057093
 10
153.6126371072
 20
95.3323218427
 10
153.4933204146
 20
95.542420251
 10
153.3802900457
 20
95.7556239661
 10
153.2734996202
 20
95.9719099559
 10
153.1737423194
 20
96.1896718194
 10
153.0810704224
 20
96.4089208653
 10
152.9954316502
 20
96.6296457848
 10
152.9174623467
 20
96.8502062501
 10
152.8472197274
 20
97.0706011466
 10
152.7846465767
 20
97.290831589
 10
152.7302075921
 20
97.5092605934
 10
152.6839635422
 20
97.7258748139
 10
152.6458536584
 20
97.9406875964
 10
152.6161603321
 20
98.1521019956
 10
152.594977694
 20
98.3595856962
 10
152.5822116135
 20
98.5636710134
 10
152.5778620905
 20
98.7643579472
  0
LWPOLYLINE
  5
283
100
AcDbEntity
  8
ASSI
100
AcDbPolyline
 62
7
  6
CONTINUOUS
 90
64
 70
0
 10
159.436797868
 20
94.8040943919
 10
159.4324483206
 20
94.6084297719
 10
159.4196821897
 20
94.4190860477
 10
159.3984994752
 20
94.2360632193
 10
159.3688060382
 20
94.0589376639
 10
159.3306960178
 20
93.8881330044
 10
159.2844518309
 20
93.7249201093
 10
159.2300127102
 20
93.5693558221
 10
159.1674394232
 20
93.4213832993
 10
159.0971966897
 20
93.2821028798
 10
159.0192273026
 20
93.1515795256
 10
158.9335884692
 20
93.0297482745
 10
158.8409165307
 20
92.9175145789
 10
158.7411592166
 20
92.814950112
 10
158.6343687975
 20
92.7219832005
 10
158.5213384263
 20
92.6393042762
 10
158.4020217143
 20
92.5669899176
 10
158.2764650502
 20
92.5049635462
 10
158.1456007521
 20
92.4536858584
 10
158.00938922
 20
92.4132368196
 10
157.867870054
 20
92.3835364644
 10
157.7220943728
 20
92.3648055933
 10
157.5720304136
 20
92.35712591
 10
157.4177099392
 20
92.3604157108
 10
157.2602793571
 20
92.3746506842
 10
157.09971552
 20
92.3999123662
 10
156.9360415752
 20
92.4361192207
 10
156.7704733719
 20
92.4830023288
 10
156.6029968247
 20
92.5406411979
 10
156.433626019
 20
92.6089563206
 10
156.2636190593
 20
92.6874402544
 10
156.0929712111
 20
92.7761687236
 10
155.9216872089
 20
92.8750660039
 10
155.7510393619
 20
92.9833974806
 10
155.5810324045
 20
93.1012334103
 10
155.4116616022
 20
93.2285035363
 10
155.24418506
 20
93.3642624735
 10
155.078616861
 20
93.508573467
 10
154.9149429222
 20
93.6613732718
 10
154.7543790991
 20
93.8215267677
 10
154.5969485401
 20
93.9890887612
 10
154.4426280967
 20
94.1640044458
 10
154.29256418
 20
94.3449742815
 10
154.146788562
 20
94.5320432789
 10
154.0052694705
 20
94.7251664273
 10
153.8690580006
 20
94.9229091559
 10
153.7381937431
 20
95.1253057093
 10
153.6126371072
 20
95.3323218427
 10
153.4933204146
 20
95.542420251
 10
153.3802900457
 20
95.7556239661
 10
153.2734996202
 20
95.9719099559
 10
153.1737423194
 20
96.1896718194
 10
153.0810704224
 20
96.4089208653
 10
152.9954316502
 20
96.6296457848
 10
152.9174623467
 20
96.8502062501
 10
152.8472197274
 20
97.0706011466
 10
152.7846465767
 20
97.290831589
 10
152.7302075921
 20
97.5092605934
 10
152.6839635422
 20
97.7258748139
 10
152.6458536584
 20
97.9406875964
 10
152.6161603321
 20
98.1521019956
 10
152.594977694
 20
98.3595856962
 10
152.5822116135
 20
98.5636710134
 10
152.5778620905
 20
98.7643579472
  0
LINE
  5
284
100
AcDbEntity
  8
0
100
AcDbLine
 62
7
  6
CONTINUOUS
 10
159.4316382579
 20
95.0177318069
 11
159.4215155651
 21
94.8675931665
  0
LINE
  5
285
100
AcDbEntity
  8
ASSI
100
AcDbLine
 62
7
  6
CONTINUOUS
 10
159.4316382579
 20
95.0177318069
 11
159.4215155651
 21
94.8675931665
  0
LINE
  5
286
100
AcDbEntity
  8
0
100
AcDbLine
 62
7
  6
CONTINUOUS
 10
178.7243638594
 20
119.4056356016
 11
179.7339005768
 21
120.4589301974
  0
LINE
  5
287
100
AcDbEntity
  8
ASSI
100
AcDbLine
 62
7
  6
CONTINUOUS
 10
178.7243638594
 20
119.4056356016
 11
179.7339005768
 21
120.4589301974
  0
LINE
  5
288
100
AcDbEntity
  8
0
100
AcDbLine
 62
7
  6
CONTINUOUS
 10
179.0033397935
 20
118.9224351101
 11
180.4202989244
 21
119.2700533863
  0
LINE
  5
289
100
AcDbEntity
  8
ASSI
100
AcDbLine
 62
7
  6
CONTINUOUS
 10
179.0033397935
 20
118.9224351101
 11
180.4202989244
 21
119.2700533863
  0
LWPOLYLINE
  5
28A
100
AcDbEntity
  8
0
100
AcDbPolyline
 62
7
  6
CONTINUOUS
 90
15
 70
0
 10
159.4215155651
 20
94.8675931665
 10
159.4024477248
 20
94.7028974555
 10
159.3758183991
 20
94.5438800671
 10
159.3416934497
 20
94.3909370467
 10
159.3001576956
 20
94.2444500608
 10
159.25131424
 20
94.10478356
 10
159.1952842951
 20
93.9722848518
 10
159.1322073564
 20
93.8472842442
 10
159.0622402304
 20
93.7300926579
 10
158.9855567661
 20
93.6210014398
 10
158.9023478779
 20
93.5202822507
 10
158.8128205888
 20
93.4281856094
 10
158.7171973771
 20
93.3449403145
 10
158.6157159274
 20
93.2707532677
 10
158.5359884664
 20
93.2212136393
  0
LWPOLYLINE
  5
28B
100
AcDbEntity
  8
ASSI
100
AcDbPolyline
 62
7
  6
CONTINUOUS
 90
15
 70
0
 10
159.4215155651
 20
94.8675931665
 10
159.4024477248
 20
94.7028974555
 10
159.3758183991
 20
94.5438800671
 10
159.3416934497
 20
94.3909370467
 10
159.3001576956
 20
94.2444500608
 10
159.25131424
 20
94.10478356
 10
159.1952842951
 20
93.9722848518
 10
159.1322073564
 20
93.8472842442
 10
159.0622402304
 20
93.7300926579
 10
158.9855567661
 20
93.6210014398
 10
158.9023478779
 20
93.5202822507
 10
158.8128205888
 20
93.4281856094
 10
158.7171973771
 20
93.3449403145
 10
158.6157159274
 20
93.2707532677
 10
158.5359884664
 20
93.2212136393
  0
LWPOLYLINE
  5
28C
100
AcDbEntity
  8
0
100
AcDbPolyline
 62
7
  6
CONTINUOUS
 90
49
 70
0
 10
158.5359884664
 20
93.2212136393
 10
158.508628593
 20
93.2058089376
 10
158.3962015693
 20
93.1502687501
 10
158.278714133
 20
93.1042707047
 10
158.1564582715
 20
93.0679291964
 10
158.0297379867
 20
93.0413346669
 10
157.8988683033
 20
93.024553292
 10
157.7641745135
 20
93.0176268512
 10
157.6259915301
 20
93.0205726322
 10
157.4846630625
 20
93.0333833478
 10
157.3405405119
 20
93.0560271642
 10
157.1939821695
 20
93.0884478071
 10
157.0453525009
 20
93.1305646648
 10
156.8950210612
 20
93.1822730197
 10
156.7433615895
 20
93.2434443222
 10
156.5907511689
 20
93.3139264802
 10
156.4375692309
 20
93.3935442566
 10
156.2841966239
 20
93.4820997031
 10
156.1310146848
 20
93.5793726409
 10
155.9784042612
 20
93.685121225
 10
155.8267447856
 20
93.7990825344
 10
155.6764133431
 20
93.9209732137
 10
155.5277836726
 20
94.0504902285
 10
155.3812253296
 20
94.1873115429
 10
155.2371027838
 20
94.331096889
 10
155.0957743286
 20
94.4814887923
 10
154.9575913627
 20
94.6381132989
 10
154.8228975922
 20
94.8005807924
 10
154.6920279321
 20
94.9684872333
 10
154.5653076723
 20
95.1414152054
 10
154.443051829
 20
95.318934763
 10
154.3255644032
 20
95.5006044145
 10
154.2131373856
 20
95.6859725827
 10
154.1060500522
 20
95.8745787706
 10
154.0045685944
 20
96.0659541677
 10
153.9089453737
 20
96.2596228832
 10
153.8194180899
 20
96.4551035135
 10
153.73620922
 20
96.6519103471
 10
153.6595257865
 20
96.8495537986
 10
153.5895587133
 20
97.0475417113
 10
153.526481847
 20
97.2453819753
 10
153.4704519869
 20
97.4425826003
 10
153.4216086269
 20
97.6386521792
 10
153.3800729736
 20
97.8331034275
 10
153.3459481218
 20
98.0254528429
 10
153.3193188828
 20
98.2152208218
 10
153.3002511118
 20
98.4019352692
 10
153.2887917425
 20
98.5851327094
 10
153.2849688717
 20
98.7643579472
  0
LWPOLYLINE
  5
28D
100
AcDbEntity
  8
ASSI
100
AcDbPolyline
 62
7
  6
CONTINUOUS
 90
49
 70
0
 10
158.5359884664
 20
93.2212136393
 10
158.508628593
 20
93.2058089376
 10
158.3962015693
 20
93.1502687501
 10
158.278714133
 20
93.1042707047
 10
158.1564582715
 20
93.0679291964
 10
158.0297379867
 20
93.0413346669
 10
157.8988683033
 20
93.024553292
 10
157.7641745135
 20
93.0176268512
 10
157.6259915301
 20
93.0205726322
 10
157.4846630625
 20
93.0333833478
 10
157.3405405119
 20
93.0560271642
 10
157.1939821695
 20
93.0884478071
 10
157.0453525009
 20
93.1305646648
 10
156.8950210612
 20
93.1822730197
 10
156.7433615895
 20
93.2434443222
 10
156.5907511689
 20
93.3139264802
 10
156.4375692309
 20
93.3935442566
 10
156.2841966239
 20
93.4820997031
 10
156.1310146848
 20
93.5793726409
 10
155.9784042612
 20
93.685121225
 10
155.8267447856
 20
93.7990825344
 10
155.6764133431
 20
93.9209732137
 10
155.5277836726
 20
94.0504902285
 10
155.3812253296
 20
94.1873115429
 10
155.2371027838
 20
94.331096889
 10
155.0957743286
 20
94.4814887923
 10
154.9575913627
 20
94.6381132989
 10
154.8228975922
 20
94.8005807924
 10
154.6920279321
 20
94.9684872333
 10
154.5653076723
 20
95.1414152054
 10
154.443051829
 20
95.318934763
 10
154.3255644032
 20
95.5006044145
 10
154.2131373856
 20
95.6859725827
 10
154.1060500522
 20
95.8745787706
 10
154.0045685944
 20
96.0659541677
 10
153.9089453737
 20
96.2596228832
 10
153.8194180899
 20
96.4551035135
 10
153.73620922
 20
96.6519103471
 10
153.6595257865
 20
96.8495537986
 10
153.5895587133
 20
97.0475417113
 10
153.526481847
 20
97.2453819753
 10
153.4704519869
 20
97.4425826003
 10
153.4216086269
 20
97.6386521792
 10
153.3800729736
 20
97.8331034275
 10
153.3459481218
 20
98.0254528429
 10
153.3193188828
 20
98.2152208218
 10
153.3002511118
 20
98.4019352692
 10
153.2887917425
 20
98.5851327094
 10
153.2849688717
 20
98.7643579472
  0
LWPOLYLINE
  5
28E
100
AcDbEntity
  8
CURVE
100
AcDbPolyline
 62
250
  6
CONTINUOUS
 90
73
 70
0
 10
182.5184625309
 20
60.6982359192
 10
182.5173195527
 20
60.7045719772
 10
182.5155675318
 20
60.7103757763
 10
182.5132740736
 20
60.7157007964
 10
182.5105067833
 20
60.7206005177
 10
182.507333266
 20
60.7251284202
 10
182.5038211272
 20
60.7293379841
 10
182.500037972
 20
60.7332826894
 10
182.4960514056
 20
60.7370160162
 10
182.4919290334
 20
60.7405914445
 10
182.4877384606
 20
60.7440624545
 10
182.4771452987
 20
60.7525474983
 10
182.4664943146
 20
60.76066203
 10
182.4557314619
 20
60.7683585812
 10
182.4448026942
 20
60.7755896833
 10
182.4336539652
 20
60.7823078677
 10
182.4222312284
 20
60.7884656658
 10
182.4104804374
 20
60.794015609
 10
182.3983475459
 20
60.7989102289
 10
182.3847696586
 20
60.8034175454
 10
182.3707202912
 20
60.8071160724
 10
182.3562367164
 20
60.8100168073
 10
182.3413562071
 20
60.8121307474
 10
182.326116036
 20
60.8134688902
 10
182.3105534761
 20
60.8140422329
 10
182.2947058
 20
60.8138617729
 10
182.2786102807
 20
60.8129385076
 10
182.262304191
 20
60.8112834343
 10
182.2458248037
 20
60.8089075504
 10
182.2292198429
 20
60.8058253469
 10
182.2124886839
 20
60.8020479267
 10
182.195640908
 20
60.7975886052
 10
182.1786860963
 20
60.7924606978
 10
182.1616338299
 20
60.7866775201
 10
182.1444936901
 20
60.7802523874
 10
182.1248055886
 20
60.7721390037
 10
182.1050401664
 20
60.7632307434
 10
182.0852224224
 20
60.7535542958
 10
182.0653773558
 20
60.7431363508
 10
182.0455299656
 20
60.7320035978
 10
182.0257052511
 20
60.7201827266
 10
182.0064207282
 20
60.7080135366
 10
181.9872049532
 20
60.6952040142
 10
181.9680813476
 20
60.6817426743
 10
181.9490733331
 20
60.6676180313
 10
181.9302043313
 20
60.6528186001
 10
181.9133814051
 20
60.6389323697
 10
181.8967101752
 20
60.624497959
 10
181.8802110858
 20
60.6095217183
 10
181.8639045813
 20
60.5940099982
 10
181.8478111059
 20
60.5779691492
 10
181.8305579836
 20
60.5599170113
 10
181.8136102493
 20
60.5412793345
 10
181.796996605
 20
60.5220901172
 10
181.7807457529
 20
60.5023833576
 10
181.7648863949
 20
60.4821930541
 10
181.7494472332
 20
60.461553205
 10
181.7344569699
 20
60.4404978086
 10
181.719944307
 20
60.4190608631
 10
181.7066996144
 20
60.3984938308
 10
181.6939169543
 20
60.3776412362
 10
181.6816067225
 20
60.3565275428
 10
181.6697793147
 20
60.3351772137
 10
181.6584451267
 20
60.3136147123
 10
181.6476145542
 20
60.2918645019
 10
181.637297993
 20
60.2699510457
 10
181.6301139348
 20
60.2538912303
 10
181.6232478652
 20
60.2377781971
 10
181.6167391543
 20
60.2216324634
 10
181.6106271724
 20
60.2054745468
 10
181.6049512896
 20
60.1893249648
 10
181.5997508762
 20
60.1732042348
 10
181.5950653024
 20
60.1571328743
  0
LWPOLYLINE
  5
28F
100
AcDbEntity
  8
CURVE
100
AcDbPolyline
 62
250
  6
CONTINUOUS
 90
22
 70
0
 10
181.8659083823
 20
59.6617757176
 10
181.8636807137
 20
59.6754519455
 10
181.8615539337
 20
59.6892005834
 10
181.8595450848
 20
59.7030333911
 10
181.8576712093
 20
59.7169621288
 10
181.8559493499
 20
59.7309985562
 10
181.8543965489
 20
59.7451544334
 10
181.8529263605
 20
59.7605773686
 10
181.8516730356
 20
59.7761481323
 10
181.8506366449
 20
59.791861704
 10
181.8498172589
 20
59.8077130632
 10
181.849214948
 20
59.8236971892
 10
181.8488297829
 20
59.8398090616
 10
181.8486618341
 20
59.8560436599
 10
181.8487111722
 20
59.8723959634
 10
181.8489778676
 20
59.8888609516
 10
181.849461991
 20
59.9054336041
 10
181.8501636129
 20
59.9221089002
 10
181.8510828039
 20
59.9388818194
 10
181.8522196344
 20
59.9557473411
 10
181.8535741751
 20
59.9727004449
 10
181.8551464964
 20
59.9897361102
  0
LINE
  5
290
100
AcDbEntity
  8
0
100
AcDbLine
 62
7
  6
CONTINUOUS
 10
179.0033397935
 20
48.0908015108
 11
179.0033397935
 21
118.9224351101
  0
LINE
  5
291
100
AcDbEntity
  8
ASSI
100
AcDbLine
 62
7
  6
CONTINUOUS
 10
179.0033397935
 20
48.0908015108
 11
179.0033397935
 21
118.9224351101
  0
LINE
  5
292
100
AcDbEntity
  8
0
100
AcDbLine
 62
7
  6
CONTINUOUS
 10
180.4418002763
 20
47.7261836067
 11
180.4418002763
 21
119.2580584389
  0
LINE
  5
293
100
AcDbEntity
  8
ASSI
100
AcDbLine
 62
7
  6
CONTINUOUS
 10
180.4418002763
 20
47.7261836067
 11
180.4418002763
 21
119.2580584389
  0
LINE
  5
294
100
AcDbEntity
  8
CURVE
100
AcDbLine
 62
250
  6
CONTINUOUS
 10
181.5543486624
 20
54.9140828267
 11
181.5543486624
 21
54.4880543516
  0
LINE
  5
295
100
AcDbEntity
  8
CURVE
100
AcDbLine
 62
250
  6
CONTINUOUS
 10
181.5544576341
 20
52.6515047767
 11
181.5544576341
 21
53.1143029908
  0
LINE
  5
296
100
AcDbEntity
  8
CURVE
100
AcDbLine
 62
250
  6
CONTINUOUS
 10
181.5544576341
 20
53.9042755412
 11
181.5544576341
 21
54.3300125365
  0
LINE
  5
297
100
AcDbEntity
  8
CURVE
100
AcDbLine
 62
250
  6
CONTINUOUS
 10
181.5544576341
 20
55.32777269
 11
181.5544576341
 21
55.75344845
  0
LINE
  5
298
100
AcDbEntity
  8
CURVE
100
AcDbLine
 62
250
  6
CONTINUOUS
 10
181.5544576341
 20
56.6010058326
 11
181.5544576341
 21
57.0225192271
  0
LINE
  5
299
100
AcDbEntity
  8
CURVE
100
AcDbLine
 62
250
  6
CONTINUOUS
 10
181.5544576341
 20
57.920444661
 11
181.5544576341
 21
58.3325759956
  0
LINE
  5
29A
100
AcDbEntity
  8
0
100
AcDbLine
 62
7
  6
CONTINUOUS
 10
179.734263007
 20
120.4835489363
 11
179.7339005768
 21
120.4589301974
  0
LINE
  5
29B
100
AcDbEntity
  8
ASSI
100
AcDbLine
 62
7
  6
CONTINUOUS
 10
179.734263007
 20
120.4835489363
 11
179.7339005768
 21
120.4589301974
  0
LINE
  5
29C
100
AcDbEntity
  8
0
100
AcDbLine
 62
7
  6
CONTINUOUS
 10
180.4202989244
 20
119.2700533863
 11
180.4418002763
 21
119.2580584389
  0
LINE
  5
29D
100
AcDbEntity
  8
ASSI
100
AcDbLine
 62
7
  6
CONTINUOUS
 10
180.4202989244
 20
119.2700533863
 11
180.4418002763
 21
119.2580584389
  0
LINE
  5
29E
100
AcDbEntity
  8
0
100
AcDbLine
 62
7
  6
CONTINUOUS
 10
178.7243638594
 20
119.4056356016
 11
117.3803935224
 21
154.8248752537
  0
LINE
  5
29F
100
AcDbEntity
  8
ASSI
100
AcDbLine
 62
7
  6
CONTINUOUS
 10
178.7243638594
 20
119.4056356016
 11
117.3803935224
 21
154.8248752537
  0
LINE
  5
2A0
100
AcDbEntity
  8
0
100
AcDbLine
 62
7
  6
CONTINUOUS
 10
179.734263007
 20
120.4835489363
 11
117.7838464364
 21
156.2529430431
  0
LINE
  5
2A1
100
AcDbEntity
  8
ASSI
100
AcDbLine
 62
7
  6
CONTINUOUS
 10
179.734263007
 20
120.4835489363
 11
117.7838464364
 21
156.2529430431
  0
LINE
  5
2A2
100
AcDbEntity
  8
CURVE
100
AcDbLine
 62
250
  6
CONTINUOUS
 10
182.367782419
 20
60.1754669941
 11
182.367782419
 21
59.9319960029
  0
LINE
  5
2A3
100
AcDbEntity
  8
CURVE
100
AcDbLine
 62
250
  6
CONTINUOUS
 10
182.6671959068
 20
60.1073334286
 11
182.6671959068
 21
60.3357596634
  0
LINE
  5
2A4
100
AcDbEntity
  8
CURVE
100
AcDbLine
 62
250
  6
CONTINUOUS
 10
182.7352632904
 20
58.5421516888
 11
182.7352632904
 21
58.9500439097
  0
LINE
  5
2A5
100
AcDbEntity
  8
CURVE
100
AcDbLine
 62
250
  6
CONTINUOUS
 10
183.017676985
 20
59.1872433243
 11
183.017676985
 21
58.607063628
  0
LINE
  5
2A6
100
AcDbEntity
  8
CURVE
100
AcDbLine
 62
250
  6
CONTINUOUS
 10
183.3826488108
 20
59.9431324919
 11
183.3826488108
 21
59.4941162961
  0
LINE
  5
2A7
100
AcDbEntity
  8
CURVE
100
AcDbLine
 62
250
  6
CONTINUOUS
 10
183.3826488108
 20
58.6860148396
 11
183.3826488108
 21
58.2646092192
  0
LINE
  5
2A8
100
AcDbEntity
  8
CURVE
100
AcDbLine
 62
250
  6
CONTINUOUS
 10
183.3826488108
 20
58.1977109106
 11
183.3826488108
 21
57.7809420249
  0
LINE
  5
2A9
100
AcDbEntity
  8
CURVE
100
AcDbLine
 62
250
  6
CONTINUOUS
 10
183.3826488108
 20
57.1868660044
 11
183.3826488108
 21
57.1271150766
  0
LINE
  5
2AA
100
AcDbEntity
  8
CURVE
100
AcDbLine
 62
250
  6
CONTINUOUS
 10
183.3826488108
 20
56.5353953894
 11
183.3826488108
 21
56.1278248578
  0
LINE
  5
2AB
100
AcDbEntity
  8
CURVE
100
AcDbLine
 62
250
  6
CONTINUOUS
 10
183.3826488108
 20
54.6583057289
 11
183.3826488108
 21
54.2828682016
  0
LINE
  5
2AC
100
AcDbEntity
  8
CURVE
100
AcDbLine
 62
250
  6
CONTINUOUS
 10
183.3826488108
 20
55.4724523313
 11
183.3826488108
 21
55.8984808065
  0
LINE
  5
2AD
100
AcDbEntity
  8
CURVE
100
AcDbLine
 62
250
  6
CONTINUOUS
 10
183.3826488229
 20
60.0682352267
 11
183.3826488229
 21
60.4925493932
  0
LINE
  5
2AE
100
AcDbEntity
  8
CURVE
100
AcDbLine
 62
250
  6
CONTINUOUS
 10
183.3826488229
 20
61.1449530857
 11
183.3826488229
 21
61.5547428638
  0
LINE
  5
2AF
100
AcDbEntity
  8
0
100
AcDbLine
 62
7
  6
CONTINUOUS
 10
184.5037332611
 20
49.754962121
 11
184.5037332611
 21
121.6033523411
  0
LINE
  5
2B0
100
AcDbEntity
  8
ASSI
100
AcDbLine
 62
7
  6
CONTINUOUS
 10
184.5037332611
 20
49.754962121
 11
184.5037332611
 21
121.6033523411
  0
LWPOLYLINE
  5
2B1
100
AcDbEntity
  8
CURVE
100
AcDbPolyline
 62
250
  6
CONTINUOUS
 90
48
 70
0
 10
182.6671959068
 20
60.3357596634
 10
182.6672705084
 20
60.3423594277
 10
182.6674951272
 20
60.3490516113
 10
182.6678709836
 20
60.3558301202
 10
182.6683992984
 20
60.3626888604
 10
182.669081292
 20
60.3696217379
 10
182.6699181852
 20
60.3766226587
 10
182.6709111985
 20
60.3836855288
 10
182.6720615526
 20
60.3908042542
 10
182.673370468
 20
60.397972741
 10
182.6748391655
 20
60.4051848951
 10
182.6764688654
 20
60.4124346225
 10
182.6782607886
 20
60.4197158293
 10
182.6802161556
 20
60.4270224214
 10
182.682336187
 20
60.4343483048
 10
182.6846221035
 20
60.4416873856
 10
182.6870751256
 20
60.4490335698
 10
182.6896964739
 20
60.4563807633
 10
182.6925595585
 20
60.4639101734
 10
182.6955954072
 20
60.4714298406
 10
182.698798488
 20
60.478935369
 10
182.7021632691
 20
60.4864223625
 10
182.7056842182
 20
60.4938864254
 10
182.7093558035
 20
60.5013231617
 10
182.713172493
 20
60.5087281755
 10
182.7171287545
 20
60.5160970709
 10
182.7212190561
 20
60.523425452
 10
182.7254378658
 20
60.5307089227
 10
182.7297796516
 20
60.5379430874
 10
182.7342388814
 20
60.5451235499
 10
182.7388100233
 20
60.5522459145
 10
182.7434875453
 20
60.5593057851
 10
182.7482659152
 20
60.5662987659
 10
182.7531396012
 20
60.573220461
 10
182.7581030712
 20
60.5800664744
 10
182.7631507931
 20
60.5868324103
 10
182.7682772351
 20
60.5935138726
 10
182.773476865
 20
60.6001064656
 10
182.7787441509
 20
60.6066057933
 10
182.7840735607
 20
60.6130074597
 10
182.7894595625
 20
60.619307069
 10
182.7948966241
 20
60.6255002252
 10
182.8003792137
 20
60.6315825325
 10
182.8059017992
 20
60.6375495949
 10
182.8114588486
 20
60.6433970164
 10
182.8170448299
 20
60.6491204013
 10
182.822654211
 20
60.6547153535
 10
182.82828146
 20
60.6601774772
  0
LINE
  5
2B2
100
AcDbEntity
  8
0
100
AcDbLine
 62
7
  6
CONTINUOUS
 10
183.7961959918
 20
122.8288428385
 11
121.5716602236
 21
158.7565099344
  0
LINE
  5
2B3
100
AcDbEntity
  8
ASSI
100
AcDbLine
 62
7
  6
CONTINUOUS
 10
183.7961959918
 20
122.8288428385
 11
121.5716602236
 21
158.7565099344
  0
LINE
  5
2B4
100
AcDbEntity
  8
0
100
AcDbLine
 62
7
  6
CONTINUOUS
 10
179.0033397935
 20
118.9224351101
 11
178.7243638594
 21
119.4056356016
  0
LINE
  5
2B5
100
AcDbEntity
  8
ASSI
100
AcDbLine
 62
7
  6
CONTINUOUS
 10
179.0033397935
 20
118.9224351101
 11
178.7243638594
 21
119.4056356016
  0
LINE
  5
2B6
100
AcDbEntity
  8
0
100
AcDbLine
 62
7
  6
CONTINUOUS
 10
180.4202989244
 20
119.2700533863
 11
179.7339005768
 21
120.4589301974
  0
LINE
  5
2B7
100
AcDbEntity
  8
ASSI
100
AcDbLine
 62
7
  6
CONTINUOUS
 10
180.4202989244
 20
119.2700533863
 11
179.7339005768
 21
120.4589301974
  0
LWPOLYLINE
  5
2B8
100
AcDbEntity
  8
CURVE
100
AcDbPolyline
 62
250
  6
CONTINUOUS
 90
49
 70
0
 10
181.8551464964
 20
59.9897361102
 10
181.856052885
 20
59.9980321807
 10
181.857148329
 20
60.0064305752
 10
181.8584322972
 20
60.0149224076
 10
181.8599042579
 20
60.0234987916
 10
181.8615636798
 20
60.032150841
 10
181.8634100312
 20
60.0408696694
 10
181.8654427808
 20
60.0496463906
 10
181.8676613971
 20
60.0584721184
 10
181.8700653486
 20
60.0673379665
 10
181.8726541037
 20
60.0762350486
 10
181.8754271311
 20
60.0851544786
 10
181.8783838992
 20
60.09408737
 10
181.8815238766
 20
60.1030248368
 10
181.8848465317
 20
60.1119579926
 10
181.8883513332
 20
60.1208779511
 10
181.8920377495
 20
60.1297758262
 10
181.8959052491
 20
60.1386427315
 10
181.8999533006
 20
60.1474697809
 10
181.9041813725
 20
60.1562480879
 10
181.9085889332
 20
60.1649687665
 10
181.9131754514
 20
60.1736229303
 10
181.9179403955
 20
60.1822016931
 10
181.9228832341
 20
60.1906961686
 10
181.9280034357
 20
60.1990974705
 10
181.933270157
 20
60.2073525766
 10
181.9387035466
 20
60.2154998006
 10
181.9442953422
 20
60.2235322234
 10
181.9500372815
 20
60.2314429254
 10
181.9559211022
 20
60.2392249875
 10
181.961938542
 20
60.2468714902
 10
181.9680813388
 20
60.2543755143
 10
181.9743412301
 20
60.2617301402
 10
181.9807099538
 20
60.2689284488
 10
181.9871792476
 20
60.2759635207
 10
181.9937408491
 20
60.2828284365
 10
182.0003864961
 20
60.2895162769
 10
182.0071079263
 20
60.2960201226
 10
182.0138968775
 20
60.3023330541
 10
182.0207450874
 20
60.3084481522
 10
182.0276442936
 20
60.3143584975
 10
182.034586234
 20
60.3200571707
 10
182.0415626462
 20
60.3255372524
 10
182.048565268
 20
60.3307918233
 10
182.0555858371
 20
60.335813964
 10
182.0626160912
 20
60.3405967552
 10
182.069647768
 20
60.3451332776
 10
182.0766726053
 20
60.3494166118
 10
182.0836823408
 20
60.3534398384
  0
LINE
  5
2B9
100
AcDbEntity
  8
0
100
AcDbLine
 62
7
  6
CONTINUOUS
 10
183.7961959918
 20
122.8288428385
 11
184.5037332611
 21
121.6033523411
  0
LINE
  5
2BA
100
AcDbEntity
  8
ASSI
100
AcDbLine
 62
7
  6
CONTINUOUS
 10
183.7961959918
 20
122.8288428385
 11
184.5037332611
 21
121.6033523411
  0
LWPOLYLINE
  5
2BB
100
AcDbEntity
  8
CURVE
100
AcDbPolyline
 62
250
  6
CONTINUOUS
 90
32
 70
0
 10
181.5950653024
 20
60.1571328743
 10
181.5874625892
 20
60.1283782699
 10
181.5805135618
 20
60.0997388583
 10
181.5741865098
 20
60.0712184772
 10
181.5684497231
 20
60.0428209641
 10
181.5632714914
 20
60.0145501568
 10
181.5586201045
 20
59.9864098929
 10
181.5544638521
 20
59.9584040101
 10
181.5507710239
 20
59.9305363459
 10
181.5475099096
 20
59.9028107382
 10
181.5446487991
 20
59.8752310244
 10
181.5421559821
 20
59.8478010424
 10
181.5399997484
 20
59.8205246297
 10
181.537334205
 20
59.7797946555
 10
181.535330687
 20
59.739410084
 10
181.5339615955
 20
59.6993602626
 10
181.5331993313
 20
59.6596345383
 10
181.5330162954
 20
59.6202222585
 10
181.5333848887
 20
59.5811127702
 10
181.5342775122
 20
59.5422954207
 10
181.5356665668
 20
59.5037595572
 10
181.5375244535
 20
59.465494527
 10
181.5398235733
 20
59.4274896771
 10
181.5425363269
 20
59.3897343548
 10
181.5456351155
 20
59.3522179073
 10
181.54909234
 20
59.3149296818
 10
181.5528804012
 20
59.2778590256
 10
181.5569717002
 20
59.2409952857
 10
181.5613386379
 20
59.2043278095
 10
181.5659536152
 20
59.1678459441
 10
181.5707890331
 20
59.1315390367
 10
181.5758172925
 20
59.0953964345
  0
LINE
  5
2BC
100
AcDbEntity
  8
CURVE
100
AcDbLine
 62
7
  6
CONTINUOUS
 10
181.7710123395
 20
60.4894272158
 11
181.9472426993
 21
60.6656575756
  0
LINE
  5
2BD
100
AcDbEntity
  8
CURVE
100
AcDbLine
 62
7
  6
CONTINUOUS
 10
181.5778373976
 20
60.0862415599
 11
182.3050772209
 21
60.8134813831
  0
LINE
  5
2BE
100
AcDbEntity
  8
CURVE
100
AcDbLine
 62
7
  6
CONTINUOUS
 10
181.5417943872
 20
59.8401878354
 11
182.4639274017
 21
60.7623208499
  0
LINE
  5
2BF
100
AcDbEntity
  8
CURVE
100
AcDbLine
 62
7
  6
CONTINUOUS
 10
181.5336981305
 20
59.6220808647
 11
181.851133499
 21
59.9395162331
  0
LINE
  5
2C0
100
AcDbEntity
  8
CURVE
100
AcDbLine
 62
7
  6
CONTINUOUS
 10
182.2927687748
 20
60.381151509
 11
183.3826488229
 21
61.471031557
  0
LINE
  5
2C1
100
AcDbEntity
  8
CURVE
100
AcDbLine
 62
7
  6
CONTINUOUS
 10
181.5407504964
 20
59.4191225166
 11
181.8557455998
 21
59.73411762
  0
LINE
  5
2C2
100
AcDbEntity
  8
CURVE
100
AcDbLine
 62
7
  6
CONTINUOUS
 10
182.3628709883
 20
60.2412430085
 11
183.3826488229
 21
61.261020843
  0
LWPOLYLINE
  5
2C3
100
AcDbEntity
  8
CURVE
100
AcDbPolyline
 62
250
  6
CONTINUOUS
 90
59
 70
0
 10
182.0836823408
 20
60.3534398384
 10
182.0916200574
 20
60.3577371032
 10
182.099619156
 20
60.3618419007
 10
182.1076686811
 20
60.3657482324
 10
182.1157576769
 20
60.3694500997
 10
182.1238751881
 20
60.3729415042
 10
182.132010259
 20
60.3762164473
 10
182.1401519339
 20
60.3792689304
 10
182.1482892575
 20
60.3820929551
 10
182.156411274
 20
60.3846825228
 10
182.164507028
 20
60.387031635
 10
182.1725655637
 20
60.3891342932
 10
182.1805759258
 20
60.3909844987
 10
182.1885271585
 20
60.3925762532
 10
182.1964083064
 20
60.393903558
 10
182.2042084138
 20
60.3949604147
 10
182.2119165252
 20
60.3957408246
 10
182.219521685
 20
60.3962387893
 10
182.2270129376
 20
60.3964483103
 10
182.2343793275
 20
60.396363389
 10
182.2416098991
 20
60.3959780268
 10
182.2486936968
 20
60.3952862253
 10
182.255619765
 20
60.3942819859
 10
182.2623771482
 20
60.3929593102
 10
182.2689548909
 20
60.3913121994
 10
182.2753420373
 20
60.3893346553
 10
182.281527632
 20
60.3870206791
 10
182.2875007193
 20
60.3843642723
 10
182.2932503438
 20
60.3813594366
 10
182.2987655498
 20
60.3780001732
 10
182.3040353818
 20
60.3742804837
 10
182.3089858597
 20
60.3702549508
 10
182.3136921747
 20
60.3658861117
 10
182.3181596463
 20
60.361187297
 10
182.3223935944
 20
60.3561718374
 10
182.3263993385
 20
60.3508530635
 10
182.3301821984
 20
60.3452443059
 10
182.3337474937
 20
60.3393588954
 10
182.3371005441
 20
60.3332101624
 10
182.3402466692
 20
60.3268114378
 10
182.3431911888
 20
60.320176052
 10
182.3459394225
 20
60.3133173359
 10
182.34849669
 20
60.3062486199
 10
182.350868311
 20
60.2989832347
 10
182.353059605
 20
60.2915345111
 10
182.3550758919
 20
60.2839157795
 10
182.3569224913
 20
60.2761403708
 10
182.3586047228
 20
60.2682216154
 10
182.3601279062
 20
60.260172844
 10
182.3614973611
 20
60.2520073874
 10
182.3627184071
 20
60.2437385761
 10
182.363796364
 20
60.2353797407
 10
182.3647365515
 20
60.226944212
 10
182.3655442891
 20
60.2184453205
 10
182.3662248966
 20
60.2098963969
 10
182.3667836937
 20
60.2013107718
 10
182.367226
 20
60.1927017759
 10
182.3675571352
 20
60.1840827398
 10
182.367782419
 20
60.1754669941
  0
LINE
  5
2C4
100
AcDbEntity
  8
CURVE
100
AcDbLine
 62
250
  6
CONTINUOUS
 10
182.529265545
 20
60.7040525053
 11
182.5184625309
 21
60.6982359192
  0
LINE
  5
2C5
100
AcDbEntity
  8
CURVE
100
AcDbLine
 62
7
  6
CONTINUOUS
 10
181.5587784636
 20
59.2271397697
 11
182.1421480942
 21
59.8105094004
  0
LINE
  5
2C6
100
AcDbEntity
  8
CURVE
100
AcDbLine
 62
7
  6
CONTINUOUS
 10
182.367782419
 20
60.0361437251
 11
182.6671959068
 21
60.3355572129
  0
LINE
  5
2C7
100
AcDbEntity
  8
CURVE
100
AcDbLine
 62
7
  6
CONTINUOUS
 10
181.7084679372
 20
59.1668185293
 11
182.6671959068
 21
60.1255464989
  0
LINE
  5
2C8
100
AcDbEntity
  8
CURVE
100
AcDbLine
 62
7
  6
CONTINUOUS
 10
182.16345269
 20
59.4117925681
 11
183.0827223427
 21
60.3310622208
  0
LINE
  5
2C9
100
AcDbEntity
  8
CURVE
100
AcDbLine
 62
7
  6
CONTINUOUS
 10
182.6184374428
 20
59.6567666069
 11
183.3826488229
 21
60.420977987
  0
LINE
  5
2CA
100
AcDbEntity
  8
CURVE
100
AcDbLine
 62
7
  6
CONTINUOUS
 10
183.0734221956
 20
59.9017406457
 11
183.3826488229
 21
60.210967273
  0
LINE
  5
2CB
100
AcDbEntity
  8
CURVE
100
AcDbLine
 62
7
  6
CONTINUOUS
 10
181.5544576341
 20
58.1727653702
 11
182.8969108437
 21
59.5152185798
  0
LINE
  5
2CC
100
AcDbEntity
  8
CURVE
100
AcDbLine
 62
7
  6
CONTINUOUS
 10
181.5544576341
 20
57.9627546562
 11
183.3826488108
 21
59.7909458329
  0
LINE
  5
2CD
100
AcDbEntity
  8
CURVE
100
AcDbLine
 62
7
  6
CONTINUOUS
 10
181.7610502725
 20
57.9593365805
 11
182.2297338575
 21
58.4280201655
  0
LINE
  5
2CE
100
AcDbEntity
  8
CURVE
100
AcDbLine
 62
7
  6
CONTINUOUS
 10
182.7352632904
 20
58.9335495984
 11
183.3826488108
 21
59.5809351189
  0
LINE
  5
2CF
100
AcDbEntity
  8
CURVE
100
AcDbLine
 62
7
  6
CONTINUOUS
 10
182.0197651294
 20
58.0080407235
 11
182.5009836382
 21
58.4892592323
  0
LINE
  5
2D0
100
AcDbEntity
  8
CURVE
100
AcDbLine
 62
7
  6
CONTINUOUS
 10
182.7352632904
 20
58.7235388844
 11
183.017676985
 21
59.005952579
  0
LINE
  5
2D1
100
AcDbEntity
  8
CURVE
100
AcDbLine
 62
7
  6
CONTINUOUS
 10
182.2784799864
 20
58.0567448665
 11
183.017676985
 21
58.795941865
  0
LINE
  5
2D2
100
AcDbEntity
  8
CURVE
100
AcDbLine
 62
7
  6
CONTINUOUS
 10
182.5371948434
 20
58.1054490094
 11
183.0446427291
 21
58.6128968952
  0
LINE
  5
2D3
100
AcDbEntity
  8
CURVE
100
AcDbLine
 62
7
  6
CONTINUOUS
 10
181.5544576341
 20
56.9127010862
 11
181.8619135485
 21
57.2201570005
  0
LINE
  5
2D4
100
AcDbEntity
  8
CURVE
100
AcDbLine
 62
7
  6
CONTINUOUS
 10
182.7959097004
 20
58.1541531524
 11
183.3126233918
 21
58.6708668439
  0
LINE
  5
2D5
100
AcDbEntity
  8
CURVE
100
AcDbLine
 62
7
  6
CONTINUOUS
 10
181.5544576341
 20
56.7026903721
 11
182.4498768446
 21
57.5981095827
  0
LINE
  5
2D6
100
AcDbEntity
  8
CURVE
100
AcDbLine
 62
7
  6
CONTINUOUS
 10
183.0546245574
 20
58.2028572954
 11
183.3826488108
 21
58.5308815488
  0
LINE
  5
2D7
100
AcDbEntity
  8
CURVE
100
AcDbLine
 62
7
  6
CONTINUOUS
 10
181.6773735855
 20
56.6155956095
 11
183.0378401408
 21
57.9760621648
  0
LINE
  5
2D8
100
AcDbEntity
  8
CURVE
100
AcDbLine
 62
7
  6
CONTINUOUS
 10
183.3133394144
 20
58.2515614384
 11
183.3826488108
 21
58.3208708348
  0
LINE
  5
2D9
100
AcDbEntity
  8
CURVE
100
AcDbLine
 62
7
  6
CONTINUOUS
 10
181.9156693331
 20
56.6438806431
 11
182.3417371897
 21
57.0699484997
  0
LINE
  5
2DA
100
AcDbEntity
  8
CURVE
100
AcDbLine
 62
7
  6
CONTINUOUS
 10
182.5322335763
 20
57.2604448863
 11
183.3826488108
 21
58.1108601208
  0
LINE
  5
2DB
100
AcDbEntity
  8
CURVE
100
AcDbLine
 62
7
  6
CONTINUOUS
 10
182.1539650806
 20
56.6721656766
 11
182.5783215888
 21
57.0965221848
  0
LINE
  5
2DC
100
AcDbEntity
  8
CURVE
100
AcDbLine
 62
7
  6
CONTINUOUS
 10
183.0735688738
 20
57.5917694698
 11
183.3826488108
 21
57.9008494068
  0
LINE
  5
2DD
100
AcDbEntity
  8
CURVE
100
AcDbLine
 62
7
  6
CONTINUOUS
 10
182.3922608282
 20
56.7004507102
 11
182.8149059879
 21
57.1230958698
  0
LINE
  5
2DE
100
AcDbEntity
  8
CURVE
100
AcDbLine
 62
7
  6
CONTINUOUS
 10
181.5544576341
 20
55.6526368021
 11
183.0514903869
 21
57.1496695549
  0
LINE
  5
2DF
100
AcDbEntity
  8
CURVE
100
AcDbLine
 62
7
  6
CONTINUOUS
 10
181.5544576341
 20
55.4426260881
 11
183.288074786
 21
57.1762432399
  0
LINE
  5
2E0
100
AcDbEntity
  8
CURVE
100
AcDbLine
 62
7
  6
CONTINUOUS
 10
181.7236621521
 20
55.401819892
 11
182.4071201634
 21
56.0852779033
  0
LINE
  5
2E1
100
AcDbEntity
  8
CURVE
100
AcDbLine
 62
7
  6
CONTINUOUS
 10
182.0970938875
 20
55.5652409135
 11
182.7970461544
 21
56.2651931803
  0
LINE
  5
2E2
100
AcDbEntity
  8
CURVE
100
AcDbLine
 62
7
  6
CONTINUOUS
 10
181.5543486624
 20
54.8124849743
 11
181.7744587362
 21
55.0325950481
  0
LINE
  5
2E3
100
AcDbEntity
  8
CURVE
100
AcDbLine
 62
7
  6
CONTINUOUS
 10
182.470525623
 20
55.7286619349
 11
183.1869721455
 21
56.4451084574
  0
LINE
  5
2E4
100
AcDbEntity
  8
CURVE
100
AcDbLine
 62
7
  6
CONTINUOUS
 10
181.5543486624
 20
54.6024742603
 11
182.229443489
 21
55.2775690869
  0
LINE
  5
2E5
100
AcDbEntity
  8
CURVE
100
AcDbLine
 62
7
  6
CONTINUOUS
 10
182.8439573584
 20
55.8920829563
 11
183.3826488108
 21
56.4307744087
  0
LINE
  5
2E6
100
AcDbEntity
  8
CURVE
100
AcDbLine
 62
7
  6
CONTINUOUS
 10
181.7614445676
 20
54.5995594515
 11
182.6844282418
 21
55.5225431257
  0
LINE
  5
2E7
100
AcDbEntity
  8
CURVE
100
AcDbLine
 62
7
  6
CONTINUOUS
 10
183.2173890939
 20
56.0555039778
 11
183.3826488108
 21
56.2207636947
  0
LINE
  5
2E8
100
AcDbEntity
  8
CURVE
100
AcDbLine
 62
7
  6
CONTINUOUS
 10
181.5544576341
 20
54.182561804
 11
181.7341819427
 21
54.3622861125
  0
LINE
  5
2E9
100
AcDbEntity
  8
CURVE
100
AcDbLine
 62
7
  6
CONTINUOUS
 10
182.2164293204
 20
54.8445334903
 11
183.1394129946
 21
55.7675171645
  0
LINE
  5
2EA
100
AcDbEntity
  8
CURVE
100
AcDbLine
 62
7
  6
CONTINUOUS
 10
181.5544576341
 20
53.97255109
 11
181.9901591747
 21
54.4082526306
  0
LINE
  5
2EB
100
AcDbEntity
  8
CURVE
100
AcDbLine
 62
7
  6
CONTINUOUS
 10
182.6714140732
 20
55.089507529
 11
183.3826488108
 21
55.8007422667
  0
LINE
  5
2EC
100
AcDbEntity
  8
CURVE
100
AcDbLine
 62
7
  6
CONTINUOUS
 10
181.73612767
 20
53.9442104119
 11
182.2461364068
 21
54.4542191486
  0
LINE
  5
2ED
100
AcDbEntity
  8
CURVE
100
AcDbLine
 62
7
  6
CONTINUOUS
 10
183.126398826
 20
55.3344815678
 11
183.3826488108
 21
55.5907315526
  0
LINE
  5
2EE
100
AcDbEntity
  8
CURVE
100
AcDbLine
 62
7
  6
CONTINUOUS
 10
182.0053103664
 20
54.0033823942
 11
182.5021136389
 21
54.5001856667
  0
LINE
  5
2EF
100
AcDbEntity
  8
CURVE
100
AcDbLine
 62
7
  6
CONTINUOUS
 10
182.2744930627
 20
54.0625543765
 11
182.7580908709
 21
54.5461521847
  0
LINE
  5
2F0
100
AcDbEntity
  8
CURVE
100
AcDbLine
 62
250
  6
CONTINUOUS
 10
183.3826488108
 20
57.1271150766
 11
182.1888747907
 21
55.9845775715
  0
LINE
  5
2F1
100
AcDbEntity
  8
CURVE
100
AcDbLine
 62
250
  6
CONTINUOUS
 10
181.5544576341
 20
55.75344845
 11
182.5694749138
 21
56.7214855226
  0
LWPOLYLINE
  5
2F2
100
AcDbEntity
  8
CURVE
100
AcDbPolyline
 62
250
  6
CONTINUOUS
 90
7
 70
0
 10
182.82828146
 20
60.6601774772
 10
182.8535811258
 20
60.6841546202
 10
182.8790110811
 20
60.707779816
 10
182.9045569264
 20
60.731091207
 10
182.9302042623
 20
60.7541269358
 10
182.9559386893
 20
60.7769251448
 10
182.9817458078
 20
60.7995239767
  0
LINE
  5
2F3
100
AcDbEntity
  8
CURVE
100
AcDbLine
 62
250
  6
CONTINUOUS
 10
181.5544576341
 20
58.3325759956
 11
183.3826488108
 21
59.9431324919
  0
LINE
  5
2F4
100
AcDbEntity
  8
CURVE
100
AcDbLine
 62
250
  6
CONTINUOUS
 10
182.9817458078
 20
60.7995239767
 11
183.0335205216
 21
60.844276079
  0
LINE
  5
2F5
100
AcDbEntity
  8
CURVE
100
AcDbLine
 62
250
  6
CONTINUOUS
 10
183.1373086707
 20
60.9330660284
 11
183.3826488229
 21
61.1449530857
  0
LWPOLYLINE
  5
2F6
100
AcDbEntity
  8
CURVE
100
AcDbPolyline
 62
250
  6
CONTINUOUS
 90
44
 70
0
 10
182.8312241219
 20
61.0949517328
 10
182.8170549578
 20
61.0827776171
 10
182.8028203823
 20
61.0703528989
 10
182.788490972
 20
61.0576005762
 10
182.780616102
 20
61.0504721102
 10
182.7727121084
 20
61.0432253601
 10
182.7647869351
 20
61.0358627401
 10
182.7568485261
 20
61.0283866643
 10
182.7489048252
 20
61.020799547
 10
182.7409637763
 20
61.0131038023
 10
182.7330333234
 20
61.0053018444
 10
182.7251214103
 20
60.9973960875
 10
182.717235981
 20
60.9893889458
 10
182.7093849793
 20
60.9812828335
 10
182.7015763492
 20
60.9730801648
 10
182.6938180345
 20
60.9647833538
 10
182.6861179792
 20
60.9563948148
 10
182.6784841272
 20
60.9479169619
 10
182.6709244223
 20
60.9393522094
 10
182.6634468085
 20
60.9307029713
 10
182.6560592296
 20
60.921971662
 10
182.6487696297
 20
60.9131606956
 10
182.6415859525
 20
60.9042724862
 10
182.634516142
 20
60.8953094482
 10
182.627568142
 20
60.8862739956
 10
182.6207498966
 20
60.8771685426
 10
182.6140693496
 20
60.8679955035
 10
182.6075344448
 20
60.8587572924
 10
182.6011531262
 20
60.8494563235
 10
182.5949333378
 20
60.8400950111
 10
182.5888830233
 20
60.8306757692
 10
182.5830101267
 20
60.8212010121
 10
182.577322592
 20
60.811673154
 10
182.5718283629
 20
60.8020946091
 10
182.5665353835
 20
60.7924677915
 10
182.5614515975
 20
60.7827951155
 10
182.556584949
 20
60.7730789951
 10
182.5519433818
 20
60.7633218448
 10
182.5475348399
 20
60.7535260785
 10
182.543367267
 20
60.7436941105
 10
182.5394486072
 20
60.733828355
 10
182.5357868044
 20
60.7239312262
 10
182.5323898023
 20
60.7140051382
 10
182.529265545
 20
60.7040525053
  0
LINE
  5
2F7
100
AcDbEntity
  8
CURVE
100
AcDbLine
 62
250
  6
CONTINUOUS
 10
183.0335205216
 20
60.844276079
 11
183.1373086707
 21
60.9330660284
  0
LINE
  5
2F8
100
AcDbEntity
  8
CURVE
100
AcDbLine
 62
250
  6
CONTINUOUS
 10
182.8594839093
 20
61.1188561656
 11
182.8312241219
 21
61.0949517328
  0
LINE
  5
2F9
100
AcDbEntity
  8
CURVE
100
AcDbLine
 62
250
  6
CONTINUOUS
 10
183.3826488108
 20
59.4941162961
 11
183.017676985
 21
59.1872433243
  0
LINE
  5
2FA
100
AcDbEntity
  8
CURVE
100
AcDbLine
 62
250
  6
CONTINUOUS
 10
183.0199763216
 20
61.2533323374
 11
182.8594839093
 21
61.1188561656
  0
LINE
  5
2FB
100
AcDbEntity
  8
CURVE
100
AcDbLine
 62
250
  6
CONTINUOUS
 10
183.3826488229
 20
61.5547428638
 11
183.3173790942
 21
61.5001628909
  0
LINE
  5
2FC
100
AcDbEntity
  8
CURVE
100
AcDbLine
 62
250
  6
CONTINUOUS
 10
183.3173790942
 20
61.5001628909
 11
183.0199763216
 21
61.2533323374
  0
LINE
  5
2FD
100
AcDbEntity
  8
CURVE
100
AcDbLine
 62
250
  6
CONTINUOUS
 10
182.7352632904
 20
58.9500439097
 11
182.056798163
 21
58.388977109
  0
LINE
  5
2FE
100
AcDbEntity
  8
CURVE
100
AcDbLine
 62
250
  6
CONTINUOUS
 10
181.5544576341
 20
57.0225192271
 11
183.3826488108
 21
58.1977109106
  0
LINE
  5
2FF
100
AcDbEntity
  8
CURVE
100
AcDbLine
 62
250
  6
CONTINUOUS
 10
183.3826488108
 20
57.7809420249
 11
182.1938509213
 21
57.0533375856
  0
LINE
  5
300
100
AcDbEntity
  8
CURVE
100
AcDbLine
 62
250
  6
CONTINUOUS
 10
183.3826488229
 20
60.4925493932
 11
182.6671959068
 21
60.1073334286
  0
LINE
  5
301
100
AcDbEntity
  8
CURVE
100
AcDbLine
 62
250
  6
CONTINUOUS
 10
182.367782419
 20
59.9319960029
 11
181.8659083823
 21
59.6617757176
  0
LINE
  5
302
100
AcDbEntity
  8
CURVE
100
AcDbLine
 62
250
  6
CONTINUOUS
 10
181.5758172925
 20
59.0953964345
 11
183.3826488229
 21
60.0682352267
  0
LINE
  5
303
100
AcDbEntity
  8
CURVE
100
AcDbLine
 62
250
  6
CONTINUOUS
 10
183.3826488108
 20
55.8984808065
 11
181.5543486624
 21
54.9140828267
  0
LINE
  5
304
100
AcDbEntity
  8
CURVE
100
AcDbLine
 62
250
  6
CONTINUOUS
 10
182.1888747907
 20
55.9845775715
 11
183.3826488108
 21
56.5353953894
  0
LINE
  5
305
100
AcDbEntity
  8
CURVE
100
AcDbLine
 62
250
  6
CONTINUOUS
 10
183.3826488108
 20
56.1278248578
 11
181.5544576341
 21
55.32777269
  0
LINE
  5
306
100
AcDbEntity
  8
CURVE
100
AcDbLine
 62
7
  6
CONTINUOUS
 10
182.5436757591
 20
54.1217263589
 11
183.014068103
 21
54.5921187028
  0
LINE
  5
307
100
AcDbEntity
  8
CURVE
100
AcDbLine
 62
7
  6
CONTINUOUS
 10
181.5544576341
 20
52.9224975199
 11
183.270045335
 21
54.6380852208
  0
LINE
  5
308
100
AcDbEntity
  8
CURVE
100
AcDbLine
 62
7
  6
CONTINUOUS
 10
181.5544576341
 20
52.7124868059
 11
183.3826488108
 21
54.5406779826
  0
LINE
  5
309
100
AcDbEntity
  8
CURVE
100
AcDbLine
 62
7
  6
CONTINUOUS
 10
182.9386777156
 20
53.8866961734
 11
183.3826488108
 21
54.3306672686
  0
LINE
  5
30A
100
AcDbEntity
  8
CURVE
100
AcDbLine
 62
250
  6
CONTINUOUS
 10
183.3826488108
 20
54.2828682016
 11
181.5544576341
 21
52.6515047767
  0
LINE
  5
30B
100
AcDbEntity
  8
CURVE
100
AcDbLine
 62
250
  6
CONTINUOUS
 10
181.5544576341
 20
53.1143029908
 11
182.8128584554
 21
54.1808983412
  0
LINE
  5
30C
100
AcDbEntity
  8
0
100
AcDbLine
 62
7
  6
CONTINUOUS
 10
178.7243638594
 20
47.9297554352
 11
179.0033397935
 21
48.0908015108
  0
LINE
  5
30D
100
AcDbEntity
  8
ASSI
100
AcDbLine
 62
7
  6
CONTINUOUS
 10
178.7243638594
 20
47.9297554352
 11
179.0033397935
 21
48.0908015108
  0
LINE
  5
30E
100
AcDbEntity
  8
0
100
AcDbLine
 62
7
  6
CONTINUOUS
 10
179.7339005768
 20
47.3183808505
 11
180.4202989244
 21
47.714622055
  0
LINE
  5
30F
100
AcDbEntity
  8
ASSI
100
AcDbLine
 62
7
  6
CONTINUOUS
 10
179.7339005768
 20
47.3183808505
 11
180.4202989244
 21
47.714622055
  0
LINE
  5
310
100
AcDbEntity
  8
0
100
AcDbLine
 62
7
  6
CONTINUOUS
 10
184.5037332611
 20
49.754962121
 11
183.7961959918
 21
49.3465179271
  0
LINE
  5
311
100
AcDbEntity
  8
ASSI
100
AcDbLine
 62
7
  6
CONTINUOUS
 10
184.5037332611
 20
49.754962121
 11
183.7961959918
 21
49.3465179271
  0
LINE
  5
312
100
AcDbEntity
  8
CURVE
100
AcDbLine
 62
250
  6
CONTINUOUS
 10
181.5543486624
 20
54.4880543516
 11
183.3826488108
 21
55.4724523313
  0
LINE
  5
313
100
AcDbEntity
  8
0
100
AcDbLine
 62
7
  6
CONTINUOUS
 10
180.4418002763
 20
47.7261836067
 11
180.4202989244
 21
47.714622055
  0
LINE
  5
314
100
AcDbEntity
  8
ASSI
100
AcDbLine
 62
7
  6
CONTINUOUS
 10
180.4418002763
 20
47.7261836067
 11
180.4202989244
 21
47.714622055
  0
LINE
  5
315
100
AcDbEntity
  8
0
100
AcDbLine
 62
7
  6
CONTINUOUS
 10
180.4418002763
 20
47.7261836067
 11
184.5037332611
 21
49.754962121
  0
LINE
  5
316
100
AcDbEntity
  8
ASSI
100
AcDbLine
 62
7
  6
CONTINUOUS
 10
180.4418002763
 20
47.7261836067
 11
184.5037332611
 21
49.754962121
  0
LINE
  5
317
100
AcDbEntity
  8
0
100
AcDbLine
 62
7
  6
CONTINUOUS
 10
179.734263007
 20
47.3177394128
 11
183.7961959918
 21
49.3465179271
  0
LINE
  5
318
100
AcDbEntity
  8
ASSI
100
AcDbLine
 62
7
  6
CONTINUOUS
 10
179.734263007
 20
47.3177394128
 11
183.7961959918
 21
49.3465179271
  0
ENDSEC
  0
SECTION
  2
OBJECTS
  0
DICTIONARY
  5
C
100
AcDbDictionary
280
0
281
1
  3
ACAD_GROUP
350
D
  3
ACAD_MLINESTYLE
350
17
  3
ACAD_LAYOUT
350
1A
  3
ACAD_PLOTSETTINGS
350
19
  3
ACAD_PLOTSTYLENAME
350
E
  0
DICTIONARY
  5
D
102
{ACAD_REACTORS
330
C
102
}
100
AcDbDictionary
280
0
281
1
  0
ACDBDICTIONARYWDFLT
  5
E
102
{ACAD_REACTORS
330
C
102
}
100
AcDbDictionary
281
1
  3
Normal
350
F
100
AcDbDictionaryWithDefault
340
F
  0
DICTIONARY
  5
17
102
{ACAD_REACTORS
330
C
102
}
100
AcDbDictionary
280
0
281
1
  3
Standard
350
18
  0
DICTIONARY
  5
19
102
{ACAD_REACTORS
330
C
102
}
100
AcDbDictionary
281
1
  0
DICTIONARY
  5
1A
102
{ACAD_REACTORS
330
C
102
}
100
AcDbDictionary
281
1
  3
Model
350
319
  3
Layout1
350
31A
  0
ACDBPLACEHOLDER
  5
F
102
{ACAD_REACTORS
330
E
102
}
  0
MLINESTYLE
  5
18
102
{ACAD_REACTORS
330
17
102
}
100
AcDbMlineStyle
  2
STANDARD
 70
0
  3

 62
256
 51
90.0
 52
90.0
 71
2
 49
0.5
 62
256
  6
BYLAYER
 49
-0.5
 62
256
  6
BYLAYER
  0
LAYOUT
  5
319
102
{ACAD_REACTORS
330
1A
102
}
100
AcDbPlotSettings
  1

  2
none_device
  4
ISO_A4_(297.00_x_210.00_MM)
  6

 40
0.0
 41
0.0
 42
0.0
 43
0.0
 44
297.0
 45
210.0
 46
0.0
 47
0.0
 48
0.0
 49
0.0
140
0.0
141
0.0
142
1.0
143
1.0
 70
1024
 72
1
 73
0
 74
0
  7

 75
0
147
1.0
148
0.0
149
0.0
100
AcDbLayout
  1
Model
 70
0
 71
0
 10
0.0
 20
0.0
 11
297.0
 21
210.0
 12
0.0
 22
0.0
 32
0.0
 14
0.0
 24
0.0
 34
0.0
 15
0.0
 25
0.0
 35
0.0
146
0.0
 13
0.0
 23
0.0
 33
0.0
 16
1.0
 26
0.0
 36
0.0
 17
0.0
 27
1.0
 37
0.0
 76
0
330
21E
345
0
346
0
  0
LAYOUT
  5
31A
102
{ACAD_REACTORS
330
1A
102
}
100
AcDbPlotSettings
  1

  2
none_device
  4
ISO_A4_(297.00_x_210.00_MM)
  6

 40
0.0
 41
0.0
 42
0.0
 43
0.0
 44
297.0
 45
210.0
 46
0.0
 47
0.0
 48
0.0
 49
0.0
140
0.0
141
0.0
142
1.0
143
1.0
 70
0
 72
1
 73
0
 74
0
  7

 75
0
147
1.0
148
0.0
149
0.0
100
AcDbLayout
  1
Layout1
 70
0
 71
1
 10
0.0
 20
0.0
 11
297.0
 21
210.0
 12
0.0
 22
0.0
 32
0.0
 14
0.0
 24
0.0
 34
0.0
 15
0.0
 25
0.0
 35
0.0
146
0.0
 13
0.0
 23
0.0
 33
0.0
 16
1.0
 26
0.0
 36
0.0
 17
0.0
 27
1.0
 37
0.0
 76
0
330
21F
345
0
346
0
  0
ENDSEC
  0
EOF
