  0
SECTION
  2
HEADER
  9
$ACADVER
  1
AC1024
  9
$DWGCODEPAGE
  3
ANSI_1252
  9
$EXTMAX
 10
297.0
 20
210.0
 30
0.0
  9
$EXTMIN
 10
0.0
 20
0.0
 30
0.0
  9
$LIMMIN
 10
0.0
 20
0.0
  9
$LIMMAX
 10
297.0
 20
210.0
  9
$VIEWCTR
 10
148.5
 20
105.0
  9
$VIEWSIZE
 40
210.0
  9
$CLAYER
  8
0
  9
$LTSCALE
 40
16.335
  9
$CELTYPE
  6
BYLAYER
  9
$DIMSCALE
 40
1.0
  9
$DIMASZ
 40
3.0
  9
$DIMEXO
 40
0.5
  9
$DIMDLI
 40
11.286
  9
$DIMEXE
 40
1.5
  9
$DIMCEN
 40
2.673
  9
$DIMLFAC
 40
1.0
  9
$DIMBLK
  1
_FILLED
  9
$DIMALT
 70
0
  9
$DIMALTF
 40
0.0393700787
  9
$DIMTXT
 40
3.0
  9
$DIMTOL
 70
1
  9
$DIMLIM
 70
0
  9
$DIMTFAC
 40
1.0
  9
$DIMTP
 40
0.01
  9
$DIMTM
 40
0.01
  9
$DIMGAP
 40
0.625
  9
$DIMDSEP
 70
44
  9
$AUNITS
 70
0
  9
$PDMODE
 70
3
  9
$PDSIZE
 40
3.0
  9
$HANDSEED
  5
33B
  9
$TILEMODE
 70
1
  9
$MEASUREMENT
 70
1
  9
$INSUNITS
 70
4
  0
ENDSEC
  0
SECTION
  2
CLASSES
  0
CLASS
  1
ACDBDICTIONARYWDFLT
  2
AcDbDictionaryWithDefault
  3
AutoCAD 2000
 90
0
 91
1
280
0
281
0
  0
CLASS
  1
ACDBPLACEHOLDER
  2
AcDbPlaceHolder
  3
AutoCAD 2000
 90
0
 91
1
280
0
281
0
  0
CLASS
  1
LAYOUT
  2
AcDbLayout
  3
AutoCAD 2000
 90
0
 91
0
280
0
281
0
  0
ENDSEC
  0
SECTION
  2
TABLES
  0
TABLE
  2
VPORT
  5
8
100
AcDbSymbolTable
 70
2
  0
VPORT
  5
1F4
100
AcDbSymbolTableRecord
100
AcDbViewportTableRecord
  2
*ACTIVE
 70
0
 10
0.0
 20
0.0
 11
1.0
 21
1.0
 12
148.5
 22
105.0
 13
0.0
 23
0.0
 14
1.0
 24
1.0
 15
0.0
 25
0.0
 16
0.0
 26
0.0
 36
1.0
 17
0.0
 27
0.0
 37
0.0
 40
210.0
 41
1.4142857143
 42
50.0
 43
0.0
 44
0.0
 50
0.0
 51
0.0
 71
0
 72
100
 73
1
 74
1
 75
0
 76
0
 77
0
 78
0
  0
ENDTAB
  0
TABLE
  2
LTYPE
  5
5
100
AcDbSymbolTable
 70
6
  0
LTYPE
  5
14
100
AcDbSymbolTableRecord
100
AcDbLinetypeTableRecord
  2
BYBLOCK
 70
0
  3

 72
65
 73
0
 40
0.0
  0
LTYPE
  5
15
100
AcDbSymbolTableRecord
100
AcDbLinetypeTableRecord
  2
BYLAYER
 70
0
  3

 72
65
 73
0
 40
0.0
  0
LTYPE
  5
16
100
AcDbSymbolTableRecord
100
AcDbLinetypeTableRecord
  2
CONTINUOUS
 70
64
  3
Solid line
 72
65
 73
0
 40
0.0
  0
LTYPE
  5
1F5
100
AcDbSymbolTableRecord
100
AcDbLinetypeTableRecord
  2
CENTER
 70
64
  3
____ _ ____ _ ____ _ ____ _ ____ _ ____ _ ____
 72
65
 73
4
 40
0.6
 49
0.375
 74
0
 49
-0.075
 74
0
 49
0.075
 74
0
 49
-0.075
 74
0
  0
LTYPE
  5
1F6
100
AcDbSymbolTableRecord
100
AcDbLinetypeTableRecord
  2
HIDDEN
 70
64
  3
- - - - - - - - - - - - - - - - - - - -
 72
65
 73
2
 40
0.2
 49
0.1
 74
0
 49
-0.1
 74
0
  0
LTYPE
  5
1F7
100
AcDbSymbolTableRecord
100
AcDbLinetypeTableRecord
  2
PHANTOM
 70
64
  3
_____ _ _ _____ _ _ _____ _ _ _____
 72
65
 73
6
 40
0.8
 49
0.45
 74
0
 49
-0.05
 74
0
 49
0.1
 74
0
 49
-0.05
 74
0
 49
0.1
 74
0
 49
-0.05
 74
0
  0
LTYPE
  5
1F8
100
AcDbSymbolTableRecord
100
AcDbLinetypeTableRecord
  2
DOT
 70
64
  3
. . . . . . . . . . . . . . . . . . . .
 72
65
 73
2
 40
0.2
 49
0.1
 74
0
 49
-0.1
 74
0
  0
LTYPE
  5
1F9
100
AcDbSymbolTableRecord
100
AcDbLinetypeTableRecord
  2
DASHED
 70
64
  3
- - - - - - - - - - - - - - - - - - - -
 72
65
 73
2
 40
0.2
 49
0.1
 74
0
 49
-0.1
 74
0
  0
ENDTAB
  0
TABLE
  2
LAYER
  5
2
100
AcDbSymbolTable
 70
36
  0
LAYER
  5
10
100
AcDbSymbolTableRecord
100
AcDbLayerTableRecord
  2
0
 70
0
 62
7
  6
CONTINUOUS
370
-3
390
F
  0
LAYER
  5
1FA
100
AcDbSymbolTableRecord
100
AcDbLayerTableRecord
  2
DEFAULT_1
 70
0
 62
7
  6
CENTER
370
-3
390
F
  0
LAYER
  5
1FB
100
AcDbSymbolTableRecord
100
AcDbLayerTableRecord
  2
DEFAULT_2
 70
0
 62
7
  6
HIDDEN
370
-3
390
F
  0
LAYER
  5
1FC
100
AcDbSymbolTableRecord
100
AcDbLayerTableRecord
  2
DEFAULT_3
 70
0
 62
7
  6
PHANTOM
370
-3
390
F
  0
LAYER
  5
1FD
100
AcDbSymbolTableRecord
100
AcDbLayerTableRecord
  2
ASSI
 70
0
 62
7
  6
CONTINUOUS
370
-3
390
F
  0
LAYER
  5
1FE
100
AcDbSymbolTableRecord
100
AcDbLayerTableRecord
  2
COORDINATE
 70
0
 62
7
  6
CONTINUOUS
370
-3
390
F
  0
LAYER
  5
1FF
100
AcDbSymbolTableRecord
100
AcDbLayerTableRecord
  2
COORD_ORIGINE
 70
0
 62
7
  6
CONTINUOUS
370
-3
390
F
  0
LAYER
  5
200
100
AcDbSymbolTableRecord
100
AcDbLayerTableRecord
  2
COPY_PUBLISH
 70
0
 62
7
  6
CONTINUOUS
370
-3
390
F
  0
LAYER
  5
201
100
AcDbSymbolTableRecord
100
AcDbLayerTableRecord
  2
COSMETIC
 70
0
 62
7
  6
CONTINUOUS
370
-3
390
F
  0
LAYER
  5
202
100
AcDbSymbolTableRecord
100
AcDbLayerTableRecord
  2
COSMETICI
 70
0
 62
7
  6
CONTINUOUS
370
-3
390
F
  0
LAYER
  5
203
100
AcDbSymbolTableRecord
100
AcDbLayerTableRecord
  2
CURVE
 70
0
 62
7
  6
CONTINUOUS
370
-3
390
F
  0
LAYER
  5
204
100
AcDbSymbolTableRecord
100
AcDbLayerTableRecord
  2
CURVE_TASSELLI
 70
0
 62
7
  6
CONTINUOUS
370
-3
390
F
  0
LAYER
  5
205
100
AcDbSymbolTableRecord
100
AcDbLayerTableRecord
  2
DRAFT
 70
0
 62
7
  6
CONTINUOUS
370
-3
390
F
  0
LAYER
  5
206
100
AcDbSymbolTableRecord
100
AcDbLayerTableRecord
  2
IMPORT_IGES
 70
0
 62
7
  6
CONTINUOUS
370
-3
390
F
  0
LAYER
  5
207
100
AcDbSymbolTableRecord
100
AcDbLayerTableRecord
  2
INTFCLR_2
 70
0
 62
7
  6
CONTINUOUS
370
-3
390
F
  0
LAYER
  5
208
100
AcDbSymbolTableRecord
100
AcDbLayerTableRecord
  2
INTF_1
 70
0
 62
7
  6
CONTINUOUS
370
-3
390
F
  0
LAYER
  5
209
100
AcDbSymbolTableRecord
100
AcDbLayerTableRecord
  2
INTF_21
 70
0
 62
7
  6
CONTINUOUS
370
-3
390
F
  0
LAYER
  5
20A
100
AcDbSymbolTableRecord
100
AcDbLayerTableRecord
  2
INTF_6
 70
0
 62
7
  6
CONTINUOUS
370
-3
390
F
  0
LAYER
  5
20B
100
AcDbSymbolTableRecord
100
AcDbLayerTableRecord
  2
INTF_7
 70
0
 62
7
  6
CONTINUOUS
370
-3
390
F
  0
LAYER
  5
20C
100
AcDbSymbolTableRecord
100
AcDbLayerTableRecord
  2
INTF_CYAN
 70
0
 62
7
  6
CONTINUOUS
370
-3
390
F
  0
LAYER
  5
20D
100
AcDbSymbolTableRecord
100
AcDbLayerTableRecord
  2
LIVELLO_1
 70
0
 62
7
  6
CONTINUOUS
370
-3
390
F
  0
LAYER
  5
20E
100
AcDbSymbolTableRecord
100
AcDbLayerTableRecord
  2
NOTE
 70
0
 62
7
  6
CONTINUOUS
370
-3
390
F
  0
LAYER
  5
20F
100
AcDbSymbolTableRecord
100
AcDbLayerTableRecord
  2
PIANI
 70
0
 62
7
  6
CONTINUOUS
370
-3
390
F
  0
LAYER
  5
210
100
AcDbSymbolTableRecord
100
AcDbLayerTableRecord
  2
PIANI_ORIGINE
 70
0
 62
7
  6
CONTINUOUS
370
-3
390
F
  0
LAYER
  5
211
100
AcDbSymbolTableRecord
100
AcDbLayerTableRecord
  2
PIANI_RIFERIMENTO
 70
0
 62
7
  6
CONTINUOUS
370
-3
390
F
  0
LAYER
  5
212
100
AcDbSymbolTableRecord
100
AcDbLayerTableRecord
  2
PUNTI
 70
0
 62
7
  6
CONTINUOUS
370
-3
390
F
  0
LAYER
  5
213
100
AcDbSymbolTableRecord
100
AcDbLayerTableRecord
  2
RACCORDO
 70
0
 62
7
  6
CONTINUOUS
370
-3
390
F
  0
LAYER
  5
214
100
AcDbSymbolTableRecord
100
AcDbLayerTableRecord
  2
RGB__255__255__255__
 70
0
 62
7
  6
CONTINUOUS
370
-3
390
F
  0
LAYER
  5
215
100
AcDbSymbolTableRecord
100
AcDbLayerTableRecord
  2
RGB____0____0____0__
 70
0
 62
7
  6
CONTINUOUS
370
-3
390
F
  0
LAYER
  5
216
100
AcDbSymbolTableRecord
100
AcDbLayerTableRecord
  2
SIMBOLI
 70
0
 62
7
  6
CONTINUOUS
370
-3
390
F
  0
LAYER
  5
217
100
AcDbSymbolTableRecord
100
AcDbLayerTableRecord
  2
SMUSSO
 70
0
 62
7
  6
CONTINUOUS
370
-3
390
F
  0
LAYER
  5
218
100
AcDbSymbolTableRecord
100
AcDbLayerTableRecord
  2
SUPERFICI
 70
0
 62
7
  6
CONTINUOUS
370
-3
390
F
  0
LAYER
  5
219
100
AcDbSymbolTableRecord
100
AcDbLayerTableRecord
  2
TRASH
 70
0
 62
7
  6
CONTINUOUS
370
-3
390
F
  0
LAYER
  5
21A
100
AcDbSymbolTableRecord
100
AcDbLayerTableRecord
  2
WHITE
 70
0
 62
7
  6
CONTINUOUS
370
-3
390
F
  0
LAYER
  5
21B
100
AcDbSymbolTableRecord
100
AcDbLayerTableRecord
  2
XSEC_DATUMS
 70
0
 62
7
  6
CONTINUOUS
370
-3
390
F
  0
ENDTAB
  0
TABLE
  2
STYLE
  5
3
100
AcDbSymbolTable
 70
1
  0
STYLE
  5
11
100
AcDbSymbolTableRecord
100
AcDbTextStyleTableRecord
  2
STANDARD
 70
0
 40
0.0
 41
0.8
 50
0.0
 71
0
 42
0.2
  3
txt
  4

  0
STYLE
  5
21C
100
AcDbSymbolTableRecord
100
AcDbTextStyleTableRecord
  2
TEXTSTYLE_1
 70
0
 40
0.0
 41
0.8
 50
0.0
 71
0
 42
0.2
  3
gdt
  4

  0
ENDTAB
  0
TABLE
  2
VIEW
  5
6
100
AcDbSymbolTable
 70
0
  0
ENDTAB
  0
TABLE
  2
UCS
  5
7
100
AcDbSymbolTable
 70
0
  0
ENDTAB
  0
TABLE
  2
APPID
  5
9
100
AcDbSymbolTable
 70
1
  0
APPID
  5
21D
100
AcDbSymbolTableRecord
100
AcDbRegAppTableRecord
  2
ACAD
 70
0
  0
ENDTAB
  0
TABLE
  2
BLOCK_RECORD
  5
1
100
AcDbSymbolTable
 70
0
  0
BLOCK_RECORD
  5
21E
100
AcDbSymbolTableRecord
100
AcDbBlockTableRecord
  2
*Model_Space
  0
BLOCK_RECORD
  5
21F
100
AcDbSymbolTableRecord
100
AcDbBlockTableRecord
  2
*Paper_Space
  0
BLOCK_RECORD
  5
220
100
AcDbSymbolTableRecord
100
AcDbBlockTableRecord
  2
_FILLED
  0
ENDTAB
  0
TABLE
  2
DIMSTYLE
  5
A
100
AcDbSymbolTable
 70
1
100
AcDbDimStyleTable
 71
0
  0
DIMSTYLE
105
221
100
AcDbSymbolTableRecord
100
AcDbDimStyleTableRecord
  2
STANDARD
 70
0
  3

  4

 40
1.0
 41
3.0
 42
0.5
 43
0.38
 44
1.5
 45
0.0
 46
0.0
 47
0.01
 48
0.01
140
3.0
141
0.09
142
0.0
143
25.4
144
1.0
145
0.0
146
1.0
147
0.625
 71
1
 72
0
 73
0
 74
0
 75
0
 76
0
 77
1
 78
8
 79
2
170
0
171
1
172
0
173
0
174
0
175
0
176
0
177
0
178
0
270
2
179
2
271
2
272
2
273
2
274
2
275
0
280
0
281
0
282
0
283
1
284
8
285
0
286
0
287
3
288
0
340
11
278
44
341
220
342
220
343
220
344
220
  0
ENDTAB
  0
ENDSEC
  0
SECTION
  2
BLOCKS
  0
BLOCK
  5
20
100
AcDbEntity
  8
0
100
AcDbBlockBegin
  2
*Model_Space
 70
0
 10
0.0
 20
0.0
 30
0.0
  3
*Model_Space
  1

  0
ENDBLK
  5
21
100
AcDbEntity
  8
0
100
AcDbBlockEnd
  0
BLOCK
  5
1C
100
AcDbEntity
  8
0
100
AcDbBlockBegin
  2
*Paper_Space
 70
0
 10
0.0
 20
0.0
 30
0.0
  3
*Paper_Space
  1

  0
ENDBLK
  5
1D
100
AcDbEntity
  8
0
100
AcDbBlockEnd
  0
BLOCK
  5
222
100
AcDbEntity
  8
0
100
AcDbBlockBegin
  2
_FILLED
 70
64
 10
0.0
 20
0.0
  3
_FILLED
  1

  0
SOLID
  5
223
100
AcDbEntity
  8
0
  6
BYBLOCK
 62
0
100
AcDbTrace
 10
0.0
 20
0.0
 11
-1.0
 21
0.3166666667
 12
-1.0
 22
-0.3166666667
 13
-1.0
 23
-0.3166666667
  0
ENDBLK
  5
224
100
AcDbEntity
  8
0
  6
BYBLOCK
 62
0
100
AcDbBlockEnd
  0
ENDSEC
  0
SECTION
  2
ENTITIES
  0
LINE
  5
225
100
AcDbEntity
  8
0
100
AcDbLine
 62
7
  6
CONTINUOUS
 10
-33.713712047
 20
52.8073741756
 11
-29.9258982598
 21
55.3109410669
  0
LINE
  5
226
100
AcDbEntity
  8
ASSI
100
AcDbLine
 62
7
  6
CONTINUOUS
 10
-33.713712047
 20
52.8073741756
 11
-29.9258982598
 21
55.3109410669
  0
LINE
  5
227
100
AcDbEntity
  8
0
100
AcDbLine
 62
7
  6
CONTINUOUS
 10
-33.0061747777
 20
53.2158183695
 11
-29.2183609905
 21
55.7193852608
  0
LINE
  5
228
100
AcDbEntity
  8
ASSI
100
AcDbLine
 62
7
  6
CONTINUOUS
 10
-33.0061747777
 20
53.2158183695
 11
-29.2183609905
 21
55.7193852608
  0
LINE
  5
229
100
AcDbEntity
  8
0
100
AcDbLine
 62
7
  6
CONTINUOUS
 10
-33.0269383918
 20
53.2029790185
 11
-33.0061747777
 21
53.2158183695
  0
LINE
  5
22A
100
AcDbEntity
  8
ASSI
100
AcDbLine
 62
7
  6
CONTINUOUS
 10
-33.0269383918
 20
53.2029790185
 11
-33.0061747777
 21
53.2158183695
  0
LINE
  5
22B
100
AcDbEntity
  8
0
100
AcDbLine
 62
7
  6
CONTINUOUS
 10
-29.9258982598
 20
55.3109410669
 11
-29.2183609905
 21
55.7193852608
  0
LINE
  5
22C
100
AcDbEntity
  8
ASSI
100
AcDbLine
 62
7
  6
CONTINUOUS
 10
-29.9258982598
 20
55.3109410669
 11
-29.2183609905
 21
55.7193852608
  0
LINE
  5
22D
100
AcDbEntity
  8
0
100
AcDbLine
 62
7
  6
CONTINUOUS
 10
-33.0269383918
 20
53.2029790185
 11
-33.7133367395
 21
52.8067378141
  0
LINE
  5
22E
100
AcDbEntity
  8
ASSI
100
AcDbLine
 62
7
  6
CONTINUOUS
 10
-33.0269383918
 20
53.2029790185
 11
-33.7133367395
 21
52.8067378141
  0
LINE
  5
22F
100
AcDbEntity
  8
0
100
AcDbLine
 62
7
  6
CONTINUOUS
 10
-33.4096276917
 20
51.7877505801
 11
-33.6886036258
 21
51.6267045045
  0
LINE
  5
230
100
AcDbEntity
  8
ASSI
100
AcDbLine
 62
7
  6
CONTINUOUS
 10
-33.4096276917
 20
51.7877505801
 11
-33.6886036258
 21
51.6267045045
  0
LINE
  5
231
100
AcDbEntity
  8
CURVE
100
AcDbLine
 62
250
  6
CONTINUOUS
 10
32.0228372413
 20
-48.8562263324
 11
30.76443642
 21
-49.1328491324
  0
LINE
  5
232
100
AcDbEntity
  8
CURVE
100
AcDbLine
 62
250
  6
CONTINUOUS
 10
30.76443642
 20
-48.7071121372
 11
32.5926275967
 21
-48.3788189447
  0
LINE
  5
233
100
AcDbEntity
  8
CURVE
100
AcDbLine
 62
250
  6
CONTINUOUS
 10
31.2667769489
 20
-44.6481475647
 11
31.9452420763
 21
-44.4949729848
  0
LINE
  5
234
100
AcDbEntity
  8
CURVE
100
AcDbLine
 62
250
  6
CONTINUOUS
 10
32.2276557709
 20
-44.4300610456
 11
32.5926275967
 21
-44.351109834
  0
LINE
  5
235
100
AcDbEntity
  8
CURVE
100
AcDbLine
 62
250
  6
CONTINUOUS
 10
32.5926275967
 20
-44.7725154544
 11
30.76443642
 21
-45.1166800126
  0
LINE
  5
236
100
AcDbEntity
  8
CURVE
100
AcDbLine
 62
250
  6
CONTINUOUS
 10
31.7794536997
 20
-46.315639151
 11
30.76443642
 21
-46.4361188411
  0
LINE
  5
237
100
AcDbEntity
  8
CURVE
100
AcDbLine
 62
250
  6
CONTINUOUS
 10
31.4038297072
 20
-45.983787088
 11
32.5926275967
 21
-45.8502586692
  0
LINE
  5
238
100
AcDbEntity
  8
0
100
AcDbLine
 62
7
  6
CONTINUOUS
 10
-33.4096276917
 20
51.7877505801
 11
-33.0269383918
 21
53.2029790185
  0
LINE
  5
239
100
AcDbEntity
  8
ASSI
100
AcDbLine
 62
7
  6
CONTINUOUS
 10
-33.4096276917
 20
51.7877505801
 11
-33.0269383918
 21
53.2029790185
  0
LINE
  5
23A
100
AcDbEntity
  8
0
100
AcDbLine
 62
7
  6
CONTINUOUS
 10
28.2133185794
 20
-54.9463231628
 11
29.6302777103
 21
-55.3225026187
  0
LINE
  5
23B
100
AcDbEntity
  8
ASSI
100
AcDbLine
 62
7
  6
CONTINUOUS
 10
28.2133185794
 20
-54.9463231628
 11
29.6302777103
 21
-55.3225026187
  0
LINE
  5
23C
100
AcDbEntity
  8
0
100
AcDbLine
 62
7
  6
CONTINUOUS
 10
-33.6886036258
 20
-19.2049290948
 11
-33.4096276917
 21
-19.6881295863
  0
LINE
  5
23D
100
AcDbEntity
  8
ASSI
100
AcDbLine
 62
7
  6
CONTINUOUS
 10
-33.6886036258
 20
-19.2049290948
 11
-33.4096276917
 21
-19.6881295863
  0
LINE
  5
23E
100
AcDbEntity
  8
0
100
AcDbLine
 62
7
  6
CONTINUOUS
 10
-33.6886036258
 20
-19.2049290948
 11
-33.7133367395
 21
-18.7486935173
  0
LINE
  5
23F
100
AcDbEntity
  8
ASSI
100
AcDbLine
 62
7
  6
CONTINUOUS
 10
-33.6886036258
 20
-19.2049290948
 11
-33.7133367395
 21
-18.7486935173
  0
LINE
  5
240
100
AcDbEntity
  8
0
100
AcDbLine
 62
7
  6
CONTINUOUS
 10
-33.4096276917
 20
-19.6881295863
 11
-33.0269383918
 21
-19.9375703284
  0
LINE
  5
241
100
AcDbEntity
  8
ASSI
100
AcDbLine
 62
7
  6
CONTINUOUS
 10
-33.4096276917
 20
-19.6881295863
 11
-33.0269383918
 21
-19.9375703284
  0
LINE
  5
242
100
AcDbEntity
  8
0
100
AcDbLine
 62
7
  6
CONTINUOUS
 10
-33.6886036258
 20
51.6267045045
 11
-33.7133367395
 21
52.8067378141
  0
LINE
  5
243
100
AcDbEntity
  8
ASSI
100
AcDbLine
 62
7
  6
CONTINUOUS
 10
-33.6886036258
 20
51.6267045045
 11
-33.7133367395
 21
52.8067378141
  0
LINE
  5
244
100
AcDbEntity
  8
0
100
AcDbLine
 62
7
  6
CONTINUOUS
 10
-33.7133367395
 20
-18.7486935173
 11
-33.713712047
 21
-18.7245006566
  0
LINE
  5
245
100
AcDbEntity
  8
ASSI
100
AcDbLine
 62
7
  6
CONTINUOUS
 10
-33.7133367395
 20
-18.7486935173
 11
-33.713712047
 21
-18.7245006566
  0
LINE
  5
246
100
AcDbEntity
  8
0
100
AcDbLine
 62
7
  6
CONTINUOUS
 10
-33.713712047
 20
52.8073741756
 11
-33.713712047
 21
-18.7245006566
  0
LINE
  5
247
100
AcDbEntity
  8
ASSI
100
AcDbLine
 62
7
  6
CONTINUOUS
 10
-33.713712047
 20
52.8073741756
 11
-33.713712047
 21
-18.7245006566
  0
LINE
  5
248
100
AcDbEntity
  8
0
100
AcDbLine
 62
7
  6
CONTINUOUS
 10
-33.6886036258
 20
51.6267045045
 11
-33.6886036258
 21
-19.2049290948
  0
LINE
  5
249
100
AcDbEntity
  8
ASSI
100
AcDbLine
 62
7
  6
CONTINUOUS
 10
-33.6886036258
 20
51.6267045045
 11
-33.6886036258
 21
-19.2049290948
  0
LINE
  5
24A
100
AcDbEntity
  8
0
100
AcDbLine
 62
7
  6
CONTINUOUS
 10
-33.0061747777
 20
-19.949991154
 11
28.9442417929
 21
-55.7193852608
  0
LINE
  5
24B
100
AcDbEntity
  8
ASSI
100
AcDbLine
 62
7
  6
CONTINUOUS
 10
-33.0061747777
 20
-19.949991154
 11
28.9442417929
 21
-55.7193852608
  0
LINE
  5
24C
100
AcDbEntity
  8
0
100
AcDbLine
 62
7
  6
CONTINUOUS
 10
-33.4096276917
 20
-19.6881295863
 11
27.9343426453
 21
-55.1073692384
  0
LINE
  5
24D
100
AcDbEntity
  8
ASSI
100
AcDbLine
 62
7
  6
CONTINUOUS
 10
-33.4096276917
 20
-19.6881295863
 11
27.9343426453
 21
-55.1073692384
  0
LINE
  5
24E
100
AcDbEntity
  8
0
100
AcDbLine
 62
7
  6
CONTINUOUS
 10
-33.0061747777
 20
-19.949991154
 11
-33.0269383918
 21
-19.9375703284
  0
LINE
  5
24F
100
AcDbEntity
  8
ASSI
100
AcDbLine
 62
7
  6
CONTINUOUS
 10
-33.0061747777
 20
-19.949991154
 11
-33.0269383918
 21
-19.9375703284
  0
LINE
  5
250
100
AcDbEntity
  8
0
100
AcDbLine
 62
7
  6
CONTINUOUS
 10
27.9343426453
 20
-55.1073692384
 11
28.9438793627
 21
-55.7187438231
  0
LINE
  5
251
100
AcDbEntity
  8
ASSI
100
AcDbLine
 62
7
  6
CONTINUOUS
 10
27.9343426453
 20
-55.1073692384
 11
28.9438793627
 21
-55.7187438231
  0
LINE
  5
252
100
AcDbEntity
  8
0
100
AcDbLine
 62
7
  6
CONTINUOUS
 10
-8.6773394852
 20
-3.7006535997
 11
-8.6773394852
 21
7.2400481093
  0
LINE
  5
253
100
AcDbEntity
  8
ASSI
100
AcDbLine
 62
7
  6
CONTINUOUS
 10
-8.6773394852
 20
-3.7006535997
 11
-8.6773394852
 21
7.2400481093
  0
LINE
  5
254
100
AcDbEntity
  8
0
100
AcDbLine
 62
250
  6
CONTINUOUS
 10
-7.5894591584
 20
7.8374685472
 11
-7.8288113477
 21
7.321703028
  0
LINE
  5
255
100
AcDbEntity
  8
ASSI
100
AcDbLine
 62
250
  6
CONTINUOUS
 10
-7.5894591584
 20
7.8374685472
 11
-7.8288113477
 21
7.321703028
  0
LINE
  5
256
100
AcDbEntity
  8
0
100
AcDbLine
 62
250
  6
CONTINUOUS
 10
-7.970232704
 20
7.2400481093
 11
-7.8288113477
 21
7.321703028
  0
LINE
  5
257
100
AcDbEntity
  8
ASSI
100
AcDbLine
 62
250
  6
CONTINUOUS
 10
-7.970232704
 20
7.2400481093
 11
-7.8288113477
 21
7.321703028
  0
LINE
  5
258
100
AcDbEntity
  8
0
100
AcDbLine
 62
250
  6
CONTINUOUS
 10
3.0614115746
 20
-10.6101333548
 11
2.4949476576
 21
-10.5595720758
  0
LINE
  5
259
100
AcDbEntity
  8
ASSI
100
AcDbLine
 62
250
  6
CONTINUOUS
 10
3.0614115746
 20
-10.6101333548
 11
2.4949476576
 21
-10.5595720758
  0
LINE
  5
25A
100
AcDbEntity
  8
0
100
AcDbLine
 62
7
  6
CONTINUOUS
 10
1.9999729107
 20
-11.2535994295
 11
-7.4752579572
 21
-5.7827198789
  0
LINE
  5
25B
100
AcDbEntity
  8
ASSI
100
AcDbLine
 62
7
  6
CONTINUOUS
 10
1.9999729107
 20
-11.2535994295
 11
-7.4752579572
 21
-5.7827198789
  0
LINE
  5
25C
100
AcDbEntity
  8
0
100
AcDbLine
 62
7
  6
CONTINUOUS
 10
-7.970232704
 20
-3.7006535997
 11
-7.970232704
 21
7.2400481093
  0
LINE
  5
25D
100
AcDbEntity
  8
ASSI
100
AcDbLine
 62
7
  6
CONTINUOUS
 10
-7.970232704
 20
-3.7006535997
 11
-7.970232704
 21
7.2400481093
  0
LINE
  5
25E
100
AcDbEntity
  8
0
100
AcDbLine
 62
7
  6
CONTINUOUS
 10
-7.8288113477
 20
7.321703028
 11
-7.8288113477
 21
-3.618998681
  0
LINE
  5
25F
100
AcDbEntity
  8
ASSI
100
AcDbLine
 62
7
  6
CONTINUOUS
 10
-7.8288113477
 20
7.321703028
 11
-7.8288113477
 21
-3.618998681
  0
LINE
  5
260
100
AcDbEntity
  8
0
100
AcDbLine
 62
7
  6
CONTINUOUS
 10
-7.4701811589
 20
7.8440787384
 11
-7.4701811589
 21
-2.8462082334
  0
LINE
  5
261
100
AcDbEntity
  8
ASSI
100
AcDbLine
 62
7
  6
CONTINUOUS
 10
-7.4701811589
 20
7.8440787384
 11
-7.4701811589
 21
-2.8462082334
  0
LINE
  5
262
100
AcDbEntity
  8
0
100
AcDbLine
 62
250
  6
CONTINUOUS
 10
-7.4701811589
 20
-2.8462082334
 11
-7.8288113477
 21
-3.618998681
  0
LINE
  5
263
100
AcDbEntity
  8
ASSI
100
AcDbLine
 62
250
  6
CONTINUOUS
 10
-7.4701811589
 20
-2.8462082334
 11
-7.8288113477
 21
-3.618998681
  0
LINE
  5
264
100
AcDbEntity
  8
0
100
AcDbLine
 62
250
  6
CONTINUOUS
 10
-6.1317550729
 20
-5.1644302141
 11
-6.9802832103
 21
-5.0886925252
  0
LINE
  5
265
100
AcDbEntity
  8
ASSI
100
AcDbLine
 62
250
  6
CONTINUOUS
 10
-6.1317550729
 20
-5.1644302141
 11
-6.9802832103
 21
-5.0886925252
  0
LINE
  5
266
100
AcDbEntity
  8
0
100
AcDbLine
 62
7
  6
CONTINUOUS
 10
2.3535263013
 20
-10.6412269944
 11
-7.1217045666
 21
-5.1703474439
  0
LINE
  5
267
100
AcDbEntity
  8
ASSI
100
AcDbLine
 62
7
  6
CONTINUOUS
 10
2.3535263013
 20
-10.6412269944
 11
-7.1217045666
 21
-5.1703474439
  0
LINE
  5
268
100
AcDbEntity
  8
0
100
AcDbLine
 62
7
  6
CONTINUOUS
 10
-6.9802832103
 20
-5.0886925252
 11
2.4949476576
 21
-10.5595720758
  0
LINE
  5
269
100
AcDbEntity
  8
ASSI
100
AcDbLine
 62
7
  6
CONTINUOUS
 10
-6.9802832103
 20
-5.0886925252
 11
2.4949476576
 21
-10.5595720758
  0
LINE
  5
26A
100
AcDbEntity
  8
0
100
AcDbLine
 62
7
  6
CONTINUOUS
 10
-6.1317550729
 20
-5.1644302141
 11
3.1267423021
 21
-10.5101705622
  0
LINE
  5
26B
100
AcDbEntity
  8
ASSI
100
AcDbLine
 62
7
  6
CONTINUOUS
 10
-6.1317550729
 20
-5.1644302141
 11
3.1267423021
 21
-10.5101705622
  0
LINE
  5
26C
100
AcDbEntity
  8
0
100
AcDbLine
 62
250
  6
CONTINUOUS
 10
-7.4752579572
 20
-5.7827198789
 11
-7.1217045666
 21
-5.1703474439
  0
LINE
  5
26D
100
AcDbEntity
  8
ASSI
100
AcDbLine
 62
250
  6
CONTINUOUS
 10
-7.4752579572
 20
-5.7827198789
 11
-7.1217045666
 21
-5.1703474439
  0
LINE
  5
26E
100
AcDbEntity
  8
0
100
AcDbLine
 62
250
  6
CONTINUOUS
 10
-7.970232704
 20
-3.7006535997
 11
-7.8288113477
 21
-3.618998681
  0
LINE
  5
26F
100
AcDbEntity
  8
ASSI
100
AcDbLine
 62
250
  6
CONTINUOUS
 10
-7.970232704
 20
-3.7006535997
 11
-7.8288113477
 21
-3.618998681
  0
LINE
  5
270
100
AcDbEntity
  8
0
100
AcDbLine
 62
7
  6
CONTINUOUS
 10
28.9442417929
 20
17.4464242627
 11
33.0061747777
 21
19.7917181648
  0
LINE
  5
271
100
AcDbEntity
  8
ASSI
100
AcDbLine
 62
7
  6
CONTINUOUS
 10
28.9442417929
 20
17.4464242627
 11
33.0061747777
 21
19.7917181648
  0
LINE
  5
272
100
AcDbEntity
  8
0
100
AcDbLine
 62
250
  6
CONTINUOUS
 10
-8.6773394852
 20
-3.7006535997
 11
-7.970232704
 21
-3.7006535997
  0
LINE
  5
273
100
AcDbEntity
  8
ASSI
100
AcDbLine
 62
250
  6
CONTINUOUS
 10
-8.6773394852
 20
-3.7006535997
 11
-7.970232704
 21
-3.7006535997
  0
LINE
  5
274
100
AcDbEntity
  8
0
100
AcDbLine
 62
7
  6
CONTINUOUS
 10
-33.713712047
 20
52.8073741756
 11
-33.7133367395
 21
52.8067378141
  0
LINE
  5
275
100
AcDbEntity
  8
ASSI
100
AcDbLine
 62
7
  6
CONTINUOUS
 10
-33.713712047
 20
52.8073741756
 11
-33.7133367395
 21
52.8067378141
  0
LINE
  5
276
100
AcDbEntity
  8
0
100
AcDbLine
 62
7
  6
CONTINUOUS
 10
28.9438793627
 20
-55.7187438231
 11
28.9442417929
 21
-55.7193852608
  0
LINE
  5
277
100
AcDbEntity
  8
ASSI
100
AcDbLine
 62
7
  6
CONTINUOUS
 10
28.9438793627
 20
-55.7187438231
 11
28.9442417929
 21
-55.7193852608
  0
LINE
  5
278
100
AcDbEntity
  8
0
100
AcDbLine
 62
7
  6
CONTINUOUS
 10
3.2020544388
 20
0.3810349414
 11
3.2020544388
 21
-10.5596667676
  0
LINE
  5
279
100
AcDbEntity
  8
ASSI
100
AcDbLine
 62
7
  6
CONTINUOUS
 10
3.2020544388
 20
0.3810349414
 11
3.2020544388
 21
-10.5596667676
  0
LINE
  5
27A
100
AcDbEntity
  8
0
100
AcDbLine
 62
7
  6
CONTINUOUS
 10
29.6517790622
 20
16.2209337653
 11
33.713712047
 21
18.5662276674
  0
LINE
  5
27B
100
AcDbEntity
  8
ASSI
100
AcDbLine
 62
7
  6
CONTINUOUS
 10
29.6517790622
 20
16.2209337653
 11
33.713712047
 21
18.5662276674
  0
LINE
  5
27C
100
AcDbEntity
  8
0
100
AcDbLine
 62
250
  6
CONTINUOUS
 10
-7.1217045666
 20
-5.1703474439
 11
-6.9802832103
 21
-5.0886925252
  0
LINE
  5
27D
100
AcDbEntity
  8
ASSI
100
AcDbLine
 62
250
  6
CONTINUOUS
 10
-7.1217045666
 20
-5.1703474439
 11
-6.9802832103
 21
-5.0886925252
  0
LINE
  5
27E
100
AcDbEntity
  8
0
100
AcDbLine
 62
7
  6
CONTINUOUS
 10
-7.4752579572
 20
7.9339807712
 11
1.9999729107
 21
2.4631012206
  0
LINE
  5
27F
100
AcDbEntity
  8
ASSI
100
AcDbLine
 62
7
  6
CONTINUOUS
 10
-7.4752579572
 20
7.9339807712
 11
1.9999729107
 21
2.4631012206
  0
LINE
  5
280
100
AcDbEntity
  8
0
100
AcDbLine
 62
250
  6
CONTINUOUS
 10
1.9999729107
 20
-11.2535994295
 11
2.3535263013
 21
-10.6412269944
  0
LINE
  5
281
100
AcDbEntity
  8
ASSI
100
AcDbLine
 62
250
  6
CONTINUOUS
 10
1.9999729107
 20
-11.2535994295
 11
2.3535263013
 21
-10.6412269944
  0
LINE
  5
282
100
AcDbEntity
  8
0
100
AcDbLine
 62
7
  6
CONTINUOUS
 10
27.9343426453
 20
16.368510928
 11
28.9438793627
 21
17.4218055238
  0
LINE
  5
283
100
AcDbEntity
  8
ASSI
100
AcDbLine
 62
7
  6
CONTINUOUS
 10
27.9343426453
 20
16.368510928
 11
28.9438793627
 21
17.4218055238
  0
LINE
  5
284
100
AcDbEntity
  8
0
100
AcDbLine
 62
7
  6
CONTINUOUS
 10
28.2133185794
 20
15.8853104365
 11
29.6302777103
 21
16.2329287127
  0
LINE
  5
285
100
AcDbEntity
  8
ASSI
100
AcDbLine
 62
7
  6
CONTINUOUS
 10
28.2133185794
 20
15.8853104365
 11
29.6302777103
 21
16.2329287127
  0
LINE
  5
286
100
AcDbEntity
  8
0
100
AcDbLine
 62
250
  6
CONTINUOUS
 10
-8.6773394852
 20
7.2400481093
 11
-7.970232704
 21
7.2400481093
  0
LINE
  5
287
100
AcDbEntity
  8
ASSI
100
AcDbLine
 62
250
  6
CONTINUOUS
 10
-8.6773394852
 20
7.2400481093
 11
-7.970232704
 21
7.2400481093
  0
LINE
  5
288
100
AcDbEntity
  8
0
100
AcDbLine
 62
250
  6
CONTINUOUS
 10
2.3535263013
 20
-10.6412269944
 11
2.4949476576
 21
-10.5595720758
  0
LINE
  5
289
100
AcDbEntity
  8
ASSI
100
AcDbLine
 62
250
  6
CONTINUOUS
 10
2.3535263013
 20
-10.6412269944
 11
2.4949476576
 21
-10.5595720758
  0
LINE
  5
28A
100
AcDbEntity
  8
0
100
AcDbLine
 62
7
  6
CONTINUOUS
 10
28.2133185794
 20
-54.9463231628
 11
28.2133185794
 21
15.8853104365
  0
LINE
  5
28B
100
AcDbEntity
  8
ASSI
100
AcDbLine
 62
7
  6
CONTINUOUS
 10
28.2133185794
 20
-54.9463231628
 11
28.2133185794
 21
15.8853104365
  0
LINE
  5
28C
100
AcDbEntity
  8
0
100
AcDbLine
 62
7
  6
CONTINUOUS
 10
29.6517790622
 20
-55.3109410669
 11
29.6517790622
 21
16.2209337653
  0
LINE
  5
28D
100
AcDbEntity
  8
ASSI
100
AcDbLine
 62
7
  6
CONTINUOUS
 10
29.6517790622
 20
-55.3109410669
 11
29.6517790622
 21
16.2209337653
  0
LINE
  5
28E
100
AcDbEntity
  8
CURVE
100
AcDbLine
 62
250
  6
CONTINUOUS
 10
30.7643274483
 20
-48.1230418469
 11
30.7643274483
 21
-48.549070322
  0
LINE
  5
28F
100
AcDbEntity
  8
CURVE
100
AcDbLine
 62
250
  6
CONTINUOUS
 10
30.76443642
 20
-50.3856198969
 11
30.76443642
 21
-49.9228216828
  0
LINE
  5
290
100
AcDbEntity
  8
CURVE
100
AcDbLine
 62
250
  6
CONTINUOUS
 10
30.76443642
 20
-49.1328491324
 11
30.76443642
 21
-48.7071121372
  0
LINE
  5
291
100
AcDbEntity
  8
CURVE
100
AcDbLine
 62
250
  6
CONTINUOUS
 10
30.76443642
 20
-47.7093519836
 11
30.76443642
 21
-47.2836762237
  0
LINE
  5
292
100
AcDbEntity
  8
CURVE
100
AcDbLine
 62
250
  6
CONTINUOUS
 10
30.76443642
 20
-46.4361188411
 11
30.76443642
 21
-46.0146054466
  0
LINE
  5
293
100
AcDbEntity
  8
CURVE
100
AcDbLine
 62
250
  6
CONTINUOUS
 10
30.76443642
 20
-45.1166800126
 11
30.76443642
 21
-44.7045486781
  0
LINE
  5
294
100
AcDbEntity
  8
0
100
AcDbLine
 62
7
  6
CONTINUOUS
 10
28.9442417929
 20
17.4464242627
 11
28.9438793627
 21
17.4218055238
  0
LINE
  5
295
100
AcDbEntity
  8
ASSI
100
AcDbLine
 62
7
  6
CONTINUOUS
 10
28.9442417929
 20
17.4464242627
 11
28.9438793627
 21
17.4218055238
  0
LINE
  5
296
100
AcDbEntity
  8
0
100
AcDbLine
 62
7
  6
CONTINUOUS
 10
29.6302777103
 20
16.2329287127
 11
29.6517790622
 21
16.2209337653
  0
LINE
  5
297
100
AcDbEntity
  8
ASSI
100
AcDbLine
 62
7
  6
CONTINUOUS
 10
29.6302777103
 20
16.2329287127
 11
29.6517790622
 21
16.2209337653
  0
LINE
  5
298
100
AcDbEntity
  8
0
100
AcDbLine
 62
7
  6
CONTINUOUS
 10
27.9343426453
 20
16.368510928
 11
-33.4096276917
 21
51.7877505801
  0
LINE
  5
299
100
AcDbEntity
  8
ASSI
100
AcDbLine
 62
7
  6
CONTINUOUS
 10
27.9343426453
 20
16.368510928
 11
-33.4096276917
 21
51.7877505801
  0
LINE
  5
29A
100
AcDbEntity
  8
0
100
AcDbLine
 62
7
  6
CONTINUOUS
 10
28.9442417929
 20
17.4464242627
 11
-33.0061747777
 21
53.2158183695
  0
LINE
  5
29B
100
AcDbEntity
  8
ASSI
100
AcDbLine
 62
7
  6
CONTINUOUS
 10
28.9442417929
 20
17.4464242627
 11
-33.0061747777
 21
53.2158183695
  0
LINE
  5
29C
100
AcDbEntity
  8
CURVE
100
AcDbLine
 62
250
  6
CONTINUOUS
 10
31.5777612049
 20
-42.8616576795
 11
31.5777612049
 21
-43.1051286707
  0
LINE
  5
29D
100
AcDbEntity
  8
CURVE
100
AcDbLine
 62
250
  6
CONTINUOUS
 10
31.8771746927
 20
-42.9297912451
 11
31.8771746927
 21
-42.7013650102
  0
LINE
  5
29E
100
AcDbEntity
  8
CURVE
100
AcDbLine
 62
250
  6
CONTINUOUS
 10
31.9452420763
 20
-44.4949729848
 11
31.9452420763
 21
-44.0870807639
  0
LINE
  5
29F
100
AcDbEntity
  8
CURVE
100
AcDbLine
 62
250
  6
CONTINUOUS
 10
32.2276557709
 20
-43.8498813493
 11
32.2276557709
 21
-44.4300610456
  0
LINE
  5
2A0
100
AcDbEntity
  8
CURVE
100
AcDbLine
 62
250
  6
CONTINUOUS
 10
32.5926275967
 20
-47.5646723423
 11
32.5926275967
 21
-47.1386438672
  0
LINE
  5
2A1
100
AcDbEntity
  8
CURVE
100
AcDbLine
 62
250
  6
CONTINUOUS
 10
32.5926276088
 20
-42.9688894469
 11
32.5926276088
 21
-42.5445752805
  0
LINE
  5
2A2
100
AcDbEntity
  8
CURVE
100
AcDbLine
 62
250
  6
CONTINUOUS
 10
32.5926276088
 20
-41.8921715879
 11
32.5926276088
 21
-41.4823818099
  0
LINE
  5
2A3
100
AcDbEntity
  8
CURVE
100
AcDbLine
 62
250
  6
CONTINUOUS
 10
32.5926275967
 20
-43.0939921818
 11
32.5926275967
 21
-43.5430083775
  0
LINE
  5
2A4
100
AcDbEntity
  8
CURVE
100
AcDbLine
 62
250
  6
CONTINUOUS
 10
32.5926275967
 20
-44.351109834
 11
32.5926275967
 21
-44.7725154544
  0
LINE
  5
2A5
100
AcDbEntity
  8
CURVE
100
AcDbLine
 62
250
  6
CONTINUOUS
 10
32.5926275967
 20
-44.839413763
 11
32.5926275967
 21
-45.2561826488
  0
LINE
  5
2A6
100
AcDbEntity
  8
CURVE
100
AcDbLine
 62
250
  6
CONTINUOUS
 10
32.5926275967
 20
-45.8502586692
 11
32.5926275967
 21
-45.910009597
  0
LINE
  5
2A7
100
AcDbEntity
  8
CURVE
100
AcDbLine
 62
250
  6
CONTINUOUS
 10
32.5926275967
 20
-46.5017292842
 11
32.5926275967
 21
-46.9092998158
  0
LINE
  5
2A8
100
AcDbEntity
  8
CURVE
100
AcDbLine
 62
250
  6
CONTINUOUS
 10
32.5926275967
 20
-48.3788189447
 11
32.5926275967
 21
-48.7542564721
  0
LINE
  5
2A9
100
AcDbEntity
  8
0
100
AcDbLine
 62
7
  6
CONTINUOUS
 10
33.713712047
 20
-53.2821625527
 11
33.713712047
 21
18.5662276674
  0
LINE
  5
2AA
100
AcDbEntity
  8
ASSI
100
AcDbLine
 62
7
  6
CONTINUOUS
 10
33.713712047
 20
-53.2821625527
 11
33.713712047
 21
18.5662276674
  0
LINE
  5
2AB
100
AcDbEntity
  8
0
100
AcDbLine
 62
7
  6
CONTINUOUS
 10
33.0061747777
 20
19.7917181648
 11
-29.2183609905
 21
55.7193852608
  0
LINE
  5
2AC
100
AcDbEntity
  8
ASSI
100
AcDbLine
 62
7
  6
CONTINUOUS
 10
33.0061747777
 20
19.7917181648
 11
-29.2183609905
 21
55.7193852608
  0
LINE
  5
2AD
100
AcDbEntity
  8
0
100
AcDbLine
 62
7
  6
CONTINUOUS
 10
28.2133185794
 20
15.8853104365
 11
27.9343426453
 21
16.368510928
  0
LINE
  5
2AE
100
AcDbEntity
  8
ASSI
100
AcDbLine
 62
7
  6
CONTINUOUS
 10
28.2133185794
 20
15.8853104365
 11
27.9343426453
 21
16.368510928
  0
LINE
  5
2AF
100
AcDbEntity
  8
0
100
AcDbLine
 62
7
  6
CONTINUOUS
 10
29.6302777103
 20
16.2329287127
 11
28.9438793627
 21
17.4218055238
  0
LINE
  5
2B0
100
AcDbEntity
  8
ASSI
100
AcDbLine
 62
7
  6
CONTINUOUS
 10
29.6302777103
 20
16.2329287127
 11
28.9438793627
 21
17.4218055238
  0
LINE
  5
2B1
100
AcDbEntity
  8
0
100
AcDbLine
 62
7
  6
CONTINUOUS
 10
33.0061747777
 20
19.7917181648
 11
33.713712047
 21
18.5662276674
  0
LINE
  5
2B2
100
AcDbEntity
  8
ASSI
100
AcDbLine
 62
7
  6
CONTINUOUS
 10
33.0061747777
 20
19.7917181648
 11
33.713712047
 21
18.5662276674
  0
LINE
  5
2B3
100
AcDbEntity
  8
CURVE
100
AcDbLine
 62
7
  6
CONTINUOUS
 10
30.9809911254
 20
-42.5476974579
 11
31.1572214852
 21
-42.3714670981
  0
LINE
  5
2B4
100
AcDbEntity
  8
CURVE
100
AcDbLine
 62
7
  6
CONTINUOUS
 10
30.7878161836
 20
-42.9508831138
 11
31.5150560068
 21
-42.2236432905
  0
LINE
  5
2B5
100
AcDbEntity
  8
CURVE
100
AcDbLine
 62
7
  6
CONTINUOUS
 10
30.7517731731
 20
-43.1969368382
 11
31.6739061876
 21
-42.2748038237
  0
LINE
  5
2B6
100
AcDbEntity
  8
CURVE
100
AcDbLine
 62
7
  6
CONTINUOUS
 10
30.7436769164
 20
-43.415043809
 11
31.0611122849
 21
-43.0976084405
  0
LINE
  5
2B7
100
AcDbEntity
  8
CURVE
100
AcDbLine
 62
7
  6
CONTINUOUS
 10
31.5027475607
 20
-42.6559731646
 11
32.5926276088
 21
-41.5660931166
  0
LINE
  5
2B8
100
AcDbEntity
  8
CURVE
100
AcDbLine
 62
7
  6
CONTINUOUS
 10
30.7507292823
 20
-43.618002157
 11
31.0657243857
 21
-43.3030070537
  0
LINE
  5
2B9
100
AcDbEntity
  8
CURVE
100
AcDbLine
 62
7
  6
CONTINUOUS
 10
31.5728497742
 20
-42.7958816652
 11
32.5926276088
 21
-41.7761038306
  0
LINE
  5
2BA
100
AcDbEntity
  8
CURVE
100
AcDbLine
 62
250
  6
CONTINUOUS
 10
31.7392443309
 20
-42.3330721683
 11
31.7284413168
 21
-42.3388887545
  0
LINE
  5
2BB
100
AcDbEntity
  8
CURVE
100
AcDbLine
 62
7
  6
CONTINUOUS
 10
30.7687572495
 20
-43.8099849039
 11
31.3521268801
 21
-43.2266152732
  0
LINE
  5
2BC
100
AcDbEntity
  8
CURVE
100
AcDbLine
 62
7
  6
CONTINUOUS
 10
31.5777612049
 20
-43.0009809485
 11
31.8771746927
 21
-42.7015674607
  0
LINE
  5
2BD
100
AcDbEntity
  8
CURVE
100
AcDbLine
 62
7
  6
CONTINUOUS
 10
30.9184467231
 20
-43.8703061443
 11
31.8771746927
 21
-42.9115781747
  0
LINE
  5
2BE
100
AcDbEntity
  8
CURVE
100
AcDbLine
 62
7
  6
CONTINUOUS
 10
31.3734314759
 20
-43.6253321055
 11
32.2927011286
 21
-42.7060624528
  0
LINE
  5
2BF
100
AcDbEntity
  8
CURVE
100
AcDbLine
 62
7
  6
CONTINUOUS
 10
31.8284162287
 20
-43.3803580667
 11
32.5926276088
 21
-42.6161466866
  0
LINE
  5
2C0
100
AcDbEntity
  8
CURVE
100
AcDbLine
 62
7
  6
CONTINUOUS
 10
32.2834009815
 20
-43.1353840279
 11
32.5926276088
 21
-42.8261574007
  0
LINE
  5
2C1
100
AcDbEntity
  8
CURVE
100
AcDbLine
 62
7
  6
CONTINUOUS
 10
30.76443642
 20
-44.8643593034
 11
32.1068896296
 21
-43.5219060938
  0
LINE
  5
2C2
100
AcDbEntity
  8
CURVE
100
AcDbLine
 62
7
  6
CONTINUOUS
 10
30.76443642
 20
-45.0743700174
 11
32.5926275967
 21
-43.2461788407
  0
LINE
  5
2C3
100
AcDbEntity
  8
CURVE
100
AcDbLine
 62
7
  6
CONTINUOUS
 10
30.9710290584
 20
-45.0777880931
 11
31.4397126434
 21
-44.6091045081
  0
LINE
  5
2C4
100
AcDbEntity
  8
CURVE
100
AcDbLine
 62
7
  6
CONTINUOUS
 10
31.9452420763
 20
-44.1035750752
 11
32.5926275967
 21
-43.4561895548
  0
LINE
  5
2C5
100
AcDbEntity
  8
CURVE
100
AcDbLine
 62
7
  6
CONTINUOUS
 10
31.2297439153
 20
-45.0290839501
 11
31.7109624241
 21
-44.5478654414
  0
LINE
  5
2C6
100
AcDbEntity
  8
CURVE
100
AcDbLine
 62
7
  6
CONTINUOUS
 10
31.9452420763
 20
-44.3135857892
 11
32.2276557709
 21
-44.0311720946
  0
LINE
  5
2C7
100
AcDbEntity
  8
CURVE
100
AcDbLine
 62
7
  6
CONTINUOUS
 10
31.4884587723
 20
-44.9803798072
 11
32.2276557709
 21
-44.2411828086
  0
LINE
  5
2C8
100
AcDbEntity
  8
CURVE
100
AcDbLine
 62
7
  6
CONTINUOUS
 10
31.7471736293
 20
-44.9316756642
 11
32.254621515
 21
-44.4242277785
  0
LINE
  5
2C9
100
AcDbEntity
  8
CURVE
100
AcDbLine
 62
7
  6
CONTINUOUS
 10
30.76443642
 20
-46.1244235875
 11
31.0718923344
 21
-45.8169676731
  0
LINE
  5
2CA
100
AcDbEntity
  8
CURVE
100
AcDbLine
 62
7
  6
CONTINUOUS
 10
32.0058884863
 20
-44.8829715212
 11
32.5226021777
 21
-44.3662578298
  0
LINE
  5
2CB
100
AcDbEntity
  8
CURVE
100
AcDbLine
 62
7
  6
CONTINUOUS
 10
30.76443642
 20
-46.3344343015
 11
31.6598556305
 21
-45.439015091
  0
LINE
  5
2CC
100
AcDbEntity
  8
CURVE
100
AcDbLine
 62
7
  6
CONTINUOUS
 10
32.2646033433
 20
-44.8342673782
 11
32.5926275967
 21
-44.5062431248
  0
LINE
  5
2CD
100
AcDbEntity
  8
CURVE
100
AcDbLine
 62
7
  6
CONTINUOUS
 10
30.8873523714
 20
-46.4215290641
 11
32.2478189267
 21
-45.0610625088
  0
LINE
  5
2CE
100
AcDbEntity
  8
CURVE
100
AcDbLine
 62
7
  6
CONTINUOUS
 10
32.5233182003
 20
-44.7855632353
 11
32.5926275967
 21
-44.7162538388
  0
LINE
  5
2CF
100
AcDbEntity
  8
CURVE
100
AcDbLine
 62
7
  6
CONTINUOUS
 10
31.125648119
 20
-46.3932440306
 11
31.5517159756
 21
-45.9671761739
  0
LINE
  5
2D0
100
AcDbEntity
  8
CURVE
100
AcDbLine
 62
7
  6
CONTINUOUS
 10
31.7422123622
 20
-45.7766797873
 11
32.5926275967
 21
-44.9262645528
  0
LINE
  5
2D1
100
AcDbEntity
  8
CURVE
100
AcDbLine
 62
7
  6
CONTINUOUS
 10
31.3639438665
 20
-46.364958997
 11
31.7883003747
 21
-45.9406024889
  0
LINE
  5
2D2
100
AcDbEntity
  8
CURVE
100
AcDbLine
 62
7
  6
CONTINUOUS
 10
32.2835476597
 20
-45.4453552038
 11
32.5926275967
 21
-45.1362752669
  0
LINE
  5
2D3
100
AcDbEntity
  8
CURVE
100
AcDbLine
 62
7
  6
CONTINUOUS
 10
31.6022396141
 20
-46.3366739635
 11
32.0248847738
 21
-45.9140288038
  0
LINE
  5
2D4
100
AcDbEntity
  8
CURVE
100
AcDbLine
 62
7
  6
CONTINUOUS
 10
30.76443642
 20
-47.3844878715
 11
32.2614691728
 21
-45.8874551187
  0
LINE
  5
2D5
100
AcDbEntity
  8
CURVE
100
AcDbLine
 62
7
  6
CONTINUOUS
 10
30.76443642
 20
-47.5944985856
 11
32.4980535719
 21
-45.8608814337
  0
LINE
  5
2D6
100
AcDbEntity
  8
CURVE
100
AcDbLine
 62
7
  6
CONTINUOUS
 10
30.933640938
 20
-47.6353047816
 11
31.6170989493
 21
-46.9518467703
  0
LINE
  5
2D7
100
AcDbEntity
  8
CURVE
100
AcDbLine
 62
7
  6
CONTINUOUS
 10
31.3070726734
 20
-47.4718837602
 11
32.0070249403
 21
-46.7719314933
  0
LINE
  5
2D8
100
AcDbEntity
  8
CURVE
100
AcDbLine
 62
7
  6
CONTINUOUS
 10
30.7643274483
 20
-48.2246396993
 11
30.9844375221
 21
-48.0045296255
  0
LINE
  5
2D9
100
AcDbEntity
  8
CURVE
100
AcDbLine
 62
7
  6
CONTINUOUS
 10
31.6805044089
 20
-47.3084627387
 11
32.3969509314
 21
-46.5920162163
  0
LINE
  5
2DA
100
AcDbEntity
  8
CURVE
100
AcDbLine
 62
7
  6
CONTINUOUS
 10
30.7643274483
 20
-48.4346504133
 11
31.4394222749
 21
-47.7595555867
  0
LINE
  5
2DB
100
AcDbEntity
  8
CURVE
100
AcDbLine
 62
7
  6
CONTINUOUS
 10
32.0539361443
 20
-47.1450417173
 11
32.5926275967
 21
-46.6063502649
  0
LINE
  5
2DC
100
AcDbEntity
  8
CURVE
100
AcDbLine
 62
7
  6
CONTINUOUS
 10
30.9714233535
 20
-48.4375652222
 11
31.8944070277
 21
-47.5145815479
  0
LINE
  5
2DD
100
AcDbEntity
  8
CURVE
100
AcDbLine
 62
7
  6
CONTINUOUS
 10
32.4273678798
 20
-46.9816206959
 11
32.5926275967
 21
-46.816360979
  0
LINE
  5
2DE
100
AcDbEntity
  8
CURVE
100
AcDbLine
 62
7
  6
CONTINUOUS
 10
30.76443642
 20
-48.8545628696
 11
30.9441607286
 21
-48.6748385611
  0
LINE
  5
2DF
100
AcDbEntity
  8
CURVE
100
AcDbLine
 62
7
  6
CONTINUOUS
 10
31.4264081063
 20
-48.1925911834
 11
32.3493917805
 21
-47.2696075091
  0
LINE
  5
2E0
100
AcDbEntity
  8
CURVE
100
AcDbLine
 62
7
  6
CONTINUOUS
 10
30.76443642
 20
-49.0645735836
 11
31.2001379606
 21
-48.628872043
  0
LINE
  5
2E1
100
AcDbEntity
  8
CURVE
100
AcDbLine
 62
7
  6
CONTINUOUS
 10
31.8813928591
 20
-47.9476171446
 11
32.5926275967
 21
-47.236382407
  0
LINE
  5
2E2
100
AcDbEntity
  8
CURVE
100
AcDbLine
 62
7
  6
CONTINUOUS
 10
30.9461064559
 20
-49.0929142618
 11
31.4561151927
 21
-48.582905525
  0
LINE
  5
2E3
100
AcDbEntity
  8
CURVE
100
AcDbLine
 62
7
  6
CONTINUOUS
 10
32.3363776119
 20
-47.7026431058
 11
32.5926275967
 21
-47.446393121
  0
LINE
  5
2E4
100
AcDbEntity
  8
CURVE
100
AcDbLine
 62
7
  6
CONTINUOUS
 10
31.2152891523
 20
-49.0337422794
 11
31.7120924248
 21
-48.5369390069
  0
LINE
  5
2E5
100
AcDbEntity
  8
CURVE
100
AcDbLine
 62
7
  6
CONTINUOUS
 10
31.4844718486
 20
-48.9745702971
 11
31.9680696568
 21
-48.4909724889
  0
LINE
  5
2E6
100
AcDbEntity
  8
CURVE
100
AcDbLine
 62
250
  6
CONTINUOUS
 10
32.5926275967
 20
-45.910009597
 11
31.3988535766
 21
-47.0525471021
  0
LINE
  5
2E7
100
AcDbEntity
  8
CURVE
100
AcDbLine
 62
250
  6
CONTINUOUS
 10
30.76443642
 20
-47.2836762237
 11
31.7794536997
 21
-46.315639151
  0
LINE
  5
2E8
100
AcDbEntity
  8
CURVE
100
AcDbLine
 62
250
  6
CONTINUOUS
 10
30.76443642
 20
-44.7045486781
 11
32.5926275967
 21
-43.0939921818
  0
LINE
  5
2E9
100
AcDbEntity
  8
CURVE
100
AcDbLine
 62
250
  6
CONTINUOUS
 10
32.5926275967
 20
-43.5430083775
 11
32.2276557709
 21
-43.8498813493
  0
LINE
  5
2EA
100
AcDbEntity
  8
CURVE
100
AcDbLine
 62
250
  6
CONTINUOUS
 10
31.9452420763
 20
-44.0870807639
 11
31.2667769489
 21
-44.6481475647
  0
LINE
  5
2EB
100
AcDbEntity
  8
CURVE
100
AcDbLine
 62
250
  6
CONTINUOUS
 10
30.76443642
 20
-46.0146054466
 11
32.5926275967
 21
-44.839413763
  0
LINE
  5
2EC
100
AcDbEntity
  8
CURVE
100
AcDbLine
 62
250
  6
CONTINUOUS
 10
32.5926275967
 20
-45.2561826488
 11
31.4038297072
 21
-45.983787088
  0
LINE
  5
2ED
100
AcDbEntity
  8
CURVE
100
AcDbLine
 62
250
  6
CONTINUOUS
 10
32.5926276088
 20
-42.5445752805
 11
31.8771746927
 21
-42.9297912451
  0
LINE
  5
2EE
100
AcDbEntity
  8
CURVE
100
AcDbLine
 62
250
  6
CONTINUOUS
 10
31.5777612049
 20
-43.1051286707
 11
31.0758871682
 21
-43.375348956
  0
LINE
  5
2EF
100
AcDbEntity
  8
CURVE
100
AcDbLine
 62
250
  6
CONTINUOUS
 10
30.7857960784
 20
-43.9417282392
 11
32.5926276088
 21
-42.9688894469
  0
LINE
  5
2F0
100
AcDbEntity
  8
CURVE
100
AcDbLine
 62
250
  6
CONTINUOUS
 10
32.5926275967
 20
-47.1386438672
 11
30.7643274483
 21
-48.1230418469
  0
LINE
  5
2F1
100
AcDbEntity
  8
CURVE
100
AcDbLine
 62
250
  6
CONTINUOUS
 10
31.3988535766
 20
-47.0525471021
 11
32.5926275967
 21
-46.5017292842
  0
LINE
  5
2F2
100
AcDbEntity
  8
CURVE
100
AcDbLine
 62
250
  6
CONTINUOUS
 10
32.5926275967
 20
-46.9092998158
 11
30.76443642
 21
-47.7093519836
  0
LINE
  5
2F3
100
AcDbEntity
  8
CURVE
100
AcDbLine
 62
7
  6
CONTINUOUS
 10
31.753654545
 20
-48.9153983148
 11
32.2240468889
 21
-48.4450059709
  0
LINE
  5
2F4
100
AcDbEntity
  8
CURVE
100
AcDbLine
 62
7
  6
CONTINUOUS
 10
30.76443642
 20
-50.1146271537
 11
32.4800241209
 21
-48.3990394528
  0
LINE
  5
2F5
100
AcDbEntity
  8
CURVE
100
AcDbLine
 62
7
  6
CONTINUOUS
 10
30.76443642
 20
-50.3246378677
 11
32.5926275967
 21
-48.4964466911
  0
LINE
  5
2F6
100
AcDbEntity
  8
CURVE
100
AcDbLine
 62
7
  6
CONTINUOUS
 10
32.1486565015
 20
-49.1504285002
 11
32.5926275967
 21
-48.7064574051
  0
LINE
  5
2F7
100
AcDbEntity
  8
CURVE
100
AcDbLine
 62
250
  6
CONTINUOUS
 10
32.5926275967
 20
-48.7542564721
 11
30.76443642
 21
-50.3856198969
  0
LINE
  5
2F8
100
AcDbEntity
  8
CURVE
100
AcDbLine
 62
250
  6
CONTINUOUS
 10
30.76443642
 20
-49.9228216828
 11
32.0228372413
 21
-48.8562263324
  0
LINE
  5
2F9
100
AcDbEntity
  8
0
100
AcDbLine
 62
7
  6
CONTINUOUS
 10
27.9343426453
 20
-55.1073692384
 11
28.2133185794
 21
-54.9463231628
  0
LINE
  5
2FA
100
AcDbEntity
  8
ASSI
100
AcDbLine
 62
7
  6
CONTINUOUS
 10
27.9343426453
 20
-55.1073692384
 11
28.2133185794
 21
-54.9463231628
  0
LINE
  5
2FB
100
AcDbEntity
  8
0
100
AcDbLine
 62
7
  6
CONTINUOUS
 10
28.9438793627
 20
-55.7187438231
 11
29.6302777103
 21
-55.3225026187
  0
LINE
  5
2FC
100
AcDbEntity
  8
ASSI
100
AcDbLine
 62
7
  6
CONTINUOUS
 10
28.9438793627
 20
-55.7187438231
 11
29.6302777103
 21
-55.3225026187
  0
LINE
  5
2FD
100
AcDbEntity
  8
0
100
AcDbLine
 62
7
  6
CONTINUOUS
 10
33.713712047
 20
-53.2821625527
 11
33.0061747777
 21
-53.6906067465
  0
LINE
  5
2FE
100
AcDbEntity
  8
ASSI
100
AcDbLine
 62
7
  6
CONTINUOUS
 10
33.713712047
 20
-53.2821625527
 11
33.0061747777
 21
-53.6906067465
  0
LINE
  5
2FF
100
AcDbEntity
  8
CURVE
100
AcDbLine
 62
250
  6
CONTINUOUS
 10
30.7643274483
 20
-48.549070322
 11
32.5926275967
 21
-47.5646723423
  0
LINE
  5
300
100
AcDbEntity
  8
0
100
AcDbLine
 62
7
  6
CONTINUOUS
 10
29.6517790622
 20
-55.3109410669
 11
29.6302777103
 21
-55.3225026187
  0
LINE
  5
301
100
AcDbEntity
  8
ASSI
100
AcDbLine
 62
7
  6
CONTINUOUS
 10
29.6517790622
 20
-55.3109410669
 11
29.6302777103
 21
-55.3225026187
  0
LINE
  5
302
100
AcDbEntity
  8
0
100
AcDbLine
 62
7
  6
CONTINUOUS
 10
29.6517790622
 20
-55.3109410669
 11
33.713712047
 21
-53.2821625527
  0
LINE
  5
303
100
AcDbEntity
  8
ASSI
100
AcDbLine
 62
7
  6
CONTINUOUS
 10
29.6517790622
 20
-55.3109410669
 11
33.713712047
 21
-53.2821625527
  0
LINE
  5
304
100
AcDbEntity
  8
0
100
AcDbLine
 62
7
  6
CONTINUOUS
 10
28.9442417929
 20
-55.7193852608
 11
33.0061747777
 21
-53.6906067465
  0
LINE
  5
305
100
AcDbEntity
  8
ASSI
100
AcDbLine
 62
7
  6
CONTINUOUS
 10
28.9442417929
 20
-55.7193852608
 11
33.0061747777
 21
-53.6906067465
  0
ARC
  5
306
100
AcDbEntity
  8
0
100
AcDbCircle
 62
7
  6
CONTINUOUS
 10
2.7499018644
 20
-10.3468270085
 40
0.4082696614
100
AcDbArc
 50
287.1177534332
 51
299.9220202196
  0
ARC
  5
307
100
AcDbEntity
  8
ASSI
100
AcDbCircle
 62
7
  6
CONTINUOUS
 10
2.7499018644
 20
-10.3468270085
 40
0.4082696614
100
AcDbArc
 50
287.1177534332
 51
299.9220202196
  0
ARC
  5
308
100
AcDbEntity
  8
0
100
AcDbCircle
 62
7
  6
CONTINUOUS
 10
-7.517104367
 20
7.4360589247
 40
0.4082587586
100
AcDbArc
 50
120.081029099
 51
132.876238877
  0
ARC
  5
309
100
AcDbEntity
  8
ASSI
100
AcDbCircle
 62
7
  6
CONTINUOUS
 10
-7.517104367
 20
7.4360589247
 40
0.4082587586
100
AcDbArc
 50
120.081029099
 51
132.876238877
  0
SPLINE
  5
30A
100
AcDbEntity
  8
0
100
AcDbSpline
 62
7
  6
CONTINUOUS
 70
0
 71
3
 72
9
 73
5
 74
0
 42
0.0000001
 43
0.0000001
 44
0.0000000001
 40
0.0
 40
0.0
 40
0.0
 40
0.0
 40
0.2403057122
 40
1.0
 40
1.0
 40
1.0
 40
1.0
 10
1.9999729107
 20
2.4631012206
 30
0.0
 10
2.0235938342
 20
2.4494627956
 30
0.0
 10
2.1204274546
 20
2.3901901003
 30
0.0
 10
2.2114313465
 20
2.32158569
 30
0.0
 10
2.277100293
 20
2.265703253
 30
0.0
  0
SPLINE
  5
30B
100
AcDbEntity
  8
0
100
AcDbSpline
 62
7
  6
CONTINUOUS
 70
0
 71
3
 72
11
 73
7
 74
0
 42
0.0000001
 43
0.0000001
 44
0.0000000001
 40
0.0
 40
0.0
 40
0.0
 40
0.0
 40
0.2436409567
 40
0.5000042266
 40
0.7563652941
 40
1.0
 40
1.0
 40
1.0
 40
1.0
 10
2.277100293
 20
2.265703253
 30
0.0
 10
2.3893811546
 20
2.1701553798
 30
0.0
 10
2.6004220806
 20
1.9506768874
 30
0.0
 10
2.8604780818
 20
1.571856428
 30
0.0
 10
3.0585177359
 20
1.1572350381
 30
0.0
 10
3.1430690709
 20
0.8647335094
 30
0.0
 10
3.169673383
 20
0.7197249467
 30
0.0
  0
SPLINE
  5
30C
100
AcDbEntity
  8
0
100
AcDbSpline
 62
7
  6
CONTINUOUS
 70
0
 71
3
 72
9
 73
5
 74
0
 42
0.0000001
 43
0.0000001
 44
0.0000000001
 40
0.0
 40
0.0
 40
0.0
 40
0.0
 40
0.2594910627
 40
1.0
 40
1.0
 40
1.0
 40
1.0
 10
3.169673383
 20
0.7197249467
 30
0.0
 10
3.1749880183
 20
0.6907571756
 30
0.0
 10
3.1931888938
 20
0.5787322337
 30
0.0
 10
3.2020544371
 20
0.4650799411
 30
0.0
 10
3.2020544388
 20
0.3810349414
 30
0.0
  0
SPLINE
  5
30D
100
AcDbEntity
  8
0
100
AcDbSpline
 62
7
  6
CONTINUOUS
 70
0
 71
3
 72
9
 73
5
 74
0
 42
0.0000001
 43
0.0000001
 44
0.0000000001
 40
0.0
 40
0.0
 40
0.0
 40
0.0
 40
0.5163282132
 40
1.0
 40
1.0
 40
1.0
 40
1.0
 10
2.7977768003
 20
-10.6699021865
 30
0.0
 10
2.8345271999
 20
-10.6749097754
 30
0.0
 10
2.9068246831
 20
-10.6782028639
 30
0.0
 10
2.9783079615
 20
-10.6656009041
 30
0.0
 10
3.0115060303
 20
-10.6553517983
 30
0.0
  0
SPLINE
  5
30E
100
AcDbEntity
  8
0
100
AcDbSpline
 62
7
  6
CONTINUOUS
 70
0
 71
3
 72
9
 73
5
 74
0
 42
0.0000001
 43
0.0000001
 44
0.0000000001
 40
0.0
 40
0.0
 40
0.0
 40
0.0
 40
0.2434727928
 40
1.0
 40
1.0
 40
1.0
 40
1.0
 10
-7.6534576593
 20
7.8169068483
 30
0.0
 10
-7.661966172
 20
7.8090176317
 30
0.0
 10
-7.6955738711
 20
7.7751800206
 30
0.0
 10
-7.7235170128
 20
7.7358786335
 30
0.0
 10
-7.7412997814
 20
7.704515321
 30
0.0
  0
SPLINE
  5
30F
100
AcDbEntity
  8
0
100
AcDbSpline
 62
7
  6
CONTINUOUS
 70
0
 71
3
 72
9
 73
5
 74
0
 42
0.0000001
 43
0.0000001
 44
0.0000000001
 40
0.0
 40
0.0
 40
0.0
 40
0.0
 40
0.245444348
 40
1.0
 40
1.0
 40
1.0
 40
1.0
 10
-7.7412997814
 20
7.704515321
 30
0.0
 10
-7.7442360018
 20
7.699336735
 30
0.0
 10
-7.7558438135
 20
7.6780377817
 30
0.0
 10
-7.7660371313
 20
7.6559742657
 30
0.0
 10
-7.7729631617
 20
7.6390342405
 30
0.0
  0
SPLINE
  5
310
100
AcDbEntity
  8
0
100
AcDbSpline
 62
7
  6
CONTINUOUS
 70
0
 71
3
 72
11
 73
7
 74
0
 42
0.0000001
 43
0.0000001
 44
0.0000000001
 40
0.0
 40
0.0
 40
0.0
 40
0.0
 40
0.2177671718
 40
0.4509440387
 40
0.7101952376
 40
1.0
 40
1.0
 40
1.0
 40
1.0
 10
-7.7217335587
 20
7.7893323427
 30
0.0
 10
-7.6821512214
 20
7.8121867015
 30
0.0
 10
-7.5911952389
 20
7.845221152
 30
0.0
 10
-7.4401390473
 20
7.8490009305
 30
0.0
 10
-7.2791174724
 20
7.8101643453
 30
0.0
 10
-7.1743807876
 20
7.7602975179
 30
0.0
 10
-7.1217045666
 20
7.7298829295
 30
0.0
  0
SPLINE
  5
311
100
AcDbEntity
  8
0
100
AcDbSpline
 62
7
  6
CONTINUOUS
 70
0
 71
3
 72
15
 73
11
 74
0
 42
0.0000001
 43
0.0000001
 44
0.0000000001
 40
0.0
 40
0.0
 40
0.0
 40
0.0
 40
0.1141547262
 40
0.2373197603
 40
0.3669701463
 40
0.4999939469
 40
0.63301859
 40
0.7626714346
 40
0.8858403421
 40
1.0
 40
1.0
 40
1.0
 40
1.0
 10
-7.4701811589
 20
-2.8462082334
 30
0.0
 10
-7.4701811588
 20
-2.9520083567
 30
0.0
 10
-7.4508047455
 20
-3.1721653582
 30
0.0
 10
-7.3735445818
 20
-3.504298085
 30
0.0
 10
-7.2497939884
 20
-3.8407260337
 30
0.0
 10
-7.0841569369
 20
-4.1687986442
 30
0.0
 10
-6.8828548948
 20
-4.4762826665
 30
0.0
 10
-6.6533715045
 20
-4.7516734409
 30
0.0
 10
-6.404360645
 20
-4.9846582944
 30
0.0
 10
-6.2233831497
 20
-5.1115253105
 30
0.0
 10
-6.1317550729
 20
-5.1644302141
 30
0.0
  0
SPLINE
  5
312
100
AcDbEntity
  8
0
100
AcDbSpline
 62
7
  6
CONTINUOUS
 70
0
 71
3
 72
9
 73
5
 74
0
 42
0.0000001
 43
0.0000001
 44
0.0000000001
 40
0.0
 40
0.0
 40
0.0
 40
0.0
 40
0.2715325905
 40
1.0
 40
1.0
 40
1.0
 40
1.0
 10
3.2020544388
 20
-10.1513921743
 30
0.0
 10
3.2020544389
 20
-10.1826277302
 30
0.0
 10
3.1973173464
 20
-10.29744096
 30
0.0
 10
3.1720175698
 20
-10.4126719796
 30
0.0
 10
3.1374726877
 20
-10.4890190633
 30
0.0
  0
SPLINE
  5
313
100
AcDbEntity
  8
0
100
AcDbSpline
 62
7
  6
CONTINUOUS
 70
0
 71
3
 72
9
 73
5
 74
0
 42
0.0000001
 43
0.0000001
 44
0.0000000001
 40
0.0
 40
0.0
 40
0.0
 40
0.0
 40
0.5170824752
 40
1.0
 40
1.0
 40
1.0
 40
1.0
 10
3.1374726877
 20
-10.4890190633
 30
0.0
 10
3.117300207
 20
-10.5336019355
 30
0.0
 10
3.0671781725
 20
-10.615634388
 30
0.0
 10
2.9931329173
 20
-10.6778247704
 30
0.0
 10
2.9535552935
 20
-10.7006764077
 30
0.0
  0
SPLINE
  5
314
100
AcDbEntity
  8
0
100
AcDbSpline
 62
7
  6
CONTINUOUS
 70
0
 71
3
 72
11
 73
7
 74
0
 42
0.0000001
 43
0.0000001
 44
0.0000000001
 40
0.0
 40
0.0
 40
0.0
 40
0.0
 40
0.2191409981
 40
0.4557653171
 40
0.7154233258
 40
1.0
 40
1.0
 40
1.0
 40
1.0
 10
2.8700705151
 20
-10.7370110828
 30
0.0
 10
2.8324310778
 20
-10.748629904
 30
0.0
 10
2.7504192096
 20
-10.7616502194
 30
0.0
 10
2.6213085821
 20
-10.7503958395
 30
0.0
 10
2.4860300001
 20
-10.7101239127
 30
0.0
 10
2.3978265912
 20
-10.6668054278
 30
0.0
 10
2.3535263013
 20
-10.6412269944
 30
0.0
  0
SPLINE
  5
315
100
AcDbEntity
  8
0
100
AcDbSpline
 62
7
  6
CONTINUOUS
 70
0
 71
3
 72
9
 73
5
 74
0
 42
0.0000001
 43
0.0000001
 44
0.0000000001
 40
0.0
 40
0.0
 40
0.0
 40
0.0
 40
0.2314181732
 40
1.0
 40
1.0
 40
1.0
 40
1.0
 10
-7.7729631617
 20
7.6390342405
 30
0.0
 10
-7.7824039803
 20
7.6159434226
 30
0.0
 10
-7.8171269894
 20
7.513675095
 30
0.0
 10
-7.8288113473
 20
7.404554029
 30
0.0
 10
-7.8288113477
 20
7.321703028
 30
0.0
  0
SPLINE
  5
316
100
AcDbEntity
  8
0
100
AcDbSpline
 62
7
  6
CONTINUOUS
 70
0
 71
3
 72
15
 73
11
 74
0
 42
0.0000001
 43
0.0000001
 44
0.0000000001
 40
0.0
 40
0.0
 40
0.0
 40
0.0
 40
0.1449018606
 40
0.274517057
 40
0.3911053392
 40
0.4999889011
 40
0.6088744758
 40
0.7254681141
 40
0.8550905238
 40
1.0
 40
1.0
 40
1.0
 40
1.0
 10
-8.6773394852
 20
7.2400481093
 30
0.0
 10
-8.6773394855
 20
7.3262116374
 30
0.0
 10
-8.6643190256
 20
7.490020181
 30
0.0
 10
-8.5979442244
 20
7.7150262371
 30
0.0
 10
-8.4861732435
 20
7.8977356979
 30
0.0
 10
-8.3310237905
 20
8.0282150234
 30
0.0
 10
-8.1404399959
 20
8.0973179061
 30
0.0
 10
-7.9263148379
 20
8.1027408943
 30
0.0
 10
-7.6982583982
 20
8.0477040382
 30
0.0
 10
-7.549880482
 20
7.9770668798
 30
0.0
 10
-7.4752579572
 20
7.9339807712
 30
0.0
  0
SPLINE
  5
317
100
AcDbEntity
  8
0
100
AcDbSpline
 62
7
  6
CONTINUOUS
 70
0
 71
3
 72
11
 73
7
 74
0
 42
0.0000001
 43
0.0000001
 44
0.0000000001
 40
0.0
 40
0.0
 40
0.0
 40
0.0
 40
0.2372223247
 40
0.5000061052
 40
0.7627865602
 40
1.0
 40
1.0
 40
1.0
 40
1.0
 10
-7.1217045666
 20
-5.1703474439
 30
0.0
 10
-7.242160477
 20
-5.1007977103
 30
0.0
 10
-7.4701314518
 20
-4.90893296
 30
0.0
 10
-7.7362119652
 20
-4.545326761
 30
0.0
 10
-7.9180624477
 20
-4.1330962542
 30
0.0
 10
-7.9702327068
 20
-3.8397411355
 30
0.0
 10
-7.970232704
 20
-3.7006535997
 30
0.0
  0
SPLINE
  5
318
100
AcDbEntity
  8
0
100
AcDbSpline
 62
7
  6
CONTINUOUS
 70
0
 71
3
 72
11
 73
7
 74
0
 42
0.0000001
 43
0.0000001
 44
0.0000000001
 40
0.0
 40
0.0
 40
0.0
 40
0.0
 40
0.2372134857
 40
0.4999938933
 40
0.7627776251
 40
1.0
 40
1.0
 40
1.0
 40
1.0
 10
-7.8288113477
 20
-3.618998681
 30
0.0
 10
-7.8288113475
 20
-3.7580862437
 30
0.0
 10
-7.7766410851
 20
-4.051441362
 30
0.0
 10
-7.5947906045
 20
-4.4636718359
 30
0.0
 10
-7.3287101179
 20
-4.8272780182
 30
0.0
 10
-7.1007391461
 20
-5.0191427766
 30
0.0
 10
-6.9802832103
 20
-5.0886925252
 30
0.0
  0
SPLINE
  5
319
100
AcDbEntity
  8
0
100
AcDbSpline
 62
7
  6
CONTINUOUS
 70
0
 71
3
 72
9
 73
5
 74
0
 42
0.0000001
 43
0.0000001
 44
0.0000000001
 40
0.0
 40
0.0
 40
0.0
 40
0.0
 40
0.2698109577
 40
1.0
 40
1.0
 40
1.0
 40
1.0
 10
2.4949476576
 20
-10.5595720758
 30
0.0
 10
2.5201336066
 20
-10.574114127
 30
0.0
 10
2.6154099879
 20
-10.6243393271
 30
0.0
 10
2.7197909721
 20
-10.6592758813
 30
0.0
 10
2.7977768003
 20
-10.6699021865
 30
0.0
  0
SPLINE
  5
31A
100
AcDbEntity
  8
0
100
AcDbSpline
 62
7
  6
CONTINUOUS
 70
0
 71
3
 72
11
 73
7
 74
0
 42
0.0000001
 43
0.0000001
 44
0.0000000001
 40
0.0
 40
0.0
 40
0.0
 40
0.0
 40
0.2845759374
 40
0.5442323343
 40
0.7808561232
 40
1.0
 40
1.0
 40
1.0
 40
1.0
 10
-7.970232704
 20
7.2400481093
 30
0.0
 10
-7.9702327038
 20
7.2911997293
 30
0.0
 10
-7.9636429438
 20
7.389239745
 30
0.0
 10
-7.9308748032
 20
7.5265212676
 30
0.0
 10
-7.8760599898
 20
7.6439517194
 30
0.0
 10
-7.8237741463
 20
7.7084579262
 30
0.0
 10
-7.794890574
 20
7.7352412056
 30
0.0
  0
SPLINE
  5
31B
100
AcDbEntity
  8
0
100
AcDbSpline
 62
7
  6
CONTINUOUS
 70
0
 71
3
 72
13
 73
9
 74
0
 42
0.0000001
 43
0.0000001
 44
0.0000000001
 40
0.0
 40
0.0
 40
0.0
 40
0.0
 40
0.1142615975
 40
0.2375404836
 40
0.5000060625
 40
0.7624683192
 40
0.885743332
 40
1.0
 40
1.0
 40
1.0
 40
1.0
 10
-7.4752579572
 20
-5.7827198789
 30
0.0
 10
-7.5575519518
 20
-5.7352043581
 30
0.0
 10
-7.7201137141
 20
-5.6212634727
 30
0.0
 10
-8.0244184991
 20
-5.3364018259
 30
0.0
 10
-8.3458976259
 20
-4.8973245392
 30
0.0
 10
-8.5654097721
 20
-4.3993797671
 30
0.0
 10
-8.6599490667
 20
-3.993422177
 30
0.0
 10
-8.6773394833
 20
-3.7956759505
 30
0.0
 10
-8.6773394852
 20
-3.7006535997
 30
0.0
  0
SPLINE
  5
31C
100
AcDbEntity
  8
0
100
AcDbSpline
 62
7
  6
CONTINUOUS
 70
0
 71
3
 72
15
 73
11
 74
0
 42
0.0000001
 43
0.0000001
 44
0.0000000001
 40
0.0
 40
0.0
 40
0.0
 40
0.0
 40
0.1449018606
 40
0.274517057
 40
0.3911053392
 40
0.4999889011
 40
0.6088744758
 40
0.7254681141
 40
0.8550905238
 40
1.0
 40
1.0
 40
1.0
 40
1.0
 10
3.2020544388
 20
-10.5596667676
 30
0.0
 10
3.2020544391
 20
-10.6458302957
 30
0.0
 10
3.1890339791
 20
-10.8096388393
 30
0.0
 10
3.122659178
 20
-11.0346448954
 30
0.0
 10
3.0108881971
 20
-11.2173543562
 30
0.0
 10
2.8557387441
 20
-11.3478336817
 30
0.0
 10
2.6651549495
 20
-11.4169365644
 30
0.0
 10
2.4510297915
 20
-11.4223595526
 30
0.0
 10
2.2229733518
 20
-11.3673226965
 30
0.0
 10
2.0745954356
 20
-11.2966855381
 30
0.0
 10
1.9999729107
 20
-11.2535994295
 30
0.0
  0
SPLINE
  5
31D
100
AcDbEntity
  8
ASSI
100
AcDbSpline
 62
7
  6
CONTINUOUS
 70
0
 71
3
 72
9
 73
5
 74
0
 42
0.0000001
 43
0.0000001
 44
0.0000000001
 40
0.0
 40
0.0
 40
0.0
 40
0.0
 40
0.2403057122
 40
1.0
 40
1.0
 40
1.0
 40
1.0
 10
1.9999729107
 20
2.4631012206
 30
0.0
 10
2.0235938342
 20
2.4494627956
 30
0.0
 10
2.1204274546
 20
2.3901901003
 30
0.0
 10
2.2114313465
 20
2.32158569
 30
0.0
 10
2.277100293
 20
2.265703253
 30
0.0
  0
SPLINE
  5
31E
100
AcDbEntity
  8
ASSI
100
AcDbSpline
 62
7
  6
CONTINUOUS
 70
0
 71
3
 72
11
 73
7
 74
0
 42
0.0000001
 43
0.0000001
 44
0.0000000001
 40
0.0
 40
0.0
 40
0.0
 40
0.0
 40
0.2436409567
 40
0.5000042266
 40
0.7563652941
 40
1.0
 40
1.0
 40
1.0
 40
1.0
 10
2.277100293
 20
2.265703253
 30
0.0
 10
2.3893811546
 20
2.1701553798
 30
0.0
 10
2.6004220806
 20
1.9506768874
 30
0.0
 10
2.8604780818
 20
1.571856428
 30
0.0
 10
3.0585177359
 20
1.1572350381
 30
0.0
 10
3.1430690709
 20
0.8647335094
 30
0.0
 10
3.169673383
 20
0.7197249467
 30
0.0
  0
SPLINE
  5
31F
100
AcDbEntity
  8
ASSI
100
AcDbSpline
 62
7
  6
CONTINUOUS
 70
0
 71
3
 72
9
 73
5
 74
0
 42
0.0000001
 43
0.0000001
 44
0.0000000001
 40
0.0
 40
0.0
 40
0.0
 40
0.0
 40
0.2594910627
 40
1.0
 40
1.0
 40
1.0
 40
1.0
 10
3.169673383
 20
0.7197249467
 30
0.0
 10
3.1749880183
 20
0.6907571756
 30
0.0
 10
3.1931888938
 20
0.5787322337
 30
0.0
 10
3.2020544371
 20
0.4650799411
 30
0.0
 10
3.2020544388
 20
0.3810349414
 30
0.0
  0
SPLINE
  5
320
100
AcDbEntity
  8
ASSI
100
AcDbSpline
 62
7
  6
CONTINUOUS
 70
0
 71
3
 72
15
 73
11
 74
0
 42
0.0000001
 43
0.0000001
 44
0.0000000001
 40
0.0
 40
0.0
 40
0.0
 40
0.0
 40
0.1141547262
 40
0.2373197603
 40
0.3669701463
 40
0.4999939469
 40
0.63301859
 40
0.7626714346
 40
0.8858403421
 40
1.0
 40
1.0
 40
1.0
 40
1.0
 10
-7.4701811589
 20
-2.8462082334
 30
0.0
 10
-7.4701811588
 20
-2.9520083567
 30
0.0
 10
-7.4508047455
 20
-3.1721653582
 30
0.0
 10
-7.3735445818
 20
-3.504298085
 30
0.0
 10
-7.2497939884
 20
-3.8407260337
 30
0.0
 10
-7.0841569369
 20
-4.1687986442
 30
0.0
 10
-6.8828548948
 20
-4.4762826665
 30
0.0
 10
-6.6533715045
 20
-4.7516734409
 30
0.0
 10
-6.404360645
 20
-4.9846582944
 30
0.0
 10
-6.2233831497
 20
-5.1115253105
 30
0.0
 10
-6.1317550729
 20
-5.1644302141
 30
0.0
  0
SPLINE
  5
321
100
AcDbEntity
  8
ASSI
100
AcDbSpline
 62
7
  6
CONTINUOUS
 70
0
 71
3
 72
9
 73
5
 74
0
 42
0.0000001
 43
0.0000001
 44
0.0000000001
 40
0.0
 40
0.0
 40
0.0
 40
0.0
 40
0.5163282132
 40
1.0
 40
1.0
 40
1.0
 40
1.0
 10
2.7977768003
 20
-10.6699021865
 30
0.0
 10
2.8345271999
 20
-10.6749097754
 30
0.0
 10
2.9068246831
 20
-10.6782028639
 30
0.0
 10
2.9783079615
 20
-10.6656009041
 30
0.0
 10
3.0115060303
 20
-10.6553517983
 30
0.0
  0
SPLINE
  5
322
100
AcDbEntity
  8
ASSI
100
AcDbSpline
 62
7
  6
CONTINUOUS
 70
0
 71
3
 72
9
 73
5
 74
0
 42
0.0000001
 43
0.0000001
 44
0.0000000001
 40
0.0
 40
0.0
 40
0.0
 40
0.0
 40
0.2434727928
 40
1.0
 40
1.0
 40
1.0
 40
1.0
 10
-7.6534576593
 20
7.8169068483
 30
0.0
 10
-7.661966172
 20
7.8090176317
 30
0.0
 10
-7.6955738711
 20
7.7751800206
 30
0.0
 10
-7.7235170128
 20
7.7358786335
 30
0.0
 10
-7.7412997814
 20
7.704515321
 30
0.0
  0
SPLINE
  5
323
100
AcDbEntity
  8
ASSI
100
AcDbSpline
 62
7
  6
CONTINUOUS
 70
0
 71
3
 72
9
 73
5
 74
0
 42
0.0000001
 43
0.0000001
 44
0.0000000001
 40
0.0
 40
0.0
 40
0.0
 40
0.0
 40
0.245444348
 40
1.0
 40
1.0
 40
1.0
 40
1.0
 10
-7.7412997814
 20
7.704515321
 30
0.0
 10
-7.7442360018
 20
7.699336735
 30
0.0
 10
-7.7558438135
 20
7.6780377817
 30
0.0
 10
-7.7660371313
 20
7.6559742657
 30
0.0
 10
-7.7729631617
 20
7.6390342405
 30
0.0
  0
SPLINE
  5
324
100
AcDbEntity
  8
ASSI
100
AcDbSpline
 62
7
  6
CONTINUOUS
 70
0
 71
3
 72
11
 73
7
 74
0
 42
0.0000001
 43
0.0000001
 44
0.0000000001
 40
0.0
 40
0.0
 40
0.0
 40
0.0
 40
0.2177671718
 40
0.4509440387
 40
0.7101952376
 40
1.0
 40
1.0
 40
1.0
 40
1.0
 10
-7.7217335587
 20
7.7893323427
 30
0.0
 10
-7.6821512214
 20
7.8121867015
 30
0.0
 10
-7.5911952389
 20
7.845221152
 30
0.0
 10
-7.4401390473
 20
7.8490009305
 30
0.0
 10
-7.2791174724
 20
7.8101643453
 30
0.0
 10
-7.1743807876
 20
7.7602975179
 30
0.0
 10
-7.1217045666
 20
7.7298829295
 30
0.0
  0
SPLINE
  5
325
100
AcDbEntity
  8
ASSI
100
AcDbSpline
 62
7
  6
CONTINUOUS
 70
0
 71
3
 72
9
 73
5
 74
0
 42
0.0000001
 43
0.0000001
 44
0.0000000001
 40
0.0
 40
0.0
 40
0.0
 40
0.0
 40
0.2715325905
 40
1.0
 40
1.0
 40
1.0
 40
1.0
 10
3.2020544388
 20
-10.1513921743
 30
0.0
 10
3.2020544389
 20
-10.1826277302
 30
0.0
 10
3.1973173464
 20
-10.29744096
 30
0.0
 10
3.1720175698
 20
-10.4126719796
 30
0.0
 10
3.1374726877
 20
-10.4890190633
 30
0.0
  0
SPLINE
  5
326
100
AcDbEntity
  8
ASSI
100
AcDbSpline
 62
7
  6
CONTINUOUS
 70
0
 71
3
 72
9
 73
5
 74
0
 42
0.0000001
 43
0.0000001
 44
0.0000000001
 40
0.0
 40
0.0
 40
0.0
 40
0.0
 40
0.5170824752
 40
1.0
 40
1.0
 40
1.0
 40
1.0
 10
3.1374726877
 20
-10.4890190633
 30
0.0
 10
3.117300207
 20
-10.5336019355
 30
0.0
 10
3.0671781725
 20
-10.615634388
 30
0.0
 10
2.9931329173
 20
-10.6778247704
 30
0.0
 10
2.9535552935
 20
-10.7006764077
 30
0.0
  0
SPLINE
  5
327
100
AcDbEntity
  8
ASSI
100
AcDbSpline
 62
7
  6
CONTINUOUS
 70
0
 71
3
 72
11
 73
7
 74
0
 42
0.0000001
 43
0.0000001
 44
0.0000000001
 40
0.0
 40
0.0
 40
0.0
 40
0.0
 40
0.2191409981
 40
0.4557653171
 40
0.7154233258
 40
1.0
 40
1.0
 40
1.0
 40
1.0
 10
2.8700705151
 20
-10.7370110828
 30
0.0
 10
2.8324310778
 20
-10.748629904
 30
0.0
 10
2.7504192096
 20
-10.7616502194
 30
0.0
 10
2.6213085821
 20
-10.7503958395
 30
0.0
 10
2.4860300001
 20
-10.7101239127
 30
0.0
 10
2.3978265912
 20
-10.6668054278
 30
0.0
 10
2.3535263013
 20
-10.6412269944
 30
0.0
  0
SPLINE
  5
328
100
AcDbEntity
  8
ASSI
100
AcDbSpline
 62
7
  6
CONTINUOUS
 70
0
 71
3
 72
9
 73
5
 74
0
 42
0.0000001
 43
0.0000001
 44
0.0000000001
 40
0.0
 40
0.0
 40
0.0
 40
0.0
 40
0.2314181732
 40
1.0
 40
1.0
 40
1.0
 40
1.0
 10
-7.7729631617
 20
7.6390342405
 30
0.0
 10
-7.7824039803
 20
7.6159434226
 30
0.0
 10
-7.8171269894
 20
7.513675095
 30
0.0
 10
-7.8288113473
 20
7.404554029
 30
0.0
 10
-7.8288113477
 20
7.321703028
 30
0.0
  0
SPLINE
  5
329
100
AcDbEntity
  8
ASSI
100
AcDbSpline
 62
7
  6
CONTINUOUS
 70
0
 71
3
 72
15
 73
11
 74
0
 42
0.0000001
 43
0.0000001
 44
0.0000000001
 40
0.0
 40
0.0
 40
0.0
 40
0.0
 40
0.1449018606
 40
0.274517057
 40
0.3911053392
 40
0.4999889011
 40
0.6088744758
 40
0.7254681141
 40
0.8550905238
 40
1.0
 40
1.0
 40
1.0
 40
1.0
 10
-8.6773394852
 20
7.2400481093
 30
0.0
 10
-8.6773394855
 20
7.3262116374
 30
0.0
 10
-8.6643190256
 20
7.490020181
 30
0.0
 10
-8.5979442244
 20
7.7150262371
 30
0.0
 10
-8.4861732435
 20
7.8977356979
 30
0.0
 10
-8.3310237905
 20
8.0282150234
 30
0.0
 10
-8.1404399959
 20
8.0973179061
 30
0.0
 10
-7.9263148379
 20
8.1027408943
 30
0.0
 10
-7.6982583982
 20
8.0477040382
 30
0.0
 10
-7.549880482
 20
7.9770668798
 30
0.0
 10
-7.4752579572
 20
7.9339807712
 30
0.0
  0
SPLINE
  5
32A
100
AcDbEntity
  8
ASSI
100
AcDbSpline
 62
7
  6
CONTINUOUS
 70
0
 71
3
 72
15
 73
11
 74
0
 42
0.0000001
 43
0.0000001
 44
0.0000000001
 40
0.0
 40
0.0
 40
0.0
 40
0.0
 40
0.1449018606
 40
0.274517057
 40
0.3911053392
 40
0.4999889011
 40
0.6088744758
 40
0.7254681141
 40
0.8550905238
 40
1.0
 40
1.0
 40
1.0
 40
1.0
 10
3.2020544388
 20
-10.5596667676
 30
0.0
 10
3.2020544391
 20
-10.6458302957
 30
0.0
 10
3.1890339791
 20
-10.8096388393
 30
0.0
 10
3.122659178
 20
-11.0346448954
 30
0.0
 10
3.0108881971
 20
-11.2173543562
 30
0.0
 10
2.8557387441
 20
-11.3478336817
 30
0.0
 10
2.6651549495
 20
-11.4169365644
 30
0.0
 10
2.4510297915
 20
-11.4223595526
 30
0.0
 10
2.2229733518
 20
-11.3673226965
 30
0.0
 10
2.0745954356
 20
-11.2966855381
 30
0.0
 10
1.9999729107
 20
-11.2535994295
 30
0.0
  0
SPLINE
  5
32B
100
AcDbEntity
  8
ASSI
100
AcDbSpline
 62
7
  6
CONTINUOUS
 70
0
 71
3
 72
13
 73
9
 74
0
 42
0.0000001
 43
0.0000001
 44
0.0000000001
 40
0.0
 40
0.0
 40
0.0
 40
0.0
 40
0.1142615975
 40
0.2375404836
 40
0.5000060625
 40
0.7624683192
 40
0.885743332
 40
1.0
 40
1.0
 40
1.0
 40
1.0
 10
-7.4752579572
 20
-5.7827198789
 30
0.0
 10
-7.5575519518
 20
-5.7352043581
 30
0.0
 10
-7.7201137141
 20
-5.6212634727
 30
0.0
 10
-8.0244184991
 20
-5.3364018259
 30
0.0
 10
-8.3458976259
 20
-4.8973245392
 30
0.0
 10
-8.5654097721
 20
-4.3993797671
 30
0.0
 10
-8.6599490667
 20
-3.993422177
 30
0.0
 10
-8.6773394833
 20
-3.7956759505
 30
0.0
 10
-8.6773394852
 20
-3.7006535997
 30
0.0
  0
SPLINE
  5
32C
100
AcDbEntity
  8
ASSI
100
AcDbSpline
 62
7
  6
CONTINUOUS
 70
0
 71
3
 72
11
 73
7
 74
0
 42
0.0000001
 43
0.0000001
 44
0.0000000001
 40
0.0
 40
0.0
 40
0.0
 40
0.0
 40
0.2372223247
 40
0.5000061052
 40
0.7627865602
 40
1.0
 40
1.0
 40
1.0
 40
1.0
 10
-7.1217045666
 20
-5.1703474439
 30
0.0
 10
-7.242160477
 20
-5.1007977103
 30
0.0
 10
-7.4701314518
 20
-4.90893296
 30
0.0
 10
-7.7362119652
 20
-4.545326761
 30
0.0
 10
-7.9180624477
 20
-4.1330962542
 30
0.0
 10
-7.9702327068
 20
-3.8397411355
 30
0.0
 10
-7.970232704
 20
-3.7006535997
 30
0.0
  0
SPLINE
  5
32D
100
AcDbEntity
  8
ASSI
100
AcDbSpline
 62
7
  6
CONTINUOUS
 70
0
 71
3
 72
11
 73
7
 74
0
 42
0.0000001
 43
0.0000001
 44
0.0000000001
 40
0.0
 40
0.0
 40
0.0
 40
0.0
 40
0.2372134857
 40
0.4999938933
 40
0.7627776251
 40
1.0
 40
1.0
 40
1.0
 40
1.0
 10
-7.8288113477
 20
-3.618998681
 30
0.0
 10
-7.8288113475
 20
-3.7580862437
 30
0.0
 10
-7.7766410851
 20
-4.051441362
 30
0.0
 10
-7.5947906045
 20
-4.4636718359
 30
0.0
 10
-7.3287101179
 20
-4.8272780182
 30
0.0
 10
-7.1007391461
 20
-5.0191427766
 30
0.0
 10
-6.9802832103
 20
-5.0886925252
 30
0.0
  0
SPLINE
  5
32E
100
AcDbEntity
  8
ASSI
100
AcDbSpline
 62
7
  6
CONTINUOUS
 70
0
 71
3
 72
9
 73
5
 74
0
 42
0.0000001
 43
0.0000001
 44
0.0000000001
 40
0.0
 40
0.0
 40
0.0
 40
0.0
 40
0.2698109577
 40
1.0
 40
1.0
 40
1.0
 40
1.0
 10
2.4949476576
 20
-10.5595720758
 30
0.0
 10
2.5201336066
 20
-10.574114127
 30
0.0
 10
2.6154099879
 20
-10.6243393271
 30
0.0
 10
2.7197909721
 20
-10.6592758813
 30
0.0
 10
2.7977768003
 20
-10.6699021865
 30
0.0
  0
SPLINE
  5
32F
100
AcDbEntity
  8
ASSI
100
AcDbSpline
 62
7
  6
CONTINUOUS
 70
0
 71
3
 72
11
 73
7
 74
0
 42
0.0000001
 43
0.0000001
 44
0.0000000001
 40
0.0
 40
0.0
 40
0.0
 40
0.0
 40
0.2845759374
 40
0.5442323343
 40
0.7808561232
 40
1.0
 40
1.0
 40
1.0
 40
1.0
 10
-7.970232704
 20
7.2400481093
 30
0.0
 10
-7.9702327038
 20
7.2911997293
 30
0.0
 10
-7.9636429438
 20
7.389239745
 30
0.0
 10
-7.9308748032
 20
7.5265212676
 30
0.0
 10
-7.8760599898
 20
7.6439517194
 30
0.0
 10
-7.8237741463
 20
7.7084579262
 30
0.0
 10
-7.794890574
 20
7.7352412056
 30
0.0
  0
SPLINE
  5
330
100
AcDbEntity
  8
CURVE
100
AcDbSpline
 62
250
  6
CONTINUOUS
 70
0
 71
3
 72
9
 73
5
 74
0
 42
0.0000001
 43
0.0000001
 44
0.0000000001
 40
0.0
 40
0.0
 40
0.0
 40
0.0
 40
0.3559141631
 40
1.0
 40
1.0
 40
1.0
 40
1.0
 10
31.8771746927
 20
-42.7013650102
 30
0.0
 10
31.8771746927
 20
-42.6642397113
 30
0.0
 10
31.8973116544
 20
-42.5465979884
 30
0.0
 10
31.9819168569
 20
-42.4308896374
 30
0.0
 10
32.0382602459
 20
-42.3769471964
 30
0.0
  0
SPLINE
  5
331
100
AcDbEntity
  8
CURVE
100
AcDbSpline
 62
250
  6
CONTINUOUS
 70
0
 71
3
 72
9
 73
5
 74
0
 42
0.0000001
 43
0.0000001
 44
0.0000000001
 40
0.0
 40
0.0
 40
0.0
 40
0.0
 40
0.2957417834
 40
1.0
 40
1.0
 40
1.0
 40
1.0
 10
30.8050440883
 20
-42.8799917993
 30
0.0
 10
30.7732835836
 20
-42.9952354855
 30
0.0
 10
30.721512068
 20
-43.3758755219
 30
0.0
 10
30.7533980353
 20
-43.7133229025
 30
0.0
 10
30.7857960784
 20
-43.9417282392
 30
0.0
  0
SPLINE
  5
332
100
AcDbEntity
  8
CURVE
100
AcDbSpline
 62
250
  6
CONTINUOUS
 70
0
 71
3
 72
17
 73
13
 74
0
 42
0.0000001
 43
0.0000001
 44
0.0000000001
 40
0.0
 40
0.0
 40
0.0
 40
0.0
 40
0.0559780952
 40
0.1687540387
 40
0.321006234
 40
0.4122750837
 40
0.516613223
 40
0.6013931059
 40
0.6776022439
 40
0.8103422694
 40
0.9200404832
 40
1.0
 40
1.0
 40
1.0
 40
1.0
 10
31.7284413168
 20
-42.3388887545
 30
0.0
 10
31.7257215774
 20
-42.3168220404
 30
0.0
 10
31.683524988
 20
-42.279728664
 30
0.0
 10
31.603086517
 20
-42.2238457011
 30
0.0
 10
31.4792639795
 20
-42.2174769669
 30
0.0
 10
31.3500890458
 20
-42.2544910938
 30
0.0
 10
31.2428765473
 20
-42.3091599725
 30
0.0
 10
31.1427409434
 20
-42.379184625
 30
0.0
 10
31.0363390526
 20
-42.4755174246
 30
0.0
 10
30.9320628801
 20
-42.6049939824
 30
0.0
 10
30.8505161739
 20
-42.7524395278
 30
0.0
 10
30.8153458264
 20
-42.842565514
 30
0.0
 10
30.8050440883
 20
-42.8799917993
 30
0.0
  0
SPLINE
  5
333
100
AcDbEntity
  8
CURVE
100
AcDbSpline
 62
250
  6
CONTINUOUS
 70
0
 71
3
 72
9
 73
5
 74
0
 42
0.0000001
 43
0.0000001
 44
0.0000000001
 40
0.0
 40
0.0
 40
0.0
 40
0.0
 40
0.2426586216
 40
1.0
 40
1.0
 40
1.0
 40
1.0
 10
32.0978139176
 20
-41.8944424586
 30
0.0
 10
32.0645926151
 20
-41.9224333549
 30
0.0
 10
31.9304368996
 20
-42.0332607658
 30
0.0
 10
31.7790474905
 20
-42.2002041597
 30
0.0
 10
31.7392443309
 20
-42.3330721683
 30
0.0
  0
SPLINE
  5
334
100
AcDbEntity
  8
CURVE
100
AcDbSpline
 62
250
  6
CONTINUOUS
 70
0
 71
3
 72
9
 73
5
 74
0
 42
0.0000001
 43
0.0000001
 44
0.0000000001
 40
0.0
 40
0.0
 40
0.0
 40
0.0
 40
0.1980141723
 40
1.0
 40
1.0
 40
1.0
 40
1.0
 10
32.5926276088
 20
-41.4823818099
 30
0.0
 10
32.5600322966
 20
-41.5098149625
 30
0.0
 10
32.3950512884
 20
-41.6470178111
 30
0.0
 10
32.2298012754
 20
-41.7832332163
 30
0.0
 10
32.0978139176
 20
-41.8944424586
 30
0.0
  0
SPLINE
  5
335
100
AcDbEntity
  8
CURVE
100
AcDbSpline
 62
250
  6
CONTINUOUS
 70
0
 71
3
 72
9
 73
5
 74
0
 42
0.0000001
 43
0.0000001
 44
0.0000000001
 40
0.0
 40
0.0
 40
0.0
 40
0.0
 40
0.5586214172
 40
1.0
 40
1.0
 40
1.0
 40
1.0
 10
32.0382602459
 20
-42.3769471964
 30
0.0
 10
32.1391791307
 20
-42.2802838729
 30
0.0
 10
32.3260524187
 20
-42.1240042081
 30
0.0
 10
32.5107641971
 20
-41.9625239313
 30
0.0
 10
32.5926276088
 20
-41.8921715879
 30
0.0
  0
SPLINE
  5
336
100
AcDbEntity
  8
CURVE
100
AcDbSpline
 62
250
  6
CONTINUOUS
 70
0
 71
3
 72
9
 73
5
 74
0
 42
0.0000001
 43
0.0000001
 44
0.0000000001
 40
0.0
 40
0.0
 40
0.0
 40
0.0
 40
0.5206208722
 40
1.0
 40
1.0
 40
1.0
 40
1.0
 10
31.2936611267
 20
-42.6836848352
 30
0.0
 10
31.3726948644
 20
-42.6397698462
 30
0.0
 10
31.5453432869
 20
-42.6091435735
 30
0.0
 10
31.5761359796
 20
-42.781300882
 30
0.0
 10
31.5777612049
 20
-42.8616576795
 30
0.0
  0
SPLINE
  5
337
100
AcDbEntity
  8
CURVE
100
AcDbSpline
 62
250
  6
CONTINUOUS
 70
0
 71
3
 72
9
 73
5
 74
0
 42
0.0000001
 43
0.0000001
 44
0.0000000001
 40
0.0
 40
0.0
 40
0.0
 40
0.0
 40
0.5013510385
 40
1.0
 40
1.0
 40
1.0
 40
1.0
 10
31.0651252823
 20
-43.0473885634
 30
0.0
 10
31.0716187512
 20
-42.9814529927
 30
0.0
 10
31.120873308
 20
-42.8286423693
 30
0.0
 10
31.2376656828
 20
-42.7148117667
 30
0.0
 10
31.2936611267
 20
-42.6836848352
 30
0.0
  0
SPLINE
  5
338
100
AcDbEntity
  8
CURVE
100
AcDbSpline
 62
250
  6
CONTINUOUS
 70
0
 71
3
 72
9
 73
5
 74
0
 42
0.0000001
 43
0.0000001
 44
0.0000000001
 40
0.0
 40
0.0
 40
0.0
 40
0.0
 40
0.2703953699
 40
1.0
 40
1.0
 40
1.0
 40
1.0
 10
31.0758871682
 20
-43.375348956
 30
0.0
 10
31.0713423042
 20
-43.3480610701
 30
0.0
 10
31.0563946088
 20
-43.2457967982
 30
0.0
 10
31.0567191063
 20
-43.1327649259
 30
0.0
 10
31.0651252823
 20
-43.0473885634
 30
0.0
  0
ENDSEC
  0
SECTION
  2
OBJECTS
  0
DICTIONARY
  5
C
100
AcDbDictionary
280
0
281
1
  3
ACAD_GROUP
350
D
  3
ACAD_MLINESTYLE
350
17
  3
ACAD_LAYOUT
350
1A
  3
ACAD_PLOTSETTINGS
350
19
  3
ACAD_PLOTSTYLENAME
350
E
  0
DICTIONARY
  5
D
102
{ACAD_REACTORS
330
C
102
}
100
AcDbDictionary
280
0
281
1
  0
ACDBDICTIONARYWDFLT
  5
E
102
{ACAD_REACTORS
330
C
102
}
100
AcDbDictionary
281
1
  3
Normal
350
F
100
AcDbDictionaryWithDefault
340
F
  0
DICTIONARY
  5
17
102
{ACAD_REACTORS
330
C
102
}
100
AcDbDictionary
280
0
281
1
  3
Standard
350
18
  0
DICTIONARY
  5
19
102
{ACAD_REACTORS
330
C
102
}
100
AcDbDictionary
281
1
  0
DICTIONARY
  5
1A
102
{ACAD_REACTORS
330
C
102
}
100
AcDbDictionary
281
1
  3
Model
350
339
  3
Layout1
350
33A
  0
ACDBPLACEHOLDER
  5
F
102
{ACAD_REACTORS
330
E
102
}
  0
MLINESTYLE
  5
18
102
{ACAD_REACTORS
330
17
102
}
100
AcDbMlineStyle
  2
STANDARD
 70
0
  3

 62
256
 51
90.0
 52
90.0
 71
2
 49
0.5
 62
256
  6
BYLAYER
 49
-0.5
 62
256
  6
BYLAYER
  0
LAYOUT
  5
339
102
{ACAD_REACTORS
330
1A
102
}
100
AcDbPlotSettings
  1

  2
none_device
  4
ISO_A4_(297.00_x_210.00_MM)
  6

 40
0.0
 41
0.0
 42
0.0
 43
0.0
 44
297.0
 45
210.0
 46
0.0
 47
0.0
 48
0.0
 49
0.0
140
0.0
141
0.0
142
1.0
143
1.0
 70
1024
 72
1
 73
0
 74
0
  7

 75
0
147
1.0
148
0.0
149
0.0
100
AcDbLayout
  1
Model
 70
0
 71
0
 10
0.0
 20
0.0
 11
297.0
 21
210.0
 12
0.0
 22
0.0
 32
0.0
 14
0.0
 24
0.0
 34
0.0
 15
0.0
 25
0.0
 35
0.0
146
0.0
 13
0.0
 23
0.0
 33
0.0
 16
1.0
 26
0.0
 36
0.0
 17
0.0
 27
1.0
 37
0.0
 76
0
330
21E
345
0
346
0
  0
LAYOUT
  5
33A
102
{ACAD_REACTORS
330
1A
102
}
100
AcDbPlotSettings
  1

  2
none_device
  4
ISO_A4_(297.00_x_210.00_MM)
  6

 40
0.0
 41
0.0
 42
0.0
 43
0.0
 44
297.0
 45
210.0
 46
0.0
 47
0.0
 48
0.0
 49
0.0
140
0.0
141
0.0
142
1.0
143
1.0
 70
0
 72
1
 73
0
 74
0
  7

 75
0
147
1.0
148
0.0
149
0.0
100
AcDbLayout
  1
Layout1
 70
0
 71
1
 10
0.0
 20
0.0
 11
297.0
 21
210.0
 12
0.0
 22
0.0
 32
0.0
 14
0.0
 24
0.0
 34
0.0
 15
0.0
 25
0.0
 35
0.0
146
0.0
 13
0.0
 23
0.0
 33
0.0
 16
1.0
 26
0.0
 36
0.0
 17
0.0
 27
1.0
 37
0.0
 76
0
330
21F
345
0
346
0
  0
ENDSEC
  0
EOF
