  0
SECTION
  2
HEADER
  9
$ACADVER
  1
AC1024
  9
$DWGCODEPAGE
  3
ANSI_1252
  9
$EXTMAX
 10
297.0
 20
210.0
 30
0.0
  9
$EXTMIN
 10
0.0
 20
0.0
 30
0.0
  9
$LIMMIN
 10
0.0
 20
0.0
  9
$LIMMAX
 10
297.0
 20
210.0
  9
$VIEWCTR
 10
148.5
 20
105.0
  9
$VIEWSIZE
 40
210.0
  9
$CLAYER
  8
0
  9
$LTSCALE
 40
16.335
  9
$CELTYPE
  6
BYLAYER
  9
$DIMSCALE
 40
1.0
  9
$DIMASZ
 40
3.0
  9
$DIMEXO
 40
0.5
  9
$DIMDLI
 40
11.286
  9
$DIMEXE
 40
1.5
  9
$DIMCEN
 40
2.673
  9
$DIMLFAC
 40
1.0
  9
$DIMBLK
  1
_FILLED
  9
$DIMALT
 70
0
  9
$DIMALTF
 40
0.0393700787
  9
$DIMTXT
 40
3.0
  9
$DIMTOL
 70
1
  9
$DIMLIM
 70
0
  9
$DIMTFAC
 40
1.0
  9
$DIMTP
 40
0.01
  9
$DIMTM
 40
0.01
  9
$DIMGAP
 40
0.625
  9
$DIMDSEP
 70
44
  9
$AUNITS
 70
0
  9
$PDMODE
 70
3
  9
$PDSIZE
 40
3.0
  9
$HANDSEED
  5
277
  9
$TILEMODE
 70
1
  9
$MEASUREMENT
 70
1
  9
$INSUNITS
 70
4
  0
ENDSEC
  0
SECTION
  2
CLASSES
  0
CLASS
  1
ACDBDICTIONARYWDFLT
  2
AcDbDictionaryWithDefault
  3
AutoCAD 2000
 90
0
 91
1
280
0
281
0
  0
CLASS
  1
ACDBPLACEHOLDER
  2
AcDbPlaceHolder
  3
AutoCAD 2000
 90
0
 91
1
280
0
281
0
  0
CLASS
  1
LAYOUT
  2
AcDbLayout
  3
AutoCAD 2000
 90
0
 91
0
280
0
281
0
  0
ENDSEC
  0
SECTION
  2
TABLES
  0
TABLE
  2
VPORT
  5
8
100
AcDbSymbolTable
 70
2
  0
VPORT
  5
1F4
100
AcDbSymbolTableRecord
100
AcDbViewportTableRecord
  2
*ACTIVE
 70
0
 10
0.0
 20
0.0
 11
1.0
 21
1.0
 12
148.5
 22
105.0
 13
0.0
 23
0.0
 14
1.0
 24
1.0
 15
0.0
 25
0.0
 16
0.0
 26
0.0
 36
1.0
 17
0.0
 27
0.0
 37
0.0
 40
210.0
 41
1.4142857143
 42
50.0
 43
0.0
 44
0.0
 50
0.0
 51
0.0
 71
0
 72
100
 73
1
 74
1
 75
0
 76
0
 77
0
 78
0
  0
ENDTAB
  0
TABLE
  2
LTYPE
  5
5
100
AcDbSymbolTable
 70
6
  0
LTYPE
  5
14
100
AcDbSymbolTableRecord
100
AcDbLinetypeTableRecord
  2
BYBLOCK
 70
0
  3

 72
65
 73
0
 40
0.0
  0
LTYPE
  5
15
100
AcDbSymbolTableRecord
100
AcDbLinetypeTableRecord
  2
BYLAYER
 70
0
  3

 72
65
 73
0
 40
0.0
  0
LTYPE
  5
16
100
AcDbSymbolTableRecord
100
AcDbLinetypeTableRecord
  2
CONTINUOUS
 70
64
  3
Solid line
 72
65
 73
0
 40
0.0
  0
LTYPE
  5
1F5
100
AcDbSymbolTableRecord
100
AcDbLinetypeTableRecord
  2
CENTER
 70
64
  3
____ _ ____ _ ____ _ ____ _ ____ _ ____ _ ____
 72
65
 73
4
 40
0.6
 49
0.375
 74
0
 49
-0.075
 74
0
 49
0.075
 74
0
 49
-0.075
 74
0
  0
LTYPE
  5
1F6
100
AcDbSymbolTableRecord
100
AcDbLinetypeTableRecord
  2
HIDDEN
 70
64
  3
- - - - - - - - - - - - - - - - - - - -
 72
65
 73
2
 40
0.2
 49
0.1
 74
0
 49
-0.1
 74
0
  0
LTYPE
  5
1F7
100
AcDbSymbolTableRecord
100
AcDbLinetypeTableRecord
  2
PHANTOM
 70
64
  3
_____ _ _ _____ _ _ _____ _ _ _____
 72
65
 73
6
 40
0.8
 49
0.45
 74
0
 49
-0.05
 74
0
 49
0.1
 74
0
 49
-0.05
 74
0
 49
0.1
 74
0
 49
-0.05
 74
0
  0
LTYPE
  5
1F8
100
AcDbSymbolTableRecord
100
AcDbLinetypeTableRecord
  2
DOT
 70
64
  3
. . . . . . . . . . . . . . . . . . . .
 72
65
 73
2
 40
0.2
 49
0.1
 74
0
 49
-0.1
 74
0
  0
LTYPE
  5
1F9
100
AcDbSymbolTableRecord
100
AcDbLinetypeTableRecord
  2
DASHED
 70
64
  3
- - - - - - - - - - - - - - - - - - - -
 72
65
 73
2
 40
0.2
 49
0.1
 74
0
 49
-0.1
 74
0
  0
ENDTAB
  0
TABLE
  2
LAYER
  5
2
100
AcDbSymbolTable
 70
36
  0
LAYER
  5
10
100
AcDbSymbolTableRecord
100
AcDbLayerTableRecord
  2
0
 70
0
 62
7
  6
CONTINUOUS
370
-3
390
F
  0
LAYER
  5
1FA
100
AcDbSymbolTableRecord
100
AcDbLayerTableRecord
  2
DEFAULT_1
 70
0
 62
7
  6
CENTER
370
-3
390
F
  0
LAYER
  5
1FB
100
AcDbSymbolTableRecord
100
AcDbLayerTableRecord
  2
DEFAULT_2
 70
0
 62
7
  6
HIDDEN
370
-3
390
F
  0
LAYER
  5
1FC
100
AcDbSymbolTableRecord
100
AcDbLayerTableRecord
  2
DEFAULT_3
 70
0
 62
7
  6
PHANTOM
370
-3
390
F
  0
LAYER
  5
1FD
100
AcDbSymbolTableRecord
100
AcDbLayerTableRecord
  2
ASSI
 70
0
 62
7
  6
CONTINUOUS
370
-3
390
F
  0
LAYER
  5
1FE
100
AcDbSymbolTableRecord
100
AcDbLayerTableRecord
  2
COORDINATE
 70
0
 62
7
  6
CONTINUOUS
370
-3
390
F
  0
LAYER
  5
1FF
100
AcDbSymbolTableRecord
100
AcDbLayerTableRecord
  2
COORD_ORIGINE
 70
0
 62
7
  6
CONTINUOUS
370
-3
390
F
  0
LAYER
  5
200
100
AcDbSymbolTableRecord
100
AcDbLayerTableRecord
  2
COPY_PUBLISH
 70
0
 62
7
  6
CONTINUOUS
370
-3
390
F
  0
LAYER
  5
201
100
AcDbSymbolTableRecord
100
AcDbLayerTableRecord
  2
COSMETIC
 70
0
 62
7
  6
CONTINUOUS
370
-3
390
F
  0
LAYER
  5
202
100
AcDbSymbolTableRecord
100
AcDbLayerTableRecord
  2
COSMETICI
 70
0
 62
7
  6
CONTINUOUS
370
-3
390
F
  0
LAYER
  5
203
100
AcDbSymbolTableRecord
100
AcDbLayerTableRecord
  2
CURVE
 70
0
 62
7
  6
CONTINUOUS
370
-3
390
F
  0
LAYER
  5
204
100
AcDbSymbolTableRecord
100
AcDbLayerTableRecord
  2
CURVE_TASSELLI
 70
0
 62
7
  6
CONTINUOUS
370
-3
390
F
  0
LAYER
  5
205
100
AcDbSymbolTableRecord
100
AcDbLayerTableRecord
  2
DRAFT
 70
0
 62
7
  6
CONTINUOUS
370
-3
390
F
  0
LAYER
  5
206
100
AcDbSymbolTableRecord
100
AcDbLayerTableRecord
  2
IMPORT_IGES
 70
0
 62
7
  6
CONTINUOUS
370
-3
390
F
  0
LAYER
  5
207
100
AcDbSymbolTableRecord
100
AcDbLayerTableRecord
  2
INTFCLR_2
 70
0
 62
7
  6
CONTINUOUS
370
-3
390
F
  0
LAYER
  5
208
100
AcDbSymbolTableRecord
100
AcDbLayerTableRecord
  2
INTF_1
 70
0
 62
7
  6
CONTINUOUS
370
-3
390
F
  0
LAYER
  5
209
100
AcDbSymbolTableRecord
100
AcDbLayerTableRecord
  2
INTF_21
 70
0
 62
7
  6
CONTINUOUS
370
-3
390
F
  0
LAYER
  5
20A
100
AcDbSymbolTableRecord
100
AcDbLayerTableRecord
  2
INTF_7
 70
0
 62
7
  6
CONTINUOUS
370
-3
390
F
  0
LAYER
  5
20B
100
AcDbSymbolTableRecord
100
AcDbLayerTableRecord
  2
INTF_CYAN
 70
0
 62
7
  6
CONTINUOUS
370
-3
390
F
  0
LAYER
  5
20C
100
AcDbSymbolTableRecord
100
AcDbLayerTableRecord
  2
NOTE
 70
0
 62
7
  6
CONTINUOUS
370
-3
390
F
  0
LAYER
  5
20D
100
AcDbSymbolTableRecord
100
AcDbLayerTableRecord
  2
PIANI
 70
0
 62
7
  6
CONTINUOUS
370
-3
390
F
  0
LAYER
  5
20E
100
AcDbSymbolTableRecord
100
AcDbLayerTableRecord
  2
PIANI_ORIGINE
 70
0
 62
7
  6
CONTINUOUS
370
-3
390
F
  0
LAYER
  5
20F
100
AcDbSymbolTableRecord
100
AcDbLayerTableRecord
  2
PIANI_RIFERIMENTO
 70
0
 62
7
  6
CONTINUOUS
370
-3
390
F
  0
LAYER
  5
210
100
AcDbSymbolTableRecord
100
AcDbLayerTableRecord
  2
PUNTI
 70
0
 62
7
  6
CONTINUOUS
370
-3
390
F
  0
LAYER
  5
211
100
AcDbSymbolTableRecord
100
AcDbLayerTableRecord
  2
RACCORDO
 70
0
 62
7
  6
CONTINUOUS
370
-3
390
F
  0
LAYER
  5
212
100
AcDbSymbolTableRecord
100
AcDbLayerTableRecord
  2
RGB__255__255__255__
 70
0
 62
7
  6
CONTINUOUS
370
-3
390
F
  0
LAYER
  5
213
100
AcDbSymbolTableRecord
100
AcDbLayerTableRecord
  2
RGB____0____0____0__
 70
0
 62
7
  6
CONTINUOUS
370
-3
390
F
  0
LAYER
  5
214
100
AcDbSymbolTableRecord
100
AcDbLayerTableRecord
  2
SIMBOLI
 70
0
 62
7
  6
CONTINUOUS
370
-3
390
F
  0
LAYER
  5
215
100
AcDbSymbolTableRecord
100
AcDbLayerTableRecord
  2
SMUSSO
 70
0
 62
7
  6
CONTINUOUS
370
-3
390
F
  0
LAYER
  5
216
100
AcDbSymbolTableRecord
100
AcDbLayerTableRecord
  2
SUPERFICI
 70
0
 62
7
  6
CONTINUOUS
370
-3
390
F
  0
LAYER
  5
217
100
AcDbSymbolTableRecord
100
AcDbLayerTableRecord
  2
TRASH
 70
0
 62
7
  6
CONTINUOUS
370
-3
390
F
  0
LAYER
  5
218
100
AcDbSymbolTableRecord
100
AcDbLayerTableRecord
  2
XSEC_DATUMS
 70
0
 62
7
  6
CONTINUOUS
370
-3
390
F
  0
ENDTAB
  0
TABLE
  2
STYLE
  5
3
100
AcDbSymbolTable
 70
1
  0
STYLE
  5
11
100
AcDbSymbolTableRecord
100
AcDbTextStyleTableRecord
  2
STANDARD
 70
0
 40
0.0
 41
0.8
 50
0.0
 71
0
 42
0.2
  3
txt
  4

  0
STYLE
  5
219
100
AcDbSymbolTableRecord
100
AcDbTextStyleTableRecord
  2
TEXTSTYLE_1
 70
0
 40
0.0
 41
0.8
 50
0.0
 71
0
 42
0.2
  3
gdt
  4

  0
ENDTAB
  0
TABLE
  2
VIEW
  5
6
100
AcDbSymbolTable
 70
0
  0
ENDTAB
  0
TABLE
  2
UCS
  5
7
100
AcDbSymbolTable
 70
0
  0
ENDTAB
  0
TABLE
  2
APPID
  5
9
100
AcDbSymbolTable
 70
1
  0
APPID
  5
21A
100
AcDbSymbolTableRecord
100
AcDbRegAppTableRecord
  2
ACAD
 70
0
  0
ENDTAB
  0
TABLE
  2
BLOCK_RECORD
  5
1
100
AcDbSymbolTable
 70
0
  0
BLOCK_RECORD
  5
21B
100
AcDbSymbolTableRecord
100
AcDbBlockTableRecord
  2
*Model_Space
  0
BLOCK_RECORD
  5
21C
100
AcDbSymbolTableRecord
100
AcDbBlockTableRecord
  2
*Paper_Space
  0
BLOCK_RECORD
  5
21D
100
AcDbSymbolTableRecord
100
AcDbBlockTableRecord
  2
_FILLED
  0
ENDTAB
  0
TABLE
  2
DIMSTYLE
  5
A
100
AcDbSymbolTable
 70
1
100
AcDbDimStyleTable
 71
0
  0
DIMSTYLE
105
21E
100
AcDbSymbolTableRecord
100
AcDbDimStyleTableRecord
  2
STANDARD
 70
0
  3

  4

 40
1.0
 41
3.0
 42
0.5
 43
0.38
 44
1.5
 45
0.0
 46
0.0
 47
0.01
 48
0.01
140
3.0
141
0.09
142
0.0
143
25.4
144
1.0
145
0.0
146
1.0
147
0.625
 71
1.0
 72
0.0
 73
0
 74
0
 75
0
 76
0
 77
1
 78
8
 79
2
170
0
171
1
172
0
173
0
174
0
175
0
176
0
177
0
178
0
270
2
179
2
271
2
272
2
273
2
274
2
275
0
280
0
281
0
282
0
283
1
284
8
285
0
286
0
287
3
288
0
340
11
278
44
341
21D
342
21D
343
21D
344
21D
  0
ENDTAB
  0
ENDSEC
  0
SECTION
  2
BLOCKS
  0
BLOCK
  5
20
100
AcDbEntity
  8
0
100
AcDbBlockBegin
  2
*Model_Space
 70
0
 10
0.0
 20
0.0
 30
0.0
  3
*Model_Space
  1

  0
ENDBLK
  5
21
100
AcDbEntity
  8
0
100
AcDbBlockEnd
  0
BLOCK
  5
1C
100
AcDbEntity
  8
0
100
AcDbBlockBegin
  2
*Paper_Space
 70
0
 10
0.0
 20
0.0
 30
0.0
  3
*Paper_Space
  1

  0
ENDBLK
  5
1D
100
AcDbEntity
  8
0
100
AcDbBlockEnd
  0
BLOCK
  5
21F
100
AcDbEntity
  8
0
100
AcDbBlockBegin
  2
_FILLED
 70
64
 10
0.0
 20
0.0
  3
_FILLED
  1

  0
SOLID
  5
220
100
AcDbEntity
  8
0
  6
BYBLOCK
 62
0
100
AcDbTrace
 10
0.0
 20
0.0
 11
-1.0
 21
0.3166666667
 12
-1.0
 22
-0.3166666667
 13
-1.0
 23
-0.3166666667
  0
ENDBLK
  5
221
100
AcDbEntity
  8
0
  6
BYBLOCK
 62
0
100
AcDbBlockEnd
  0
ENDSEC
  0
SECTION
  2
ENTITIES
  0
LINE
  5
222
100
AcDbEntity
  8
0
100
AcDbLine
 62
7
  6
CONTINUOUS
 10
114.9511522622
 20
149.5641587151
 11
118.7389660494
 21
152.0677256064
  0
LINE
  5
223
100
AcDbEntity
  8
0
100
AcDbLine
 62
7
  6
CONTINUOUS
 10
115.6586895315
 20
149.9726029089
 11
119.4465033187
 21
152.4761698003
  0
LINE
  5
224
100
AcDbEntity
  8
0
100
AcDbLine
 62
7
  6
CONTINUOUS
 10
115.6379259174
 20
149.959763558
 11
115.6586895315
 21
149.9726029089
  0
LINE
  5
225
100
AcDbEntity
  8
0
100
AcDbLine
 62
7
  6
CONTINUOUS
 10
118.7389660494
 20
152.0677256064
 11
119.4465033187
 21
152.4761698003
  0
LINE
  5
226
100
AcDbEntity
  8
0
100
AcDbLine
 62
7
  6
CONTINUOUS
 10
115.6379259174
 20
149.959763558
 11
114.9515275697
 21
149.5635223535
  0
LINE
  5
227
100
AcDbEntity
  8
0
100
AcDbLine
 62
7
  6
CONTINUOUS
 10
115.2552366175
 20
148.5445351196
 11
114.9762606834
 21
148.383489044
  0
LINE
  5
228
100
AcDbEntity
  8
0
100
AcDbLine
 62
7
  6
CONTINUOUS
 10
115.2552366175
 20
148.5445351196
 11
115.6379259174
 21
149.959763558
  0
LINE
  5
229
100
AcDbEntity
  8
0
100
AcDbLine
 62
7
  6
CONTINUOUS
 10
176.8781828886
 20
41.8104613766
 11
178.2951420196
 21
41.4342819208
  0
LINE
  5
22A
100
AcDbEntity
  8
0
100
AcDbLine
 62
7
  6
CONTINUOUS
 10
114.9762606834
 20
77.5518554447
 11
115.2552366175
 21
77.0686549532
  0
LINE
  5
22B
100
AcDbEntity
  8
0
100
AcDbLine
 62
7
  6
CONTINUOUS
 10
114.9762606834
 20
77.5518554447
 11
114.9515275697
 21
78.0080910222
  0
LINE
  5
22C
100
AcDbEntity
  8
0
100
AcDbLine
 62
7
  6
CONTINUOUS
 10
115.2552366175
 20
77.0686549532
 11
115.6379259174
 21
76.8192142111
  0
LINE
  5
22D
100
AcDbEntity
  8
0
100
AcDbLine
 62
7
  6
CONTINUOUS
 10
114.9762606834
 20
148.383489044
 11
114.9515275697
 21
149.5635223535
  0
LINE
  5
22E
100
AcDbEntity
  8
0
100
AcDbLine
 62
7
  6
CONTINUOUS
 10
114.9515275697
 20
78.0080910222
 11
114.9511522622
 21
78.0322838829
  0
LINE
  5
22F
100
AcDbEntity
  8
0
100
AcDbLine
 62
7
  6
CONTINUOUS
 10
114.9511522622
 20
149.5641587151
 11
114.9511522622
 21
78.0322838829
  0
LINE
  5
230
100
AcDbEntity
  8
0
100
AcDbLine
 62
7
  6
CONTINUOUS
 10
114.9762606834
 20
148.383489044
 11
114.9762606834
 21
77.5518554447
  0
LINE
  5
231
100
AcDbEntity
  8
0
100
AcDbLine
 62
7
  6
CONTINUOUS
 10
115.6586895315
 20
76.8067933855
 11
177.6091061022
 21
41.0373992787
  0
LINE
  5
232
100
AcDbEntity
  8
0
100
AcDbLine
 62
7
  6
CONTINUOUS
 10
115.2552366175
 20
77.0686549532
 11
176.5992069545
 21
41.6494153011
  0
LINE
  5
233
100
AcDbEntity
  8
0
100
AcDbLine
 62
7
  6
CONTINUOUS
 10
115.6586895315
 20
76.8067933855
 11
115.6379259174
 21
76.8192142111
  0
LINE
  5
234
100
AcDbEntity
  8
0
100
AcDbLine
 62
7
  6
CONTINUOUS
 10
176.5992069545
 20
41.6494153011
 11
177.6087436719
 21
41.0380407164
  0
LINE
  5
235
100
AcDbEntity
  8
0
100
AcDbLine
 62
7
  6
CONTINUOUS
 10
139.987524824
 20
93.0561309398
 11
139.987524824
 21
103.9968326488
  0
LWPOLYLINE
  5
236
100
AcDbEntity
  8
0
100
AcDbPolyline
 62
7
  6
CONTINUOUS
 90
28
 70
0
 10
139.987524824
 20
103.9968326488
 10
139.9896146416
 20
104.0767729693
 10
139.9957012237
 20
104.1535942292
 10
140.0057845704
 20
104.2272964285
 10
140.0199256309
 20
104.2981079867
 10
140.0380634559
 20
104.3658004843
 10
140.0600151979
 20
104.4296886631
 10
140.0858196935
 20
104.4897335923
 10
140.1154381061
 20
104.5459742028
 10
140.1485710784
 20
104.5978420294
 10
140.1852542
 20
104.6452924679
 10
140.2254518813
 20
104.6883701224
 10
140.2687579969
 20
104.7266403402
 10
140.3152036475
 20
104.7600543186
 10
140.3647577323
 20
104.7886608602
 10
140.4169208235
 20
104.8121717205
 10
140.4717195333
 20
104.8305355769
 10
140.5291272496
 20
104.8438037519
 10
140.5885647084
 20
104.8518419679
 10
140.6500527933
 20
104.8545971634
 10
140.7135706209
 20
104.8521223999
 10
140.7784762769
 20
104.8444425835
 10
140.8447841025
 20
104.8315046118
 10
140.9124797566
 20
104.8133615873
 10
140.9808783023
 20
104.7901977235
 10
141.0497514273
 20
104.7620744251
 10
141.1193274439
 20
104.7289302875
 10
141.1896063521
 20
104.6907653107
  0
LWPOLYLINE
  5
237
100
AcDbEntity
  8
0
100
AcDbPolyline
 62
7
  6
CONTINUOUS
 90
11
 70
0
 10
140.6946316052
 20
103.9968326488
 10
140.6964476936
 20
104.0598518142
 10
140.7018885284
 20
104.1205068637
 10
140.7109313309
 20
104.1785377803
 10
140.7235380289
 20
104.233696222
 10
140.7396550771
 20
104.2857450281
 10
140.7592133563
 20
104.3344595378
 10
140.7821292152
 20
104.3796307724
 10
140.8083047741
 20
104.4210652606
 10
140.8376275984
 20
104.4585847315
 10
140.8699719738
 20
104.4920283228
  0
LWPOLYLINE
  5
238
100
AcDbEntity
  8
0
100
AcDbPolyline
 62
7
  6
CONTINUOUS
 90
7
 70
0
 10
140.89190148
 20
104.3958184414
 10
140.8810814342
 20
104.367414071
 10
140.8649619893
 20
104.3153608602
 10
140.8523537707
 20
104.2601983638
 10
140.843310239
 20
104.2021646861
 10
140.8378691063
 20
104.1415076954
 10
140.8360529615
 20
104.0784875675
  0
LINE
  5
239
100
AcDbEntity
  8
0
100
AcDbLine
 62
250
  6
CONTINUOUS
 10
141.0754051508
 20
104.5942530867
 11
140.8360529615
 21
104.0784875675
  0
LWPOLYLINE
  5
23A
100
AcDbEntity
  8
0
100
AcDbPolyline
 62
7
  6
CONTINUOUS
 90
3
 70
0
 10
140.9235609376
 20
104.4613039779
 10
140.9006423657
 20
104.4161313723
 10
140.89190148
 20
104.3958184414
  0
LWPOLYLINE
  5
23B
100
AcDbEntity
  8
0
100
AcDbPolyline
 62
7
  6
CONTINUOUS
 90
4
 70
0
 10
141.0114048906
 20
104.5736939626
 10
140.9790628143
 20
104.5402555982
 10
140.949739041
 20
104.5027385455
 10
140.9235609376
 20
104.4613039779
  0
LWPOLYLINE
  5
23C
100
AcDbEntity
  8
0
100
AcDbPolyline
 62
7
  6
CONTINUOUS
 90
3
 70
0
 10
140.8699719738
 20
104.4920283228
 10
140.905199529
 20
104.5212529544
 10
140.9431307505
 20
104.5461168822
  0
LINE
  5
23D
100
AcDbEntity
  8
0
100
AcDbLine
 62
250
  6
CONTINUOUS
 10
140.6946316052
 20
103.9968326488
 11
140.8360529615
 21
104.0784875675
  0
LWPOLYLINE
  5
23E
100
AcDbEntity
  8
0
100
AcDbPolyline
 62
7
  6
CONTINUOUS
 90
13
 70
0
 10
140.9431307505
 20
104.5461168822
 10
140.9836887083
 20
104.5665629999
 10
141.0266141773
 20
104.5824543716
 10
141.0717517334
 20
104.5937393998
 10
141.1189082349
 20
104.6003698152
 10
141.167881531
 20
104.6023172123
 10
141.2184611136
 20
104.5995733707
 10
141.2704305058
 20
104.5921502527
 10
141.3235668822
 20
104.5800798987
 10
141.3776411794
 20
104.5634147537
 10
141.432421254
 20
104.5422269968
 10
141.4876729695
 20
104.5166078139
 10
141.5431597427
 20
104.4866674689
  0
LWPOLYLINE
  5
23F
100
AcDbEntity
  8
0
100
AcDbPolyline
 62
7
  6
CONTINUOUS
 90
11
 70
0
 10
151.5349361759
 20
86.0197706424
 10
151.4897986198
 20
86.0084856142
 10
151.4426421183
 20
86.0018551988
 10
151.3936688222
 20
85.9999078017
 10
151.3430892396
 20
86.0026516432
 10
151.2911198474
 20
86.0100747613
 10
151.237983471
 20
86.0221451152
 10
151.1839091738
 20
86.0388102603
 10
151.1291290992
 20
86.0599980172
 10
151.0738773837
 20
86.0856172001
 10
151.0183906106
 20
86.115557545
  0
LINE
  5
240
100
AcDbEntity
  8
0
100
AcDbLine
 62
250
  6
CONTINUOUS
 10
151.7262758838
 20
86.1466511847
 11
151.1598119668
 21
86.1972124637
  0
LWPOLYLINE
  5
241
100
AcDbEntity
  8
0
100
AcDbPolyline
 62
7
  6
CONTINUOUS
 90
6
 70
0
 10
151.4626409823
 20
86.0868828108
 10
151.4845274722
 20
86.084304889
 10
151.5351097085
 20
86.0815625644
 10
151.5840846157
 20
86.0835120044
 10
151.6312397142
 20
86.0901443647
 10
151.6763716896
 20
86.1014299303
  0
LWPOLYLINE
  5
242
100
AcDbEntity
  8
0
100
AcDbPolyline
 62
7
  6
CONTINUOUS
 90
7
 70
0
 10
151.1598119668
 20
86.1972124637
 10
151.2152994518
 20
86.1672717616
 10
151.2705527944
 20
86.1416519409
 10
151.3253353725
 20
86.120463495
 10
151.3794135688
 20
86.103797691
 10
151.4325545505
 20
86.0917272047
 10
151.4626409823
 20
86.0868828108
  0
LINE
  5
243
100
AcDbEntity
  8
0
100
AcDbLine
 62
7
  6
CONTINUOUS
 10
150.66483722
 20
85.50318511
 11
141.1896063521
 21
90.9740646606
  0
LWPOLYLINE
  5
244
100
AcDbEntity
  8
0
100
AcDbPolyline
 62
7
  6
CONTINUOUS
 90
28
 70
0
 10
141.1896063521
 20
90.9740646606
 10
141.1193287636
 20
91.0170550951
 10
141.0497538724
 20
91.0642547186
 10
140.9808816785
 20
91.1156635309
 10
140.912483881
 20
91.171483726
 10
140.8447887808
 20
91.23151311
 10
140.7784812806
 20
91.2951451013
 10
140.7135756765
 20
91.3624162887
 10
140.6500576723
 20
91.4332900834
 10
140.5885692824
 20
91.5070501376
 10
140.5291313399
 20
91.5837255163
 10
140.4717230117
 20
91.6632871544
 10
140.4169238126
 20
91.7449315092
 10
140.3647604565
 20
91.8286790672
 10
140.3152062295
 20
91.9145093418
 10
140.268760505
 20
92.0015573301
 10
140.2254544235
 20
92.08983578
 10
140.1852568444
 20
92.1793319437
 10
140.1485737192
 20
92.2691425752
 10
140.1154405592
 20
92.3592712839
 10
140.0858218532
 20
92.4497144604
 10
140.060017019
 20
92.5395580298
 10
140.0380648751
 20
92.6287961378
 10
140.0199266031
 20
92.7174346387
 10
140.0057851657
 20
92.8045770206
 10
139.9957015505
 20
92.889924446
 10
139.98961477
 20
92.9737757524
 10
139.987524824
 20
93.0561309398
  0
LWPOLYLINE
  5
245
100
AcDbEntity
  8
0
100
AcDbPolyline
 62
7
  6
CONTINUOUS
 90
25
 70
0
 10
141.5431597427
 20
91.5864370956
 10
141.4876736543
 20
91.6205710383
 10
141.4324224679
 20
91.6587547133
 10
141.3776427625
 20
91.7008252212
 10
141.3235686536
 20
91.746603426
 10
141.2704323102
 20
91.7958934494
 10
141.2184628634
 20
91.8484831846
 10
141.1678831296
 20
91.9041473912
 10
141.1189096098
 20
91.9626480459
 10
141.0717529189
 20
92.0237337185
 10
141.0266152354
 20
92.0871425157
 10
140.9836896667
 20
92.1526031676
 10
140.943160186
 20
92.2198351369
 10
140.9052003695
 20
92.2885504819
 10
140.8699727858
 20
92.3584549125
 10
140.8376283905
 20
92.4292488422
 10
140.8083055679
 20
92.500629356
 10
140.7821300035
 20
92.5722904685
 10
140.7592140811
 20
92.6439242245
 10
140.7396556895
 20
92.7152241466
 10
140.7235385035
 20
92.7858846335
 10
140.7109316458
 20
92.8556012838
 10
140.7018886882
 20
92.924075118
 10
140.6964477385
 20
92.9910137844
 10
140.6946316052
 20
93.0561309398
  0
LWPOLYLINE
  5
246
100
AcDbEntity
  8
0
100
AcDbPolyline
 62
7
  6
CONTINUOUS
 90
25
 70
0
 10
140.8360529615
 20
93.1377858584
 10
140.8378691414
 20
93.0726678542
 10
140.8433103523
 20
93.0057271582
 10
140.8523539651
 20
92.9372500549
 10
140.8649622018
 20
92.8675281064
 10
140.8810815762
 20
92.7968610383
 10
140.9006424275
 20
92.7255556207
 10
140.9235609907
 20
92.6539172756
 10
140.9497391299
 20
92.5822528163
 10
140.9790629354
 20
92.5108733551
 10
141.0114050054
 20
92.4400872118
 10
141.0466274241
 20
92.3701946078
 10
141.0845811405
 20
92.3014907514
 10
141.1251036736
 20
92.2342697717
 10
141.1680215258
 20
92.1688194817
 10
141.2131535327
 20
92.1054166168
 10
141.2603086039
 20
92.0443307837
 10
141.3092834648
 20
91.9858264165
 10
141.3598657426
 20
91.9301576085
 10
141.4118389335
 20
91.877562649
 10
141.46498029
 20
91.8282669637
 10
141.519058671
 20
91.7824845365
 10
141.5738411321
 20
91.7404115955
 10
141.6290941487
 20
91.7022265198
 10
141.6845810989
 20
91.6680920143
  0
LWPOLYLINE
  5
247
100
AcDbEntity
  8
0
100
AcDbPolyline
 62
7
  6
CONTINUOUS
 90
28
 70
0
 10
141.1946831503
 20
93.9105763061
 10
141.1970095631
 20
93.8188869652
 10
141.2037858949
 20
93.7255308755
 10
141.2150121457
 20
93.630508037
 10
141.2307560499
 20
93.533485839
 10
141.250949873
 20
93.4347968922
 10
141.2753904121
 20
93.3354390283
 10
141.3041209461
 20
93.2354055278
 10
141.337098196
 20
93.1347031103
 10
141.3739891211
 20
93.0343497662
 10
141.4148333367
 20
92.9343494376
 10
141.4595912275
 20
92.8346981824
 10
141.5078109066
 20
92.7364021658
 10
141.5595273876
 20
92.6394752196
 10
141.6147056569
 20
92.5439035119
 10
141.6727887865
 20
92.4506517123
 10
141.7338063446
 20
92.3597431414
 10
141.7977287629
 20
92.2711544785
 10
141.8639104082
 20
92.1857804312
 10
141.9323743591
 20
92.1036535107
 10
142.0030975369
 20
92.0247412059
 10
142.0753650727
 20
91.9498406903
 10
142.1491928556
 20
91.8789926956
 10
142.2245649964
 20
91.8121564902
 10
142.3007189586
 20
91.7500070526
 10
142.3774005632
 20
91.6927693757
 10
142.4548639891
 20
91.6402184666
 10
142.5331092363
 20
91.5923543254
  0
LINE
  5
248
100
AcDbEntity
  8
0
100
AcDbLine
 62
7
  6
CONTINUOUS
 10
140.6946316052
 20
93.0561309398
 11
140.6946316052
 21
103.9968326488
  0
LINE
  5
249
100
AcDbEntity
  8
0
100
AcDbLine
 62
7
  6
CONTINUOUS
 10
140.8360529615
 20
104.0784875675
 11
140.8360529615
 21
93.1377858584
  0
LINE
  5
24A
100
AcDbEntity
  8
0
100
AcDbLine
 62
7
  6
CONTINUOUS
 10
141.1946831503
 20
104.6008632779
 11
141.1946831503
 21
93.9105763061
  0
LINE
  5
24B
100
AcDbEntity
  8
0
100
AcDbLine
 62
250
  6
CONTINUOUS
 10
141.1946831503
 20
93.9105763061
 11
140.8360529615
 21
93.1377858584
  0
LINE
  5
24C
100
AcDbEntity
  8
0
100
AcDbLine
 62
250
  6
CONTINUOUS
 10
142.5331092363
 20
91.5923543254
 11
141.6845810989
 21
91.6680920143
  0
LINE
  5
24D
100
AcDbEntity
  8
0
100
AcDbLine
 62
7
  6
CONTINUOUS
 10
151.0183906106
 20
86.115557545
 11
141.5431597427
 21
91.5864370956
  0
LINE
  5
24E
100
AcDbEntity
  8
0
100
AcDbLine
 62
7
  6
CONTINUOUS
 10
141.6845810989
 20
91.6680920143
 11
151.1598119668
 21
86.1972124637
  0
LINE
  5
24F
100
AcDbEntity
  8
0
100
AcDbLine
 62
7
  6
CONTINUOUS
 10
142.5331092363
 20
91.5923543254
 11
151.7916066113
 21
86.2466139773
  0
LINE
  5
250
100
AcDbEntity
  8
0
100
AcDbLine
 62
250
  6
CONTINUOUS
 10
141.1896063521
 20
90.9740646606
 11
141.5431597427
 21
91.5864370956
  0
LINE
  5
251
100
AcDbEntity
  8
0
100
AcDbLine
 62
250
  6
CONTINUOUS
 10
140.6946316052
 20
93.0561309398
 11
140.8360529615
 21
93.1377858584
  0
LINE
  5
252
100
AcDbEntity
  8
0
100
AcDbLine
 62
7
  6
CONTINUOUS
 10
177.6091061022
 20
114.2032088021
 11
181.6710390869
 21
116.5485027043
  0
LINE
  5
253
100
AcDbEntity
  8
0
100
AcDbLine
 62
250
  6
CONTINUOUS
 10
139.987524824
 20
93.0561309398
 11
140.6946316052
 21
93.0561309398
  0
LINE
  5
254
100
AcDbEntity
  8
0
100
AcDbLine
 62
7
  6
CONTINUOUS
 10
114.9511522622
 20
149.5641587151
 11
114.9515275697
 21
149.5635223535
  0
LINE
  5
255
100
AcDbEntity
  8
0
100
AcDbLine
 62
7
  6
CONTINUOUS
 10
177.6087436719
 20
41.0380407164
 11
177.6091061022
 21
41.0373992787
  0
LINE
  5
256
100
AcDbEntity
  8
0
100
AcDbLine
 62
7
  6
CONTINUOUS
 10
151.866918748
 20
97.1378194809
 11
151.866918748
 21
86.1971177719
  0
LWPOLYLINE
  5
257
100
AcDbEntity
  8
0
100
AcDbPolyline
 62
7
  6
CONTINUOUS
 90
28
 70
0
 10
151.866918748
 20
86.1971177719
 10
151.8648289304
 20
86.1171774514
 10
151.8587423483
 20
86.0403561914
 10
151.8486590016
 20
85.9666539921
 10
151.8345179411
 20
85.895842434
 10
151.8163801161
 20
85.8281499364
 10
151.7944283741
 20
85.7642617575
 10
151.7686238785
 20
85.7042168283
 10
151.7390054659
 20
85.6479762178
 10
151.7058724936
 20
85.5961083912
 10
151.669189372
 20
85.5486579528
 10
151.6289916907
 20
85.5055802982
 10
151.5856855751
 20
85.4673100804
 10
151.5392399246
 20
85.433896102
 10
151.4896858398
 20
85.4052895604
 10
151.4375227485
 20
85.3817787002
 10
151.3827240387
 20
85.3634148437
 10
151.3253163225
 20
85.3501466687
 10
151.2658788636
 20
85.3421084528
 10
151.2043907787
 20
85.3393532572
 10
151.1408729511
 20
85.3418280208
 10
151.0759672951
 20
85.3495078371
 10
151.0096594695
 20
85.3624458088
 10
150.9419638154
 20
85.3805888334
 10
150.8735652697
 20
85.4037526971
 10
150.8046921447
 20
85.4318759955
 10
150.7351161281
 20
85.4650201331
 10
150.66483722
 20
85.50318511
  0
LWPOLYLINE
  5
258
100
AcDbEntity
  8
0
100
AcDbPolyline
 62
7
  6
CONTINUOUS
 90
7
 70
0
 10
151.866918748
 20
86.6053923652
 10
151.8651026596
 20
86.5423731998
 10
151.8596618248
 20
86.4817181502
 10
151.8506190223
 20
86.4236872336
 10
151.8380123243
 20
86.3685287919
 10
151.8218952761
 20
86.3164799858
 10
151.8023369969
 20
86.2677654762
  0
LINE
  5
259
100
AcDbEntity
  8
0
100
AcDbLine
 62
7
  6
CONTINUOUS
 10
178.3166433714
 20
112.9777183047
 11
182.3785763562
 21
115.3230122069
  0
LINE
  5
25A
100
AcDbEntity
  8
0
100
AcDbLine
 62
250
  6
CONTINUOUS
 10
141.5431597427
 20
91.5864370956
 11
141.6845810989
 21
91.6680920143
  0
LINE
  5
25B
100
AcDbEntity
  8
0
100
AcDbLine
 62
7
  6
CONTINUOUS
 10
141.1896063521
 20
104.6907653107
 11
150.66483722
 21
99.2198857601
  0
LWPOLYLINE
  5
25C
100
AcDbEntity
  8
0
100
AcDbPolyline
 62
7
  6
CONTINUOUS
 90
28
 70
0
 10
150.66483722
 20
99.2198857601
 10
150.7351148085
 20
99.1768953255
 10
150.8046896997
 20
99.1296957021
 10
150.8735618936
 20
99.0782868897
 10
150.941959691
 20
99.0224666946
 10
151.0096547912
 20
98.9624373106
 10
151.0759622914
 20
98.8988053193
 10
151.1408678956
 20
98.8315341319
 10
151.2043858997
 20
98.7606603372
 10
151.2658742896
 20
98.6869002831
 10
151.3253122321
 20
98.6102249044
 10
151.3827205603
 20
98.5306632662
 10
151.4375197594
 20
98.4490189115
 10
151.4896831155
 20
98.3652713535
 10
151.5392373425
 20
98.2794410789
 10
151.585683067
 20
98.1923930905
 10
151.6289891485
 20
98.1041146406
 10
151.6691867276
 20
98.0146184769
 10
151.7058698528
 20
97.9248078455
 10
151.7390030128
 20
97.8346791368
 10
151.7686217188
 20
97.7442359603
 10
151.794426553
 20
97.6543923909
 10
151.8163786969
 20
97.5651542829
 10
151.8345169689
 20
97.4765157819
 10
151.8486584063
 20
97.3893734001
 10
151.8587420215
 20
97.3040259746
 10
151.864828802
 20
97.2201746682
 10
151.866918748
 20
97.1378194809
  0
LWPOLYLINE
  5
25D
100
AcDbEntity
  8
0
100
AcDbPolyline
 62
7
  6
CONTINUOUS
 90
7
 70
0
 10
151.8023369969
 20
86.2677654762
 10
151.779421138
 20
86.2225942416
 10
151.7532455791
 20
86.1811597534
 10
151.7239227548
 20
86.1436402825
 10
151.6915783794
 20
86.1101966912
 10
151.6563508242
 20
86.0809720596
 10
151.6184196027
 20
86.0561081318
  0
LINE
  5
25E
100
AcDbEntity
  8
0
100
AcDbLine
 62
250
  6
CONTINUOUS
 10
150.66483722
 20
85.50318511
 11
151.0183906106
 21
86.115557545
  0
LINE
  5
25F
100
AcDbEntity
  8
0
100
AcDbLine
 62
7
  6
CONTINUOUS
 10
176.5992069545
 20
113.1252954675
 11
177.6087436719
 21
114.1785900633
  0
LINE
  5
260
100
AcDbEntity
  8
0
100
AcDbLine
 62
7
  6
CONTINUOUS
 10
176.8781828886
 20
112.642094976
 11
178.2951420196
 21
112.9897132522
  0
LINE
  5
261
100
AcDbEntity
  8
0
100
AcDbLine
 62
250
  6
CONTINUOUS
 10
139.987524824
 20
103.9968326488
 11
140.6946316052
 21
103.9968326488
  0
LINE
  5
262
100
AcDbEntity
  8
0
100
AcDbLine
 62
250
  6
CONTINUOUS
 10
151.0183906106
 20
86.115557545
 11
151.1598119668
 21
86.1972124637
  0
LWPOLYLINE
  5
263
100
AcDbEntity
  8
0
100
AcDbPolyline
 62
7
  6
CONTINUOUS
 90
3
 70
0
 10
151.6184196027
 20
86.0561081318
 10
151.5778616449
 20
86.035662014
 10
151.5349361759
 20
86.0197706424
  0
LINE
  5
264
100
AcDbEntity
  8
0
100
AcDbLine
 62
7
  6
CONTINUOUS
 10
176.8781828886
 20
41.8104613766
 11
176.8781828886
 21
112.642094976
  0
LINE
  5
265
100
AcDbEntity
  8
0
100
AcDbLine
 62
7
  6
CONTINUOUS
 10
178.3166433714
 20
41.4458434725
 11
178.3166433714
 21
112.9777183047
  0
LINE
  5
266
100
AcDbEntity
  8
0
100
AcDbLine
 62
7
  6
CONTINUOUS
 10
177.6091061022
 20
114.2032088021
 11
177.6087436719
 21
114.1785900633
  0
LINE
  5
267
100
AcDbEntity
  8
0
100
AcDbLine
 62
7
  6
CONTINUOUS
 10
178.2951420196
 20
112.9897132522
 11
178.3166433714
 21
112.9777183047
  0
LINE
  5
268
100
AcDbEntity
  8
0
100
AcDbLine
 62
7
  6
CONTINUOUS
 10
176.5992069545
 20
113.1252954675
 11
115.2552366175
 21
148.5445351196
  0
LINE
  5
269
100
AcDbEntity
  8
0
100
AcDbLine
 62
7
  6
CONTINUOUS
 10
177.6091061022
 20
114.2032088021
 11
115.6586895315
 21
149.9726029089
  0
LINE
  5
26A
100
AcDbEntity
  8
0
100
AcDbLine
 62
7
  6
CONTINUOUS
 10
182.3785763562
 20
43.4746219868
 11
182.3785763562
 21
115.3230122069
  0
LINE
  5
26B
100
AcDbEntity
  8
0
100
AcDbLine
 62
7
  6
CONTINUOUS
 10
181.6710390869
 20
116.5485027043
 11
119.4465033187
 21
152.4761698003
  0
LINE
  5
26C
100
AcDbEntity
  8
0
100
AcDbLine
 62
7
  6
CONTINUOUS
 10
176.8781828886
 20
112.642094976
 11
176.5992069545
 21
113.1252954675
  0
LINE
  5
26D
100
AcDbEntity
  8
0
100
AcDbLine
 62
7
  6
CONTINUOUS
 10
178.2951420196
 20
112.9897132522
 11
177.6087436719
 21
114.1785900633
  0
LINE
  5
26E
100
AcDbEntity
  8
0
100
AcDbLine
 62
7
  6
CONTINUOUS
 10
181.6710390869
 20
116.5485027043
 11
182.3785763562
 21
115.3230122069
  0
LINE
  5
26F
100
AcDbEntity
  8
0
100
AcDbLine
 62
7
  6
CONTINUOUS
 10
176.5992069545
 20
41.6494153011
 11
176.8781828886
 21
41.8104613766
  0
LINE
  5
270
100
AcDbEntity
  8
0
100
AcDbLine
 62
7
  6
CONTINUOUS
 10
177.6087436719
 20
41.0380407164
 11
178.2951420196
 21
41.4342819208
  0
LINE
  5
271
100
AcDbEntity
  8
0
100
AcDbLine
 62
7
  6
CONTINUOUS
 10
182.3785763562
 20
43.4746219868
 11
181.6710390869
 21
43.066177793
  0
LINE
  5
272
100
AcDbEntity
  8
0
100
AcDbLine
 62
7
  6
CONTINUOUS
 10
178.3166433714
 20
41.4458434725
 11
178.2951420196
 21
41.4342819208
  0
LINE
  5
273
100
AcDbEntity
  8
0
100
AcDbLine
 62
7
  6
CONTINUOUS
 10
178.3166433714
 20
41.4458434725
 11
182.3785763562
 21
43.4746219868
  0
LINE
  5
274
100
AcDbEntity
  8
0
100
AcDbLine
 62
7
  6
CONTINUOUS
 10
177.6091061022
 20
41.0373992787
 11
181.6710390869
 21
43.066177793
  0
ENDSEC
  0
SECTION
  2
OBJECTS
  0
DICTIONARY
  5
C
100
AcDbDictionary
280
0
281
1
  3
ACAD_GROUP
350
D
  3
ACAD_MLINESTYLE
350
17
  3
ACAD_LAYOUT
350
1A
  3
ACAD_PLOTSETTINGS
350
19
  3
ACAD_PLOTSTYLENAME
350
E
  0
DICTIONARY
  5
D
102
{ACAD_REACTORS
330
C
102
}
100
AcDbDictionary
280
0
281
1
  0
ACDBDICTIONARYWDFLT
  5
E
102
{ACAD_REACTORS
330
C
102
}
100
AcDbDictionary
281
1
  3
Normal
350
F
100
AcDbDictionaryWithDefault
340
F
  0
DICTIONARY
  5
17
102
{ACAD_REACTORS
330
C
102
}
100
AcDbDictionary
280
0
281
1
  3
Standard
350
18
  0
DICTIONARY
  5
19
102
{ACAD_REACTORS
330
C
102
}
100
AcDbDictionary
281
1
  0
DICTIONARY
  5
1A
102
{ACAD_REACTORS
330
C
102
}
100
AcDbDictionary
281
1
  3
Model
350
275
  3
Layout1
350
276
  0
ACDBPLACEHOLDER
  5
F
102
{ACAD_REACTORS
330
E
102
}
  0
MLINESTYLE
  5
18
102
{ACAD_REACTORS
330
17
102
}
100
AcDbMlineStyle
  2
STANDARD
 70
0
  3

 62
256
 51
90.0
 52
90.0
 71
2
 49
0.5
 62
256
  6
BYLAYER
 49
-0.5
 62
256
  6
BYLAYER
  0
LAYOUT
  5
275
102
{ACAD_REACTORS
330
1A
102
}
100
AcDbPlotSettings
  1

  2
none_device
  4
ISO_A4_(297.00_x_210.00_MM)
  6

 40
0.0
 41
0.0
 42
0.0
 43
0.0
 44
297.0
 45
210.0
 46
0.0
 47
0.0
 48
0.0
 49
0.0
140
0.0
141
0.0
142
1.0
143
1.0
 70
1024
 72
1
 73
0
 74
0
  7

 75
0
147
1.0
148
0.0
149
0.0
100
AcDbLayout
  1
Model
 70
0
 71
0
 10
0.0
 20
0.0
 11
297.0
 21
210.0
 12
0.0
 22
0.0
 32
0.0
 14
0.0
 24
0.0
 34
0.0
 15
0.0
 25
0.0
 35
0.0
146
0.0
 13
0.0
 23
0.0
 33
0.0
 16
1.0
 26
0.0
 36
0.0
 17
0.0
 27
1.0
 37
0.0
 76
0
330
21B
345
0
346
0
  0
LAYOUT
  5
276
102
{ACAD_REACTORS
330
1A
102
}
100
AcDbPlotSettings
  1

  2
none_device
  4
ISO_A4_(297.00_x_210.00_MM)
  6

 40
0.0
 41
0.0
 42
0.0
 43
0.0
 44
297.0
 45
210.0
 46
0.0
 47
0.0
 48
0.0
 49
0.0
140
0.0
141
0.0
142
1.0
143
1.0
 70
0
 72
1
 73
0
 74
0
  7

 75
0
147
1.0
148
0.0
149
0.0
100
AcDbLayout
  1
Layout1
 70
0
 71
1
 10
0.0
 20
0.0
 11
297.0
 21
210.0
 12
0.0
 22
0.0
 32
0.0
 14
0.0
 24
0.0
 34
0.0
 15
0.0
 25
0.0
 35
0.0
146
0.0
 13
0.0
 23
0.0
 33
0.0
 16
1.0
 26
0.0
 36
0.0
 17
0.0
 27
1.0
 37
0.0
 76
0
330
21C
345
0
346
0
  0
ENDSEC
  0
EOF
