  0
SECTION
  2
HEADER
  9
$ACADVER
  1
AC1024
  9
$DWGCODEPAGE
  3
ANSI_1252
  9
$EXTMAX
 10
297.0
 20
210.0
 30
0.0
  9
$EXTMIN
 10
0.0
 20
0.0
 30
0.0
  9
$LIMMIN
 10
0.0
 20
0.0
  9
$LIMMAX
 10
297.0
 20
210.0
  9
$VIEWCTR
 10
148.5
 20
105.0
  9
$VIEWSIZE
 40
210.0
  9
$CLAYER
  8
0
  9
$LTSCALE
 40
16.335
  9
$CELTYPE
  6
BYLAYER
  9
$DIMSCALE
 40
1.0
  9
$DIMASZ
 40
3.0
  9
$DIMEXO
 40
0.5
  9
$DIMDLI
 40
11.286
  9
$DIMEXE
 40
1.5
  9
$DIMCEN
 40
2.673
  9
$DIMLFAC
 40
1.0
  9
$DIMBLK
  1
_FILLED
  9
$DIMALT
 70
0
  9
$DIMALTF
 40
0.0393700787
  9
$DIMTXT
 40
3.0
  9
$DIMTOL
 70
1
  9
$DIMLIM
 70
0
  9
$DIMTFAC
 40
1.0
  9
$DIMTP
 40
0.01
  9
$DIMTM
 40
0.01
  9
$DIMGAP
 40
0.625
  9
$DIMDSEP
 70
44
  9
$AUNITS
 70
0
  9
$PDMODE
 70
3
  9
$PDSIZE
 40
3.0
  9
$HANDSEED
  5
3BA
  9
$TILEMODE
 70
1
  9
$MEASUREMENT
 70
1
  9
$INSUNITS
 70
4
  0
ENDSEC
  0
SECTION
  2
CLASSES
  0
CLASS
  1
ACDBDICTIONARYWDFLT
  2
AcDbDictionaryWithDefault
  3
AutoCAD 2000
 90
0
 91
1
280
0
281
0
  0
CLASS
  1
ACDBPLACEHOLDER
  2
AcDbPlaceHolder
  3
AutoCAD 2000
 90
0
 91
1
280
0
281
0
  0
CLASS
  1
LAYOUT
  2
AcDbLayout
  3
AutoCAD 2000
 90
0
 91
0
280
0
281
0
  0
ENDSEC
  0
SECTION
  2
TABLES
  0
TABLE
  2
VPORT
  5
8
100
AcDbSymbolTable
 70
2
  0
VPORT
  5
1F4
100
AcDbSymbolTableRecord
100
AcDbViewportTableRecord
  2
*ACTIVE
 70
0
 10
0.0
 20
0.0
 11
1.0
 21
1.0
 12
148.5
 22
105.0
 13
0.0
 23
0.0
 14
1.0
 24
1.0
 15
0.0
 25
0.0
 16
0.0
 26
0.0
 36
1.0
 17
0.0
 27
0.0
 37
0.0
 40
210.0
 41
1.4142857143
 42
50.0
 43
0.0
 44
0.0
 50
0.0
 51
0.0
 71
0
 72
100
 73
1
 74
1
 75
0
 76
0
 77
0
 78
0
  0
ENDTAB
  0
TABLE
  2
LTYPE
  5
5
100
AcDbSymbolTable
 70
6
  0
LTYPE
  5
14
100
AcDbSymbolTableRecord
100
AcDbLinetypeTableRecord
  2
BYBLOCK
 70
0
  3

 72
65
 73
0
 40
0.0
  0
LTYPE
  5
15
100
AcDbSymbolTableRecord
100
AcDbLinetypeTableRecord
  2
BYLAYER
 70
0
  3

 72
65
 73
0
 40
0.0
  0
LTYPE
  5
16
100
AcDbSymbolTableRecord
100
AcDbLinetypeTableRecord
  2
CONTINUOUS
 70
64
  3
Solid line
 72
65
 73
0
 40
0.0
  0
LTYPE
  5
1F5
100
AcDbSymbolTableRecord
100
AcDbLinetypeTableRecord
  2
CENTER
 70
64
  3
____ _ ____ _ ____ _ ____ _ ____ _ ____ _ ____
 72
65
 73
4
 40
0.6
 49
0.375
 74
0
 49
-0.075
 74
0
 49
0.075
 74
0
 49
-0.075
 74
0
  0
LTYPE
  5
1F6
100
AcDbSymbolTableRecord
100
AcDbLinetypeTableRecord
  2
HIDDEN
 70
64
  3
- - - - - - - - - - - - - - - - - - - -
 72
65
 73
2
 40
0.2
 49
0.1
 74
0
 49
-0.1
 74
0
  0
LTYPE
  5
1F7
100
AcDbSymbolTableRecord
100
AcDbLinetypeTableRecord
  2
PHANTOM
 70
64
  3
_____ _ _ _____ _ _ _____ _ _ _____
 72
65
 73
6
 40
0.8
 49
0.45
 74
0
 49
-0.05
 74
0
 49
0.1
 74
0
 49
-0.05
 74
0
 49
0.1
 74
0
 49
-0.05
 74
0
  0
LTYPE
  5
1F8
100
AcDbSymbolTableRecord
100
AcDbLinetypeTableRecord
  2
DOT
 70
64
  3
. . . . . . . . . . . . . . . . . . . .
 72
65
 73
2
 40
0.2
 49
0.1
 74
0
 49
-0.1
 74
0
  0
LTYPE
  5
1F9
100
AcDbSymbolTableRecord
100
AcDbLinetypeTableRecord
  2
DASHED
 70
64
  3
- - - - - - - - - - - - - - - - - - - -
 72
65
 73
2
 40
0.2
 49
0.1
 74
0
 49
-0.1
 74
0
  0
ENDTAB
  0
TABLE
  2
LAYER
  5
2
100
AcDbSymbolTable
 70
36
  0
LAYER
  5
10
100
AcDbSymbolTableRecord
100
AcDbLayerTableRecord
  2
0
 70
0
 62
7
  6
CONTINUOUS
370
-3
390
F
  0
LAYER
  5
1FA
100
AcDbSymbolTableRecord
100
AcDbLayerTableRecord
  2
DEFAULT_1
 70
0
 62
7
  6
CENTER
370
-3
390
F
  0
LAYER
  5
1FB
100
AcDbSymbolTableRecord
100
AcDbLayerTableRecord
  2
DEFAULT_2
 70
0
 62
7
  6
HIDDEN
370
-3
390
F
  0
LAYER
  5
1FC
100
AcDbSymbolTableRecord
100
AcDbLayerTableRecord
  2
DEFAULT_3
 70
0
 62
7
  6
PHANTOM
370
-3
390
F
  0
LAYER
  5
1FD
100
AcDbSymbolTableRecord
100
AcDbLayerTableRecord
  2
ASSI
 70
0
 62
7
  6
CONTINUOUS
370
-3
390
F
  0
LAYER
  5
1FE
100
AcDbSymbolTableRecord
100
AcDbLayerTableRecord
  2
COORDINATE
 70
0
 62
7
  6
CONTINUOUS
370
-3
390
F
  0
LAYER
  5
1FF
100
AcDbSymbolTableRecord
100
AcDbLayerTableRecord
  2
COORD_ORIGINE
 70
0
 62
7
  6
CONTINUOUS
370
-3
390
F
  0
LAYER
  5
200
100
AcDbSymbolTableRecord
100
AcDbLayerTableRecord
  2
COPY_PUBLISH
 70
0
 62
7
  6
CONTINUOUS
370
-3
390
F
  0
LAYER
  5
201
100
AcDbSymbolTableRecord
100
AcDbLayerTableRecord
  2
COSMETIC
 70
0
 62
7
  6
CONTINUOUS
370
-3
390
F
  0
LAYER
  5
202
100
AcDbSymbolTableRecord
100
AcDbLayerTableRecord
  2
COSMETICI
 70
0
 62
7
  6
CONTINUOUS
370
-3
390
F
  0
LAYER
  5
203
100
AcDbSymbolTableRecord
100
AcDbLayerTableRecord
  2
CURVA_TASSELLO
 70
0
 62
7
  6
CONTINUOUS
370
-3
390
F
  0
LAYER
  5
204
100
AcDbSymbolTableRecord
100
AcDbLayerTableRecord
  2
CURVE
 70
0
 62
7
  6
CONTINUOUS
370
-3
390
F
  0
LAYER
  5
205
100
AcDbSymbolTableRecord
100
AcDbLayerTableRecord
  2
DRAFT
 70
0
 62
7
  6
CONTINUOUS
370
-3
390
F
  0
LAYER
  5
206
100
AcDbSymbolTableRecord
100
AcDbLayerTableRecord
  2
IMPORT_IGES
 70
0
 62
7
  6
CONTINUOUS
370
-3
390
F
  0
LAYER
  5
207
100
AcDbSymbolTableRecord
100
AcDbLayerTableRecord
  2
INTFCLR_2
 70
0
 62
7
  6
CONTINUOUS
370
-3
390
F
  0
LAYER
  5
208
100
AcDbSymbolTableRecord
100
AcDbLayerTableRecord
  2
INTF_1
 70
0
 62
7
  6
CONTINUOUS
370
-3
390
F
  0
LAYER
  5
209
100
AcDbSymbolTableRecord
100
AcDbLayerTableRecord
  2
INTF_21
 70
0
 62
7
  6
CONTINUOUS
370
-3
390
F
  0
LAYER
  5
20A
100
AcDbSymbolTableRecord
100
AcDbLayerTableRecord
  2
INTF_6
 70
0
 62
7
  6
CONTINUOUS
370
-3
390
F
  0
LAYER
  5
20B
100
AcDbSymbolTableRecord
100
AcDbLayerTableRecord
  2
INTF_7
 70
0
 62
7
  6
CONTINUOUS
370
-3
390
F
  0
LAYER
  5
20C
100
AcDbSymbolTableRecord
100
AcDbLayerTableRecord
  2
INTF_9
 70
0
 62
7
  6
CONTINUOUS
370
-3
390
F
  0
LAYER
  5
20D
100
AcDbSymbolTableRecord
100
AcDbLayerTableRecord
  2
LIVELLO_1
 70
0
 62
7
  6
CONTINUOUS
370
-3
390
F
  0
LAYER
  5
20E
100
AcDbSymbolTableRecord
100
AcDbLayerTableRecord
  2
NOTE
 70
0
 62
7
  6
CONTINUOUS
370
-3
390
F
  0
LAYER
  5
20F
100
AcDbSymbolTableRecord
100
AcDbLayerTableRecord
  2
PIANI
 70
0
 62
7
  6
CONTINUOUS
370
-3
390
F
  0
LAYER
  5
210
100
AcDbSymbolTableRecord
100
AcDbLayerTableRecord
  2
PIANI_ORIGINE
 70
0
 62
7
  6
CONTINUOUS
370
-3
390
F
  0
LAYER
  5
211
100
AcDbSymbolTableRecord
100
AcDbLayerTableRecord
  2
PIANI_RIFERIMENTO
 70
0
 62
7
  6
CONTINUOUS
370
-3
390
F
  0
LAYER
  5
212
100
AcDbSymbolTableRecord
100
AcDbLayerTableRecord
  2
PUNTI
 70
0
 62
7
  6
CONTINUOUS
370
-3
390
F
  0
LAYER
  5
213
100
AcDbSymbolTableRecord
100
AcDbLayerTableRecord
  2
RACCORDO
 70
0
 62
7
  6
CONTINUOUS
370
-3
390
F
  0
LAYER
  5
214
100
AcDbSymbolTableRecord
100
AcDbLayerTableRecord
  2
RGB__255__255__255__
 70
0
 62
7
  6
CONTINUOUS
370
-3
390
F
  0
LAYER
  5
215
100
AcDbSymbolTableRecord
100
AcDbLayerTableRecord
  2
RGB____0____0____0__
 70
0
 62
7
  6
CONTINUOUS
370
-3
390
F
  0
LAYER
  5
216
100
AcDbSymbolTableRecord
100
AcDbLayerTableRecord
  2
SIMBOLI
 70
0
 62
7
  6
CONTINUOUS
370
-3
390
F
  0
LAYER
  5
217
100
AcDbSymbolTableRecord
100
AcDbLayerTableRecord
  2
SMUSSO
 70
0
 62
7
  6
CONTINUOUS
370
-3
390
F
  0
LAYER
  5
218
100
AcDbSymbolTableRecord
100
AcDbLayerTableRecord
  2
SUPERFICI
 70
0
 62
7
  6
CONTINUOUS
370
-3
390
F
  0
LAYER
  5
219
100
AcDbSymbolTableRecord
100
AcDbLayerTableRecord
  2
TRASH
 70
0
 62
7
  6
CONTINUOUS
370
-3
390
F
  0
LAYER
  5
21A
100
AcDbSymbolTableRecord
100
AcDbLayerTableRecord
  2
WHITE
 70
0
 62
7
  6
CONTINUOUS
370
-3
390
F
  0
LAYER
  5
21B
100
AcDbSymbolTableRecord
100
AcDbLayerTableRecord
  2
XSEC_DATUMS
 70
0
 62
7
  6
CONTINUOUS
370
-3
390
F
  0
ENDTAB
  0
TABLE
  2
STYLE
  5
3
100
AcDbSymbolTable
 70
1
  0
STYLE
  5
11
100
AcDbSymbolTableRecord
100
AcDbTextStyleTableRecord
  2
STANDARD
 70
0
 40
0.0
 41
0.8
 50
0.0
 71
0
 42
0.2
  3
txt
  4

  0
STYLE
  5
21C
100
AcDbSymbolTableRecord
100
AcDbTextStyleTableRecord
  2
TEXTSTYLE_1
 70
0
 40
0.0
 41
0.8
 50
0.0
 71
0
 42
0.2
  3
gdt
  4

  0
ENDTAB
  0
TABLE
  2
VIEW
  5
6
100
AcDbSymbolTable
 70
0
  0
ENDTAB
  0
TABLE
  2
UCS
  5
7
100
AcDbSymbolTable
 70
0
  0
ENDTAB
  0
TABLE
  2
APPID
  5
9
100
AcDbSymbolTable
 70
1
  0
APPID
  5
21D
100
AcDbSymbolTableRecord
100
AcDbRegAppTableRecord
  2
ACAD
 70
0
  0
ENDTAB
  0
TABLE
  2
BLOCK_RECORD
  5
1
100
AcDbSymbolTable
 70
0
  0
BLOCK_RECORD
  5
21E
100
AcDbSymbolTableRecord
100
AcDbBlockTableRecord
  2
*Model_Space
  0
BLOCK_RECORD
  5
21F
100
AcDbSymbolTableRecord
100
AcDbBlockTableRecord
  2
*Paper_Space
  0
BLOCK_RECORD
  5
220
100
AcDbSymbolTableRecord
100
AcDbBlockTableRecord
  2
_FILLED
  0
ENDTAB
  0
TABLE
  2
DIMSTYLE
  5
A
100
AcDbSymbolTable
 70
1
100
AcDbDimStyleTable
 71
0
  0
DIMSTYLE
105
221
100
AcDbSymbolTableRecord
100
AcDbDimStyleTableRecord
  2
STANDARD
 70
0
  3

  4

 40
1.0
 41
3.0
 42
0.5
 43
0.38
 44
1.5
 45
0.0
 46
0.0
 47
0.01
 48
0.01
140
3.0
141
0.09
142
0.0
143
25.4
144
1.0
145
0.0
146
1.0
147
0.625
 71
1
 72
0
 73
0
 74
0
 75
0
 76
0
 77
1
 78
8
 79
2
170
0
171
1
172
0
173
0
174
0
175
0
176
0
177
0
178
0
270
2
179
2
271
2
272
2
273
2
274
2
275
0
280
0
281
0
282
0
283
1
284
8
285
0
286
0
287
3
288
0
340
11
278
44
341
220
342
220
343
220
344
220
  0
ENDTAB
  0
ENDSEC
  0
SECTION
  2
BLOCKS
  0
BLOCK
  5
20
100
AcDbEntity
  8
0
100
AcDbBlockBegin
  2
*Model_Space
 70
0
 10
0.0
 20
0.0
 30
0.0
  3
*Model_Space
  1

  0
ENDBLK
  5
21
100
AcDbEntity
  8
0
100
AcDbBlockEnd
  0
BLOCK
  5
1C
100
AcDbEntity
  8
0
100
AcDbBlockBegin
  2
*Paper_Space
 70
0
 10
0.0
 20
0.0
 30
0.0
  3
*Paper_Space
  1

  0
ENDBLK
  5
1D
100
AcDbEntity
  8
0
100
AcDbBlockEnd
  0
BLOCK
  5
222
100
AcDbEntity
  8
0
100
AcDbBlockBegin
  2
_FILLED
 70
64
 10
0.0
 20
0.0
  3
_FILLED
  1

  0
SOLID
  5
223
100
AcDbEntity
  8
0
  6
BYBLOCK
 62
0
100
AcDbTrace
 10
0.0
 20
0.0
 11
-1.0
 21
0.1333333333
 12
-1.0
 22
-0.1333333333
 13
-1.0
 23
-0.1333333333
  0
ENDBLK
  5
224
100
AcDbEntity
  8
0
  6
BYBLOCK
 62
0
100
AcDbBlockEnd
  0
ENDSEC
  0
SECTION
  2
ENTITIES
  0
LINE
  5
225
100
AcDbEntity
  8
0
100
AcDbLine
 62
7
  6
CONTINUOUS
 10
-45.0274205459
 20
59.3397676688
 11
-41.2396067588
 21
61.8433345602
  0
LINE
  5
226
100
AcDbEntity
  8
ASSI
100
AcDbLine
 62
7
  6
CONTINUOUS
 10
-45.0274205459
 20
59.3397676688
 11
-41.2396067588
 21
61.8433345602
  0
LINE
  5
227
100
AcDbEntity
  8
0
100
AcDbLine
 62
7
  6
CONTINUOUS
 10
-44.3198832767
 20
59.7482118627
 11
-40.5320694895
 21
62.251778754
  0
LINE
  5
228
100
AcDbEntity
  8
ASSI
100
AcDbLine
 62
7
  6
CONTINUOUS
 10
-44.3198832767
 20
59.7482118627
 11
-40.5320694895
 21
62.251778754
  0
LINE
  5
229
100
AcDbEntity
  8
0
100
AcDbLine
 62
7
  6
CONTINUOUS
 10
-44.3406468908
 20
59.7353725117
 11
-44.3198832767
 21
59.7482118627
  0
LINE
  5
22A
100
AcDbEntity
  8
ASSI
100
AcDbLine
 62
7
  6
CONTINUOUS
 10
-44.3406468908
 20
59.7353725117
 11
-44.3198832767
 21
59.7482118627
  0
LINE
  5
22B
100
AcDbEntity
  8
0
100
AcDbLine
 62
7
  6
CONTINUOUS
 10
-41.2396067588
 20
61.8433345602
 11
-40.5320694895
 21
62.251778754
  0
LINE
  5
22C
100
AcDbEntity
  8
ASSI
100
AcDbLine
 62
7
  6
CONTINUOUS
 10
-41.2396067588
 20
61.8433345602
 11
-40.5320694895
 21
62.251778754
  0
LINE
  5
22D
100
AcDbEntity
  8
0
100
AcDbLine
 62
7
  6
CONTINUOUS
 10
-44.3406468908
 20
59.7353725117
 11
-45.0270452385
 21
59.3391313073
  0
LINE
  5
22E
100
AcDbEntity
  8
ASSI
100
AcDbLine
 62
7
  6
CONTINUOUS
 10
-44.3406468908
 20
59.7353725117
 11
-45.0270452385
 21
59.3391313073
  0
LINE
  5
22F
100
AcDbEntity
  8
0
100
AcDbLine
 62
7
  6
CONTINUOUS
 10
-44.7233361907
 20
58.3201440733
 11
-45.0023121248
 21
58.1590979978
  0
LINE
  5
230
100
AcDbEntity
  8
ASSI
100
AcDbLine
 62
7
  6
CONTINUOUS
 10
-44.7233361907
 20
58.3201440733
 11
-45.0023121248
 21
58.1590979978
  0
LINE
  5
231
100
AcDbEntity
  8
CURVE
100
AcDbLine
 62
250
  6
CONTINUOUS
 10
43.3548407276
 20
-55.3787693924
 11
42.0964399064
 21
-55.6553921924
  0
LINE
  5
232
100
AcDbEntity
  8
CURVE
100
AcDbLine
 62
250
  6
CONTINUOUS
 10
42.0964399064
 20
-55.2296551971
 11
43.924631083
 21
-54.9013620047
  0
LINE
  5
233
100
AcDbEntity
  8
0
100
AcDbLine
 62
7
  6
CONTINUOUS
 10
-44.7233361907
 20
58.3201440733
 11
-44.3406468908
 21
59.7353725117
  0
LINE
  5
234
100
AcDbEntity
  8
ASSI
100
AcDbLine
 62
7
  6
CONTINUOUS
 10
-44.7233361907
 20
58.3201440733
 11
-44.3406468908
 21
59.7353725117
  0
LINE
  5
235
100
AcDbEntity
  8
CURVE
100
AcDbLine
 62
250
  6
CONTINUOUS
 10
42.5987804353
 20
-51.1706906246
 11
43.2772455626
 21
-51.0175160448
  0
LINE
  5
236
100
AcDbEntity
  8
CURVE
100
AcDbLine
 62
250
  6
CONTINUOUS
 10
43.5596592572
 20
-50.9526041056
 11
43.924631083
 21
-50.873652894
  0
LINE
  5
237
100
AcDbEntity
  8
CURVE
100
AcDbLine
 62
250
  6
CONTINUOUS
 10
43.924631083
 20
-51.2950585144
 11
42.0964399064
 21
-51.6392230726
  0
LINE
  5
238
100
AcDbEntity
  8
CURVE
100
AcDbLine
 62
250
  6
CONTINUOUS
 10
43.111457186
 20
-52.838182211
 11
42.0964399064
 21
-52.9586619011
  0
LINE
  5
239
100
AcDbEntity
  8
CURVE
100
AcDbLine
 62
250
  6
CONTINUOUS
 10
42.7358331935
 20
-52.506330148
 11
43.924631083
 21
-52.3728017292
  0
LINE
  5
23A
100
AcDbEntity
  8
0
100
AcDbLine
 62
7
  6
CONTINUOUS
 10
-45.0023121248
 20
-12.6725356016
 11
-45.0270452385
 21
-12.2163000241
  0
LINE
  5
23B
100
AcDbEntity
  8
ASSI
100
AcDbLine
 62
7
  6
CONTINUOUS
 10
-45.0023121248
 20
-12.6725356016
 11
-45.0270452385
 21
-12.2163000241
  0
LINE
  5
23C
100
AcDbEntity
  8
0
100
AcDbLine
 62
7
  6
CONTINUOUS
 10
39.5270270784
 20
-61.4787166561
 11
40.9439862093
 21
-61.8548961119
  0
LINE
  5
23D
100
AcDbEntity
  8
ASSI
100
AcDbLine
 62
7
  6
CONTINUOUS
 10
39.5270270784
 20
-61.4787166561
 11
40.9439862093
 21
-61.8548961119
  0
LINE
  5
23E
100
AcDbEntity
  8
0
100
AcDbLine
 62
7
  6
CONTINUOUS
 10
-45.0023121248
 20
58.1590979978
 11
-45.0270452385
 21
59.3391313073
  0
LINE
  5
23F
100
AcDbEntity
  8
ASSI
100
AcDbLine
 62
7
  6
CONTINUOUS
 10
-45.0023121248
 20
58.1590979978
 11
-45.0270452385
 21
59.3391313073
  0
LINE
  5
240
100
AcDbEntity
  8
0
100
AcDbLine
 62
7
  6
CONTINUOUS
 10
-45.0270452385
 20
-12.2163000241
 11
-45.0274205459
 21
-12.1921071634
  0
LINE
  5
241
100
AcDbEntity
  8
ASSI
100
AcDbLine
 62
7
  6
CONTINUOUS
 10
-45.0270452385
 20
-12.2163000241
 11
-45.0274205459
 21
-12.1921071634
  0
LINE
  5
242
100
AcDbEntity
  8
0
100
AcDbLine
 62
7
  6
CONTINUOUS
 10
-45.0274205459
 20
59.3397676688
 11
-45.0274205459
 21
-12.1921071634
  0
LINE
  5
243
100
AcDbEntity
  8
ASSI
100
AcDbLine
 62
7
  6
CONTINUOUS
 10
-45.0274205459
 20
59.3397676688
 11
-45.0274205459
 21
-12.1921071634
  0
LINE
  5
244
100
AcDbEntity
  8
0
100
AcDbLine
 62
7
  6
CONTINUOUS
 10
-45.0023121248
 20
58.1590979978
 11
-45.0023121248
 21
-12.6725356016
  0
LINE
  5
245
100
AcDbEntity
  8
ASSI
100
AcDbLine
 62
7
  6
CONTINUOUS
 10
-45.0023121248
 20
58.1590979978
 11
-45.0023121248
 21
-12.6725356016
  0
LINE
  5
246
100
AcDbEntity
  8
0
100
AcDbLine
 62
7
  6
CONTINUOUS
 10
-45.0023121248
 20
-12.6725356016
 11
-44.7233361907
 21
-13.1557360931
  0
LINE
  5
247
100
AcDbEntity
  8
ASSI
100
AcDbLine
 62
7
  6
CONTINUOUS
 10
-45.0023121248
 20
-12.6725356016
 11
-44.7233361907
 21
-13.1557360931
  0
LINE
  5
248
100
AcDbEntity
  8
0
100
AcDbLine
 62
7
  6
CONTINUOUS
 10
-44.7233361907
 20
-13.1557360931
 11
-44.3406468908
 21
-13.4051768352
  0
LINE
  5
249
100
AcDbEntity
  8
ASSI
100
AcDbLine
 62
7
  6
CONTINUOUS
 10
-44.7233361907
 20
-13.1557360931
 11
-44.3406468908
 21
-13.4051768352
  0
LINE
  5
24A
100
AcDbEntity
  8
0
100
AcDbLine
 62
7
  6
CONTINUOUS
 10
-44.3198832767
 20
-13.4175976608
 11
40.2579502919
 21
-62.251778754
  0
LINE
  5
24B
100
AcDbEntity
  8
ASSI
100
AcDbLine
 62
7
  6
CONTINUOUS
 10
-44.3198832767
 20
-13.4175976608
 11
40.2579502919
 21
-62.251778754
  0
LINE
  5
24C
100
AcDbEntity
  8
0
100
AcDbLine
 62
7
  6
CONTINUOUS
 10
-44.7233361907
 20
-13.1557360931
 11
39.2480511443
 21
-61.6397627316
  0
LINE
  5
24D
100
AcDbEntity
  8
ASSI
100
AcDbLine
 62
7
  6
CONTINUOUS
 10
-44.7233361907
 20
-13.1557360931
 11
39.2480511443
 21
-61.6397627316
  0
LINE
  5
24E
100
AcDbEntity
  8
0
100
AcDbLine
 62
7
  6
CONTINUOUS
 10
-44.3198832767
 20
-13.4175976608
 11
-44.3406468908
 21
-13.4051768352
  0
LINE
  5
24F
100
AcDbEntity
  8
ASSI
100
AcDbLine
 62
7
  6
CONTINUOUS
 10
-44.3198832767
 20
-13.4175976608
 11
-44.3406468908
 21
-13.4051768352
  0
LINE
  5
250
100
AcDbEntity
  8
0
100
AcDbLine
 62
7
  6
CONTINUOUS
 10
39.2480511443
 20
-61.6397627316
 11
40.2575878617
 21
-62.2511373164
  0
LINE
  5
251
100
AcDbEntity
  8
ASSI
100
AcDbLine
 62
7
  6
CONTINUOUS
 10
39.2480511443
 20
-61.6397627316
 11
40.2575878617
 21
-62.2511373164
  0
LINE
  5
252
100
AcDbEntity
  8
0
100
AcDbLine
 62
250
  6
CONTINUOUS
 10
-23.8801352807
 20
16.4262264592
 11
-23.7387139244
 21
16.5078813779
  0
LINE
  5
253
100
AcDbEntity
  8
ASSI
100
AcDbLine
 62
250
  6
CONTINUOUS
 10
-23.8801352807
 20
16.4262264592
 11
-23.0317233103
 21
16.9160888978
  0
LINE
  5
254
100
AcDbEntity
  8
0
100
AcDbLine
 62
250
  6
CONTINUOUS
 10
-22.7138346611
 20
16.7325439758
 11
-22.890185787
 21
16.6307206963
  0
LINE
  5
255
100
AcDbEntity
  8
0
100
AcDbLine
 62
7
  6
CONTINUOUS
 10
-24.5872420619
 20
5.4855247502
 11
-24.5872420619
 21
16.4262264592
  0
LINE
  5
256
100
AcDbEntity
  8
ASSI
100
AcDbLine
 62
7
  6
CONTINUOUS
 10
-24.5872420619
 20
5.4855247502
 11
-24.5872420619
 21
16.4262264592
  0
LINE
  5
257
100
AcDbEntity
  8
0
100
AcDbLine
 62
7
  6
CONTINUOUS
 10
-23.8801352807
 20
5.4855247502
 11
-23.8801352807
 21
16.4262264592
  0
LINE
  5
258
100
AcDbEntity
  8
ASSI
100
AcDbLine
 62
7
  6
CONTINUOUS
 10
-23.8801352807
 20
5.4855247502
 11
-23.8801352807
 21
16.4262264592
  0
LINE
  5
259
100
AcDbEntity
  8
0
100
AcDbLine
 62
7
  6
CONTINUOUS
 10
-23.7387139244
 20
16.5078813779
 11
-23.7387139244
 21
5.5671796688
  0
LINE
  5
25A
100
AcDbEntity
  8
ASSI
100
AcDbLine
 62
7
  6
CONTINUOUS
 10
-22.890185787
 20
16.8343669057
 11
-22.890185787
 21
6.0571091808
  0
LINE
  5
25B
100
AcDbEntity
  8
0
100
AcDbLine
 62
250
  6
CONTINUOUS
 10
-21.7753636825
 20
16.1906825946
 11
-21.7753636825
 21
12.9938062209
  0
LINE
  5
25C
100
AcDbEntity
  8
0
100
AcDbLine
 62
7
  6
CONTINUOUS
 10
-21.6911656226
 20
16.14206769
 11
-21.6911656226
 21
13.114132332
  0
LINE
  5
25D
100
AcDbEntity
  8
0
100
AcDbLine
 62
250
  6
CONTINUOUS
 10
-23.3851605339
 20
3.403458471
 11
-23.0316071433
 21
4.015830906
  0
LINE
  5
25E
100
AcDbEntity
  8
ASSI
100
AcDbLine
 62
250
  6
CONTINUOUS
 10
-23.3851605339
 20
3.403458471
 11
-23.0316071433
 21
4.015830906
  0
LINE
  5
25F
100
AcDbEntity
  8
0
100
AcDbLine
 62
250
  6
CONTINUOUS
 10
-21.7753636825
 20
12.9938062209
 11
-22.890185787
 21
12.3043835088
  0
LINE
  5
260
100
AcDbEntity
  8
0
100
AcDbLine
 62
7
  6
CONTINUOUS
 10
-21.8333759489
 20
12.8589805754
 11
-22.890185787
 21
12.2054335191
  0
LINE
  5
261
100
AcDbEntity
  8
0
100
AcDbLine
 62
250
  6
CONTINUOUS
 10
-23.8801352807
 20
5.4855247502
 11
-23.7387139244
 21
5.5671796688
  0
LINE
  5
262
100
AcDbEntity
  8
ASSI
100
AcDbLine
 62
250
  6
CONTINUOUS
 10
-23.8801352807
 20
5.4855247502
 11
-22.890185787
 21
6.0571091808
  0
LINE
  5
263
100
AcDbEntity
  8
0
100
AcDbLine
 62
250
  6
CONTINUOUS
 10
-23.0316071433
 20
4.015830906
 11
-22.890185787
 21
4.0974858247
  0
LINE
  5
264
100
AcDbEntity
  8
ASSI
100
AcDbLine
 62
250
  6
CONTINUOUS
 10
-23.0316071433
 20
4.015830906
 11
-22.0416576496
 21
4.5874153367
  0
LINE
  5
265
100
AcDbEntity
  8
0
100
AcDbLine
 62
7
  6
CONTINUOUS
 10
-12.7078481379
 20
9.5672132913
 11
-12.7078481379
 21
-1.3734884177
  0
LINE
  5
266
100
AcDbEntity
  8
ASSI
100
AcDbLine
 62
7
  6
CONTINUOUS
 10
-12.7078481379
 20
9.5672132913
 11
-12.7078481379
 21
-1.3734884177
  0
LINE
  5
267
100
AcDbEntity
  8
0
100
AcDbLine
 62
250
  6
CONTINUOUS
 10
-13.909929666
 20
-2.0674210796
 11
-13.5563762754
 21
-1.4550486446
  0
LINE
  5
268
100
AcDbEntity
  8
ASSI
100
AcDbLine
 62
250
  6
CONTINUOUS
 10
-13.909929666
 20
-2.0674210796
 11
-13.5563762754
 21
-1.4550486446
  0
LINE
  5
269
100
AcDbEntity
  8
0
100
AcDbLine
 62
250
  6
CONTINUOUS
 10
-7.970232704
 20
7.2400481093
 11
-7.8288113477
 21
7.321703028
  0
LINE
  5
26A
100
AcDbEntity
  8
ASSI
100
AcDbLine
 62
250
  6
CONTINUOUS
 10
-7.970232704
 20
7.2400481093
 11
-7.1218207336
 21
7.7299105479
  0
LINE
  5
26B
100
AcDbEntity
  8
0
100
AcDbLine
 62
250
  6
CONTINUOUS
 10
7.2325630915
 20
-12.8868319496
 11
7.9396698727
 21
-12.8868319496
  0
LINE
  5
26C
100
AcDbEntity
  8
ASSI
100
AcDbLine
 62
250
  6
CONTINUOUS
 10
7.2325630915
 20
-12.8868319496
 11
7.9396698727
 21
-12.8868319496
  0
LINE
  5
26D
100
AcDbEntity
  8
0
100
AcDbLine
 62
7
  6
CONTINUOUS
 10
-8.6773394852
 20
-3.7006535997
 11
-8.6773394852
 21
7.2400481093
  0
LINE
  5
26E
100
AcDbEntity
  8
ASSI
100
AcDbLine
 62
7
  6
CONTINUOUS
 10
-8.6773394852
 20
-3.7006535997
 11
-8.6773394852
 21
7.2400481093
  0
LINE
  5
26F
100
AcDbEntity
  8
0
100
AcDbLine
 62
7
  6
CONTINUOUS
 10
-7.970232704
 20
-3.7006535997
 11
-7.970232704
 21
7.2400481093
  0
LINE
  5
270
100
AcDbEntity
  8
ASSI
100
AcDbLine
 62
7
  6
CONTINUOUS
 10
-7.970232704
 20
-3.7006535997
 11
-7.970232704
 21
7.2400481093
  0
LINE
  5
271
100
AcDbEntity
  8
0
100
AcDbLine
 62
7
  6
CONTINUOUS
 10
-7.8288113477
 20
7.321703028
 11
-7.8288113477
 21
-3.618998681
  0
LINE
  5
272
100
AcDbEntity
  8
ASSI
100
AcDbLine
 62
7
  6
CONTINUOUS
 10
-6.9802832103
 20
7.6481885559
 11
-6.9802832103
 21
-3.1290691691
  0
LINE
  5
273
100
AcDbEntity
  8
0
100
AcDbLine
 62
250
  6
CONTINUOUS
 10
-13.5563762754
 20
-1.4550486446
 11
-13.4149549191
 21
-1.3733937259
  0
LINE
  5
274
100
AcDbEntity
  8
ASSI
100
AcDbLine
 62
250
  6
CONTINUOUS
 10
-13.5563762754
 20
-1.4550486446
 11
-12.7078481379
 21
-0.9651191326
  0
LINE
  5
275
100
AcDbEntity
  8
0
100
AcDbLine
 62
7
  6
CONTINUOUS
 10
17.9098754874
 20
-20.4397777794
 11
8.4346446195
 21
-14.9688982288
  0
LINE
  5
276
100
AcDbEntity
  8
ASSI
100
AcDbLine
 62
7
  6
CONTINUOUS
 10
17.9098754874
 20
-20.4397777794
 11
8.4346446195
 21
-14.9688982288
  0
LINE
  5
277
100
AcDbEntity
  8
0
100
AcDbLine
 62
7
  6
CONTINUOUS
 10
1.9999729107
 20
-11.2535994295
 11
-7.4752579572
 21
-5.7827198789
  0
LINE
  5
278
100
AcDbEntity
  8
ASSI
100
AcDbLine
 62
7
  6
CONTINUOUS
 10
1.9999729107
 20
-11.2535994295
 11
-7.4752579572
 21
-5.7827198789
  0
LINE
  5
279
100
AcDbEntity
  8
0
100
AcDbLine
 62
7
  6
CONTINUOUS
 10
-13.909929666
 20
-2.0674210796
 11
-23.3851605339
 21
3.403458471
  0
LINE
  5
27A
100
AcDbEntity
  8
ASSI
100
AcDbLine
 62
7
  6
CONTINUOUS
 10
-13.909929666
 20
-2.0674210796
 11
-23.3851605339
 21
3.403458471
  0
LINE
  5
27B
100
AcDbEntity
  8
0
100
AcDbLine
 62
7
  6
CONTINUOUS
 10
18.263428878
 20
-19.8274053443
 11
8.7881980101
 21
-14.3565257937
  0
LINE
  5
27C
100
AcDbEntity
  8
ASSI
100
AcDbLine
 62
7
  6
CONTINUOUS
 10
18.263428878
 20
-19.8274053443
 11
8.7881980101
 21
-14.3565257937
  0
LINE
  5
27D
100
AcDbEntity
  8
0
100
AcDbLine
 62
7
  6
CONTINUOUS
 10
2.3535263013
 20
-10.6412269944
 11
-7.1217045666
 21
-5.1703474439
  0
LINE
  5
27E
100
AcDbEntity
  8
ASSI
100
AcDbLine
 62
7
  6
CONTINUOUS
 10
2.3535263013
 20
-10.6412269944
 11
-7.1217045666
 21
-5.1703474439
  0
LINE
  5
27F
100
AcDbEntity
  8
0
100
AcDbLine
 62
7
  6
CONTINUOUS
 10
-13.5563762754
 20
-1.4550486446
 11
-23.0316071433
 21
4.015830906
  0
LINE
  5
280
100
AcDbEntity
  8
ASSI
100
AcDbLine
 62
7
  6
CONTINUOUS
 10
-13.5563762754
 20
-1.4550486446
 11
-23.0316071433
 21
4.015830906
  0
LINE
  5
281
100
AcDbEntity
  8
0
100
AcDbLine
 62
7
  6
CONTINUOUS
 10
-22.890185787
 20
4.0974858247
 11
-13.4149549191
 21
-1.3733937259
  0
LINE
  5
282
100
AcDbEntity
  8
0
100
AcDbLine
 62
7
  6
CONTINUOUS
 10
-6.9802832103
 20
-5.0886925252
 11
2.4949476576
 21
-10.5595720758
  0
LINE
  5
283
100
AcDbEntity
  8
0
100
AcDbLine
 62
7
  6
CONTINUOUS
 10
8.9296193664
 20
-14.2748708751
 11
18.4048502343
 21
-19.7457504257
  0
LINE
  5
284
100
AcDbEntity
  8
ASSI
100
AcDbLine
 62
7
  6
CONTINUOUS
 10
-22.0416576496
 20
4.5874153367
 11
-12.7078481379
 21
-0.8018092952
  0
LINE
  5
285
100
AcDbEntity
  8
ASSI
100
AcDbLine
 62
7
  6
CONTINUOUS
 10
-6.1317550729
 20
-4.5987630132
 11
3.2020544388
 21
-9.9879876451
  0
LINE
  5
286
100
AcDbEntity
  8
ASSI
100
AcDbLine
 62
7
  6
CONTINUOUS
 10
9.7781475038
 20
-13.7849413631
 11
19.1119570155
 21
-19.174165995
  0
LINE
  5
287
100
AcDbEntity
  8
0
100
AcDbLine
 62
7
  6
CONTINUOUS
 10
-45.0274205459
 20
59.3397676688
 11
-45.0270452385
 21
59.3391313073
  0
LINE
  5
288
100
AcDbEntity
  8
ASSI
100
AcDbLine
 62
7
  6
CONTINUOUS
 10
-45.0274205459
 20
59.3397676688
 11
-45.0270452385
 21
59.3391313073
  0
LINE
  5
289
100
AcDbEntity
  8
0
100
AcDbLine
 62
250
  6
CONTINUOUS
 10
-7.4752579572
 20
-5.7827198789
 11
-7.1217045666
 21
-5.1703474439
  0
LINE
  5
28A
100
AcDbEntity
  8
ASSI
100
AcDbLine
 62
250
  6
CONTINUOUS
 10
-7.4752579572
 20
-5.7827198789
 11
-7.1217045666
 21
-5.1703474439
  0
LINE
  5
28B
100
AcDbEntity
  8
0
100
AcDbLine
 62
250
  6
CONTINUOUS
 10
-7.970232704
 20
-3.7006535997
 11
-7.8288113477
 21
-3.618998681
  0
LINE
  5
28C
100
AcDbEntity
  8
ASSI
100
AcDbLine
 62
250
  6
CONTINUOUS
 10
-7.970232704
 20
-3.7006535997
 11
-6.9802832103
 21
-3.1290691691
  0
LINE
  5
28D
100
AcDbEntity
  8
0
100
AcDbLine
 62
7
  6
CONTINUOUS
 10
39.5270270784
 20
9.3529169433
 11
40.9439862093
 21
9.7005352194
  0
LINE
  5
28E
100
AcDbEntity
  8
ASSI
100
AcDbLine
 62
7
  6
CONTINUOUS
 10
39.5270270784
 20
9.3529169433
 11
40.9439862093
 21
9.7005352194
  0
LINE
  5
28F
100
AcDbEntity
  8
0
100
AcDbLine
 62
250
  6
CONTINUOUS
 10
-8.6773394852
 20
-3.7006535997
 11
-7.970232704
 21
-3.7006535997
  0
LINE
  5
290
100
AcDbEntity
  8
ASSI
100
AcDbLine
 62
250
  6
CONTINUOUS
 10
-8.6773394852
 20
-3.7006535997
 11
-7.970232704
 21
-3.7006535997
  0
LINE
  5
291
100
AcDbEntity
  8
0
100
AcDbLine
 62
250
  6
CONTINUOUS
 10
7.2325630915
 20
-1.9461302406
 11
7.9396698727
 21
-1.9461302406
  0
LINE
  5
292
100
AcDbEntity
  8
ASSI
100
AcDbLine
 62
250
  6
CONTINUOUS
 10
7.2325630915
 20
-1.9461302406
 11
7.9396698727
 21
-1.9461302406
  0
LINE
  5
293
100
AcDbEntity
  8
0
100
AcDbLine
 62
7
  6
CONTINUOUS
 10
3.2020544388
 20
0.3810349414
 11
3.2020544388
 21
-10.5596667676
  0
LINE
  5
294
100
AcDbEntity
  8
ASSI
100
AcDbLine
 62
7
  6
CONTINUOUS
 10
3.2020544388
 20
0.3810349414
 11
3.2020544388
 21
-10.5596667676
  0
LINE
  5
295
100
AcDbEntity
  8
0
100
AcDbLine
 62
250
  6
CONTINUOUS
 10
-7.1217045666
 20
-5.1703474439
 11
-6.9802832103
 21
-5.0886925252
  0
LINE
  5
296
100
AcDbEntity
  8
ASSI
100
AcDbLine
 62
250
  6
CONTINUOUS
 10
-7.1217045666
 20
-5.1703474439
 11
-6.1317550729
 21
-4.5987630132
  0
LINE
  5
297
100
AcDbEntity
  8
0
100
AcDbLine
 62
250
  6
CONTINUOUS
 10
7.9396698727
 20
-1.9461302406
 11
8.081091229
 21
-1.8644753219
  0
LINE
  5
298
100
AcDbEntity
  8
ASSI
100
AcDbLine
 62
250
  6
CONTINUOUS
 10
7.9396698727
 20
-1.9461302406
 11
8.7880818431
 21
-1.456267802
  0
LINE
  5
299
100
AcDbEntity
  8
0
100
AcDbLine
 62
250
  6
CONTINUOUS
 10
-24.5872420619
 20
5.4855247502
 11
-23.8801352807
 21
5.4855247502
  0
LINE
  5
29A
100
AcDbEntity
  8
ASSI
100
AcDbLine
 62
250
  6
CONTINUOUS
 10
-24.5872420619
 20
5.4855247502
 11
-23.8801352807
 21
5.4855247502
  0
LINE
  5
29B
100
AcDbEntity
  8
0
100
AcDbLine
 62
7
  6
CONTINUOUS
 10
-23.3851605339
 20
17.1201591211
 11
-13.909929666
 21
11.6492795705
  0
LINE
  5
29C
100
AcDbEntity
  8
ASSI
100
AcDbLine
 62
7
  6
CONTINUOUS
 10
-23.3851605339
 20
17.1201591211
 11
-13.909929666
 21
11.6492795705
  0
LINE
  5
29D
100
AcDbEntity
  8
0
100
AcDbLine
 62
7
  6
CONTINUOUS
 10
-7.4752579572
 20
7.9339807712
 11
1.9999729107
 21
2.4631012206
  0
LINE
  5
29E
100
AcDbEntity
  8
ASSI
100
AcDbLine
 62
7
  6
CONTINUOUS
 10
-7.4752579572
 20
7.9339807712
 11
1.9999729107
 21
2.4631012206
  0
LINE
  5
29F
100
AcDbEntity
  8
0
100
AcDbLine
 62
7
  6
CONTINUOUS
 10
8.4346446195
 20
-1.2521975787
 11
17.9098754874
 21
-6.7230771293
  0
LINE
  5
2A0
100
AcDbEntity
  8
ASSI
100
AcDbLine
 62
7
  6
CONTINUOUS
 10
8.4346446195
 20
-1.2521975787
 11
17.9098754874
 21
-6.7230771293
  0
LINE
  5
2A1
100
AcDbEntity
  8
0
100
AcDbLine
 62
7
  6
CONTINUOUS
 10
40.2575878617
 20
-62.2511373164
 11
40.2579502919
 21
-62.251778754
  0
LINE
  5
2A2
100
AcDbEntity
  8
ASSI
100
AcDbLine
 62
7
  6
CONTINUOUS
 10
40.2575878617
 20
-62.2511373164
 11
40.2579502919
 21
-62.251778754
  0
LINE
  5
2A3
100
AcDbEntity
  8
0
100
AcDbLine
 62
7
  6
CONTINUOUS
 10
7.2325630915
 20
-12.8868319496
 11
7.2325630915
 21
-1.9461302406
  0
LINE
  5
2A4
100
AcDbEntity
  8
ASSI
100
AcDbLine
 62
7
  6
CONTINUOUS
 10
7.2325630915
 20
-12.8868319496
 11
7.2325630915
 21
-1.9461302406
  0
LINE
  5
2A5
100
AcDbEntity
  8
0
100
AcDbLine
 62
7
  6
CONTINUOUS
 10
7.9396698727
 20
-12.8868319496
 11
7.9396698727
 21
-1.9461302406
  0
LINE
  5
2A6
100
AcDbEntity
  8
ASSI
100
AcDbLine
 62
7
  6
CONTINUOUS
 10
7.9396698727
 20
-12.8868319496
 11
7.9396698727
 21
-1.9461302406
  0
LINE
  5
2A7
100
AcDbEntity
  8
0
100
AcDbLine
 62
7
  6
CONTINUOUS
 10
8.081091229
 20
-1.8644753219
 11
8.081091229
 21
-12.8051770309
  0
LINE
  5
2A8
100
AcDbEntity
  8
ASSI
100
AcDbLine
 62
7
  6
CONTINUOUS
 10
8.9296193664
 20
-1.537989794
 11
8.9296193664
 21
-12.3152475189
  0
LINE
  5
2A9
100
AcDbEntity
  8
0
100
AcDbLine
 62
250
  6
CONTINUOUS
 10
1.9999729107
 20
-11.2535994295
 11
2.3535263013
 21
-10.6412269944
  0
LINE
  5
2AA
100
AcDbEntity
  8
ASSI
100
AcDbLine
 62
250
  6
CONTINUOUS
 10
1.9999729107
 20
-11.2535994295
 11
2.3535263013
 21
-10.6412269944
  0
LINE
  5
2AB
100
AcDbEntity
  8
0
100
AcDbLine
 62
250
  6
CONTINUOUS
 10
2.3535263013
 20
-10.6412269944
 11
2.4949476576
 21
-10.5595720758
  0
LINE
  5
2AC
100
AcDbEntity
  8
ASSI
100
AcDbLine
 62
250
  6
CONTINUOUS
 10
2.3535263013
 20
-10.6412269944
 11
3.2020544388
 21
-10.1512974825
  0
LINE
  5
2AD
100
AcDbEntity
  8
0
100
AcDbLine
 62
7
  6
CONTINUOUS
 10
40.2579502919
 20
10.9140307694
 11
44.3198832767
 21
13.2593246716
  0
LINE
  5
2AE
100
AcDbEntity
  8
ASSI
100
AcDbLine
 62
7
  6
CONTINUOUS
 10
40.2579502919
 20
10.9140307694
 11
44.3198832767
 21
13.2593246716
  0
LINE
  5
2AF
100
AcDbEntity
  8
0
100
AcDbLine
 62
250
  6
CONTINUOUS
 10
-8.6773394852
 20
7.2400481093
 11
-7.970232704
 21
7.2400481093
  0
LINE
  5
2B0
100
AcDbEntity
  8
ASSI
100
AcDbLine
 62
250
  6
CONTINUOUS
 10
-8.6773394852
 20
7.2400481093
 11
-7.970232704
 21
7.2400481093
  0
LINE
  5
2B1
100
AcDbEntity
  8
0
100
AcDbLine
 62
250
  6
CONTINUOUS
 10
8.4346446195
 20
-14.9688982288
 11
8.7881980101
 21
-14.3565257937
  0
LINE
  5
2B2
100
AcDbEntity
  8
ASSI
100
AcDbLine
 62
250
  6
CONTINUOUS
 10
8.4346446195
 20
-14.9688982288
 11
8.7881980101
 21
-14.3565257937
  0
LINE
  5
2B3
100
AcDbEntity
  8
0
100
AcDbLine
 62
7
  6
CONTINUOUS
 10
40.9654875612
 20
9.688540272
 11
45.0274205459
 21
12.0338341742
  0
LINE
  5
2B4
100
AcDbEntity
  8
ASSI
100
AcDbLine
 62
7
  6
CONTINUOUS
 10
40.9654875612
 20
9.688540272
 11
45.0274205459
 21
12.0338341742
  0
LINE
  5
2B5
100
AcDbEntity
  8
0
100
AcDbLine
 62
250
  6
CONTINUOUS
 10
7.9396698727
 20
-12.8868319496
 11
8.081091229
 21
-12.8051770309
  0
LINE
  5
2B6
100
AcDbEntity
  8
ASSI
100
AcDbLine
 62
250
  6
CONTINUOUS
 10
7.9396698727
 20
-12.8868319496
 11
8.9296193664
 21
-12.3152475189
  0
LINE
  5
2B7
100
AcDbEntity
  8
0
100
AcDbLine
 62
7
  6
CONTINUOUS
 10
19.1119570155
 20
-8.8051434085
 11
19.1119570155
 21
-19.7458451175
  0
LINE
  5
2B8
100
AcDbEntity
  8
ASSI
100
AcDbLine
 62
7
  6
CONTINUOUS
 10
19.1119570155
 20
-8.8051434085
 11
19.1119570155
 21
-19.7458451175
  0
LINE
  5
2B9
100
AcDbEntity
  8
0
100
AcDbLine
 62
250
  6
CONTINUOUS
 10
8.7881980101
 20
-14.3565257937
 11
8.9296193664
 21
-14.2748708751
  0
LINE
  5
2BA
100
AcDbEntity
  8
ASSI
100
AcDbLine
 62
250
  6
CONTINUOUS
 10
8.7881980101
 20
-14.3565257937
 11
9.7781475038
 21
-13.7849413631
  0
LINE
  5
2BB
100
AcDbEntity
  8
0
100
AcDbLine
 62
250
  6
CONTINUOUS
 10
-24.5872420619
 20
16.4262264592
 11
-23.8801352807
 21
16.4262264592
  0
LINE
  5
2BC
100
AcDbEntity
  8
ASSI
100
AcDbLine
 62
250
  6
CONTINUOUS
 10
-24.5872420619
 20
16.4262264592
 11
-23.8801352807
 21
16.4262264592
  0
LINE
  5
2BD
100
AcDbEntity
  8
0
100
AcDbLine
 62
250
  6
CONTINUOUS
 10
17.9098754874
 20
-20.4397777794
 11
18.263428878
 21
-19.8274053443
  0
LINE
  5
2BE
100
AcDbEntity
  8
ASSI
100
AcDbLine
 62
250
  6
CONTINUOUS
 10
17.9098754874
 20
-20.4397777794
 11
18.263428878
 21
-19.8274053443
  0
LINE
  5
2BF
100
AcDbEntity
  8
0
100
AcDbLine
 62
7
  6
CONTINUOUS
 10
39.2480511443
 20
9.8361174348
 11
40.2575878617
 21
10.8894120305
  0
LINE
  5
2C0
100
AcDbEntity
  8
ASSI
100
AcDbLine
 62
7
  6
CONTINUOUS
 10
39.2480511443
 20
9.8361174348
 11
40.2575878617
 21
10.8894120305
  0
LINE
  5
2C1
100
AcDbEntity
  8
0
100
AcDbLine
 62
250
  6
CONTINUOUS
 10
18.263428878
 20
-19.8274053443
 11
18.4048502343
 21
-19.7457504257
  0
LINE
  5
2C2
100
AcDbEntity
  8
ASSI
100
AcDbLine
 62
250
  6
CONTINUOUS
 10
18.263428878
 20
-19.8274053443
 11
19.1119570155
 21
-19.3374758323
  0
LINE
  5
2C3
100
AcDbEntity
  8
0
100
AcDbLine
 62
7
  6
CONTINUOUS
 10
40.9439862093
 20
9.7005352194
 11
40.9654875612
 21
9.688540272
  0
LINE
  5
2C4
100
AcDbEntity
  8
ASSI
100
AcDbLine
 62
7
  6
CONTINUOUS
 10
40.9439862093
 20
9.7005352194
 11
40.9654875612
 21
9.688540272
  0
LINE
  5
2C5
100
AcDbEntity
  8
0
100
AcDbLine
 62
7
  6
CONTINUOUS
 10
39.2480511443
 20
9.8361174348
 11
-44.7233361907
 21
58.3201440733
  0
LINE
  5
2C6
100
AcDbEntity
  8
ASSI
100
AcDbLine
 62
7
  6
CONTINUOUS
 10
39.2480511443
 20
9.8361174348
 11
-44.7233361907
 21
58.3201440733
  0
LINE
  5
2C7
100
AcDbEntity
  8
0
100
AcDbLine
 62
7
  6
CONTINUOUS
 10
40.2579502919
 20
10.9140307694
 11
-44.3198832767
 21
59.7482118627
  0
LINE
  5
2C8
100
AcDbEntity
  8
ASSI
100
AcDbLine
 62
7
  6
CONTINUOUS
 10
40.2579502919
 20
10.9140307694
 11
-44.3198832767
 21
59.7482118627
  0
LINE
  5
2C9
100
AcDbEntity
  8
0
100
AcDbLine
 62
7
  6
CONTINUOUS
 10
44.3198832767
 20
13.2593246716
 11
-40.5320694895
 21
62.251778754
  0
LINE
  5
2CA
100
AcDbEntity
  8
ASSI
100
AcDbLine
 62
7
  6
CONTINUOUS
 10
44.3198832767
 20
13.2593246716
 11
-40.5320694895
 21
62.251778754
  0
LINE
  5
2CB
100
AcDbEntity
  8
0
100
AcDbLine
 62
7
  6
CONTINUOUS
 10
39.5270270784
 20
-61.4787166561
 11
39.5270270784
 21
9.3529169433
  0
LINE
  5
2CC
100
AcDbEntity
  8
ASSI
100
AcDbLine
 62
7
  6
CONTINUOUS
 10
39.5270270784
 20
-61.4787166561
 11
39.5270270784
 21
9.3529169433
  0
LINE
  5
2CD
100
AcDbEntity
  8
0
100
AcDbLine
 62
7
  6
CONTINUOUS
 10
40.9654875612
 20
-61.8433345602
 11
40.9654875612
 21
9.688540272
  0
LINE
  5
2CE
100
AcDbEntity
  8
ASSI
100
AcDbLine
 62
7
  6
CONTINUOUS
 10
40.9654875612
 20
-61.8433345602
 11
40.9654875612
 21
9.688540272
  0
LINE
  5
2CF
100
AcDbEntity
  8
0
100
AcDbLine
 62
7
  6
CONTINUOUS
 10
40.2579502919
 20
10.9140307694
 11
40.2575878617
 21
10.8894120305
  0
LINE
  5
2D0
100
AcDbEntity
  8
ASSI
100
AcDbLine
 62
7
  6
CONTINUOUS
 10
40.2579502919
 20
10.9140307694
 11
40.2575878617
 21
10.8894120305
  0
LINE
  5
2D1
100
AcDbEntity
  8
0
100
AcDbLine
 62
7
  6
CONTINUOUS
 10
39.5270270784
 20
9.3529169433
 11
39.2480511443
 21
9.8361174348
  0
LINE
  5
2D2
100
AcDbEntity
  8
ASSI
100
AcDbLine
 62
7
  6
CONTINUOUS
 10
39.5270270784
 20
9.3529169433
 11
39.2480511443
 21
9.8361174348
  0
LINE
  5
2D3
100
AcDbEntity
  8
0
100
AcDbLine
 62
7
  6
CONTINUOUS
 10
40.9439862093
 20
9.7005352194
 11
40.2575878617
 21
10.8894120305
  0
LINE
  5
2D4
100
AcDbEntity
  8
ASSI
100
AcDbLine
 62
7
  6
CONTINUOUS
 10
40.9439862093
 20
9.7005352194
 11
40.2575878617
 21
10.8894120305
  0
LINE
  5
2D5
100
AcDbEntity
  8
CURVE
100
AcDbLine
 62
250
  6
CONTINUOUS
 10
42.0963309347
 20
-54.6455849069
 11
42.0963309347
 21
-55.071613382
  0
LINE
  5
2D6
100
AcDbEntity
  8
CURVE
100
AcDbLine
 62
250
  6
CONTINUOUS
 10
42.0964399064
 20
-56.9081629569
 11
42.0964399064
 21
-56.4453647428
  0
LINE
  5
2D7
100
AcDbEntity
  8
CURVE
100
AcDbLine
 62
250
  6
CONTINUOUS
 10
42.0964399064
 20
-55.6553921924
 11
42.0964399064
 21
-55.2296551971
  0
LINE
  5
2D8
100
AcDbEntity
  8
CURVE
100
AcDbLine
 62
250
  6
CONTINUOUS
 10
42.0964399064
 20
-54.2318950436
 11
42.0964399064
 21
-53.8062192836
  0
LINE
  5
2D9
100
AcDbEntity
  8
CURVE
100
AcDbLine
 62
250
  6
CONTINUOUS
 10
42.0964399064
 20
-52.9586619011
 11
42.0964399064
 21
-52.5371485066
  0
LINE
  5
2DA
100
AcDbEntity
  8
CURVE
100
AcDbLine
 62
250
  6
CONTINUOUS
 10
42.0964399064
 20
-51.6392230726
 11
42.0964399064
 21
-51.227091738
  0
LINE
  5
2DB
100
AcDbEntity
  8
CURVE
100
AcDbLine
 62
250
  6
CONTINUOUS
 10
42.9097646912
 20
-49.3842007395
 11
42.9097646912
 21
-49.6276717307
  0
LINE
  5
2DC
100
AcDbEntity
  8
CURVE
100
AcDbLine
 62
250
  6
CONTINUOUS
 10
43.209178179
 20
-49.452334305
 11
43.209178179
 21
-49.2239080702
  0
LINE
  5
2DD
100
AcDbEntity
  8
CURVE
100
AcDbLine
 62
250
  6
CONTINUOUS
 10
43.2772455626
 20
-51.0175160448
 11
43.2772455626
 21
-50.6096238239
  0
LINE
  5
2DE
100
AcDbEntity
  8
CURVE
100
AcDbLine
 62
250
  6
CONTINUOUS
 10
43.5596592572
 20
-50.3724244093
 11
43.5596592572
 21
-50.9526041056
  0
LINE
  5
2DF
100
AcDbEntity
  8
CURVE
100
AcDbLine
 62
250
  6
CONTINUOUS
 10
43.924631083
 20
-54.0872154023
 11
43.924631083
 21
-53.6611869272
  0
LINE
  5
2E0
100
AcDbEntity
  8
CURVE
100
AcDbLine
 62
250
  6
CONTINUOUS
 10
43.9246310951
 20
-49.4914325069
 11
43.9246310951
 21
-49.0671183405
  0
LINE
  5
2E1
100
AcDbEntity
  8
CURVE
100
AcDbLine
 62
250
  6
CONTINUOUS
 10
43.9246310951
 20
-48.4147146479
 11
43.9246310951
 21
-48.0049248698
  0
LINE
  5
2E2
100
AcDbEntity
  8
CURVE
100
AcDbLine
 62
250
  6
CONTINUOUS
 10
43.924631083
 20
-49.6165352417
 11
43.924631083
 21
-50.0655514375
  0
LINE
  5
2E3
100
AcDbEntity
  8
CURVE
100
AcDbLine
 62
250
  6
CONTINUOUS
 10
43.924631083
 20
-50.873652894
 11
43.924631083
 21
-51.2950585144
  0
LINE
  5
2E4
100
AcDbEntity
  8
CURVE
100
AcDbLine
 62
250
  6
CONTINUOUS
 10
43.924631083
 20
-51.361956823
 11
43.924631083
 21
-51.7787257087
  0
LINE
  5
2E5
100
AcDbEntity
  8
CURVE
100
AcDbLine
 62
250
  6
CONTINUOUS
 10
43.924631083
 20
-52.3728017292
 11
43.924631083
 21
-52.432552657
  0
LINE
  5
2E6
100
AcDbEntity
  8
CURVE
100
AcDbLine
 62
250
  6
CONTINUOUS
 10
43.924631083
 20
-53.0242723442
 11
43.924631083
 21
-53.4318428758
  0
LINE
  5
2E7
100
AcDbEntity
  8
CURVE
100
AcDbLine
 62
250
  6
CONTINUOUS
 10
43.924631083
 20
-54.9013620047
 11
43.924631083
 21
-55.2767995321
  0
LINE
  5
2E8
100
AcDbEntity
  8
0
100
AcDbLine
 62
7
  6
CONTINUOUS
 10
45.0274205459
 20
-59.8145560459
 11
45.0274205459
 21
12.0338341742
  0
LINE
  5
2E9
100
AcDbEntity
  8
ASSI
100
AcDbLine
 62
7
  6
CONTINUOUS
 10
45.0274205459
 20
-59.8145560459
 11
45.0274205459
 21
12.0338341742
  0
LINE
  5
2EA
100
AcDbEntity
  8
0
100
AcDbLine
 62
7
  6
CONTINUOUS
 10
44.3198832767
 20
13.2593246716
 11
45.0274205459
 21
12.0338341742
  0
LINE
  5
2EB
100
AcDbEntity
  8
ASSI
100
AcDbLine
 62
7
  6
CONTINUOUS
 10
44.3198832767
 20
13.2593246716
 11
45.0274205459
 21
12.0338341742
  0
LINE
  5
2EC
100
AcDbEntity
  8
CURVE
100
AcDbLine
 62
7
  6
CONTINUOUS
 10
42.2029796843
 20
-49.2412374745
 11
42.6470369366
 21
-48.7971802222
  0
LINE
  5
2ED
100
AcDbEntity
  8
CURVE
100
AcDbLine
 62
7
  6
CONTINUOUS
 10
42.1050159443
 20
-49.5492119285
 11
42.9034858356
 21
-48.7507420372
  0
LINE
  5
2EE
100
AcDbEntity
  8
CURVE
100
AcDbLine
 62
7
  6
CONTINUOUS
 10
42.0797814811
 20
-49.7844571057
 11
42.4341143809
 21
-49.4301242059
  0
LINE
  5
2EF
100
AcDbEntity
  8
CURVE
100
AcDbLine
 62
7
  6
CONTINUOUS
 10
42.6843972941
 20
-49.1798412927
 11
43.039884322
 21
-48.8243542648
  0
LINE
  5
2F0
100
AcDbEntity
  8
CURVE
100
AcDbLine
 62
7
  6
CONTINUOUS
 10
43.1241419203
 20
-48.7400966665
 11
43.5357662464
 21
-48.3284723404
  0
LINE
  5
2F1
100
AcDbEntity
  8
CURVE
100
AcDbLine
 62
7
  6
CONTINUOUS
 10
42.0758884107
 20
-49.9983608901
 11
42.3909223422
 21
-49.6833269586
  0
LINE
  5
2F2
100
AcDbEntity
  8
CURVE
100
AcDbLine
 62
7
  6
CONTINUOUS
 10
42.8668355822
 20
-49.2074137187
 11
43.9246310951
 21
-48.1496182057
  0
LINE
  5
2F3
100
AcDbEntity
  8
CURVE
100
AcDbLine
 62
7
  6
CONTINUOUS
 10
42.0871405313
 20
-50.1971194835
 11
42.4050147144
 21
-49.8792453004
  0
LINE
  5
2F4
100
AcDbEntity
  8
CURVE
100
AcDbLine
 62
7
  6
CONTINUOUS
 10
42.9093971021
 20
-49.3748629128
 11
43.2889866899
 21
-48.995273325
  0
LINE
  5
2F5
100
AcDbEntity
  8
CURVE
100
AcDbLine
 62
7
  6
CONTINUOUS
 10
43.5265390267
 20
-48.7577209881
 11
43.9246310951
 21
-48.3596289197
  0
LINE
  5
2F6
100
AcDbEntity
  8
CURVE
100
AcDbLine
 62
7
  6
CONTINUOUS
 10
42.1075372335
 20
-50.3867334954
 11
42.8162469282
 21
-49.6780238006
  0
LINE
  5
2F7
100
AcDbEntity
  8
CURVE
100
AcDbLine
 62
7
  6
CONTINUOUS
 10
42.9097646912
 20
-49.5845060376
 11
43.209178179
 21
-49.2850925498
  0
LINE
  5
2F8
100
AcDbEntity
  8
CURVE
100
AcDbLine
 62
7
  6
CONTINUOUS
 10
42.3825667712
 20
-50.3217146717
 11
43.3018364239
 21
-49.402445019
  0
LINE
  5
2F9
100
AcDbEntity
  8
CURVE
100
AcDbLine
 62
7
  6
CONTINUOUS
 10
42.837551524
 20
-50.0767406329
 11
43.7568211767
 21
-49.1574709802
  0
LINE
  5
2FA
100
AcDbEntity
  8
CURVE
100
AcDbLine
 62
7
  6
CONTINUOUS
 10
43.2925362768
 20
-49.8317665941
 11
43.9246310951
 21
-49.1996717758
  0
LINE
  5
2FB
100
AcDbEntity
  8
CURVE
100
AcDbLine
 62
7
  6
CONTINUOUS
 10
42.0964399064
 20
-51.2378736785
 11
42.1870111722
 21
-51.1473024127
  0
LINE
  5
2FC
100
AcDbEntity
  8
CURVE
100
AcDbLine
 62
7
  6
CONTINUOUS
 10
43.7475210296
 20
-49.5867925553
 11
43.9246310951
 21
-49.4096824898
  0
LINE
  5
2FD
100
AcDbEntity
  8
CURVE
100
AcDbLine
 62
7
  6
CONTINUOUS
 10
42.0964399064
 20
-51.4478843926
 11
43.924631083
 21
-49.6196932159
  0
LINE
  5
2FE
100
AcDbEntity
  8
CURVE
100
AcDbLine
 62
7
  6
CONTINUOUS
 10
42.1194422214
 20
-51.6348927916
 11
43.924631083
 21
-49.8297039299
  0
LINE
  5
2FF
100
AcDbEntity
  8
CURVE
100
AcDbLine
 62
7
  6
CONTINUOUS
 10
42.3781570784
 20
-51.5861886486
 11
42.8504805019
 21
-51.1138652251
  0
LINE
  5
300
100
AcDbEntity
  8
CURVE
100
AcDbLine
 62
7
  6
CONTINUOUS
 10
43.2772455626
 20
-50.6871001643
 11
43.5596592572
 21
-50.4046864697
  0
LINE
  5
301
100
AcDbEntity
  8
CURVE
100
AcDbLine
 62
7
  6
CONTINUOUS
 10
43.7623266471
 20
-50.2020190799
 11
43.924631083
 21
-50.0397146439
  0
LINE
  5
302
100
AcDbEntity
  8
CURVE
100
AcDbLine
 62
7
  6
CONTINUOUS
 10
42.6368719353
 20
-51.5374845056
 11
43.1217302826
 21
-51.0526261583
  0
LINE
  5
303
100
AcDbEntity
  8
CURVE
100
AcDbLine
 62
7
  6
CONTINUOUS
 10
43.2772455626
 20
-50.8971108783
 11
43.5596592572
 21
-50.6146971838
  0
LINE
  5
304
100
AcDbEntity
  8
CURVE
100
AcDbLine
 62
7
  6
CONTINUOUS
 10
42.8955867923
 20
-51.4887803626
 11
43.5596592572
 21
-50.8247078978
  0
LINE
  5
305
100
AcDbEntity
  8
CURVE
100
AcDbLine
 62
7
  6
CONTINUOUS
 10
43.1543016493
 20
-51.4400762197
 11
43.6644401008
 21
-50.9299377682
  0
LINE
  5
306
100
AcDbEntity
  8
CURVE
100
AcDbLine
 62
7
  6
CONTINUOUS
 10
42.0964399064
 20
-52.7079486766
 11
42.5746261334
 21
-52.2297624495
  0
LINE
  5
307
100
AcDbEntity
  8
CURVE
100
AcDbLine
 62
7
  6
CONTINUOUS
 10
43.4130165063
 20
-51.3913720767
 11
43.924631083
 21
-50.8797575
  0
LINE
  5
308
100
AcDbEntity
  8
CURVE
100
AcDbLine
 62
7
  6
CONTINUOUS
 10
42.0964399064
 20
-52.9179593906
 11
43.1625894296
 21
-51.8518098674
  0
LINE
  5
309
100
AcDbEntity
  8
CURVE
100
AcDbLine
 62
7
  6
CONTINUOUS
 10
43.6717313633
 20
-51.3426679337
 11
43.924631083
 21
-51.089768214
  0
LINE
  5
30A
100
AcDbEntity
  8
CURVE
100
AcDbLine
 62
250
  6
CONTINUOUS
 10
42.0964399064
 20
-51.227091738
 11
43.924631083
 21
-49.6165352417
  0
LINE
  5
30B
100
AcDbEntity
  8
CURVE
100
AcDbLine
 62
250
  6
CONTINUOUS
 10
43.924631083
 20
-50.0655514375
 11
43.5596592572
 21
-50.3724244093
  0
LINE
  5
30C
100
AcDbEntity
  8
CURVE
100
AcDbLine
 62
250
  6
CONTINUOUS
 10
43.2772455626
 20
-50.6096238239
 11
42.5987804353
 21
-51.1706906246
  0
LINE
  5
30D
100
AcDbEntity
  8
CURVE
100
AcDbLine
 62
250
  6
CONTINUOUS
 10
42.0964399064
 20
-52.5371485066
 11
43.924631083
 21
-51.361956823
  0
LINE
  5
30E
100
AcDbEntity
  8
CURVE
100
AcDbLine
 62
250
  6
CONTINUOUS
 10
43.924631083
 20
-51.7787257087
 11
42.7358331935
 21
-52.506330148
  0
LINE
  5
30F
100
AcDbEntity
  8
CURVE
100
AcDbLine
 62
250
  6
CONTINUOUS
 10
43.0712478173
 20
-48.8556152283
 11
43.0604448031
 21
-48.8614318145
  0
LINE
  5
310
100
AcDbEntity
  8
CURVE
100
AcDbLine
 62
250
  6
CONTINUOUS
 10
43.9246310951
 20
-49.0671183405
 11
43.209178179
 21
-49.452334305
  0
LINE
  5
311
100
AcDbEntity
  8
CURVE
100
AcDbLine
 62
250
  6
CONTINUOUS
 10
42.9097646912
 20
-49.6276717307
 11
42.4078906545
 21
-49.897892016
  0
LINE
  5
312
100
AcDbEntity
  8
CURVE
100
AcDbLine
 62
250
  6
CONTINUOUS
 10
42.1177995647
 20
-50.4642712992
 11
43.9246310951
 21
-49.4914325069
  0
LINE
  5
313
100
AcDbEntity
  8
CURVE
100
AcDbLine
 62
250
  6
CONTINUOUS
 10
42.730857063
 20
-53.5750901621
 11
43.924631083
 21
-53.0242723442
  0
LINE
  5
314
100
AcDbEntity
  8
CURVE
100
AcDbLine
 62
250
  6
CONTINUOUS
 10
43.924631083
 20
-53.4318428758
 11
42.0964399064
 21
-54.2318950436
  0
LINE
  5
315
100
AcDbEntity
  8
CURVE
100
AcDbLine
 62
7
  6
CONTINUOUS
 10
42.2885511762
 20
-52.9358588348
 11
43.7505527257
 21
-51.4738572853
  0
LINE
  5
316
100
AcDbEntity
  8
CURVE
100
AcDbLine
 62
7
  6
CONTINUOUS
 10
42.5268469237
 20
-52.9075738013
 11
42.9524178462
 21
-52.4820028789
  0
LINE
  5
317
100
AcDbEntity
  8
CURVE
100
AcDbLine
 62
7
  6
CONTINUOUS
 10
43.2314065188
 20
-52.2030142062
 11
43.924631083
 21
-51.509789642
  0
LINE
  5
318
100
AcDbEntity
  8
CURVE
100
AcDbLine
 62
7
  6
CONTINUOUS
 10
42.7651426713
 20
-52.8792887677
 11
43.1890022453
 21
-52.4554291938
  0
LINE
  5
319
100
AcDbEntity
  8
CURVE
100
AcDbLine
 62
7
  6
CONTINUOUS
 10
43.7727418163
 20
-51.8716896227
 11
43.924631083
 21
-51.719800356
  0
LINE
  5
31A
100
AcDbEntity
  8
CURVE
100
AcDbLine
 62
7
  6
CONTINUOUS
 10
43.0034384189
 20
-52.8510037342
 11
43.4255866443
 21
-52.4288555087
  0
LINE
  5
31B
100
AcDbEntity
  8
CURVE
100
AcDbLine
 62
7
  6
CONTINUOUS
 10
42.0964399064
 20
-53.9680129607
 11
43.6621710434
 21
-52.4022818237
  0
LINE
  5
31C
100
AcDbEntity
  8
CURVE
100
AcDbLine
 62
7
  6
CONTINUOUS
 10
42.0964399064
 20
-54.1780236747
 11
43.8987554425
 21
-52.3757081386
  0
LINE
  5
31D
100
AcDbEntity
  8
CURVE
100
AcDbLine
 62
7
  6
CONTINUOUS
 10
42.3740799634
 20
-54.1103943317
 11
43.0623275074
 21
-53.4221467877
  0
LINE
  5
31E
100
AcDbEntity
  8
CURVE
100
AcDbLine
 62
7
  6
CONTINUOUS
 10
42.7475116988
 20
-53.9469733103
 11
43.4522534984
 21
-53.2422315107
  0
LINE
  5
31F
100
AcDbEntity
  8
CURVE
100
AcDbLine
 62
7
  6
CONTINUOUS
 10
42.0963309347
 20
-54.8081647885
 11
42.4485575702
 21
-54.4559381529
  0
LINE
  5
320
100
AcDbEntity
  8
CURVE
100
AcDbLine
 62
7
  6
CONTINUOUS
 10
43.1209434343
 20
-53.7835522888
 11
43.8421794894
 21
-53.0623162337
  0
LINE
  5
321
100
AcDbEntity
  8
CURVE
100
AcDbLine
 62
7
  6
CONTINUOUS
 10
42.0963309347
 20
-55.0181755025
 11
42.903542323
 21
-54.2109641141
  0
LINE
  5
322
100
AcDbEntity
  8
CURVE
100
AcDbLine
 62
7
  6
CONTINUOUS
 10
43.4943751697
 20
-53.6201312674
 11
43.924631083
 21
-53.1898753541
  0
LINE
  5
323
100
AcDbEntity
  8
CURVE
100
AcDbLine
 62
7
  6
CONTINUOUS
 10
42.4355434016
 20
-54.8889737496
 11
43.3585270758
 21
-53.9659900753
  0
LINE
  5
324
100
AcDbEntity
  8
CURVE
100
AcDbLine
 62
7
  6
CONTINUOUS
 10
43.8678069052
 20
-53.4567102459
 11
43.924631083
 21
-53.3998860681
  0
LINE
  5
325
100
AcDbEntity
  8
CURVE
100
AcDbLine
 62
7
  6
CONTINUOUS
 10
42.0964399064
 20
-55.4380879588
 11
42.3504938086
 21
-55.1840340566
  0
LINE
  5
326
100
AcDbEntity
  8
CURVE
100
AcDbLine
 62
7
  6
CONTINUOUS
 10
42.8905281544
 20
-54.6439997108
 11
43.8135118286
 21
-53.7210160365
  0
LINE
  5
327
100
AcDbEntity
  8
CURVE
100
AcDbLine
 62
7
  6
CONTINUOUS
 10
42.0964399064
 20
-55.6480986728
 11
42.6064710406
 21
-55.1380675386
  0
LINE
  5
328
100
AcDbEntity
  8
CURVE
100
AcDbLine
 62
7
  6
CONTINUOUS
 10
43.3455129072
 20
-54.399025672
 11
43.924631083
 21
-53.8199074961
  0
LINE
  5
329
100
AcDbEntity
  8
CURVE
100
AcDbLine
 62
7
  6
CONTINUOUS
 10
42.3562740831
 20
-55.59827521
 11
42.8624482727
 21
-55.0921010205
  0
LINE
  5
32A
100
AcDbEntity
  8
CURVE
100
AcDbLine
 62
7
  6
CONTINUOUS
 10
43.80049766
 20
-54.1540516332
 11
43.924631083
 21
-54.0299182101
  0
LINE
  5
32B
100
AcDbEntity
  8
CURVE
100
AcDbLine
 62
7
  6
CONTINUOUS
 10
42.6254567795
 20
-55.5391032277
 11
43.1184255047
 21
-55.0461345025
  0
LINE
  5
32C
100
AcDbEntity
  8
CURVE
100
AcDbLine
 62
7
  6
CONTINUOUS
 10
42.8946394758
 20
-55.4799312454
 11
43.3744027368
 21
-55.0001679844
  0
LINE
  5
32D
100
AcDbEntity
  8
CURVE
100
AcDbLine
 62
7
  6
CONTINUOUS
 10
42.0964399064
 20
-56.4881415288
 11
42.377090622
 21
-56.2074908132
  0
LINE
  5
32E
100
AcDbEntity
  8
CURVE
100
AcDbLine
 62
7
  6
CONTINUOUS
 10
43.1638221722
 20
-55.420759263
 11
43.6303799688
 21
-54.9542014664
  0
LINE
  5
32F
100
AcDbEntity
  8
CURVE
100
AcDbLine
 62
7
  6
CONTINUOUS
 10
42.0964399064
 20
-56.6981522429
 11
43.8863572009
 21
-54.9082349483
  0
LINE
  5
330
100
AcDbEntity
  8
CURVE
100
AcDbLine
 62
7
  6
CONTINUOUS
 10
42.0964399064
 20
-56.9081629569
 11
43.924631083
 21
-55.0799717802
  0
LINE
  5
331
100
AcDbEntity
  8
CURVE
100
AcDbLine
 62
250
  6
CONTINUOUS
 10
43.924631083
 20
-52.432552657
 11
42.730857063
 21
-53.5750901621
  0
LINE
  5
332
100
AcDbEntity
  8
CURVE
100
AcDbLine
 62
250
  6
CONTINUOUS
 10
42.0964399064
 20
-53.8062192836
 11
43.111457186
 21
-52.838182211
  0
LINE
  5
333
100
AcDbEntity
  8
CURVE
100
AcDbLine
 62
250
  6
CONTINUOUS
 10
43.924631083
 20
-55.2767995321
 11
42.0964399064
 21
-56.9081629569
  0
LINE
  5
334
100
AcDbEntity
  8
CURVE
100
AcDbLine
 62
250
  6
CONTINUOUS
 10
42.0964399064
 20
-56.4453647428
 11
43.3548407276
 21
-55.3787693924
  0
LINE
  5
335
100
AcDbEntity
  8
0
100
AcDbLine
 62
7
  6
CONTINUOUS
 10
39.2480511443
 20
-61.6397627316
 11
39.5270270784
 21
-61.4787166561
  0
LINE
  5
336
100
AcDbEntity
  8
ASSI
100
AcDbLine
 62
7
  6
CONTINUOUS
 10
39.2480511443
 20
-61.6397627316
 11
39.5270270784
 21
-61.4787166561
  0
LINE
  5
337
100
AcDbEntity
  8
0
100
AcDbLine
 62
7
  6
CONTINUOUS
 10
40.2575878617
 20
-62.2511373164
 11
40.9439862093
 21
-61.8548961119
  0
LINE
  5
338
100
AcDbEntity
  8
ASSI
100
AcDbLine
 62
7
  6
CONTINUOUS
 10
40.2575878617
 20
-62.2511373164
 11
40.9439862093
 21
-61.8548961119
  0
LINE
  5
339
100
AcDbEntity
  8
0
100
AcDbLine
 62
7
  6
CONTINUOUS
 10
45.0274205459
 20
-59.8145560459
 11
44.3198832767
 21
-60.2230002398
  0
LINE
  5
33A
100
AcDbEntity
  8
ASSI
100
AcDbLine
 62
7
  6
CONTINUOUS
 10
45.0274205459
 20
-59.8145560459
 11
44.3198832767
 21
-60.2230002398
  0
LINE
  5
33B
100
AcDbEntity
  8
CURVE
100
AcDbLine
 62
250
  6
CONTINUOUS
 10
43.924631083
 20
-53.6611869272
 11
42.0963309347
 21
-54.6455849069
  0
LINE
  5
33C
100
AcDbEntity
  8
CURVE
100
AcDbLine
 62
250
  6
CONTINUOUS
 10
42.0963309347
 20
-55.071613382
 11
43.924631083
 21
-54.0872154023
  0
LINE
  5
33D
100
AcDbEntity
  8
0
100
AcDbLine
 62
7
  6
CONTINUOUS
 10
40.9654875612
 20
-61.8433345602
 11
40.9439862093
 21
-61.8548961119
  0
LINE
  5
33E
100
AcDbEntity
  8
ASSI
100
AcDbLine
 62
7
  6
CONTINUOUS
 10
40.9654875612
 20
-61.8433345602
 11
40.9439862093
 21
-61.8548961119
  0
LINE
  5
33F
100
AcDbEntity
  8
0
100
AcDbLine
 62
7
  6
CONTINUOUS
 10
40.9654875612
 20
-61.8433345602
 11
45.0274205459
 21
-59.8145560459
  0
LINE
  5
340
100
AcDbEntity
  8
ASSI
100
AcDbLine
 62
7
  6
CONTINUOUS
 10
40.9654875612
 20
-61.8433345602
 11
45.0274205459
 21
-59.8145560459
  0
LINE
  5
341
100
AcDbEntity
  8
0
100
AcDbLine
 62
7
  6
CONTINUOUS
 10
40.2579502919
 20
-62.251778754
 11
44.3198832767
 21
-60.2230002398
  0
LINE
  5
342
100
AcDbEntity
  8
ASSI
100
AcDbLine
 62
7
  6
CONTINUOUS
 10
40.2579502919
 20
-62.251778754
 11
44.3198832767
 21
-60.2230002398
  0
ARC
  5
343
100
AcDbEntity
  8
0
100
AcDbCircle
 62
7
  6
CONTINUOUS
 10
-13.1599995943
 20
-1.160651174
 40
0.4082669237
100
AcDbArc
 50
287.1197927938
 51
299.9220603256
  0
ARC
  5
344
100
AcDbEntity
  8
0
100
AcDbCircle
 62
7
  6
CONTINUOUS
 10
2.7499029824
 20
-10.3468295238
 40
0.4082669237
100
AcDbArc
 50
287.1197927938
 51
299.9220603256
  0
ARC
  5
345
100
AcDbEntity
  8
0
100
AcDbCircle
 62
7
  6
CONTINUOUS
 10
18.6598055591
 20
-19.5330078737
 40
0.4082669237
100
AcDbArc
 50
287.1197927938
 51
299.9220603256
  0
ARC
  5
346
100
AcDbEntity
  8
ASSI
100
AcDbCircle
 62
7
  6
CONTINUOUS
 10
-13.1599995943
 20
-1.160651174
 40
0.4082669237
100
AcDbArc
 50
287.1197927938
 51
299.9220603256
  0
ARC
  5
347
100
AcDbEntity
  8
ASSI
100
AcDbCircle
 62
7
  6
CONTINUOUS
 10
2.7499029824
 20
-10.3468295238
 40
0.4082669237
100
AcDbArc
 50
287.1197927938
 51
299.9220603256
  0
ARC
  5
348
100
AcDbEntity
  8
ASSI
100
AcDbCircle
 62
7
  6
CONTINUOUS
 10
18.6598055591
 20
-19.5330078737
 40
0.4082669237
100
AcDbArc
 50
287.1197927938
 51
299.9220603256
  0
ARC
  5
349
100
AcDbEntity
  8
0
100
AcDbCircle
 62
7
  6
CONTINUOUS
 10
-23.4270086412
 20
16.6222396106
 40
0.4082558864
100
AcDbArc
 50
120.0809872757
 51
132.874078902
  0
ARC
  5
34A
100
AcDbEntity
  8
0
100
AcDbCircle
 62
7
  6
CONTINUOUS
 10
-7.5171060645
 20
7.4360612607
 40
0.4082558864
100
AcDbArc
 50
120.0809872757
 51
132.874078902
  0
ARC
  5
34B
100
AcDbEntity
  8
0
100
AcDbCircle
 62
7
  6
CONTINUOUS
 10
8.3927965122
 20
-1.7501170892
 40
0.4082558864
100
AcDbArc
 50
120.0809872757
 51
132.874078902
  0
ARC
  5
34C
100
AcDbEntity
  8
ASSI
100
AcDbCircle
 62
7
  6
CONTINUOUS
 10
8.3927965122
 20
-1.7501170892
 40
0.4082558864
100
AcDbArc
 50
120.0809872757
 51
132.874078902
  0
ARC
  5
34D
100
AcDbEntity
  8
ASSI
100
AcDbCircle
 62
7
  6
CONTINUOUS
 10
-23.4270086412
 20
16.6222396106
 40
0.4082558864
100
AcDbArc
 50
120.0809872757
 51
132.874078902
  0
ARC
  5
34E
100
AcDbEntity
  8
ASSI
100
AcDbCircle
 62
7
  6
CONTINUOUS
 10
-7.5171060645
 20
7.4360612607
 40
0.4082558864
100
AcDbArc
 50
120.0809872757
 51
132.874078902
  0
ARC
  5
34F
100
AcDbEntity
  8
0
100
AcDbCircle
 62
7
  6
CONTINUOUS
 10
-21.9911656226
 20
13.114132332
 40
0.3
100
AcDbArc
 50
301.7332683128
 51
359.9978457589
  0
SPLINE
  5
350
100
AcDbEntity
  8
0
100
AcDbSpline
 62
250
  6
CONTINUOUS
 70
0
 71
3
 72
11
 73
7
 74
0
 42
0.0000001
 43
0.0000001
 44
0.0000000001
 40
0.0
 40
0.0
 40
0.0
 40
0.0
 40
0.2187601249
 40
0.4523110155
 40
0.711323703
 40
1.0
 40
1.0
 40
1.0
 40
1.0
 10
-21.6911656702
 20
13.1141210525
 30
0.0
 10
-21.6911677548
 20
13.1029520119
 30
0.0
 10
-21.695190154
 20
13.0797094411
 30
0.0
 10
-21.7124401946
 20
13.0472037896
 30
0.0
 10
-21.7397759994
 20
13.0176794676
 30
0.0
 10
-21.762713669
 20
13.0013696921
 30
0.0
 10
-21.7753636825
 20
12.9938062209
 30
0.0
  0
SPLINE
  5
351
100
AcDbEntity
  8
0
100
AcDbSpline
 62
250
  6
CONTINUOUS
 70
0
 71
3
 72
11
 73
7
 74
0
 42
0.0000001
 43
0.0000001
 44
0.0000000001
 40
0.0
 40
0.0
 40
0.0
 40
0.0
 40
0.2886987287
 40
0.547729285
 40
0.7812621972
 40
1.0
 40
1.0
 40
1.0
 40
1.0
 10
-21.7753636825
 20
12.9938062209
 30
0.0
 10
-21.7751429891
 20
12.9790752879
 30
0.0
 10
-21.7769498461
 20
12.9510001413
 30
0.0
 10
-21.787675219
 20
12.912239524
 30
0.0
 10
-21.8062388341
 20
12.8804872751
 30
0.0
 10
-21.8238833633
 20
12.8648534121
 30
0.0
 10
-21.8333760898
 20
12.8589808031
 30
0.0
  0
SPLINE
  5
352
100
AcDbEntity
  8
0
100
AcDbSpline
 62
7
  6
CONTINUOUS
 70
0
 71
3
 72
9
 73
5
 74
0
 42
0.0000001
 43
0.0000001
 44
0.0000000001
 40
0.0
 40
0.0
 40
0.0
 40
0.0
 40
0.5163282132
 40
1.0
 40
1.0
 40
1.0
 40
1.0
 10
-13.1121257764
 20
-1.4837238367
 30
0.0
 10
-13.0753753768
 20
-1.4887314255
 30
0.0
 10
-13.0030778936
 20
-1.492024514
 30
0.0
 10
-12.9315946152
 20
-1.4794225542
 30
0.0
 10
-12.8983965464
 20
-1.4691734484
 30
0.0
  0
SPLINE
  5
353
100
AcDbEntity
  8
0
100
AcDbSpline
 62
7
  6
CONTINUOUS
 70
0
 71
3
 72
9
 73
5
 74
0
 42
0.0000001
 43
0.0000001
 44
0.0000000001
 40
0.0
 40
0.0
 40
0.0
 40
0.0
 40
0.5163282132
 40
1.0
 40
1.0
 40
1.0
 40
1.0
 10
2.7977768003
 20
-10.6699021865
 30
0.0
 10
2.8345271999
 20
-10.6749097754
 30
0.0
 10
2.9068246831
 20
-10.6782028639
 30
0.0
 10
2.9783079615
 20
-10.6656009041
 30
0.0
 10
3.0115060303
 20
-10.6553517983
 30
0.0
  0
SPLINE
  5
354
100
AcDbEntity
  8
0
100
AcDbSpline
 62
7
  6
CONTINUOUS
 70
0
 71
3
 72
9
 73
5
 74
0
 42
0.0000001
 43
0.0000001
 44
0.0000000001
 40
0.0
 40
0.0
 40
0.0
 40
0.0
 40
0.2403060145
 40
1.0
 40
1.0
 40
1.0
 40
1.0
 10
17.9098754874
 20
-6.7230771293
 30
0.0
 10
17.9334955498
 20
-6.7367150573
 30
0.0
 10
18.0303255723
 20
-6.7959854245
 30
0.0
 10
18.1213262999
 20
-6.8645868437
 30
0.0
 10
18.1869930749
 20
-6.9204667622
 30
0.0
  0
SPLINE
  5
355
100
AcDbEntity
  8
0
100
AcDbSpline
 62
7
  6
CONTINUOUS
 70
0
 71
3
 72
11
 73
7
 74
0
 42
0.0000001
 43
0.0000001
 44
0.0000000001
 40
0.0
 40
0.0
 40
0.0
 40
0.0
 40
0.2436408454
 40
0.5000044213
 40
0.7563656951
 40
1.0
 40
1.0
 40
1.0
 40
1.0
 10
18.1869930749
 20
-6.9204667622
 30
0.0
 10
18.299276441
 20
-7.0160156199
 30
0.0
 10
18.5103219879
 20
-7.2354974377
 30
0.0
 10
18.7703828452
 20
-7.6143248139
 30
0.0
 10
18.9684249736
 20
-8.0289541938
 30
0.0
 10
19.0529760267
 20
-8.3214613962
 30
0.0
 10
19.0795794677
 20
-8.4664725281
 30
0.0
  0
SPLINE
  5
356
100
AcDbEntity
  8
0
100
AcDbSpline
 62
7
  6
CONTINUOUS
 70
0
 71
3
 72
9
 73
5
 74
0
 42
0.0000001
 43
0.0000001
 44
0.0000000001
 40
0.0
 40
0.0
 40
0.0
 40
0.0
 40
0.2594906421
 40
1.0
 40
1.0
 40
1.0
 40
1.0
 10
19.0795794677
 20
-8.4664725281
 30
0.0
 10
19.084893532
 20
-8.4954386485
 30
0.0
 10
19.1030924701
 20
-8.607457351
 30
0.0
 10
19.1119570154
 20
-8.7211031524
 30
0.0
 10
19.1119570155
 20
-8.8051434085
 30
0.0
  0
SPLINE
  5
357
100
AcDbEntity
  8
0
100
AcDbSpline
 62
7
  6
CONTINUOUS
 70
0
 71
3
 72
9
 73
5
 74
0
 42
0.0000001
 43
0.0000001
 44
0.0000000001
 40
0.0
 40
0.0
 40
0.0
 40
0.0
 40
0.2403060145
 40
1.0
 40
1.0
 40
1.0
 40
1.0
 10
1.9999729107
 20
2.4631012206
 30
0.0
 10
2.0235929731
 20
2.4494632926
 30
0.0
 10
2.1204229956
 20
2.3901929253
 30
0.0
 10
2.2114237232
 20
2.3215915061
 30
0.0
 10
2.2770904982
 20
2.2657115877
 30
0.0
  0
SPLINE
  5
358
100
AcDbEntity
  8
0
100
AcDbSpline
 62
7
  6
CONTINUOUS
 70
0
 71
3
 72
11
 73
7
 74
0
 42
0.0000001
 43
0.0000001
 44
0.0000000001
 40
0.0
 40
0.0
 40
0.0
 40
0.0
 40
0.2436408454
 40
0.5000044213
 40
0.7563656951
 40
1.0
 40
1.0
 40
1.0
 40
1.0
 10
2.2770904982
 20
2.2657115877
 30
0.0
 10
2.3893738643
 20
2.17016273
 30
0.0
 10
2.6004194112
 20
1.9506809122
 30
0.0
 10
2.8604802685
 20
1.5718535359
 30
0.0
 10
3.0585223969
 20
1.157224156
 30
0.0
 10
3.14307345
 20
0.8647169537
 30
0.0
 10
3.169676891
 20
0.7197058218
 30
0.0
  0
SPLINE
  5
359
100
AcDbEntity
  8
0
100
AcDbSpline
 62
7
  6
CONTINUOUS
 70
0
 71
3
 72
9
 73
5
 74
0
 42
0.0000001
 43
0.0000001
 44
0.0000000001
 40
0.0
 40
0.0
 40
0.0
 40
0.0
 40
0.2594906421
 40
1.0
 40
1.0
 40
1.0
 40
1.0
 10
3.169676891
 20
0.7197058218
 30
0.0
 10
3.1749909553
 20
0.6907397014
 30
0.0
 10
3.1931898934
 20
0.5787209988
 30
0.0
 10
3.2020544387
 20
0.4650751974
 30
0.0
 10
3.2020544388
 20
0.3810349414
 30
0.0
  0
SPLINE
  5
35A
100
AcDbEntity
  8
0
100
AcDbSpline
 62
7
  6
CONTINUOUS
 70
0
 71
3
 72
9
 73
5
 74
0
 42
0.0000001
 43
0.0000001
 44
0.0000000001
 40
0.0
 40
0.0
 40
0.0
 40
0.0
 40
0.2403060145
 40
1.0
 40
1.0
 40
1.0
 40
1.0
 10
-13.909929666
 20
11.6492795705
 30
0.0
 10
-13.8863096036
 20
11.6356416425
 30
0.0
 10
-13.7894795811
 20
11.5763712752
 30
0.0
 10
-13.6984788535
 20
11.507769856
 30
0.0
 10
-13.6328120785
 20
11.4518899376
 30
0.0
  0
SPLINE
  5
35B
100
AcDbEntity
  8
0
100
AcDbSpline
 62
7
  6
CONTINUOUS
 70
0
 71
3
 72
11
 73
7
 74
0
 42
0.0000001
 43
0.0000001
 44
0.0000000001
 40
0.0
 40
0.0
 40
0.0
 40
0.0
 40
0.2436408454
 40
0.5000044213
 40
0.7563656951
 40
1.0
 40
1.0
 40
1.0
 40
1.0
 10
-13.6328120785
 20
11.4518899376
 30
0.0
 10
-13.5205287124
 20
11.3563410799
 30
0.0
 10
-13.3094831655
 20
11.1368592621
 30
0.0
 10
-13.0494223082
 20
10.7580318858
 30
0.0
 10
-12.8513801798
 20
10.3434025059
 30
0.0
 10
-12.7668291267
 20
10.0508953036
 30
0.0
 10
-12.7402256857
 20
9.9058841716
 30
0.0
  0
SPLINE
  5
35C
100
AcDbEntity
  8
0
100
AcDbSpline
 62
7
  6
CONTINUOUS
 70
0
 71
3
 72
9
 73
5
 74
0
 42
0.0000001
 43
0.0000001
 44
0.0000000001
 40
0.0
 40
0.0
 40
0.0
 40
0.0
 40
0.2594906421
 40
1.0
 40
1.0
 40
1.0
 40
1.0
 10
-12.7402256857
 20
9.9058841716
 30
0.0
 10
-12.7349116214
 20
9.8769180512
 30
0.0
 10
-12.7167126833
 20
9.7648993487
 30
0.0
 10
-12.707848138
 20
9.6512535473
 30
0.0
 10
-12.7078481379
 20
9.5672132913
 30
0.0
  0
SPLINE
  5
35D
100
AcDbEntity
  8
0
100
AcDbSpline
 62
7
  6
CONTINUOUS
 70
0
 71
3
 72
9
 73
5
 74
0
 42
0.0000001
 43
0.0000001
 44
0.0000000001
 40
0.0
 40
0.0
 40
0.0
 40
0.0
 40
0.5163282132
 40
1.0
 40
1.0
 40
1.0
 40
1.0
 10
18.7076793769
 20
-19.8560805364
 30
0.0
 10
18.7444297766
 20
-19.8610881253
 30
0.0
 10
18.8167272598
 20
-19.8643812138
 30
0.0
 10
18.8882105382
 20
-19.8517792539
 30
0.0
 10
18.921408607
 20
-19.8415301482
 30
0.0
  0
SPLINE
  5
35E
100
AcDbEntity
  8
0
100
AcDbSpline
 62
7
  6
CONTINUOUS
 70
0
 71
3
 72
9
 73
5
 74
0
 42
0.0000001
 43
0.0000001
 44
0.0000000001
 40
0.0
 40
0.0
 40
0.0
 40
0.0
 40
0.2434727928
 40
1.0
 40
1.0
 40
1.0
 40
1.0
 10
-23.563360236
 20
17.0030851982
 30
0.0
 10
-23.5718687487
 20
16.9951959816
 30
0.0
 10
-23.6054764478
 20
16.9613583705
 30
0.0
 10
-23.6334195895
 20
16.9220569833
 30
0.0
 10
-23.6512023581
 20
16.8906936708
 30
0.0
  0
SPLINE
  5
35F
100
AcDbEntity
  8
0
100
AcDbSpline
 62
7
  6
CONTINUOUS
 70
0
 71
3
 72
9
 73
5
 74
0
 42
0.0000001
 43
0.0000001
 44
0.0000000001
 40
0.0
 40
0.0
 40
0.0
 40
0.0
 40
0.245444348
 40
1.0
 40
1.0
 40
1.0
 40
1.0
 10
-23.6512023581
 20
16.8906936708
 30
0.0
 10
-23.6541385785
 20
16.8855150848
 30
0.0
 10
-23.6657463902
 20
16.8642161316
 30
0.0
 10
-23.675939708
 20
16.8421526156
 30
0.0
 10
-23.6828657384
 20
16.8252125903
 30
0.0
  0
SPLINE
  5
360
100
AcDbEntity
  8
0
100
AcDbSpline
 62
7
  6
CONTINUOUS
 70
0
 71
3
 72
11
 73
7
 74
0
 42
0.0000001
 43
0.0000001
 44
0.0000000001
 40
0.0
 40
0.0
 40
0.0
 40
0.0
 40
0.2177670691
 40
0.4509439475
 40
0.710195215
 40
1.0
 40
1.0
 40
1.0
 40
1.0
 10
-23.6316361354
 20
16.9755106926
 30
0.0
 10
-23.5920538168
 20
16.9983650407
 30
0.0
 10
-23.501097857
 20
17.0313994902
 30
0.0
 10
-23.3500416696
 20
17.0351792909
 30
0.0
 10
-23.1890200716
 20
16.9963427033
 30
0.0
 10
-23.0842833678
 20
16.9464758712
 30
0.0
 10
-23.0316071433
 20
16.9160612793
 30
0.0
  0
SPLINE
  5
361
100
AcDbEntity
  8
0
100
AcDbSpline
 62
7
  6
CONTINUOUS
 70
0
 71
3
 72
9
 73
5
 74
0
 42
0.0000001
 43
0.0000001
 44
0.0000000001
 40
0.0
 40
0.0
 40
0.0
 40
0.0
 40
0.2434727928
 40
1.0
 40
1.0
 40
1.0
 40
1.0
 10
-7.6534576593
 20
7.8169068483
 30
0.0
 10
-7.661966172
 20
7.8090176317
 30
0.0
 10
-7.6955738711
 20
7.7751800206
 30
0.0
 10
-7.7235170128
 20
7.7358786335
 30
0.0
 10
-7.7412997814
 20
7.704515321
 30
0.0
  0
SPLINE
  5
362
100
AcDbEntity
  8
0
100
AcDbSpline
 62
7
  6
CONTINUOUS
 70
0
 71
3
 72
9
 73
5
 74
0
 42
0.0000001
 43
0.0000001
 44
0.0000000001
 40
0.0
 40
0.0
 40
0.0
 40
0.0
 40
0.245444348
 40
1.0
 40
1.0
 40
1.0
 40
1.0
 10
-7.7412997814
 20
7.704515321
 30
0.0
 10
-7.7442360018
 20
7.699336735
 30
0.0
 10
-7.7558438135
 20
7.6780377817
 30
0.0
 10
-7.7660371313
 20
7.6559742657
 30
0.0
 10
-7.7729631617
 20
7.6390342405
 30
0.0
  0
SPLINE
  5
363
100
AcDbEntity
  8
0
100
AcDbSpline
 62
7
  6
CONTINUOUS
 70
0
 71
3
 72
11
 73
7
 74
0
 42
0.0000001
 43
0.0000001
 44
0.0000000001
 40
0.0
 40
0.0
 40
0.0
 40
0.0
 40
0.2177670691
 40
0.4509439475
 40
0.710195215
 40
1.0
 40
1.0
 40
1.0
 40
1.0
 10
-7.7217335587
 20
7.7893323427
 30
0.0
 10
-7.6821512401
 20
7.8121866909
 30
0.0
 10
-7.5911952803
 20
7.8452211403
 30
0.0
 10
-7.4401390929
 20
7.849000941
 30
0.0
 10
-7.2791174949
 20
7.8101643534
 30
0.0
 10
-7.1743807911
 20
7.7602975213
 30
0.0
 10
-7.1217045666
 20
7.7298829295
 30
0.0
  0
SPLINE
  5
364
100
AcDbEntity
  8
0
100
AcDbSpline
 62
7
  6
CONTINUOUS
 70
0
 71
3
 72
9
 73
5
 74
0
 42
0.0000001
 43
0.0000001
 44
0.0000000001
 40
0.0
 40
0.0
 40
0.0
 40
0.0
 40
0.2434727928
 40
1.0
 40
1.0
 40
1.0
 40
1.0
 10
8.2564449174
 20
-1.3692715016
 30
0.0
 10
8.2479364047
 20
-1.3771607182
 30
0.0
 10
8.2143287056
 20
-1.4109983293
 30
0.0
 10
8.1863855639
 20
-1.4502997164
 30
0.0
 10
8.1686027953
 20
-1.4816630289
 30
0.0
  0
SPLINE
  5
365
100
AcDbEntity
  8
0
100
AcDbSpline
 62
7
  6
CONTINUOUS
 70
0
 71
3
 72
9
 73
5
 74
0
 42
0.0000001
 43
0.0000001
 44
0.0000000001
 40
0.0
 40
0.0
 40
0.0
 40
0.0
 40
0.245444348
 40
1.0
 40
1.0
 40
1.0
 40
1.0
 10
8.1686027953
 20
-1.4816630289
 30
0.0
 10
8.1656665749
 20
-1.4868416149
 30
0.0
 10
8.1540587631
 20
-1.5081405681
 30
0.0
 10
8.1438654454
 20
-1.5302040842
 30
0.0
 10
8.136939415
 20
-1.5471441094
 30
0.0
  0
SPLINE
  5
366
100
AcDbEntity
  8
0
100
AcDbSpline
 62
7
  6
CONTINUOUS
 70
0
 71
3
 72
11
 73
7
 74
0
 42
0.0000001
 43
0.0000001
 44
0.0000000001
 40
0.0
 40
0.0
 40
0.0
 40
0.0
 40
0.2177670691
 40
0.4509439475
 40
0.710195215
 40
1.0
 40
1.0
 40
1.0
 40
1.0
 10
8.188169018
 20
-1.3968460072
 30
0.0
 10
8.2277513366
 20
-1.373991659
 30
0.0
 10
8.3187072964
 20
-1.3409572095
 30
0.0
 10
8.4697634838
 20
-1.3371774089
 30
0.0
 10
8.6307850818
 20
-1.3760139964
 30
0.0
 10
8.7355217856
 20
-1.4258808286
 30
0.0
 10
8.7881980101
 20
-1.4562954204
 30
0.0
  0
SPLINE
  5
367
100
AcDbEntity
  8
0
100
AcDbSpline
 62
7
  6
CONTINUOUS
 70
0
 71
3
 72
9
 73
5
 74
0
 42
0.0000001
 43
0.0000001
 44
0.0000000001
 40
0.0
 40
0.0
 40
0.0
 40
0.0
 40
0.2715340105
 40
1.0
 40
1.0
 40
1.0
 40
1.0
 10
-12.7078481379
 20
-0.9652138244
 30
0.0
 10
-12.707848138
 20
-0.9964512003
 30
0.0
 10
-12.7125857445
 20
-1.1112704781
 30
0.0
 10
-12.7378884793
 20
-1.2265077206
 30
0.0
 10
-12.7724375354
 20
-1.3028576144
 30
0.0
  0
SPLINE
  5
368
100
AcDbEntity
  8
0
100
AcDbSpline
 62
7
  6
CONTINUOUS
 70
0
 71
3
 72
9
 73
5
 74
0
 42
0.0000001
 43
0.0000001
 44
0.0000000001
 40
0.0
 40
0.0
 40
0.0
 40
0.0
 40
0.5170807976
 40
1.0
 40
1.0
 40
1.0
 40
1.0
 10
-12.7724375354
 20
-1.3028576144
 30
0.0
 10
-12.7926100529
 20
-1.3474368227
 30
0.0
 10
-12.8427311059
 20
-1.4294624398
 30
0.0
 10
-12.9167720812
 20
-1.4916478187
 30
0.0
 10
-12.9563472832
 20
-1.5144980578
 30
0.0
  0
SPLINE
  5
369
100
AcDbEntity
  8
0
100
AcDbSpline
 62
7
  6
CONTINUOUS
 70
0
 71
3
 72
9
 73
5
 74
0
 42
0.0000001
 43
0.0000001
 44
0.0000000001
 40
0.0
 40
0.0
 40
0.0
 40
0.0
 40
0.2715340105
 40
1.0
 40
1.0
 40
1.0
 40
1.0
 10
3.2020544388
 20
-10.1513921743
 30
0.0
 10
3.2020544387
 20
-10.1826295501
 30
0.0
 10
3.1973168322
 20
-10.297448828
 30
0.0
 10
3.1720140974
 20
-10.4126860704
 30
0.0
 10
3.1374650413
 20
-10.4890359643
 30
0.0
  0
SPLINE
  5
36A
100
AcDbEntity
  8
0
100
AcDbSpline
 62
7
  6
CONTINUOUS
 70
0
 71
3
 72
9
 73
5
 74
0
 42
0.0000001
 43
0.0000001
 44
0.0000000001
 40
0.0
 40
0.0
 40
0.0
 40
0.0
 40
0.5170807976
 40
1.0
 40
1.0
 40
1.0
 40
1.0
 10
3.1374650413
 20
-10.4890359643
 30
0.0
 10
3.1172925238
 20
-10.5336151726
 30
0.0
 10
3.0671714708
 20
-10.6156407896
 30
0.0
 10
2.9931304955
 20
-10.6778261686
 30
0.0
 10
2.9535552935
 20
-10.7006764077
 30
0.0
  0
SPLINE
  5
36B
100
AcDbEntity
  8
0
100
AcDbSpline
 62
7
  6
CONTINUOUS
 70
0
 71
3
 72
9
 73
5
 74
0
 42
0.0000001
 43
0.0000001
 44
0.0000000001
 40
0.0
 40
0.0
 40
0.0
 40
0.0
 40
0.2715340105
 40
1.0
 40
1.0
 40
1.0
 40
1.0
 10
19.1119570155
 20
-19.3375705242
 30
0.0
 10
19.1119570154
 20
-19.3688079
 30
0.0
 10
19.1072194089
 20
-19.4836271779
 30
0.0
 10
19.081916674
 20
-19.5988644203
 30
0.0
 10
19.047367618
 20
-19.6752143142
 30
0.0
  0
SPLINE
  5
36C
100
AcDbEntity
  8
0
100
AcDbSpline
 62
7
  6
CONTINUOUS
 70
0
 71
3
 72
9
 73
5
 74
0
 42
0.0000001
 43
0.0000001
 44
0.0000000001
 40
0.0
 40
0.0
 40
0.0
 40
0.0
 40
0.5170807976
 40
1.0
 40
1.0
 40
1.0
 40
1.0
 10
19.047367618
 20
-19.6752143142
 30
0.0
 10
19.0271951005
 20
-19.7197935225
 30
0.0
 10
18.9770740475
 20
-19.8018191395
 30
0.0
 10
18.9030330722
 20
-19.8640045184
 30
0.0
 10
18.8634578702
 20
-19.8868547575
 30
0.0
  0
SPLINE
  5
36D
100
AcDbEntity
  8
0
100
AcDbSpline
 62
7
  6
CONTINUOUS
 70
0
 71
3
 72
9
 73
5
 74
0
 42
0.0000001
 43
0.0000001
 44
0.0000000001
 40
0.0
 40
0.0
 40
0.0
 40
0.0
 40
0.2314181732
 40
1.0
 40
1.0
 40
1.0
 40
1.0
 10
-23.6828657384
 20
16.8252125903
 30
0.0
 10
-23.692306557
 20
16.8021217724
 30
0.0
 10
-23.7270295661
 20
16.6998534448
 30
0.0
 10
-23.738713924
 20
16.5907323788
 30
0.0
 10
-23.7387139244
 20
16.5078813779
 30
0.0
  0
SPLINE
  5
36E
100
AcDbEntity
  8
0
100
AcDbSpline
 62
7
  6
CONTINUOUS
 70
0
 71
3
 72
15
 73
11
 74
0
 42
0.0000001
 43
0.0000001
 44
0.0000000001
 40
0.0
 40
0.0
 40
0.0
 40
0.0
 40
0.1449018481
 40
0.2745170406
 40
0.3911053286
 40
0.4999889043
 40
0.6088744936
 40
0.7254681391
 40
0.8550905429
 40
1.0
 40
1.0
 40
1.0
 40
1.0
 10
-8.6773394852
 20
7.2400481093
 30
0.0
 10
-8.677339485
 20
7.3262116299
 30
0.0
 10
-8.6643190279
 20
7.4900201635
 30
0.0
 10
-8.5979442329
 20
7.7150262141
 30
0.0
 10
-8.4861732544
 20
7.8977356873
 30
0.0
 10
-8.3310237857
 20
8.0282150276
 30
0.0
 10
-8.1404399681
 20
8.0973179123
 30
0.0
 10
-7.9263148002
 20
8.1027408883
 30
0.0
 10
-7.698258374
 20
8.0477040268
 30
0.0
 10
-7.5498804713
 20
7.9770668756
 30
0.0
 10
-7.4752579572
 20
7.9339807712
 30
0.0
  0
SPLINE
  5
36F
100
AcDbEntity
  8
0
100
AcDbSpline
 62
7
  6
CONTINUOUS
 70
0
 71
3
 72
13
 73
9
 74
0
 42
0.0000001
 43
0.0000001
 44
0.0000000001
 40
0.0
 40
0.0
 40
0.0
 40
0.0
 40
0.1142615865
 40
0.2375404667
 40
0.5000060664
 40
0.7624683449
 40
0.8857433485
 40
1.0
 40
1.0
 40
1.0
 40
1.0
 10
-7.4752579572
 20
-5.7827198789
 30
0.0
 10
-7.5575519437
 20
-5.7352043623
 30
0.0
 10
-7.7201136955
 20
-5.6212634871
 30
0.0
 10
-8.0244184862
 20
-5.3364018418
 30
0.0
 10
-8.3458976337
 20
-4.8973245316
 30
0.0
 10
-8.565409786
 20
-4.3993797304
 30
0.0
 10
-8.6599490699
 20
-3.9934221417
 30
0.0
 10
-8.6773394851
 20
-3.7956759367
 30
0.0
 10
-8.6773394852
 20
-3.7006535997
 30
0.0
  0
SPLINE
  5
370
100
AcDbEntity
  8
0
100
AcDbSpline
 62
7
  6
CONTINUOUS
 70
0
 71
3
 72
15
 73
11
 74
0
 42
0.0000001
 43
0.0000001
 44
0.0000000001
 40
0.0
 40
0.0
 40
0.0
 40
0.0
 40
0.1449018481
 40
0.2745170406
 40
0.3911053286
 40
0.4999889043
 40
0.6088744936
 40
0.7254681391
 40
0.8550905429
 40
1.0
 40
1.0
 40
1.0
 40
1.0
 10
3.2020544388
 20
-10.5596667676
 30
0.0
 10
3.2020544386
 20
-10.6458302882
 30
0.0
 10
3.1890339815
 20
-10.8096388218
 30
0.0
 10
3.1226591865
 20
-11.0346448724
 30
0.0
 10
3.010888208
 20
-11.2173543456
 30
0.0
 10
2.8557387393
 20
-11.347833686
 30
0.0
 10
2.6651549217
 20
-11.4169365706
 30
0.0
 10
2.4510297538
 20
-11.4223595466
 30
0.0
 10
2.2229733276
 20
-11.3673226851
 30
0.0
 10
2.0745954249
 20
-11.2966855339
 30
0.0
 10
1.9999729107
 20
-11.2535994295
 30
0.0
  0
SPLINE
  5
371
100
AcDbEntity
  8
0
100
AcDbSpline
 62
7
  6
CONTINUOUS
 70
0
 71
3
 72
15
 73
11
 74
0
 42
0.0000001
 43
0.0000001
 44
0.0000000001
 40
0.0
 40
0.0
 40
0.0
 40
0.0
 40
0.1449018481
 40
0.2745170406
 40
0.3911053286
 40
0.4999889043
 40
0.6088744936
 40
0.7254681391
 40
0.8550905429
 40
1.0
 40
1.0
 40
1.0
 40
1.0
 10
-24.5872420619
 20
16.4262264592
 30
0.0
 10
-24.5872420617
 20
16.5123899798
 30
0.0
 10
-24.5742216046
 20
16.6761985133
 30
0.0
 10
-24.5078468096
 20
16.901204564
 30
0.0
 10
-24.3960758311
 20
17.0839140372
 30
0.0
 10
-24.2409263624
 20
17.2143933775
 30
0.0
 10
-24.0503425448
 20
17.2834962622
 30
0.0
 10
-23.8362173769
 20
17.2889192381
 30
0.0
 10
-23.6081609507
 20
17.2338823766
 30
0.0
 10
-23.459783048
 20
17.1632452255
 30
0.0
 10
-23.3851605339
 20
17.1201591211
 30
0.0
  0
SPLINE
  5
372
100
AcDbEntity
  8
0
100
AcDbSpline
 62
7
  6
CONTINUOUS
 70
0
 71
3
 72
13
 73
9
 74
0
 42
0.0000001
 43
0.0000001
 44
0.0000000001
 40
0.0
 40
0.0
 40
0.0
 40
0.0
 40
0.1142615865
 40
0.2375404667
 40
0.5000060664
 40
0.7624683449
 40
0.8857433485
 40
1.0
 40
1.0
 40
1.0
 40
1.0
 10
-23.3851605339
 20
3.403458471
 30
0.0
 10
-23.4674545204
 20
3.4509739876
 30
0.0
 10
-23.6300162722
 20
3.5649148628
 30
0.0
 10
-23.9343210629
 20
3.8497765081
 30
0.0
 10
-24.2558002104
 20
4.2888538183
 30
0.0
 10
-24.4753123627
 20
4.7867986195
 30
0.0
 10
-24.5698516466
 20
5.1927562081
 30
0.0
 10
-24.5872420618
 20
5.3905024132
 30
0.0
 10
-24.5872420619
 20
5.4855247502
 30
0.0
  0
SPLINE
  5
373
100
AcDbEntity
  8
0
100
AcDbSpline
 62
7
  6
CONTINUOUS
 70
0
 71
3
 72
15
 73
11
 74
0
 42
0.0000001
 43
0.0000001
 44
0.0000000001
 40
0.0
 40
0.0
 40
0.0
 40
0.0
 40
0.1449018481
 40
0.2745170406
 40
0.3911053286
 40
0.4999889043
 40
0.6088744936
 40
0.7254681391
 40
0.8550905429
 40
1.0
 40
1.0
 40
1.0
 40
1.0
 10
-12.7078481379
 20
-1.3734884177
 30
0.0
 10
-12.7078481381
 20
-1.4596519383
 30
0.0
 10
-12.7208685952
 20
-1.6234604719
 30
0.0
 10
-12.7872433902
 20
-1.8484665226
 30
0.0
 10
-12.8990143687
 20
-2.0311759957
 30
0.0
 10
-13.0541638374
 20
-2.1616553361
 30
0.0
 10
-13.244747655
 20
-2.2307582207
 30
0.0
 10
-13.4588728229
 20
-2.2361811967
 30
0.0
 10
-13.6869292491
 20
-2.1811443352
 30
0.0
 10
-13.8353071518
 20
-2.110507184
 30
0.0
 10
-13.909929666
 20
-2.0674210796
 30
0.0
  0
SPLINE
  5
374
100
AcDbEntity
  8
0
100
AcDbSpline
 62
7
  6
CONTINUOUS
 70
0
 71
3
 72
9
 73
5
 74
0
 42
0.0000001
 43
0.0000001
 44
0.0000000001
 40
0.0
 40
0.0
 40
0.0
 40
0.0
 40
0.2314181732
 40
1.0
 40
1.0
 40
1.0
 40
1.0
 10
-7.7729631617
 20
7.6390342405
 30
0.0
 10
-7.7824039803
 20
7.6159434226
 30
0.0
 10
-7.8171269894
 20
7.513675095
 30
0.0
 10
-7.8288113473
 20
7.404554029
 30
0.0
 10
-7.8288113477
 20
7.321703028
 30
0.0
  0
SPLINE
  5
375
100
AcDbEntity
  8
0
100
AcDbSpline
 62
7
  6
CONTINUOUS
 70
0
 71
3
 72
9
 73
5
 74
0
 42
0.0000001
 43
0.0000001
 44
0.0000000001
 40
0.0
 40
0.0
 40
0.0
 40
0.0
 40
0.2314181732
 40
1.0
 40
1.0
 40
1.0
 40
1.0
 10
8.136939415
 20
-1.5471441094
 30
0.0
 10
8.1274985964
 20
-1.5702349273
 30
0.0
 10
8.0927755873
 20
-1.6725032549
 30
0.0
 10
8.0810912294
 20
-1.7816243209
 30
0.0
 10
8.081091229
 20
-1.8644753219
 30
0.0
  0
SPLINE
  5
376
100
AcDbEntity
  8
0
100
AcDbSpline
 62
7
  6
CONTINUOUS
 70
0
 71
3
 72
11
 73
7
 74
0
 42
0.0000001
 43
0.0000001
 44
0.0000000001
 40
0.0
 40
0.0
 40
0.0
 40
0.0
 40
0.2191404659
 40
0.4557642665
 40
0.7154223701
 40
1.0
 40
1.0
 40
1.0
 40
1.0
 10
-13.0398178616
 20
-1.5508283544
 30
0.0
 10
-13.0774578271
 20
-1.5624487932
 30
0.0
 10
-13.1594714704
 20
-1.5754718466
 30
0.0
 10
-13.2885857483
 20
-1.564219403
 30
0.0
 10
-13.4238685195
 20
-1.5239474534
 30
0.0
 10
-13.5120746244
 20
-1.4806278626
 30
0.0
 10
-13.5563762754
 20
-1.4550486446
 30
0.0
  0
SPLINE
  5
377
100
AcDbEntity
  8
0
100
AcDbSpline
 62
7
  6
CONTINUOUS
 70
0
 71
3
 72
15
 73
11
 74
0
 42
0.0000001
 43
0.0000001
 44
0.0000000001
 40
0.0
 40
0.0
 40
0.0
 40
0.0
 40
0.1449018481
 40
0.2745170406
 40
0.3911053286
 40
0.4999889043
 40
0.6088744936
 40
0.7254681391
 40
0.8550905429
 40
1.0
 40
1.0
 40
1.0
 40
1.0
 10
7.2325630915
 20
-1.9461302406
 30
0.0
 10
7.2325630917
 20
-1.85996672
 30
0.0
 10
7.2455835488
 20
-1.6961581864
 30
0.0
 10
7.3119583438
 20
-1.4711521357
 30
0.0
 10
7.4237293223
 20
-1.2884426626
 30
0.0
 10
7.578878791
 20
-1.1579633222
 30
0.0
 10
7.7694626086
 20
-1.0888604376
 30
0.0
 10
7.9835877765
 20
-1.0834374616
 30
0.0
 10
8.2116442027
 20
-1.1384743231
 30
0.0
 10
8.3600221054
 20
-1.2091114743
 30
0.0
 10
8.4346446195
 20
-1.2521975787
 30
0.0
  0
SPLINE
  5
378
100
AcDbEntity
  8
0
100
AcDbSpline
 62
7
  6
CONTINUOUS
 70
0
 71
3
 72
11
 73
7
 74
0
 42
0.0000001
 43
0.0000001
 44
0.0000000001
 40
0.0
 40
0.0
 40
0.0
 40
0.0
 40
0.2191404659
 40
0.4557642665
 40
0.7154223701
 40
1.0
 40
1.0
 40
1.0
 40
1.0
 10
2.8700847151
 20
-10.7370067043
 30
0.0
 10
2.8324447496
 20
-10.7486271431
 30
0.0
 10
2.7504311063
 20
-10.7616501965
 30
0.0
 10
2.6213168284
 20
-10.7503977529
 30
0.0
 10
2.4860340572
 20
-10.7101258033
 30
0.0
 10
2.3978279523
 20
-10.6668062125
 30
0.0
 10
2.3535263013
 20
-10.6412269944
 30
0.0
  0
SPLINE
  5
379
100
AcDbEntity
  8
0
100
AcDbSpline
 62
7
  6
CONTINUOUS
 70
0
 71
3
 72
9
 73
5
 74
0
 42
0.0000001
 43
0.0000001
 44
0.0000000001
 40
0.0
 40
0.0
 40
0.0
 40
0.0
 40
0.2698109577
 40
1.0
 40
1.0
 40
1.0
 40
1.0
 10
-13.4149549191
 20
-1.3733937259
 30
0.0
 10
-13.3897689701
 20
-1.3879357772
 30
0.0
 10
-13.2944925888
 20
-1.4381609772
 30
0.0
 10
-13.1901116046
 20
-1.4730975314
 30
0.0
 10
-13.1121257764
 20
-1.4837238367
 30
0.0
  0
SPLINE
  5
37A
100
AcDbEntity
  8
0
100
AcDbSpline
 62
7
  6
CONTINUOUS
 70
0
 71
3
 72
11
 73
7
 74
0
 42
0.0000001
 43
0.0000001
 44
0.0000000001
 40
0.0
 40
0.0
 40
0.0
 40
0.0
 40
0.2372223749
 40
0.5000061065
 40
0.762786514
 40
1.0
 40
1.0
 40
1.0
 40
1.0
 10
-23.0316071433
 20
4.015830906
 30
0.0
 10
-23.1520630796
 20
4.0853806536
 30
0.0
 10
-23.3800340505
 20
4.2772454134
 30
0.0
 10
-23.6461145374
 20
4.6408515949
 30
0.0
 10
-23.8279650178
 20
5.053082069
 30
0.0
 10
-23.8801352807
 20
5.3464371873
 30
0.0
 10
-23.8801352807
 20
5.4855247502
 30
0.0
  0
SPLINE
  5
37B
100
AcDbEntity
  8
0
100
AcDbSpline
 62
7
  6
CONTINUOUS
 70
0
 71
3
 72
11
 73
7
 74
0
 42
0.0000001
 43
0.0000001
 44
0.0000000001
 40
0.0
 40
0.0
 40
0.0
 40
0.0
 40
0.2372134857
 40
0.4999938933
 40
0.7627776251
 40
1.0
 40
1.0
 40
1.0
 40
1.0
 10
-23.7387139244
 20
5.5671796688
 30
0.0
 10
-23.7387139242
 20
5.4280921062
 30
0.0
 10
-23.6865436618
 20
5.1347369879
 30
0.0
 10
-23.5046931812
 20
4.7225065139
 30
0.0
 10
-23.2386126946
 20
4.3589003317
 30
0.0
 10
-23.0106417228
 20
4.1670355732
 30
0.0
 10
-22.890185787
 20
4.0974858247
 30
0.0
  0
SPLINE
  5
37C
100
AcDbEntity
  8
0
100
AcDbSpline
 62
7
  6
CONTINUOUS
 70
0
 71
3
 72
11
 73
7
 74
0
 42
0.0000001
 43
0.0000001
 44
0.0000000001
 40
0.0
 40
0.0
 40
0.0
 40
0.0
 40
0.2845769506
 40
0.5442334504
 40
0.7808566869
 40
1.0
 40
1.0
 40
1.0
 40
1.0
 10
-23.8801352807
 20
16.4262264592
 30
0.0
 10
-23.8801352808
 20
16.4773797431
 30
0.0
 10
-23.8735451059
 20
16.5754228177
 30
0.0
 10
-23.840774767
 20
16.7127081936
 30
0.0
 10
-23.7859562457
 20
16.8301409682
 30
0.0
 10
-23.7336669506
 20
16.8946473516
 30
0.0
 10
-23.704781615
 20
16.9214302585
 30
0.0
  0
SPLINE
  5
37D
100
AcDbEntity
  8
0
100
AcDbSpline
 62
7
  6
CONTINUOUS
 70
0
 71
3
 72
13
 73
9
 74
0
 42
0.0000001
 43
0.0000001
 44
0.0000000001
 40
0.0
 40
0.0
 40
0.0
 40
0.0
 40
0.1142615865
 40
0.2375404667
 40
0.5000060664
 40
0.7624683449
 40
0.8857433485
 40
1.0
 40
1.0
 40
1.0
 40
1.0
 10
8.4346446195
 20
-14.9688982288
 30
0.0
 10
8.352350633
 20
-14.9213827121
 30
0.0
 10
8.1897888812
 20
-14.807441837
 30
0.0
 10
7.8854840905
 20
-14.5225801916
 30
0.0
 10
7.564004943
 20
-14.0835028815
 30
0.0
 10
7.3444927907
 20
-13.5855580803
 30
0.0
 10
7.2499535068
 20
-13.1796004916
 30
0.0
 10
7.2325630916
 20
-12.9818542866
 30
0.0
 10
7.2325630915
 20
-12.8868319496
 30
0.0
  0
SPLINE
  5
37E
100
AcDbEntity
  8
0
100
AcDbSpline
 62
7
  6
CONTINUOUS
 70
0
 71
3
 72
9
 73
5
 74
0
 42
0.0000001
 43
0.0000001
 44
0.0000000001
 40
0.0
 40
0.0
 40
0.0
 40
0.0
 40
0.2698109577
 40
1.0
 40
1.0
 40
1.0
 40
1.0
 10
2.4949476576
 20
-10.5595720758
 30
0.0
 10
2.5201336066
 20
-10.574114127
 30
0.0
 10
2.6154099879
 20
-10.6243393271
 30
0.0
 10
2.7197909721
 20
-10.6592758813
 30
0.0
 10
2.7977768003
 20
-10.6699021865
 30
0.0
  0
SPLINE
  5
37F
100
AcDbEntity
  8
0
100
AcDbSpline
 62
7
  6
CONTINUOUS
 70
0
 71
3
 72
11
 73
7
 74
0
 42
0.0000001
 43
0.0000001
 44
0.0000000001
 40
0.0
 40
0.0
 40
0.0
 40
0.0
 40
0.2372223749
 40
0.5000061065
 40
0.762786514
 40
1.0
 40
1.0
 40
1.0
 40
1.0
 10
-7.1217045666
 20
-5.1703474439
 30
0.0
 10
-7.2421605029
 20
-5.1007976962
 30
0.0
 10
-7.4701314738
 20
-4.9089329365
 30
0.0
 10
-7.7362119607
 20
-4.545326755
 30
0.0
 10
-7.9180624411
 20
-4.1330962809
 30
0.0
 10
-7.970232704
 20
-3.8397411626
 30
0.0
 10
-7.970232704
 20
-3.7006535997
 30
0.0
  0
SPLINE
  5
380
100
AcDbEntity
  8
0
100
AcDbSpline
 62
7
  6
CONTINUOUS
 70
0
 71
3
 72
11
 73
7
 74
0
 42
0.0000001
 43
0.0000001
 44
0.0000000001
 40
0.0
 40
0.0
 40
0.0
 40
0.0
 40
0.2372134857
 40
0.4999938933
 40
0.7627776251
 40
1.0
 40
1.0
 40
1.0
 40
1.0
 10
-7.8288113477
 20
-3.618998681
 30
0.0
 10
-7.8288113475
 20
-3.7580862437
 30
0.0
 10
-7.7766410851
 20
-4.051441362
 30
0.0
 10
-7.5947906045
 20
-4.4636718359
 30
0.0
 10
-7.3287101179
 20
-4.8272780182
 30
0.0
 10
-7.1007391461
 20
-5.0191427766
 30
0.0
 10
-6.9802832103
 20
-5.0886925252
 30
0.0
  0
SPLINE
  5
381
100
AcDbEntity
  8
0
100
AcDbSpline
 62
7
  6
CONTINUOUS
 70
0
 71
3
 72
11
 73
7
 74
0
 42
0.0000001
 43
0.0000001
 44
0.0000000001
 40
0.0
 40
0.0
 40
0.0
 40
0.0
 40
0.2845769506
 40
0.5442334504
 40
0.7808566869
 40
1.0
 40
1.0
 40
1.0
 40
1.0
 10
-7.970232704
 20
7.2400481093
 30
0.0
 10
-7.9702327041
 20
7.2912013932
 30
0.0
 10
-7.9636425292
 20
7.3892444679
 30
0.0
 10
-7.9308721903
 20
7.5265298437
 30
0.0
 10
-7.876053669
 20
7.6439626183
 30
0.0
 10
-7.8237643739
 20
7.7084690017
 30
0.0
 10
-7.7948790383
 20
7.7352519086
 30
0.0
  0
SPLINE
  5
382
100
AcDbEntity
  8
0
100
AcDbSpline
 62
7
  6
CONTINUOUS
 70
0
 71
3
 72
11
 73
7
 74
0
 42
0.0000001
 43
0.0000001
 44
0.0000000001
 40
0.0
 40
0.0
 40
0.0
 40
0.0
 40
0.2191404659
 40
0.4557642665
 40
0.7154223701
 40
1.0
 40
1.0
 40
1.0
 40
1.0
 10
18.7799872918
 20
-19.9231850542
 30
0.0
 10
18.7423473263
 20
-19.934805493
 30
0.0
 10
18.660333683
 20
-19.9478285464
 30
0.0
 10
18.5312194051
 20
-19.9365761028
 30
0.0
 10
18.3959366339
 20
-19.8963041532
 30
0.0
 10
18.307730529
 20
-19.8529845624
 30
0.0
 10
18.263428878
 20
-19.8274053443
 30
0.0
  0
SPLINE
  5
383
100
AcDbEntity
  8
0
100
AcDbSpline
 62
7
  6
CONTINUOUS
 70
0
 71
3
 72
15
 73
11
 74
0
 42
0.0000001
 43
0.0000001
 44
0.0000000001
 40
0.0
 40
0.0
 40
0.0
 40
0.0
 40
0.1449018481
 40
0.2745170406
 40
0.3911053286
 40
0.4999889043
 40
0.6088744936
 40
0.7254681391
 40
0.8550905429
 40
1.0
 40
1.0
 40
1.0
 40
1.0
 10
19.1119570155
 20
-19.7458451175
 30
0.0
 10
19.1119570153
 20
-19.8320086381
 30
0.0
 10
19.0989365582
 20
-19.9958171716
 30
0.0
 10
19.0325617632
 20
-20.2208232223
 30
0.0
 10
18.9207907847
 20
-20.4035326955
 30
0.0
 10
18.765641316
 20
-20.5340120358
 30
0.0
 10
18.5750574984
 20
-20.6031149205
 30
0.0
 10
18.3609323305
 20
-20.6085378964
 30
0.0
 10
18.1328759043
 20
-20.5535010349
 30
0.0
 10
17.9844980016
 20
-20.4828638838
 30
0.0
 10
17.9098754874
 20
-20.4397777794
 30
0.0
  0
SPLINE
  5
384
100
AcDbEntity
  8
0
100
AcDbSpline
 62
7
  6
CONTINUOUS
 70
0
 71
3
 72
9
 73
5
 74
0
 42
0.0000001
 43
0.0000001
 44
0.0000000001
 40
0.0
 40
0.0
 40
0.0
 40
0.0
 40
0.2698109577
 40
1.0
 40
1.0
 40
1.0
 40
1.0
 10
18.4048502343
 20
-19.7457504257
 30
0.0
 10
18.4300361833
 20
-19.7602924769
 30
0.0
 10
18.5253125646
 20
-19.810517677
 30
0.0
 10
18.6296935488
 20
-19.8454542312
 30
0.0
 10
18.7076793769
 20
-19.8560805364
 30
0.0
  0
SPLINE
  5
385
100
AcDbEntity
  8
0
100
AcDbSpline
 62
7
  6
CONTINUOUS
 70
0
 71
3
 72
11
 73
7
 74
0
 42
0.0000001
 43
0.0000001
 44
0.0000000001
 40
0.0
 40
0.0
 40
0.0
 40
0.0
 40
0.2372223749
 40
0.5000061065
 40
0.762786514
 40
1.0
 40
1.0
 40
1.0
 40
1.0
 10
8.7881980101
 20
-14.3565257937
 30
0.0
 10
8.6677420738
 20
-14.2869760461
 30
0.0
 10
8.4397711029
 20
-14.0951112863
 30
0.0
 10
8.173690616
 20
-13.7315051048
 30
0.0
 10
7.9918401356
 20
-13.3192746308
 30
0.0
 10
7.9396698727
 20
-13.0259195124
 30
0.0
 10
7.9396698727
 20
-12.8868319496
 30
0.0
  0
SPLINE
  5
386
100
AcDbEntity
  8
0
100
AcDbSpline
 62
7
  6
CONTINUOUS
 70
0
 71
3
 72
11
 73
7
 74
0
 42
0.0000001
 43
0.0000001
 44
0.0000000001
 40
0.0
 40
0.0
 40
0.0
 40
0.0
 40
0.2372134857
 40
0.4999938933
 40
0.7627776251
 40
1.0
 40
1.0
 40
1.0
 40
1.0
 10
8.081091229
 20
-12.8051770309
 30
0.0
 10
8.0810912292
 20
-12.9442645936
 30
0.0
 10
8.1332614916
 20
-13.2376197119
 30
0.0
 10
8.3151119722
 20
-13.6498501858
 30
0.0
 10
8.5811924588
 20
-14.0134563681
 30
0.0
 10
8.8091634306
 20
-14.2053211265
 30
0.0
 10
8.9296193664
 20
-14.2748708751
 30
0.0
  0
SPLINE
  5
387
100
AcDbEntity
  8
0
100
AcDbSpline
 62
7
  6
CONTINUOUS
 70
0
 71
3
 72
11
 73
7
 74
0
 42
0.0000001
 43
0.0000001
 44
0.0000000001
 40
0.0
 40
0.0
 40
0.0
 40
0.0
 40
0.2845769506
 40
0.5442334504
 40
0.7808566869
 40
1.0
 40
1.0
 40
1.0
 40
1.0
 10
7.9396698727
 20
-1.9461302406
 30
0.0
 10
7.9396698726
 20
-1.8949769566
 30
0.0
 10
7.9462600475
 20
-1.796933882
 30
0.0
 10
7.9790303864
 20
-1.6596485062
 30
0.0
 10
8.0338489077
 20
-1.5422157316
 30
0.0
 10
8.0861382028
 20
-1.4777093482
 30
0.0
 10
8.1150235384
 20
-1.4509264413
 30
0.0
  0
SPLINE
  5
388
100
AcDbEntity
  8
ASSI
100
AcDbSpline
 62
7
  6
CONTINUOUS
 70
0
 71
3
 72
9
 73
5
 74
0
 42
0.0000001
 43
0.0000001
 44
0.0000000001
 40
0.0
 40
0.0
 40
0.0
 40
0.0
 40
0.2403060145
 40
1.0
 40
1.0
 40
1.0
 40
1.0
 10
17.9098754874
 20
-6.7230771293
 30
0.0
 10
17.9334955498
 20
-6.7367150573
 30
0.0
 10
18.0303255723
 20
-6.7959854245
 30
0.0
 10
18.1213262999
 20
-6.8645868437
 30
0.0
 10
18.1869930749
 20
-6.9204667622
 30
0.0
  0
SPLINE
  5
389
100
AcDbEntity
  8
ASSI
100
AcDbSpline
 62
7
  6
CONTINUOUS
 70
0
 71
3
 72
11
 73
7
 74
0
 42
0.0000001
 43
0.0000001
 44
0.0000000001
 40
0.0
 40
0.0
 40
0.0
 40
0.0
 40
0.2436408454
 40
0.5000044213
 40
0.7563656951
 40
1.0
 40
1.0
 40
1.0
 40
1.0
 10
18.1869930749
 20
-6.9204667622
 30
0.0
 10
18.299276441
 20
-7.0160156199
 30
0.0
 10
18.5103219879
 20
-7.2354974377
 30
0.0
 10
18.7703828452
 20
-7.6143248139
 30
0.0
 10
18.9684249736
 20
-8.0289541938
 30
0.0
 10
19.0529760267
 20
-8.3214613962
 30
0.0
 10
19.0795794677
 20
-8.4664725281
 30
0.0
  0
SPLINE
  5
38A
100
AcDbEntity
  8
ASSI
100
AcDbSpline
 62
7
  6
CONTINUOUS
 70
0
 71
3
 72
9
 73
5
 74
0
 42
0.0000001
 43
0.0000001
 44
0.0000000001
 40
0.0
 40
0.0
 40
0.0
 40
0.0
 40
0.2594906421
 40
1.0
 40
1.0
 40
1.0
 40
1.0
 10
19.0795794677
 20
-8.4664725281
 30
0.0
 10
19.084893532
 20
-8.4954386485
 30
0.0
 10
19.1030924701
 20
-8.607457351
 30
0.0
 10
19.1119570154
 20
-8.7211031524
 30
0.0
 10
19.1119570155
 20
-8.8051434085
 30
0.0
  0
SPLINE
  5
38B
100
AcDbEntity
  8
ASSI
100
AcDbSpline
 62
7
  6
CONTINUOUS
 70
0
 71
3
 72
9
 73
5
 74
0
 42
0.0000001
 43
0.0000001
 44
0.0000000001
 40
0.0
 40
0.0
 40
0.0
 40
0.0
 40
0.2403060145
 40
1.0
 40
1.0
 40
1.0
 40
1.0
 10
1.9999729107
 20
2.4631012206
 30
0.0
 10
2.0235929731
 20
2.4494632926
 30
0.0
 10
2.1204229956
 20
2.3901929253
 30
0.0
 10
2.2114237232
 20
2.3215915061
 30
0.0
 10
2.2770904982
 20
2.2657115877
 30
0.0
  0
SPLINE
  5
38C
100
AcDbEntity
  8
ASSI
100
AcDbSpline
 62
7
  6
CONTINUOUS
 70
0
 71
3
 72
11
 73
7
 74
0
 42
0.0000001
 43
0.0000001
 44
0.0000000001
 40
0.0
 40
0.0
 40
0.0
 40
0.0
 40
0.2436408454
 40
0.5000044213
 40
0.7563656951
 40
1.0
 40
1.0
 40
1.0
 40
1.0
 10
2.2770904982
 20
2.2657115877
 30
0.0
 10
2.3893738643
 20
2.17016273
 30
0.0
 10
2.6004194112
 20
1.9506809122
 30
0.0
 10
2.8604802685
 20
1.5718535359
 30
0.0
 10
3.0585223969
 20
1.157224156
 30
0.0
 10
3.14307345
 20
0.8647169537
 30
0.0
 10
3.169676891
 20
0.7197058218
 30
0.0
  0
SPLINE
  5
38D
100
AcDbEntity
  8
ASSI
100
AcDbSpline
 62
7
  6
CONTINUOUS
 70
0
 71
3
 72
9
 73
5
 74
0
 42
0.0000001
 43
0.0000001
 44
0.0000000001
 40
0.0
 40
0.0
 40
0.0
 40
0.0
 40
0.2594906421
 40
1.0
 40
1.0
 40
1.0
 40
1.0
 10
3.169676891
 20
0.7197058218
 30
0.0
 10
3.1749909553
 20
0.6907397014
 30
0.0
 10
3.1931898934
 20
0.5787209988
 30
0.0
 10
3.2020544387
 20
0.4650751974
 30
0.0
 10
3.2020544388
 20
0.3810349414
 30
0.0
  0
SPLINE
  5
38E
100
AcDbEntity
  8
ASSI
100
AcDbSpline
 62
7
  6
CONTINUOUS
 70
0
 71
3
 72
9
 73
5
 74
0
 42
0.0000001
 43
0.0000001
 44
0.0000000001
 40
0.0
 40
0.0
 40
0.0
 40
0.0
 40
0.2403060145
 40
1.0
 40
1.0
 40
1.0
 40
1.0
 10
-13.909929666
 20
11.6492795705
 30
0.0
 10
-13.8863096036
 20
11.6356416425
 30
0.0
 10
-13.7894795811
 20
11.5763712752
 30
0.0
 10
-13.6984788535
 20
11.507769856
 30
0.0
 10
-13.6328120785
 20
11.4518899376
 30
0.0
  0
SPLINE
  5
38F
100
AcDbEntity
  8
ASSI
100
AcDbSpline
 62
7
  6
CONTINUOUS
 70
0
 71
3
 72
11
 73
7
 74
0
 42
0.0000001
 43
0.0000001
 44
0.0000000001
 40
0.0
 40
0.0
 40
0.0
 40
0.0
 40
0.2436408454
 40
0.5000044213
 40
0.7563656951
 40
1.0
 40
1.0
 40
1.0
 40
1.0
 10
-13.6328120785
 20
11.4518899376
 30
0.0
 10
-13.5205287124
 20
11.3563410799
 30
0.0
 10
-13.3094831655
 20
11.1368592621
 30
0.0
 10
-13.0494223082
 20
10.7580318858
 30
0.0
 10
-12.8513801798
 20
10.3434025059
 30
0.0
 10
-12.7668291267
 20
10.0508953036
 30
0.0
 10
-12.7402256857
 20
9.9058841716
 30
0.0
  0
SPLINE
  5
390
100
AcDbEntity
  8
ASSI
100
AcDbSpline
 62
7
  6
CONTINUOUS
 70
0
 71
3
 72
9
 73
5
 74
0
 42
0.0000001
 43
0.0000001
 44
0.0000000001
 40
0.0
 40
0.0
 40
0.0
 40
0.0
 40
0.2594906421
 40
1.0
 40
1.0
 40
1.0
 40
1.0
 10
-12.7402256857
 20
9.9058841716
 30
0.0
 10
-12.7349116214
 20
9.8769180512
 30
0.0
 10
-12.7167126833
 20
9.7648993487
 30
0.0
 10
-12.707848138
 20
9.6512535473
 30
0.0
 10
-12.7078481379
 20
9.5672132913
 30
0.0
  0
SPLINE
  5
391
100
AcDbEntity
  8
ASSI
100
AcDbSpline
 62
7
  6
CONTINUOUS
 70
0
 71
3
 72
11
 73
7
 74
0
 42
0.0000001
 43
0.0000001
 44
0.0000000001
 40
0.0
 40
0.0
 40
0.0
 40
0.0
 40
0.2177670691
 40
0.4509439475
 40
0.710195215
 40
1.0
 40
1.0
 40
1.0
 40
1.0
 10
-23.6316361354
 20
16.9755106926
 30
0.0
 10
-23.5920538168
 20
16.9983650407
 30
0.0
 10
-23.501097857
 20
17.0313994902
 30
0.0
 10
-23.3500416696
 20
17.0351792909
 30
0.0
 10
-23.1890200716
 20
16.9963427033
 30
0.0
 10
-23.0842833678
 20
16.9464758712
 30
0.0
 10
-23.0316071433
 20
16.9160612793
 30
0.0
  0
SPLINE
  5
392
100
AcDbEntity
  8
ASSI
100
AcDbSpline
 62
7
  6
CONTINUOUS
 70
0
 71
3
 72
11
 73
7
 74
0
 42
0.0000001
 43
0.0000001
 44
0.0000000001
 40
0.0
 40
0.0
 40
0.0
 40
0.0
 40
0.2177670691
 40
0.4509439475
 40
0.710195215
 40
1.0
 40
1.0
 40
1.0
 40
1.0
 10
-7.7217335587
 20
7.7893323427
 30
0.0
 10
-7.6821512401
 20
7.8121866909
 30
0.0
 10
-7.5911952803
 20
7.8452211403
 30
0.0
 10
-7.4401390929
 20
7.849000941
 30
0.0
 10
-7.2791174949
 20
7.8101643534
 30
0.0
 10
-7.1743807911
 20
7.7602975213
 30
0.0
 10
-7.1217045666
 20
7.7298829295
 30
0.0
  0
SPLINE
  5
393
100
AcDbEntity
  8
ASSI
100
AcDbSpline
 62
7
  6
CONTINUOUS
 70
0
 71
3
 72
11
 73
7
 74
0
 42
0.0000001
 43
0.0000001
 44
0.0000000001
 40
0.0
 40
0.0
 40
0.0
 40
0.0
 40
0.2177670691
 40
0.4509439475
 40
0.710195215
 40
1.0
 40
1.0
 40
1.0
 40
1.0
 10
8.188169018
 20
-1.3968460072
 30
0.0
 10
8.2277513366
 20
-1.373991659
 30
0.0
 10
8.3187072964
 20
-1.3409572095
 30
0.0
 10
8.4697634838
 20
-1.3371774089
 30
0.0
 10
8.6307850818
 20
-1.3760139964
 30
0.0
 10
8.7355217856
 20
-1.4258808286
 30
0.0
 10
8.7881980101
 20
-1.4562954204
 30
0.0
  0
SPLINE
  5
394
100
AcDbEntity
  8
ASSI
100
AcDbSpline
 62
7
  6
CONTINUOUS
 70
0
 71
3
 72
9
 73
5
 74
0
 42
0.0000001
 43
0.0000001
 44
0.0000000001
 40
0.0
 40
0.0
 40
0.0
 40
0.0
 40
0.2715340105
 40
1.0
 40
1.0
 40
1.0
 40
1.0
 10
-12.7078481379
 20
-0.9652138244
 30
0.0
 10
-12.707848138
 20
-0.9964512003
 30
0.0
 10
-12.7125857445
 20
-1.1112704781
 30
0.0
 10
-12.7378884793
 20
-1.2265077206
 30
0.0
 10
-12.7724375354
 20
-1.3028576144
 30
0.0
  0
SPLINE
  5
395
100
AcDbEntity
  8
ASSI
100
AcDbSpline
 62
7
  6
CONTINUOUS
 70
0
 71
3
 72
9
 73
5
 74
0
 42
0.0000001
 43
0.0000001
 44
0.0000000001
 40
0.0
 40
0.0
 40
0.0
 40
0.0
 40
0.5170807976
 40
1.0
 40
1.0
 40
1.0
 40
1.0
 10
-12.7724375354
 20
-1.3028576144
 30
0.0
 10
-12.7926100529
 20
-1.3474368227
 30
0.0
 10
-12.8427311059
 20
-1.4294624398
 30
0.0
 10
-12.9167720812
 20
-1.4916478187
 30
0.0
 10
-12.9563472832
 20
-1.5144980578
 30
0.0
  0
SPLINE
  5
396
100
AcDbEntity
  8
ASSI
100
AcDbSpline
 62
7
  6
CONTINUOUS
 70
0
 71
3
 72
11
 73
7
 74
0
 42
0.0000001
 43
0.0000001
 44
0.0000000001
 40
0.0
 40
0.0
 40
0.0
 40
0.0
 40
0.2372134916
 40
0.4999938932
 40
0.7627776188
 40
1.0
 40
1.0
 40
1.0
 40
1.0
 10
-22.890185787
 20
6.0571091808
 30
0.0
 10
-22.890185787
 20
5.9180216147
 30
0.0
 10
-22.8380155232
 20
5.6246664965
 30
0.0
 10
-22.6561650433
 20
5.2124360266
 30
0.0
 10
-22.3900845597
 20
4.8488298469
 30
0.0
 10
-22.162113589
 20
4.6569650864
 30
0.0
 10
-22.0416576496
 20
4.5874153367
 30
0.0
  0
SPLINE
  5
397
100
AcDbEntity
  8
ASSI
100
AcDbSpline
 62
7
  6
CONTINUOUS
 70
0
 71
3
 72
11
 73
7
 74
0
 42
0.0000001
 43
0.0000001
 44
0.0000000001
 40
0.0
 40
0.0
 40
0.0
 40
0.0
 40
0.2372134916
 40
0.4999938932
 40
0.7627776188
 40
1.0
 40
1.0
 40
1.0
 40
1.0
 10
8.9296193664
 20
-12.3152475189
 30
0.0
 10
8.9296193664
 20
-12.454335085
 30
0.0
 10
8.9817896302
 20
-12.7476902033
 30
0.0
 10
9.1636401101
 20
-13.1599206732
 30
0.0
 10
9.4297205937
 20
-13.5235268528
 30
0.0
 10
9.6576915644
 20
-13.7153916133
 30
0.0
 10
9.7781475038
 20
-13.7849413631
 30
0.0
  0
SPLINE
  5
398
100
AcDbEntity
  8
ASSI
100
AcDbSpline
 62
7
  6
CONTINUOUS
 70
0
 71
3
 72
9
 73
5
 74
0
 42
0.0000001
 43
0.0000001
 44
0.0000000001
 40
0.0
 40
0.0
 40
0.0
 40
0.0
 40
0.2715340105
 40
1.0
 40
1.0
 40
1.0
 40
1.0
 10
19.1119570155
 20
-19.3375705242
 30
0.0
 10
19.1119570154
 20
-19.3688079
 30
0.0
 10
19.1072194089
 20
-19.4836271779
 30
0.0
 10
19.081916674
 20
-19.5988644203
 30
0.0
 10
19.047367618
 20
-19.6752143142
 30
0.0
  0
SPLINE
  5
399
100
AcDbEntity
  8
ASSI
100
AcDbSpline
 62
7
  6
CONTINUOUS
 70
0
 71
3
 72
9
 73
5
 74
0
 42
0.0000001
 43
0.0000001
 44
0.0000000001
 40
0.0
 40
0.0
 40
0.0
 40
0.0
 40
0.5170807976
 40
1.0
 40
1.0
 40
1.0
 40
1.0
 10
19.047367618
 20
-19.6752143142
 30
0.0
 10
19.0271951005
 20
-19.7197935225
 30
0.0
 10
18.9770740475
 20
-19.8018191395
 30
0.0
 10
18.9030330722
 20
-19.8640045184
 30
0.0
 10
18.8634578702
 20
-19.8868547575
 30
0.0
  0
SPLINE
  5
39A
100
AcDbEntity
  8
ASSI
100
AcDbSpline
 62
7
  6
CONTINUOUS
 70
0
 71
3
 72
11
 73
7
 74
0
 42
0.0000001
 43
0.0000001
 44
0.0000000001
 40
0.0
 40
0.0
 40
0.0
 40
0.0
 40
0.2372134916
 40
0.4999938932
 40
0.7627776188
 40
1.0
 40
1.0
 40
1.0
 40
1.0
 10
-6.9802832103
 20
-3.1290691691
 30
0.0
 10
-6.9802832103
 20
-3.2681567352
 30
0.0
 10
-6.9281129465
 20
-3.5615118534
 30
0.0
 10
-6.7462624666
 20
-3.9737423233
 30
0.0
 10
-6.480181983
 20
-4.337348503
 30
0.0
 10
-6.2522110123
 20
-4.5292132635
 30
0.0
 10
-6.1317550729
 20
-4.5987630132
 30
0.0
  0
SPLINE
  5
39B
100
AcDbEntity
  8
ASSI
100
AcDbSpline
 62
7
  6
CONTINUOUS
 70
0
 71
3
 72
9
 73
5
 74
0
 42
0.0000001
 43
0.0000001
 44
0.0000000001
 40
0.0
 40
0.0
 40
0.0
 40
0.0
 40
0.2715340105
 40
1.0
 40
1.0
 40
1.0
 40
1.0
 10
3.2020544388
 20
-10.1513921743
 30
0.0
 10
3.2020544387
 20
-10.1826295501
 30
0.0
 10
3.1973168322
 20
-10.297448828
 30
0.0
 10
3.1720140974
 20
-10.4126860704
 30
0.0
 10
3.1374650413
 20
-10.4890359643
 30
0.0
  0
SPLINE
  5
39C
100
AcDbEntity
  8
ASSI
100
AcDbSpline
 62
7
  6
CONTINUOUS
 70
0
 71
3
 72
9
 73
5
 74
0
 42
0.0000001
 43
0.0000001
 44
0.0000000001
 40
0.0
 40
0.0
 40
0.0
 40
0.0
 40
0.5170807976
 40
1.0
 40
1.0
 40
1.0
 40
1.0
 10
3.1374650413
 20
-10.4890359643
 30
0.0
 10
3.1172925238
 20
-10.5336151726
 30
0.0
 10
3.0671714708
 20
-10.6156407896
 30
0.0
 10
2.9931304955
 20
-10.6778261686
 30
0.0
 10
2.9535552935
 20
-10.7006764077
 30
0.0
  0
SPLINE
  5
39D
100
AcDbEntity
  8
ASSI
100
AcDbSpline
 62
7
  6
CONTINUOUS
 70
0
 71
3
 72
15
 73
11
 74
0
 42
0.0000001
 43
0.0000001
 44
0.0000000001
 40
0.0
 40
0.0
 40
0.0
 40
0.0
 40
0.1449018481
 40
0.2745170406
 40
0.3911053286
 40
0.4999889043
 40
0.6088744936
 40
0.7254681391
 40
0.8550905429
 40
1.0
 40
1.0
 40
1.0
 40
1.0
 10
-24.5872420619
 20
16.4262264592
 30
0.0
 10
-24.5872420617
 20
16.5123899798
 30
0.0
 10
-24.5742216046
 20
16.6761985133
 30
0.0
 10
-24.5078468096
 20
16.901204564
 30
0.0
 10
-24.3960758311
 20
17.0839140372
 30
0.0
 10
-24.2409263624
 20
17.2143933775
 30
0.0
 10
-24.0503425448
 20
17.2834962622
 30
0.0
 10
-23.8362173769
 20
17.2889192381
 30
0.0
 10
-23.6081609507
 20
17.2338823766
 30
0.0
 10
-23.459783048
 20
17.1632452255
 30
0.0
 10
-23.3851605339
 20
17.1201591211
 30
0.0
  0
SPLINE
  5
39E
100
AcDbEntity
  8
ASSI
100
AcDbSpline
 62
7
  6
CONTINUOUS
 70
0
 71
3
 72
13
 73
9
 74
0
 42
0.0000001
 43
0.0000001
 44
0.0000000001
 40
0.0
 40
0.0
 40
0.0
 40
0.0
 40
0.1142615865
 40
0.2375404667
 40
0.5000060664
 40
0.7624683449
 40
0.8857433485
 40
1.0
 40
1.0
 40
1.0
 40
1.0
 10
-23.3851605339
 20
3.403458471
 30
0.0
 10
-23.4674545204
 20
3.4509739876
 30
0.0
 10
-23.6300162722
 20
3.5649148628
 30
0.0
 10
-23.9343210629
 20
3.8497765081
 30
0.0
 10
-24.2558002104
 20
4.2888538183
 30
0.0
 10
-24.4753123627
 20
4.7867986195
 30
0.0
 10
-24.5698516466
 20
5.1927562081
 30
0.0
 10
-24.5872420618
 20
5.3905024132
 30
0.0
 10
-24.5872420619
 20
5.4855247502
 30
0.0
  0
SPLINE
  5
39F
100
AcDbEntity
  8
ASSI
100
AcDbSpline
 62
7
  6
CONTINUOUS
 70
0
 71
3
 72
15
 73
11
 74
0
 42
0.0000001
 43
0.0000001
 44
0.0000000001
 40
0.0
 40
0.0
 40
0.0
 40
0.0
 40
0.1449018481
 40
0.2745170406
 40
0.3911053286
 40
0.4999889043
 40
0.6088744936
 40
0.7254681391
 40
0.8550905429
 40
1.0
 40
1.0
 40
1.0
 40
1.0
 10
-12.7078481379
 20
-1.3734884177
 30
0.0
 10
-12.7078481381
 20
-1.4596519383
 30
0.0
 10
-12.7208685952
 20
-1.6234604719
 30
0.0
 10
-12.7872433902
 20
-1.8484665226
 30
0.0
 10
-12.8990143687
 20
-2.0311759957
 30
0.0
 10
-13.0541638374
 20
-2.1616553361
 30
0.0
 10
-13.244747655
 20
-2.2307582207
 30
0.0
 10
-13.4588728229
 20
-2.2361811967
 30
0.0
 10
-13.6869292491
 20
-2.1811443352
 30
0.0
 10
-13.8353071518
 20
-2.110507184
 30
0.0
 10
-13.909929666
 20
-2.0674210796
 30
0.0
  0
SPLINE
  5
3A0
100
AcDbEntity
  8
ASSI
100
AcDbSpline
 62
7
  6
CONTINUOUS
 70
0
 71
3
 72
13
 73
9
 74
0
 42
0.0000001
 43
0.0000001
 44
0.0000000001
 40
0.0
 40
0.0
 40
0.0
 40
0.0
 40
0.1142615865
 40
0.2375404667
 40
0.5000060664
 40
0.7624683449
 40
0.8857433485
 40
1.0
 40
1.0
 40
1.0
 40
1.0
 10
-7.4752579572
 20
-5.7827198789
 30
0.0
 10
-7.5575519437
 20
-5.7352043623
 30
0.0
 10
-7.7201136955
 20
-5.6212634871
 30
0.0
 10
-8.0244184862
 20
-5.3364018418
 30
0.0
 10
-8.3458976337
 20
-4.8973245316
 30
0.0
 10
-8.565409786
 20
-4.3993797304
 30
0.0
 10
-8.6599490699
 20
-3.9934221417
 30
0.0
 10
-8.6773394851
 20
-3.7956759367
 30
0.0
 10
-8.6773394852
 20
-3.7006535997
 30
0.0
  0
SPLINE
  5
3A1
100
AcDbEntity
  8
ASSI
100
AcDbSpline
 62
7
  6
CONTINUOUS
 70
0
 71
3
 72
15
 73
11
 74
0
 42
0.0000001
 43
0.0000001
 44
0.0000000001
 40
0.0
 40
0.0
 40
0.0
 40
0.0
 40
0.1449018481
 40
0.2745170406
 40
0.3911053286
 40
0.4999889043
 40
0.6088744936
 40
0.7254681391
 40
0.8550905429
 40
1.0
 40
1.0
 40
1.0
 40
1.0
 10
3.2020544388
 20
-10.5596667676
 30
0.0
 10
3.2020544386
 20
-10.6458302882
 30
0.0
 10
3.1890339815
 20
-10.8096388218
 30
0.0
 10
3.1226591865
 20
-11.0346448724
 30
0.0
 10
3.010888208
 20
-11.2173543456
 30
0.0
 10
2.8557387393
 20
-11.347833686
 30
0.0
 10
2.6651549217
 20
-11.4169365706
 30
0.0
 10
2.4510297538
 20
-11.4223595466
 30
0.0
 10
2.2229733276
 20
-11.3673226851
 30
0.0
 10
2.0745954249
 20
-11.2966855339
 30
0.0
 10
1.9999729107
 20
-11.2535994295
 30
0.0
  0
SPLINE
  5
3A2
100
AcDbEntity
  8
ASSI
100
AcDbSpline
 62
7
  6
CONTINUOUS
 70
0
 71
3
 72
15
 73
11
 74
0
 42
0.0000001
 43
0.0000001
 44
0.0000000001
 40
0.0
 40
0.0
 40
0.0
 40
0.0
 40
0.1449018481
 40
0.2745170406
 40
0.3911053286
 40
0.4999889043
 40
0.6088744936
 40
0.7254681391
 40
0.8550905429
 40
1.0
 40
1.0
 40
1.0
 40
1.0
 10
7.2325630915
 20
-1.9461302406
 30
0.0
 10
7.2325630917
 20
-1.85996672
 30
0.0
 10
7.2455835488
 20
-1.6961581864
 30
0.0
 10
7.3119583438
 20
-1.4711521357
 30
0.0
 10
7.4237293223
 20
-1.2884426626
 30
0.0
 10
7.578878791
 20
-1.1579633222
 30
0.0
 10
7.7694626086
 20
-1.0888604376
 30
0.0
 10
7.9835877765
 20
-1.0834374616
 30
0.0
 10
8.2116442027
 20
-1.1384743231
 30
0.0
 10
8.3600221054
 20
-1.2091114743
 30
0.0
 10
8.4346446195
 20
-1.2521975787
 30
0.0
  0
SPLINE
  5
3A3
100
AcDbEntity
  8
ASSI
100
AcDbSpline
 62
7
  6
CONTINUOUS
 70
0
 71
3
 72
13
 73
9
 74
0
 42
0.0000001
 43
0.0000001
 44
0.0000000001
 40
0.0
 40
0.0
 40
0.0
 40
0.0
 40
0.1142615865
 40
0.2375404667
 40
0.5000060664
 40
0.7624683449
 40
0.8857433485
 40
1.0
 40
1.0
 40
1.0
 40
1.0
 10
8.4346446195
 20
-14.9688982288
 30
0.0
 10
8.352350633
 20
-14.9213827121
 30
0.0
 10
8.1897888812
 20
-14.807441837
 30
0.0
 10
7.8854840905
 20
-14.5225801916
 30
0.0
 10
7.564004943
 20
-14.0835028815
 30
0.0
 10
7.3444927907
 20
-13.5855580803
 30
0.0
 10
7.2499535068
 20
-13.1796004916
 30
0.0
 10
7.2325630916
 20
-12.9818542866
 30
0.0
 10
7.2325630915
 20
-12.8868319496
 30
0.0
  0
SPLINE
  5
3A4
100
AcDbEntity
  8
ASSI
100
AcDbSpline
 62
7
  6
CONTINUOUS
 70
0
 71
3
 72
11
 73
7
 74
0
 42
0.0000001
 43
0.0000001
 44
0.0000000001
 40
0.0
 40
0.0
 40
0.0
 40
0.0
 40
0.2372223749
 40
0.5000061065
 40
0.762786514
 40
1.0
 40
1.0
 40
1.0
 40
1.0
 10
-23.0316071433
 20
4.015830906
 30
0.0
 10
-23.1520630796
 20
4.0853806536
 30
0.0
 10
-23.3800340505
 20
4.2772454134
 30
0.0
 10
-23.6461145374
 20
4.6408515949
 30
0.0
 10
-23.8279650178
 20
5.053082069
 30
0.0
 10
-23.8801352807
 20
5.3464371873
 30
0.0
 10
-23.8801352807
 20
5.4855247502
 30
0.0
  0
SPLINE
  5
3A5
100
AcDbEntity
  8
ASSI
100
AcDbSpline
 62
7
  6
CONTINUOUS
 70
0
 71
3
 72
11
 73
7
 74
0
 42
0.0000001
 43
0.0000001
 44
0.0000000001
 40
0.0
 40
0.0
 40
0.0
 40
0.0
 40
0.2845769506
 40
0.5442334504
 40
0.7808566869
 40
1.0
 40
1.0
 40
1.0
 40
1.0
 10
7.9396698727
 20
-1.9461302406
 30
0.0
 10
7.9396698726
 20
-1.8949769566
 30
0.0
 10
7.9462600475
 20
-1.796933882
 30
0.0
 10
7.9790303864
 20
-1.6596485062
 30
0.0
 10
8.0338489077
 20
-1.5422157316
 30
0.0
 10
8.0861382028
 20
-1.4777093482
 30
0.0
 10
8.1150235384
 20
-1.4509264413
 30
0.0
  0
SPLINE
  5
3A6
100
AcDbEntity
  8
ASSI
100
AcDbSpline
 62
7
  6
CONTINUOUS
 70
0
 71
3
 72
11
 73
7
 74
0
 42
0.0000001
 43
0.0000001
 44
0.0000000001
 40
0.0
 40
0.0
 40
0.0
 40
0.0
 40
0.2845769506
 40
0.5442334504
 40
0.7808566869
 40
1.0
 40
1.0
 40
1.0
 40
1.0
 10
-23.8801352807
 20
16.4262264592
 30
0.0
 10
-23.8801352808
 20
16.4773797431
 30
0.0
 10
-23.8735451059
 20
16.5754228177
 30
0.0
 10
-23.840774767
 20
16.7127081936
 30
0.0
 10
-23.7859562457
 20
16.8301409682
 30
0.0
 10
-23.7336669506
 20
16.8946473516
 30
0.0
 10
-23.704781615
 20
16.9214302585
 30
0.0
  0
SPLINE
  5
3A7
100
AcDbEntity
  8
ASSI
100
AcDbSpline
 62
7
  6
CONTINUOUS
 70
0
 71
3
 72
11
 73
7
 74
0
 42
0.0000001
 43
0.0000001
 44
0.0000000001
 40
0.0
 40
0.0
 40
0.0
 40
0.0
 40
0.2372223749
 40
0.5000061065
 40
0.762786514
 40
1.0
 40
1.0
 40
1.0
 40
1.0
 10
8.7881980101
 20
-14.3565257937
 30
0.0
 10
8.6677420738
 20
-14.2869760461
 30
0.0
 10
8.4397711029
 20
-14.0951112863
 30
0.0
 10
8.173690616
 20
-13.7315051048
 30
0.0
 10
7.9918401356
 20
-13.3192746308
 30
0.0
 10
7.9396698727
 20
-13.0259195124
 30
0.0
 10
7.9396698727
 20
-12.8868319496
 30
0.0
  0
SPLINE
  5
3A8
100
AcDbEntity
  8
ASSI
100
AcDbSpline
 62
7
  6
CONTINUOUS
 70
0
 71
3
 72
11
 73
7
 74
0
 42
0.0000001
 43
0.0000001
 44
0.0000000001
 40
0.0
 40
0.0
 40
0.0
 40
0.0
 40
0.2191404659
 40
0.4557642665
 40
0.7154223701
 40
1.0
 40
1.0
 40
1.0
 40
1.0
 10
-13.0398178616
 20
-1.5508283544
 30
0.0
 10
-13.0774578271
 20
-1.5624487932
 30
0.0
 10
-13.1594714704
 20
-1.5754718466
 30
0.0
 10
-13.2885857483
 20
-1.564219403
 30
0.0
 10
-13.4238685195
 20
-1.5239474534
 30
0.0
 10
-13.5120746244
 20
-1.4806278626
 30
0.0
 10
-13.5563762754
 20
-1.4550486446
 30
0.0
  0
SPLINE
  5
3A9
100
AcDbEntity
  8
ASSI
100
AcDbSpline
 62
7
  6
CONTINUOUS
 70
0
 71
3
 72
15
 73
11
 74
0
 42
0.0000001
 43
0.0000001
 44
0.0000000001
 40
0.0
 40
0.0
 40
0.0
 40
0.0
 40
0.1449018481
 40
0.2745170406
 40
0.3911053286
 40
0.4999889043
 40
0.6088744936
 40
0.7254681391
 40
0.8550905429
 40
1.0
 40
1.0
 40
1.0
 40
1.0
 10
19.1119570155
 20
-19.7458451175
 30
0.0
 10
19.1119570153
 20
-19.8320086381
 30
0.0
 10
19.0989365582
 20
-19.9958171716
 30
0.0
 10
19.0325617632
 20
-20.2208232223
 30
0.0
 10
18.9207907847
 20
-20.4035326955
 30
0.0
 10
18.765641316
 20
-20.5340120358
 30
0.0
 10
18.5750574984
 20
-20.6031149205
 30
0.0
 10
18.3609323305
 20
-20.6085378964
 30
0.0
 10
18.1328759043
 20
-20.5535010349
 30
0.0
 10
17.9844980016
 20
-20.4828638838
 30
0.0
 10
17.9098754874
 20
-20.4397777794
 30
0.0
  0
SPLINE
  5
3AA
100
AcDbEntity
  8
ASSI
100
AcDbSpline
 62
7
  6
CONTINUOUS
 70
0
 71
3
 72
11
 73
7
 74
0
 42
0.0000001
 43
0.0000001
 44
0.0000000001
 40
0.0
 40
0.0
 40
0.0
 40
0.0
 40
0.2191404659
 40
0.4557642665
 40
0.7154223701
 40
1.0
 40
1.0
 40
1.0
 40
1.0
 10
2.8700847151
 20
-10.7370067043
 30
0.0
 10
2.8324447496
 20
-10.7486271431
 30
0.0
 10
2.7504311063
 20
-10.7616501965
 30
0.0
 10
2.6213168284
 20
-10.7503977529
 30
0.0
 10
2.4860340572
 20
-10.7101258033
 30
0.0
 10
2.3978279523
 20
-10.6668062125
 30
0.0
 10
2.3535263013
 20
-10.6412269944
 30
0.0
  0
SPLINE
  5
3AB
100
AcDbEntity
  8
ASSI
100
AcDbSpline
 62
7
  6
CONTINUOUS
 70
0
 71
3
 72
11
 73
7
 74
0
 42
0.0000001
 43
0.0000001
 44
0.0000000001
 40
0.0
 40
0.0
 40
0.0
 40
0.0
 40
0.2845769506
 40
0.5442334504
 40
0.7808566869
 40
1.0
 40
1.0
 40
1.0
 40
1.0
 10
-7.970232704
 20
7.2400481093
 30
0.0
 10
-7.9702327041
 20
7.2912013932
 30
0.0
 10
-7.9636425292
 20
7.3892444679
 30
0.0
 10
-7.9308721903
 20
7.5265298437
 30
0.0
 10
-7.876053669
 20
7.6439626183
 30
0.0
 10
-7.8237643739
 20
7.7084690017
 30
0.0
 10
-7.7948790383
 20
7.7352519086
 30
0.0
  0
SPLINE
  5
3AC
100
AcDbEntity
  8
ASSI
100
AcDbSpline
 62
7
  6
CONTINUOUS
 70
0
 71
3
 72
11
 73
7
 74
0
 42
0.0000001
 43
0.0000001
 44
0.0000000001
 40
0.0
 40
0.0
 40
0.0
 40
0.0
 40
0.2372223749
 40
0.5000061065
 40
0.762786514
 40
1.0
 40
1.0
 40
1.0
 40
1.0
 10
-7.1217045666
 20
-5.1703474439
 30
0.0
 10
-7.2421605029
 20
-5.1007976962
 30
0.0
 10
-7.4701314738
 20
-4.9089329365
 30
0.0
 10
-7.7362119607
 20
-4.545326755
 30
0.0
 10
-7.9180624411
 20
-4.1330962809
 30
0.0
 10
-7.970232704
 20
-3.8397411626
 30
0.0
 10
-7.970232704
 20
-3.7006535997
 30
0.0
  0
SPLINE
  5
3AD
100
AcDbEntity
  8
ASSI
100
AcDbSpline
 62
7
  6
CONTINUOUS
 70
0
 71
3
 72
11
 73
7
 74
0
 42
0.0000001
 43
0.0000001
 44
0.0000000001
 40
0.0
 40
0.0
 40
0.0
 40
0.0
 40
0.2191404659
 40
0.4557642665
 40
0.7154223701
 40
1.0
 40
1.0
 40
1.0
 40
1.0
 10
18.7799872918
 20
-19.9231850542
 30
0.0
 10
18.7423473263
 20
-19.934805493
 30
0.0
 10
18.660333683
 20
-19.9478285464
 30
0.0
 10
18.5312194051
 20
-19.9365761028
 30
0.0
 10
18.3959366339
 20
-19.8963041532
 30
0.0
 10
18.307730529
 20
-19.8529845624
 30
0.0
 10
18.263428878
 20
-19.8274053443
 30
0.0
  0
SPLINE
  5
3AE
100
AcDbEntity
  8
ASSI
100
AcDbSpline
 62
7
  6
CONTINUOUS
 70
0
 71
3
 72
15
 73
11
 74
0
 42
0.0000001
 43
0.0000001
 44
0.0000000001
 40
0.0
 40
0.0
 40
0.0
 40
0.0
 40
0.1449018481
 40
0.2745170406
 40
0.3911053286
 40
0.4999889043
 40
0.6088744936
 40
0.7254681391
 40
0.8550905429
 40
1.0
 40
1.0
 40
1.0
 40
1.0
 10
-8.6773394852
 20
7.2400481093
 30
0.0
 10
-8.677339485
 20
7.3262116299
 30
0.0
 10
-8.6643190279
 20
7.4900201635
 30
0.0
 10
-8.5979442329
 20
7.7150262141
 30
0.0
 10
-8.4861732544
 20
7.8977356873
 30
0.0
 10
-8.3310237857
 20
8.0282150276
 30
0.0
 10
-8.1404399681
 20
8.0973179123
 30
0.0
 10
-7.9263148002
 20
8.1027408883
 30
0.0
 10
-7.698258374
 20
8.0477040268
 30
0.0
 10
-7.5498804713
 20
7.9770668756
 30
0.0
 10
-7.4752579572
 20
7.9339807712
 30
0.0
  0
SPLINE
  5
3AF
100
AcDbEntity
  8
CURVE
100
AcDbSpline
 62
250
  6
CONTINUOUS
 70
0
 71
3
 72
9
 73
5
 74
0
 42
0.0000001
 43
0.0000001
 44
0.0000000001
 40
0.0
 40
0.0
 40
0.0
 40
0.0
 40
0.5206208722
 40
1.0
 40
1.0
 40
1.0
 40
1.0
 10
42.625664613
 20
-49.2062278952
 30
0.0
 10
42.7046983507
 20
-49.1623129062
 30
0.0
 10
42.8773467732
 20
-49.1316866335
 30
0.0
 10
42.9081394659
 20
-49.303843942
 30
0.0
 10
42.9097646912
 20
-49.3842007395
 30
0.0
  0
SPLINE
  5
3B0
100
AcDbEntity
  8
CURVE
100
AcDbSpline
 62
250
  6
CONTINUOUS
 70
0
 71
3
 72
9
 73
5
 74
0
 42
0.0000001
 43
0.0000001
 44
0.0000000001
 40
0.0
 40
0.0
 40
0.0
 40
0.0
 40
0.5013510385
 40
1.0
 40
1.0
 40
1.0
 40
1.0
 10
42.3971287686
 20
-49.5699316234
 30
0.0
 10
42.4036222376
 20
-49.5039960527
 30
0.0
 10
42.4528767944
 20
-49.3511854293
 30
0.0
 10
42.5696691691
 20
-49.2373548266
 30
0.0
 10
42.625664613
 20
-49.2062278952
 30
0.0
  0
SPLINE
  5
3B1
100
AcDbEntity
  8
CURVE
100
AcDbSpline
 62
250
  6
CONTINUOUS
 70
0
 71
3
 72
9
 73
5
 74
0
 42
0.0000001
 43
0.0000001
 44
0.0000000001
 40
0.0
 40
0.0
 40
0.0
 40
0.0
 40
0.2703953699
 40
1.0
 40
1.0
 40
1.0
 40
1.0
 10
42.4078906545
 20
-49.897892016
 30
0.0
 10
42.4033457905
 20
-49.8706041301
 30
0.0
 10
42.3883980951
 20
-49.7683398582
 30
0.0
 10
42.3887225926
 20
-49.6553079858
 30
0.0
 10
42.3971287686
 20
-49.5699316234
 30
0.0
  0
SPLINE
  5
3B2
100
AcDbEntity
  8
CURVE
100
AcDbSpline
 62
250
  6
CONTINUOUS
 70
0
 71
3
 72
9
 73
5
 74
0
 42
0.0000001
 43
0.0000001
 44
0.0000000001
 40
0.0
 40
0.0
 40
0.0
 40
0.0
 40
0.2957417834
 40
1.0
 40
1.0
 40
1.0
 40
1.0
 10
42.1370475746
 20
-49.4025348593
 30
0.0
 10
42.10528707
 20
-49.5177785455
 30
0.0
 10
42.0535155543
 20
-49.8984185819
 30
0.0
 10
42.0854015216
 20
-50.2358659625
 30
0.0
 10
42.1177995647
 20
-50.4642712992
 30
0.0
  0
SPLINE
  5
3B3
100
AcDbEntity
  8
CURVE
100
AcDbSpline
 62
250
  6
CONTINUOUS
 70
0
 71
3
 72
17
 73
13
 74
0
 42
0.0000001
 43
0.0000001
 44
0.0000000001
 40
0.0
 40
0.0
 40
0.0
 40
0.0
 40
0.0559780952
 40
0.1687540387
 40
0.321006234
 40
0.4122750837
 40
0.516613223
 40
0.6013931059
 40
0.6776022439
 40
0.8103422694
 40
0.9200404832
 40
1.0
 40
1.0
 40
1.0
 40
1.0
 10
43.0604448031
 20
-48.8614318145
 30
0.0
 10
43.0577250637
 20
-48.8393651003
 30
0.0
 10
43.0155284743
 20
-48.802271724
 30
0.0
 10
42.9350900033
 20
-48.7463887611
 30
0.0
 10
42.8112674658
 20
-48.7400200269
 30
0.0
 10
42.6820925321
 20
-48.7770341538
 30
0.0
 10
42.5748800336
 20
-48.8317030325
 30
0.0
 10
42.4747444297
 20
-48.9017276849
 30
0.0
 10
42.3683425389
 20
-48.9980604846
 30
0.0
 10
42.2640663664
 20
-49.1275370424
 30
0.0
 10
42.1825196602
 20
-49.2749825878
 30
0.0
 10
42.1473493128
 20
-49.365108574
 30
0.0
 10
42.1370475746
 20
-49.4025348593
 30
0.0
  0
SPLINE
  5
3B4
100
AcDbEntity
  8
CURVE
100
AcDbSpline
 62
250
  6
CONTINUOUS
 70
0
 71
3
 72
9
 73
5
 74
0
 42
0.0000001
 43
0.0000001
 44
0.0000000001
 40
0.0
 40
0.0
 40
0.0
 40
0.0
 40
0.2426586216
 40
1.0
 40
1.0
 40
1.0
 40
1.0
 10
43.4298174039
 20
-48.4169855186
 30
0.0
 10
43.3965961014
 20
-48.4449764149
 30
0.0
 10
43.2624403859
 20
-48.5558038258
 30
0.0
 10
43.1110509768
 20
-48.7227472196
 30
0.0
 10
43.0712478173
 20
-48.8556152283
 30
0.0
  0
SPLINE
  5
3B5
100
AcDbEntity
  8
CURVE
100
AcDbSpline
 62
250
  6
CONTINUOUS
 70
0
 71
3
 72
9
 73
5
 74
0
 42
0.0000001
 43
0.0000001
 44
0.0000000001
 40
0.0
 40
0.0
 40
0.0
 40
0.0
 40
0.1980141723
 40
1.0
 40
1.0
 40
1.0
 40
1.0
 10
43.9246310951
 20
-48.0049248698
 30
0.0
 10
43.892035783
 20
-48.0323580225
 30
0.0
 10
43.7270547748
 20
-48.1695608711
 30
0.0
 10
43.5618047618
 20
-48.3057762763
 30
0.0
 10
43.4298174039
 20
-48.4169855186
 30
0.0
  0
SPLINE
  5
3B6
100
AcDbEntity
  8
CURVE
100
AcDbSpline
 62
250
  6
CONTINUOUS
 70
0
 71
3
 72
9
 73
5
 74
0
 42
0.0000001
 43
0.0000001
 44
0.0000000001
 40
0.0
 40
0.0
 40
0.0
 40
0.0
 40
0.5586214172
 40
1.0
 40
1.0
 40
1.0
 40
1.0
 10
43.3702637322
 20
-48.8994902564
 30
0.0
 10
43.471182617
 20
-48.8028269329
 30
0.0
 10
43.6580559051
 20
-48.646547268
 30
0.0
 10
43.8427676835
 20
-48.4850669912
 30
0.0
 10
43.9246310951
 20
-48.4147146479
 30
0.0
  0
SPLINE
  5
3B7
100
AcDbEntity
  8
CURVE
100
AcDbSpline
 62
250
  6
CONTINUOUS
 70
0
 71
3
 72
9
 73
5
 74
0
 42
0.0000001
 43
0.0000001
 44
0.0000000001
 40
0.0
 40
0.0
 40
0.0
 40
0.0
 40
0.3559141631
 40
1.0
 40
1.0
 40
1.0
 40
1.0
 10
43.209178179
 20
-49.2239080702
 30
0.0
 10
43.209178179
 20
-49.1867827713
 30
0.0
 10
43.2293151407
 20
-49.0691410484
 30
0.0
 10
43.3139203432
 20
-48.9534326974
 30
0.0
 10
43.3702637322
 20
-48.8994902564
 30
0.0
  0
ENDSEC
  0
SECTION
  2
OBJECTS
  0
DICTIONARY
  5
C
100
AcDbDictionary
280
0
281
1
  3
ACAD_GROUP
350
D
  3
ACAD_MLINESTYLE
350
17
  3
ACAD_LAYOUT
350
1A
  3
ACAD_PLOTSETTINGS
350
19
  3
ACAD_PLOTSTYLENAME
350
E
  0
DICTIONARY
  5
D
102
{ACAD_REACTORS
330
C
102
}
100
AcDbDictionary
280
0
281
1
  0
ACDBDICTIONARYWDFLT
  5
E
102
{ACAD_REACTORS
330
C
102
}
100
AcDbDictionary
281
1
  3
Normal
350
F
100
AcDbDictionaryWithDefault
340
F
  0
DICTIONARY
  5
17
102
{ACAD_REACTORS
330
C
102
}
100
AcDbDictionary
280
0
281
1
  3
Standard
350
18
  0
DICTIONARY
  5
19
102
{ACAD_REACTORS
330
C
102
}
100
AcDbDictionary
281
1
  0
DICTIONARY
  5
1A
102
{ACAD_REACTORS
330
C
102
}
100
AcDbDictionary
281
1
  3
Model
350
3B8
  3
Layout1
350
3B9
  0
ACDBPLACEHOLDER
  5
F
102
{ACAD_REACTORS
330
E
102
}
  0
MLINESTYLE
  5
18
102
{ACAD_REACTORS
330
17
102
}
100
AcDbMlineStyle
  2
STANDARD
 70
0
  3

 62
256
 51
90.0
 52
90.0
 71
2
 49
0.5
 62
256
  6
BYLAYER
 49
-0.5
 62
256
  6
BYLAYER
  0
LAYOUT
  5
3B8
102
{ACAD_REACTORS
330
1A
102
}
100
AcDbPlotSettings
  1

  2
none_device
  4
ISO_A4_(297.00_x_210.00_MM)
  6

 40
0.0
 41
0.0
 42
0.0
 43
0.0
 44
297.0
 45
210.0
 46
0.0
 47
0.0
 48
0.0
 49
0.0
140
0.0
141
0.0
142
1.0
143
1.0
 70
1024
 72
1
 73
0
 74
0
  7

 75
0
147
1.0
148
0.0
149
0.0
100
AcDbLayout
  1
Model
 70
0
 71
0
 10
0.0
 20
0.0
 11
297.0
 21
210.0
 12
0.0
 22
0.0
 32
0.0
 14
0.0
 24
0.0
 34
0.0
 15
0.0
 25
0.0
 35
0.0
146
0.0
 13
0.0
 23
0.0
 33
0.0
 16
1.0
 26
0.0
 36
0.0
 17
0.0
 27
1.0
 37
0.0
 76
0
330
21E
345
0
346
0
  0
LAYOUT
  5
3B9
102
{ACAD_REACTORS
330
1A
102
}
100
AcDbPlotSettings
  1

  2
none_device
  4
ISO_A4_(297.00_x_210.00_MM)
  6

 40
0.0
 41
0.0
 42
0.0
 43
0.0
 44
297.0
 45
210.0
 46
0.0
 47
0.0
 48
0.0
 49
0.0
140
0.0
141
0.0
142
1.0
143
1.0
 70
0
 72
1
 73
0
 74
0
  7

 75
0
147
1.0
148
0.0
149
0.0
100
AcDbLayout
  1
Layout1
 70
0
 71
1
 10
0.0
 20
0.0
 11
297.0
 21
210.0
 12
0.0
 22
0.0
 32
0.0
 14
0.0
 24
0.0
 34
0.0
 15
0.0
 25
0.0
 35
0.0
146
0.0
 13
0.0
 23
0.0
 33
0.0
 16
1.0
 26
0.0
 36
0.0
 17
0.0
 27
1.0
 37
0.0
 76
0
330
21F
345
0
346
0
  0
ENDSEC
  0
EOF
