  0
SECTION
  2
HEADER
  9
$ACADVER
  1
AC1024
  9
$DWGCODEPAGE
  3
ANSI_1252
  9
$EXTMAX
 10
297.0
 20
210.0
 30
0.0
  9
$EXTMIN
 10
0.0
 20
0.0
 30
0.0
  9
$LIMMIN
 10
0.0
 20
0.0
  9
$LIMMAX
 10
297.0
 20
210.0
  9
$VIEWCTR
 10
148.5
 20
105.0
  9
$VIEWSIZE
 40
210.0
  9
$CLAYER
  8
0
  9
$LTSCALE
 40
16.335
  9
$CELTYPE
  6
BYLAYER
  9
$DIMSCALE
 40
1.0
  9
$DIMASZ
 40
3.0
  9
$DIMEXO
 40
0.5
  9
$DIMDLI
 40
11.286
  9
$DIMEXE
 40
1.5
  9
$DIMCEN
 40
2.673
  9
$DIMLFAC
 40
1.0
  9
$DIMBLK
  1
_FILLED
  9
$DIMALT
 70
0
  9
$DIMALTF
 40
0.0393700787
  9
$DIMTXT
 40
3.0
  9
$DIMTOL
 70
1
  9
$DIMLIM
 70
0
  9
$DIMTFAC
 40
1.0
  9
$DIMTP
 40
0.01
  9
$DIMTM
 40
0.01
  9
$DIMGAP
 40
0.625
  9
$DIMDSEP
 70
44
  9
$AUNITS
 70
0
  9
$PDMODE
 70
3
  9
$PDSIZE
 40
3.0
  9
$HANDSEED
  5
302
  9
$TILEMODE
 70
1
  9
$MEASUREMENT
 70
1
  9
$INSUNITS
 70
4
  0
ENDSEC
  0
SECTION
  2
CLASSES
  0
CLASS
  1
ACDBDICTIONARYWDFLT
  2
AcDbDictionaryWithDefault
  3
AutoCAD 2000
 90
0
 91
1
280
0
281
0
  0
CLASS
  1
ACDBPLACEHOLDER
  2
AcDbPlaceHolder
  3
AutoCAD 2000
 90
0
 91
1
280
0
281
0
  0
CLASS
  1
LAYOUT
  2
AcDbLayout
  3
AutoCAD 2000
 90
0
 91
0
280
0
281
0
  0
ENDSEC
  0
SECTION
  2
TABLES
  0
TABLE
  2
VPORT
  5
8
100
AcDbSymbolTable
 70
2
  0
VPORT
  5
1F4
100
AcDbSymbolTableRecord
100
AcDbViewportTableRecord
  2
*ACTIVE
 70
0
 10
0.0
 20
0.0
 11
1.0
 21
1.0
 12
148.5
 22
105.0
 13
0.0
 23
0.0
 14
1.0
 24
1.0
 15
0.0
 25
0.0
 16
0.0
 26
0.0
 36
1.0
 17
0.0
 27
0.0
 37
0.0
 40
210.0
 41
1.4142857143
 42
50.0
 43
0.0
 44
0.0
 50
0.0
 51
0.0
 71
0
 72
100
 73
1
 74
1
 75
0
 76
0
 77
0
 78
0
  0
ENDTAB
  0
TABLE
  2
LTYPE
  5
5
100
AcDbSymbolTable
 70
6
  0
LTYPE
  5
14
100
AcDbSymbolTableRecord
100
AcDbLinetypeTableRecord
  2
BYBLOCK
 70
0
  3

 72
65
 73
0
 40
0.0
  0
LTYPE
  5
15
100
AcDbSymbolTableRecord
100
AcDbLinetypeTableRecord
  2
BYLAYER
 70
0
  3

 72
65
 73
0
 40
0.0
  0
LTYPE
  5
16
100
AcDbSymbolTableRecord
100
AcDbLinetypeTableRecord
  2
CONTINUOUS
 70
64
  3
Solid line
 72
65
 73
0
 40
0.0
  0
LTYPE
  5
1F5
100
AcDbSymbolTableRecord
100
AcDbLinetypeTableRecord
  2
CENTER
 70
64
  3
____ _ ____ _ ____ _ ____ _ ____ _ ____ _ ____
 72
65
 73
4
 40
0.6
 49
0.375
 74
0
 49
-0.075
 74
0
 49
0.075
 74
0
 49
-0.075
 74
0
  0
LTYPE
  5
1F6
100
AcDbSymbolTableRecord
100
AcDbLinetypeTableRecord
  2
HIDDEN
 70
64
  3
- - - - - - - - - - - - - - - - - - - -
 72
65
 73
2
 40
0.2
 49
0.1
 74
0
 49
-0.1
 74
0
  0
LTYPE
  5
1F7
100
AcDbSymbolTableRecord
100
AcDbLinetypeTableRecord
  2
PHANTOM
 70
64
  3
_____ _ _ _____ _ _ _____ _ _ _____
 72
65
 73
6
 40
0.8
 49
0.45
 74
0
 49
-0.05
 74
0
 49
0.1
 74
0
 49
-0.05
 74
0
 49
0.1
 74
0
 49
-0.05
 74
0
  0
LTYPE
  5
1F8
100
AcDbSymbolTableRecord
100
AcDbLinetypeTableRecord
  2
DOT
 70
64
  3
. . . . . . . . . . . . . . . . . . . .
 72
65
 73
2
 40
0.2
 49
0.1
 74
0
 49
-0.1
 74
0
  0
LTYPE
  5
1F9
100
AcDbSymbolTableRecord
100
AcDbLinetypeTableRecord
  2
DASHED
 70
64
  3
- - - - - - - - - - - - - - - - - - - -
 72
65
 73
2
 40
0.2
 49
0.1
 74
0
 49
-0.1
 74
0
  0
ENDTAB
  0
TABLE
  2
LAYER
  5
2
100
AcDbSymbolTable
 70
36
  0
LAYER
  5
10
100
AcDbSymbolTableRecord
100
AcDbLayerTableRecord
  2
0
 70
0
 62
7
  6
CONTINUOUS
370
-3
390
F
  0
LAYER
  5
1FA
100
AcDbSymbolTableRecord
100
AcDbLayerTableRecord
  2
DEFAULT_1
 70
0
 62
7
  6
CENTER
370
-3
390
F
  0
LAYER
  5
1FB
100
AcDbSymbolTableRecord
100
AcDbLayerTableRecord
  2
DEFAULT_2
 70
0
 62
7
  6
HIDDEN
370
-3
390
F
  0
LAYER
  5
1FC
100
AcDbSymbolTableRecord
100
AcDbLayerTableRecord
  2
DEFAULT_3
 70
0
 62
7
  6
PHANTOM
370
-3
390
F
  0
LAYER
  5
1FD
100
AcDbSymbolTableRecord
100
AcDbLayerTableRecord
  2
ASSI
 70
0
 62
7
  6
CONTINUOUS
370
-3
390
F
  0
LAYER
  5
1FE
100
AcDbSymbolTableRecord
100
AcDbLayerTableRecord
  2
COORDINATE
 70
0
 62
7
  6
CONTINUOUS
370
-3
390
F
  0
LAYER
  5
1FF
100
AcDbSymbolTableRecord
100
AcDbLayerTableRecord
  2
COORD_ORIGINE
 70
0
 62
7
  6
CONTINUOUS
370
-3
390
F
  0
LAYER
  5
200
100
AcDbSymbolTableRecord
100
AcDbLayerTableRecord
  2
COPY_PUBLISH
 70
0
 62
7
  6
CONTINUOUS
370
-3
390
F
  0
LAYER
  5
201
100
AcDbSymbolTableRecord
100
AcDbLayerTableRecord
  2
COSMETIC
 70
0
 62
7
  6
CONTINUOUS
370
-3
390
F
  0
LAYER
  5
202
100
AcDbSymbolTableRecord
100
AcDbLayerTableRecord
  2
COSMETICI
 70
0
 62
7
  6
CONTINUOUS
370
-3
390
F
  0
LAYER
  5
203
100
AcDbSymbolTableRecord
100
AcDbLayerTableRecord
  2
CURVA_TASSELLO
 70
0
 62
7
  6
CONTINUOUS
370
-3
390
F
  0
LAYER
  5
204
100
AcDbSymbolTableRecord
100
AcDbLayerTableRecord
  2
CURVE
 70
0
 62
7
  6
CONTINUOUS
370
-3
390
F
  0
LAYER
  5
205
100
AcDbSymbolTableRecord
100
AcDbLayerTableRecord
  2
DRAFT
 70
0
 62
7
  6
CONTINUOUS
370
-3
390
F
  0
LAYER
  5
206
100
AcDbSymbolTableRecord
100
AcDbLayerTableRecord
  2
IMPORT_IGES
 70
0
 62
7
  6
CONTINUOUS
370
-3
390
F
  0
LAYER
  5
207
100
AcDbSymbolTableRecord
100
AcDbLayerTableRecord
  2
INTFCLR_2
 70
0
 62
7
  6
CONTINUOUS
370
-3
390
F
  0
LAYER
  5
208
100
AcDbSymbolTableRecord
100
AcDbLayerTableRecord
  2
INTF_1
 70
0
 62
7
  6
CONTINUOUS
370
-3
390
F
  0
LAYER
  5
209
100
AcDbSymbolTableRecord
100
AcDbLayerTableRecord
  2
INTF_21
 70
0
 62
7
  6
CONTINUOUS
370
-3
390
F
  0
LAYER
  5
20A
100
AcDbSymbolTableRecord
100
AcDbLayerTableRecord
  2
INTF_6
 70
0
 62
7
  6
CONTINUOUS
370
-3
390
F
  0
LAYER
  5
20B
100
AcDbSymbolTableRecord
100
AcDbLayerTableRecord
  2
INTF_7
 70
0
 62
7
  6
CONTINUOUS
370
-3
390
F
  0
LAYER
  5
20C
100
AcDbSymbolTableRecord
100
AcDbLayerTableRecord
  2
INTF_9
 70
0
 62
7
  6
CONTINUOUS
370
-3
390
F
  0
LAYER
  5
20D
100
AcDbSymbolTableRecord
100
AcDbLayerTableRecord
  2
LIVELLO_1
 70
0
 62
7
  6
CONTINUOUS
370
-3
390
F
  0
LAYER
  5
20E
100
AcDbSymbolTableRecord
100
AcDbLayerTableRecord
  2
NOTE
 70
0
 62
7
  6
CONTINUOUS
370
-3
390
F
  0
LAYER
  5
20F
100
AcDbSymbolTableRecord
100
AcDbLayerTableRecord
  2
PIANI
 70
0
 62
7
  6
CONTINUOUS
370
-3
390
F
  0
LAYER
  5
210
100
AcDbSymbolTableRecord
100
AcDbLayerTableRecord
  2
PIANI_ORIGINE
 70
0
 62
7
  6
CONTINUOUS
370
-3
390
F
  0
LAYER
  5
211
100
AcDbSymbolTableRecord
100
AcDbLayerTableRecord
  2
PIANI_RIFERIMENTO
 70
0
 62
7
  6
CONTINUOUS
370
-3
390
F
  0
LAYER
  5
212
100
AcDbSymbolTableRecord
100
AcDbLayerTableRecord
  2
PUNTI
 70
0
 62
7
  6
CONTINUOUS
370
-3
390
F
  0
LAYER
  5
213
100
AcDbSymbolTableRecord
100
AcDbLayerTableRecord
  2
RACCORDO
 70
0
 62
7
  6
CONTINUOUS
370
-3
390
F
  0
LAYER
  5
214
100
AcDbSymbolTableRecord
100
AcDbLayerTableRecord
  2
RGB__255__255__255__
 70
0
 62
7
  6
CONTINUOUS
370
-3
390
F
  0
LAYER
  5
215
100
AcDbSymbolTableRecord
100
AcDbLayerTableRecord
  2
RGB____0____0____0__
 70
0
 62
7
  6
CONTINUOUS
370
-3
390
F
  0
LAYER
  5
216
100
AcDbSymbolTableRecord
100
AcDbLayerTableRecord
  2
SIMBOLI
 70
0
 62
7
  6
CONTINUOUS
370
-3
390
F
  0
LAYER
  5
217
100
AcDbSymbolTableRecord
100
AcDbLayerTableRecord
  2
SMUSSO
 70
0
 62
7
  6
CONTINUOUS
370
-3
390
F
  0
LAYER
  5
218
100
AcDbSymbolTableRecord
100
AcDbLayerTableRecord
  2
SUPERFICI
 70
0
 62
7
  6
CONTINUOUS
370
-3
390
F
  0
LAYER
  5
219
100
AcDbSymbolTableRecord
100
AcDbLayerTableRecord
  2
TRASH
 70
0
 62
7
  6
CONTINUOUS
370
-3
390
F
  0
LAYER
  5
21A
100
AcDbSymbolTableRecord
100
AcDbLayerTableRecord
  2
WHITE
 70
0
 62
7
  6
CONTINUOUS
370
-3
390
F
  0
LAYER
  5
21B
100
AcDbSymbolTableRecord
100
AcDbLayerTableRecord
  2
XSEC_DATUMS
 70
0
 62
7
  6
CONTINUOUS
370
-3
390
F
  0
ENDTAB
  0
TABLE
  2
STYLE
  5
3
100
AcDbSymbolTable
 70
1
  0
STYLE
  5
11
100
AcDbSymbolTableRecord
100
AcDbTextStyleTableRecord
  2
STANDARD
 70
0
 40
0.0
 41
0.8
 50
0.0
 71
0
 42
0.2
  3
txt
  4

  0
STYLE
  5
21C
100
AcDbSymbolTableRecord
100
AcDbTextStyleTableRecord
  2
TEXTSTYLE_1
 70
0
 40
0.0
 41
0.8
 50
0.0
 71
0
 42
0.2
  3
gdt
  4

  0
ENDTAB
  0
TABLE
  2
VIEW
  5
6
100
AcDbSymbolTable
 70
0
  0
ENDTAB
  0
TABLE
  2
UCS
  5
7
100
AcDbSymbolTable
 70
0
  0
ENDTAB
  0
TABLE
  2
APPID
  5
9
100
AcDbSymbolTable
 70
1
  0
APPID
  5
21D
100
AcDbSymbolTableRecord
100
AcDbRegAppTableRecord
  2
ACAD
 70
0
  0
ENDTAB
  0
TABLE
  2
BLOCK_RECORD
  5
1
100
AcDbSymbolTable
 70
0
  0
BLOCK_RECORD
  5
21E
100
AcDbSymbolTableRecord
100
AcDbBlockTableRecord
  2
*Model_Space
  0
BLOCK_RECORD
  5
21F
100
AcDbSymbolTableRecord
100
AcDbBlockTableRecord
  2
*Paper_Space
  0
BLOCK_RECORD
  5
220
100
AcDbSymbolTableRecord
100
AcDbBlockTableRecord
  2
_FILLED
  0
ENDTAB
  0
TABLE
  2
DIMSTYLE
  5
A
100
AcDbSymbolTable
 70
1
100
AcDbDimStyleTable
 71
0
  0
DIMSTYLE
105
221
100
AcDbSymbolTableRecord
100
AcDbDimStyleTableRecord
  2
STANDARD
 70
0
  3

  4

 40
1.0
 41
3.0
 42
0.5
 43
0.38
 44
1.5
 45
0.0
 46
0.0
 47
0.01
 48
0.01
140
3.0
141
0.09
142
0.0
143
25.4
144
1.0
145
0.0
146
1.0
147
0.625
 71
1
 72
0
 73
0
 74
0
 75
0
 76
0
 77
1
 78
8
 79
2
170
0
171
1
172
0
173
0
174
0
175
0
176
0
177
0
178
0
270
2
179
2
271
2
272
2
273
2
274
2
275
0
280
0
281
0
282
0
283
1
284
8
285
0
286
0
287
3
288
0
340
11
278
44
341
220
342
220
343
220
344
220
  0
ENDTAB
  0
ENDSEC
  0
SECTION
  2
BLOCKS
  0
BLOCK
  5
20
100
AcDbEntity
  8
0
100
AcDbBlockBegin
  2
*Model_Space
 70
0
 10
0.0
 20
0.0
 30
0.0
  3
*Model_Space
  1

  0
ENDBLK
  5
21
100
AcDbEntity
  8
0
100
AcDbBlockEnd
  0
BLOCK
  5
1C
100
AcDbEntity
  8
0
100
AcDbBlockBegin
  2
*Paper_Space
 70
0
 10
0.0
 20
0.0
 30
0.0
  3
*Paper_Space
  1

  0
ENDBLK
  5
1D
100
AcDbEntity
  8
0
100
AcDbBlockEnd
  0
BLOCK
  5
222
100
AcDbEntity
  8
0
100
AcDbBlockBegin
  2
_FILLED
 70
64
 10
0.0
 20
0.0
  3
_FILLED
  1

  0
SOLID
  5
223
100
AcDbEntity
  8
0
  6
BYBLOCK
 62
0
100
AcDbTrace
 10
0.0
 20
0.0
 11
-1.0
 21
0.3166666667
 12
-1.0
 22
-0.3166666667
 13
-1.0
 23
-0.3166666667
  0
ENDBLK
  5
224
100
AcDbEntity
  8
0
  6
BYBLOCK
 62
0
100
AcDbBlockEnd
  0
ENDSEC
  0
SECTION
  2
ENTITIES
  0
LINE
  5
225
100
AcDbEntity
  8
0
100
AcDbLine
 62
7
  6
CONTINUOUS
 10
-45.0274205459
 20
59.3397676688
 11
-41.2396067588
 21
61.8433345602
  0
LINE
  5
226
100
AcDbEntity
  8
0
100
AcDbLine
 62
7
  6
CONTINUOUS
 10
-44.3198832767
 20
59.7482118627
 11
-40.5320694895
 21
62.251778754
  0
LINE
  5
227
100
AcDbEntity
  8
0
100
AcDbLine
 62
7
  6
CONTINUOUS
 10
-44.3406468908
 20
59.7353725117
 11
-44.3198832767
 21
59.7482118627
  0
LINE
  5
228
100
AcDbEntity
  8
0
100
AcDbLine
 62
7
  6
CONTINUOUS
 10
-41.2396067588
 20
61.8433345602
 11
-40.5320694895
 21
62.251778754
  0
LINE
  5
229
100
AcDbEntity
  8
0
100
AcDbLine
 62
7
  6
CONTINUOUS
 10
-44.3406468908
 20
59.7353725117
 11
-45.0270452385
 21
59.3391313073
  0
LINE
  5
22A
100
AcDbEntity
  8
0
100
AcDbLine
 62
7
  6
CONTINUOUS
 10
-44.7233361907
 20
58.3201440733
 11
-45.0023121248
 21
58.1590979978
  0
LINE
  5
22B
100
AcDbEntity
  8
CURVE
100
AcDbLine
 62
250
  6
CONTINUOUS
 10
43.3548407276
 20
-55.3787693924
 11
42.0964399064
 21
-55.6553921924
  0
LINE
  5
22C
100
AcDbEntity
  8
CURVE
100
AcDbLine
 62
250
  6
CONTINUOUS
 10
42.0964399064
 20
-55.2296551971
 11
43.924631083
 21
-54.9013620047
  0
LINE
  5
22D
100
AcDbEntity
  8
0
100
AcDbLine
 62
7
  6
CONTINUOUS
 10
-44.7233361907
 20
58.3201440733
 11
-44.3406468908
 21
59.7353725117
  0
LINE
  5
22E
100
AcDbEntity
  8
CURVE
100
AcDbLine
 62
250
  6
CONTINUOUS
 10
42.5987804353
 20
-51.1706906246
 11
43.2772455626
 21
-51.0175160448
  0
LINE
  5
22F
100
AcDbEntity
  8
CURVE
100
AcDbLine
 62
250
  6
CONTINUOUS
 10
43.5596592572
 20
-50.9526041056
 11
43.924631083
 21
-50.873652894
  0
LINE
  5
230
100
AcDbEntity
  8
CURVE
100
AcDbLine
 62
250
  6
CONTINUOUS
 10
43.924631083
 20
-51.2950585144
 11
42.0964399064
 21
-51.6392230726
  0
LINE
  5
231
100
AcDbEntity
  8
CURVE
100
AcDbLine
 62
250
  6
CONTINUOUS
 10
43.111457186
 20
-52.838182211
 11
42.0964399064
 21
-52.9586619011
  0
LINE
  5
232
100
AcDbEntity
  8
CURVE
100
AcDbLine
 62
250
  6
CONTINUOUS
 10
42.7358331935
 20
-52.506330148
 11
43.924631083
 21
-52.3728017292
  0
LINE
  5
233
100
AcDbEntity
  8
0
100
AcDbLine
 62
7
  6
CONTINUOUS
 10
-45.0023121248
 20
-12.6725356016
 11
-45.0270452385
 21
-12.2163000241
  0
LINE
  5
234
100
AcDbEntity
  8
0
100
AcDbLine
 62
7
  6
CONTINUOUS
 10
39.5270270784
 20
-61.4787166561
 11
40.9439862093
 21
-61.8548961119
  0
LINE
  5
235
100
AcDbEntity
  8
0
100
AcDbLine
 62
7
  6
CONTINUOUS
 10
-45.0023121248
 20
58.1590979978
 11
-45.0270452385
 21
59.3391313073
  0
LINE
  5
236
100
AcDbEntity
  8
0
100
AcDbLine
 62
7
  6
CONTINUOUS
 10
-45.0270452385
 20
-12.2163000241
 11
-45.0274205459
 21
-12.1921071634
  0
LINE
  5
237
100
AcDbEntity
  8
0
100
AcDbLine
 62
7
  6
CONTINUOUS
 10
-45.0274205459
 20
59.3397676688
 11
-45.0274205459
 21
-12.1921071634
  0
LINE
  5
238
100
AcDbEntity
  8
0
100
AcDbLine
 62
7
  6
CONTINUOUS
 10
-45.0023121248
 20
58.1590979978
 11
-45.0023121248
 21
-12.6725356016
  0
LINE
  5
239
100
AcDbEntity
  8
0
100
AcDbLine
 62
7
  6
CONTINUOUS
 10
-45.0023121248
 20
-12.6725356016
 11
-44.7233361907
 21
-13.1557360931
  0
LINE
  5
23A
100
AcDbEntity
  8
0
100
AcDbLine
 62
7
  6
CONTINUOUS
 10
-44.7233361907
 20
-13.1557360931
 11
-44.3406468908
 21
-13.4051768352
  0
LINE
  5
23B
100
AcDbEntity
  8
0
100
AcDbLine
 62
7
  6
CONTINUOUS
 10
-44.3198832767
 20
-13.4175976608
 11
40.2579502919
 21
-62.251778754
  0
LINE
  5
23C
100
AcDbEntity
  8
0
100
AcDbLine
 62
7
  6
CONTINUOUS
 10
-44.7233361907
 20
-13.1557360931
 11
39.2480511443
 21
-61.6397627316
  0
LINE
  5
23D
100
AcDbEntity
  8
0
100
AcDbLine
 62
7
  6
CONTINUOUS
 10
-44.3198832767
 20
-13.4175976608
 11
-44.3406468908
 21
-13.4051768352
  0
LINE
  5
23E
100
AcDbEntity
  8
0
100
AcDbLine
 62
7
  6
CONTINUOUS
 10
39.2480511443
 20
-61.6397627316
 11
40.2575878617
 21
-62.2511373164
  0
LINE
  5
23F
100
AcDbEntity
  8
0
100
AcDbLine
 62
250
  6
CONTINUOUS
 10
-23.8801352807
 20
16.4262264592
 11
-23.0317233103
 21
16.9160888978
  0
LINE
  5
240
100
AcDbEntity
  8
0
100
AcDbLine
 62
250
  6
CONTINUOUS
 10
-22.7138346611
 20
16.7325439758
 11
-22.890185787
 21
16.6307206963
  0
LINE
  5
241
100
AcDbEntity
  8
0
100
AcDbLine
 62
7
  6
CONTINUOUS
 10
-24.5872420619
 20
5.4855247502
 11
-24.5872420619
 21
16.4262264592
  0
LINE
  5
242
100
AcDbEntity
  8
0
100
AcDbLine
 62
7
  6
CONTINUOUS
 10
-23.8801352807
 20
5.4855247502
 11
-23.8801352807
 21
16.4262264592
  0
LINE
  5
243
100
AcDbEntity
  8
0
100
AcDbLine
 62
7
  6
CONTINUOUS
 10
-22.890185787
 20
16.8343669057
 11
-22.890185787
 21
6.0571091808
  0
LINE
  5
244
100
AcDbEntity
  8
0
100
AcDbLine
 62
250
  6
CONTINUOUS
 10
-21.7753636825
 20
16.1906825946
 11
-21.7753636825
 21
12.9938062209
  0
LINE
  5
245
100
AcDbEntity
  8
0
100
AcDbLine
 62
7
  6
CONTINUOUS
 10
-21.6911656226
 20
16.14206769
 11
-21.6911656226
 21
13.114132332
  0
LINE
  5
246
100
AcDbEntity
  8
0
100
AcDbLine
 62
250
  6
CONTINUOUS
 10
-23.3851605339
 20
3.403458471
 11
-23.0316071433
 21
4.015830906
  0
LINE
  5
247
100
AcDbEntity
  8
0
100
AcDbLine
 62
250
  6
CONTINUOUS
 10
-21.7753636825
 20
12.9938062209
 11
-22.890185787
 21
12.3043835088
  0
LINE
  5
248
100
AcDbEntity
  8
0
100
AcDbLine
 62
7
  6
CONTINUOUS
 10
-21.8333759489
 20
12.8589805754
 11
-22.890185787
 21
12.2054335191
  0
LINE
  5
249
100
AcDbEntity
  8
0
100
AcDbLine
 62
250
  6
CONTINUOUS
 10
-23.8801352807
 20
5.4855247502
 11
-22.890185787
 21
6.0571091808
  0
LINE
  5
24A
100
AcDbEntity
  8
0
100
AcDbLine
 62
250
  6
CONTINUOUS
 10
-23.0316071433
 20
4.015830906
 11
-22.0416576496
 21
4.5874153367
  0
LINE
  5
24B
100
AcDbEntity
  8
0
100
AcDbLine
 62
7
  6
CONTINUOUS
 10
-12.7078481379
 20
9.5672132913
 11
-12.7078481379
 21
-1.3734884177
  0
LINE
  5
24C
100
AcDbEntity
  8
0
100
AcDbLine
 62
250
  6
CONTINUOUS
 10
-13.909929666
 20
-2.0674210796
 11
-13.5563762754
 21
-1.4550486446
  0
LINE
  5
24D
100
AcDbEntity
  8
0
100
AcDbLine
 62
250
  6
CONTINUOUS
 10
7.2325630915
 20
-12.8868319496
 11
7.9396698727
 21
-12.8868319496
  0
LINE
  5
24E
100
AcDbEntity
  8
0
100
AcDbLine
 62
250
  6
CONTINUOUS
 10
-13.5563762754
 20
-1.4550486446
 11
-12.7078481379
 21
-0.9651191326
  0
LINE
  5
24F
100
AcDbEntity
  8
0
100
AcDbLine
 62
7
  6
CONTINUOUS
 10
17.9098754874
 20
-20.4397777794
 11
8.4346446195
 21
-14.9688982288
  0
LINE
  5
250
100
AcDbEntity
  8
0
100
AcDbLine
 62
7
  6
CONTINUOUS
 10
-13.909929666
 20
-2.0674210796
 11
-23.3851605339
 21
3.403458471
  0
LINE
  5
251
100
AcDbEntity
  8
0
100
AcDbLine
 62
7
  6
CONTINUOUS
 10
18.263428878
 20
-19.8274053443
 11
8.7881980101
 21
-14.3565257937
  0
LINE
  5
252
100
AcDbEntity
  8
0
100
AcDbLine
 62
7
  6
CONTINUOUS
 10
-13.5563762754
 20
-1.4550486446
 11
-23.0316071433
 21
4.015830906
  0
LINE
  5
253
100
AcDbEntity
  8
0
100
AcDbLine
 62
7
  6
CONTINUOUS
 10
-22.0416576496
 20
4.5874153367
 11
-12.7078481379
 21
-0.8018092952
  0
LINE
  5
254
100
AcDbEntity
  8
0
100
AcDbLine
 62
7
  6
CONTINUOUS
 10
9.7781475038
 20
-13.7849413631
 11
19.1119570155
 21
-19.174165995
  0
LINE
  5
255
100
AcDbEntity
  8
0
100
AcDbLine
 62
7
  6
CONTINUOUS
 10
-45.0274205459
 20
59.3397676688
 11
-45.0270452385
 21
59.3391313073
  0
LINE
  5
256
100
AcDbEntity
  8
0
100
AcDbLine
 62
7
  6
CONTINUOUS
 10
39.5270270784
 20
9.3529169433
 11
40.9439862093
 21
9.7005352194
  0
LINE
  5
257
100
AcDbEntity
  8
0
100
AcDbLine
 62
250
  6
CONTINUOUS
 10
7.2325630915
 20
-1.9461302406
 11
7.9396698727
 21
-1.9461302406
  0
LINE
  5
258
100
AcDbEntity
  8
0
100
AcDbLine
 62
250
  6
CONTINUOUS
 10
7.9396698727
 20
-1.9461302406
 11
8.7880818431
 21
-1.456267802
  0
LINE
  5
259
100
AcDbEntity
  8
0
100
AcDbLine
 62
250
  6
CONTINUOUS
 10
-24.5872420619
 20
5.4855247502
 11
-23.8801352807
 21
5.4855247502
  0
LINE
  5
25A
100
AcDbEntity
  8
0
100
AcDbLine
 62
7
  6
CONTINUOUS
 10
-23.3851605339
 20
17.1201591211
 11
-13.909929666
 21
11.6492795705
  0
LINE
  5
25B
100
AcDbEntity
  8
0
100
AcDbLine
 62
7
  6
CONTINUOUS
 10
8.4346446195
 20
-1.2521975787
 11
17.9098754874
 21
-6.7230771293
  0
LINE
  5
25C
100
AcDbEntity
  8
0
100
AcDbLine
 62
7
  6
CONTINUOUS
 10
40.2575878617
 20
-62.2511373164
 11
40.2579502919
 21
-62.251778754
  0
LINE
  5
25D
100
AcDbEntity
  8
0
100
AcDbLine
 62
7
  6
CONTINUOUS
 10
7.2325630915
 20
-12.8868319496
 11
7.2325630915
 21
-1.9461302406
  0
LINE
  5
25E
100
AcDbEntity
  8
0
100
AcDbLine
 62
7
  6
CONTINUOUS
 10
7.9396698727
 20
-12.8868319496
 11
7.9396698727
 21
-1.9461302406
  0
LINE
  5
25F
100
AcDbEntity
  8
0
100
AcDbLine
 62
7
  6
CONTINUOUS
 10
8.9296193664
 20
-1.537989794
 11
8.9296193664
 21
-12.3152475189
  0
LINE
  5
260
100
AcDbEntity
  8
0
100
AcDbLine
 62
7
  6
CONTINUOUS
 10
40.2579502919
 20
10.9140307694
 11
44.3198832767
 21
13.2593246716
  0
LINE
  5
261
100
AcDbEntity
  8
0
100
AcDbLine
 62
250
  6
CONTINUOUS
 10
8.4346446195
 20
-14.9688982288
 11
8.7881980101
 21
-14.3565257937
  0
LINE
  5
262
100
AcDbEntity
  8
0
100
AcDbLine
 62
7
  6
CONTINUOUS
 10
40.9654875612
 20
9.688540272
 11
45.0274205459
 21
12.0338341742
  0
LINE
  5
263
100
AcDbEntity
  8
0
100
AcDbLine
 62
250
  6
CONTINUOUS
 10
7.9396698727
 20
-12.8868319496
 11
8.9296193664
 21
-12.3152475189
  0
LINE
  5
264
100
AcDbEntity
  8
0
100
AcDbLine
 62
7
  6
CONTINUOUS
 10
19.1119570155
 20
-8.8051434085
 11
19.1119570155
 21
-19.7458451175
  0
LINE
  5
265
100
AcDbEntity
  8
0
100
AcDbLine
 62
250
  6
CONTINUOUS
 10
8.7881980101
 20
-14.3565257937
 11
9.7781475038
 21
-13.7849413631
  0
LINE
  5
266
100
AcDbEntity
  8
0
100
AcDbLine
 62
250
  6
CONTINUOUS
 10
-24.5872420619
 20
16.4262264592
 11
-23.8801352807
 21
16.4262264592
  0
LINE
  5
267
100
AcDbEntity
  8
0
100
AcDbLine
 62
250
  6
CONTINUOUS
 10
17.9098754874
 20
-20.4397777794
 11
18.263428878
 21
-19.8274053443
  0
LINE
  5
268
100
AcDbEntity
  8
0
100
AcDbLine
 62
7
  6
CONTINUOUS
 10
39.2480511443
 20
9.8361174348
 11
40.2575878617
 21
10.8894120305
  0
LINE
  5
269
100
AcDbEntity
  8
0
100
AcDbLine
 62
250
  6
CONTINUOUS
 10
18.263428878
 20
-19.8274053443
 11
19.1119570155
 21
-19.3374758323
  0
LINE
  5
26A
100
AcDbEntity
  8
0
100
AcDbLine
 62
7
  6
CONTINUOUS
 10
40.9439862093
 20
9.7005352194
 11
40.9654875612
 21
9.688540272
  0
LINE
  5
26B
100
AcDbEntity
  8
0
100
AcDbLine
 62
7
  6
CONTINUOUS
 10
39.2480511443
 20
9.8361174348
 11
-44.7233361907
 21
58.3201440733
  0
LINE
  5
26C
100
AcDbEntity
  8
0
100
AcDbLine
 62
7
  6
CONTINUOUS
 10
40.2579502919
 20
10.9140307694
 11
-44.3198832767
 21
59.7482118627
  0
LINE
  5
26D
100
AcDbEntity
  8
0
100
AcDbLine
 62
7
  6
CONTINUOUS
 10
44.3198832767
 20
13.2593246716
 11
-40.5320694895
 21
62.251778754
  0
LINE
  5
26E
100
AcDbEntity
  8
0
100
AcDbLine
 62
7
  6
CONTINUOUS
 10
39.5270270784
 20
-61.4787166561
 11
39.5270270784
 21
9.3529169433
  0
LINE
  5
26F
100
AcDbEntity
  8
0
100
AcDbLine
 62
7
  6
CONTINUOUS
 10
40.9654875612
 20
-61.8433345602
 11
40.9654875612
 21
9.688540272
  0
LINE
  5
270
100
AcDbEntity
  8
0
100
AcDbLine
 62
7
  6
CONTINUOUS
 10
40.2579502919
 20
10.9140307694
 11
40.2575878617
 21
10.8894120305
  0
LINE
  5
271
100
AcDbEntity
  8
0
100
AcDbLine
 62
7
  6
CONTINUOUS
 10
39.5270270784
 20
9.3529169433
 11
39.2480511443
 21
9.8361174348
  0
LINE
  5
272
100
AcDbEntity
  8
0
100
AcDbLine
 62
7
  6
CONTINUOUS
 10
40.9439862093
 20
9.7005352194
 11
40.2575878617
 21
10.8894120305
  0
LINE
  5
273
100
AcDbEntity
  8
CURVE
100
AcDbLine
 62
250
  6
CONTINUOUS
 10
42.0963309347
 20
-54.6455849069
 11
42.0963309347
 21
-55.071613382
  0
LINE
  5
274
100
AcDbEntity
  8
CURVE
100
AcDbLine
 62
250
  6
CONTINUOUS
 10
42.0964399064
 20
-56.9081629569
 11
42.0964399064
 21
-56.4453647428
  0
LINE
  5
275
100
AcDbEntity
  8
CURVE
100
AcDbLine
 62
250
  6
CONTINUOUS
 10
42.0964399064
 20
-55.6553921924
 11
42.0964399064
 21
-55.2296551971
  0
LINE
  5
276
100
AcDbEntity
  8
CURVE
100
AcDbLine
 62
250
  6
CONTINUOUS
 10
42.0964399064
 20
-54.2318950436
 11
42.0964399064
 21
-53.8062192836
  0
LINE
  5
277
100
AcDbEntity
  8
CURVE
100
AcDbLine
 62
250
  6
CONTINUOUS
 10
42.0964399064
 20
-52.9586619011
 11
42.0964399064
 21
-52.5371485066
  0
LINE
  5
278
100
AcDbEntity
  8
CURVE
100
AcDbLine
 62
250
  6
CONTINUOUS
 10
42.0964399064
 20
-51.6392230726
 11
42.0964399064
 21
-51.227091738
  0
LINE
  5
279
100
AcDbEntity
  8
CURVE
100
AcDbLine
 62
250
  6
CONTINUOUS
 10
42.9097646912
 20
-49.3842007395
 11
42.9097646912
 21
-49.6276717307
  0
LINE
  5
27A
100
AcDbEntity
  8
CURVE
100
AcDbLine
 62
250
  6
CONTINUOUS
 10
43.209178179
 20
-49.452334305
 11
43.209178179
 21
-49.2239080702
  0
LINE
  5
27B
100
AcDbEntity
  8
CURVE
100
AcDbLine
 62
250
  6
CONTINUOUS
 10
43.2772455626
 20
-51.0175160448
 11
43.2772455626
 21
-50.6096238239
  0
LINE
  5
27C
100
AcDbEntity
  8
CURVE
100
AcDbLine
 62
250
  6
CONTINUOUS
 10
43.5596592572
 20
-50.3724244093
 11
43.5596592572
 21
-50.9526041056
  0
LINE
  5
27D
100
AcDbEntity
  8
CURVE
100
AcDbLine
 62
250
  6
CONTINUOUS
 10
43.924631083
 20
-54.0872154023
 11
43.924631083
 21
-53.6611869272
  0
LINE
  5
27E
100
AcDbEntity
  8
CURVE
100
AcDbLine
 62
250
  6
CONTINUOUS
 10
43.9246310951
 20
-49.4914325069
 11
43.9246310951
 21
-49.0671183405
  0
LINE
  5
27F
100
AcDbEntity
  8
CURVE
100
AcDbLine
 62
250
  6
CONTINUOUS
 10
43.9246310951
 20
-48.4147146479
 11
43.9246310951
 21
-48.0049248698
  0
LINE
  5
280
100
AcDbEntity
  8
CURVE
100
AcDbLine
 62
250
  6
CONTINUOUS
 10
43.924631083
 20
-49.6165352417
 11
43.924631083
 21
-50.0655514375
  0
LINE
  5
281
100
AcDbEntity
  8
CURVE
100
AcDbLine
 62
250
  6
CONTINUOUS
 10
43.924631083
 20
-50.873652894
 11
43.924631083
 21
-51.2950585144
  0
LINE
  5
282
100
AcDbEntity
  8
CURVE
100
AcDbLine
 62
250
  6
CONTINUOUS
 10
43.924631083
 20
-51.361956823
 11
43.924631083
 21
-51.7787257087
  0
LINE
  5
283
100
AcDbEntity
  8
CURVE
100
AcDbLine
 62
250
  6
CONTINUOUS
 10
43.924631083
 20
-52.3728017292
 11
43.924631083
 21
-52.432552657
  0
LINE
  5
284
100
AcDbEntity
  8
CURVE
100
AcDbLine
 62
250
  6
CONTINUOUS
 10
43.924631083
 20
-53.0242723442
 11
43.924631083
 21
-53.4318428758
  0
LINE
  5
285
100
AcDbEntity
  8
CURVE
100
AcDbLine
 62
250
  6
CONTINUOUS
 10
43.924631083
 20
-54.9013620047
 11
43.924631083
 21
-55.2767995321
  0
LINE
  5
286
100
AcDbEntity
  8
0
100
AcDbLine
 62
7
  6
CONTINUOUS
 10
45.0274205459
 20
-59.8145560459
 11
45.0274205459
 21
12.0338341742
  0
LINE
  5
287
100
AcDbEntity
  8
0
100
AcDbLine
 62
7
  6
CONTINUOUS
 10
44.3198832767
 20
13.2593246716
 11
45.0274205459
 21
12.0338341742
  0
LINE
  5
288
100
AcDbEntity
  8
CURVE
100
AcDbLine
 62
7
  6
CONTINUOUS
 10
42.1960041552
 20
-49.2555065232
 11
42.6603084748
 21
-48.7912022036
  0
LINE
  5
289
100
AcDbEntity
  8
CURVE
100
AcDbLine
 62
7
  6
CONTINUOUS
 10
42.1033762807
 20
-49.5581451117
 11
42.9094234156
 21
-48.7520979768
  0
LINE
  5
28A
100
AcDbEntity
  8
CURVE
100
AcDbLine
 62
7
  6
CONTINUOUS
 10
42.0794092151
 20
-49.7921228913
 11
42.4289064799
 21
-49.4426256265
  0
LINE
  5
28B
100
AcDbEntity
  8
CURVE
100
AcDbLine
 62
7
  6
CONTINUOUS
 10
42.6955657885
 20
-49.175966318
 11
43.0434019544
 21
-48.828130152
  0
LINE
  5
28C
100
AcDbEntity
  8
CURVE
100
AcDbLine
 62
7
  6
CONTINUOUS
 10
43.1140830196
 20
-48.7574490868
 11
43.5800857483
 21
-48.2914463581
  0
LINE
  5
28D
100
AcDbEntity
  8
CURVE
100
AcDbLine
 62
7
  6
CONTINUOUS
 10
42.0761760036
 20
-50.0053668169
 11
42.3909002568
 21
-49.6906425636
  0
LINE
  5
28E
100
AcDbEntity
  8
CURVE
100
AcDbLine
 62
7
  6
CONTINUOUS
 10
42.8699380418
 20
-49.2116047786
 11
43.9246310951
 21
-48.1569117253
  0
LINE
  5
28F
100
AcDbEntity
  8
CURVE
100
AcDbLine
 62
7
  6
CONTINUOUS
 10
42.0876677047
 20
-50.2038858297
 11
42.4059893026
 21
-49.8855642319
  0
LINE
  5
290
100
AcDbEntity
  8
CURVE
100
AcDbLine
 62
7
  6
CONTINUOUS
 10
42.9096733415
 20
-49.3818801929
 11
43.2750386386
 21
-49.0165148958
  0
LINE
  5
291
100
AcDbEntity
  8
CURVE
100
AcDbLine
 62
7
  6
CONTINUOUS
 10
43.579354234
 20
-48.7121993005
 11
43.9246310951
 21
-48.3669224393
  0
LINE
  5
292
100
AcDbEntity
  8
CURVE
100
AcDbLine
 62
7
  6
CONTINUOUS
 10
42.108389721
 20
-50.3931745275
 11
42.8320482183
 21
-49.6695160301
  0
LINE
  5
293
100
AcDbEntity
  8
CURVE
100
AcDbLine
 62
7
  6
CONTINUOUS
 10
42.9097646912
 20
-49.5917995572
 11
43.209178179
 21
-49.2923860694
  0
LINE
  5
294
100
AcDbEntity
  8
CURVE
100
AcDbLine
 62
7
  6
CONTINUOUS
 10
42.3983680612
 20
-50.3132069012
 11
43.3176377139
 21
-49.3939372485
  0
LINE
  5
295
100
AcDbEntity
  8
CURVE
100
AcDbLine
 62
7
  6
CONTINUOUS
 10
42.853352814
 20
-50.0682328624
 11
43.7726224667
 21
-49.1489632098
  0
LINE
  5
296
100
AcDbEntity
  8
CURVE
100
AcDbLine
 62
7
  6
CONTINUOUS
 10
43.3083375668
 20
-49.8232588236
 11
43.9246310951
 21
-49.2069652954
  0
LINE
  5
297
100
AcDbEntity
  8
CURVE
100
AcDbLine
 62
7
  6
CONTINUOUS
 10
42.0964399064
 20
-51.2451671981
 11
42.2482787429
 21
-51.0933283616
  0
LINE
  5
298
100
AcDbEntity
  8
CURVE
100
AcDbLine
 62
7
  6
CONTINUOUS
 10
43.7633223197
 20
-49.5782847848
 11
43.9246310951
 21
-49.4169760094
  0
LINE
  5
299
100
AcDbEntity
  8
CURVE
100
AcDbLine
 62
7
  6
CONTINUOUS
 10
42.0964399064
 20
-51.4551779121
 11
43.924631083
 21
-49.6269867355
  0
LINE
  5
29A
100
AcDbEntity
  8
CURVE
100
AcDbLine
 62
7
  6
CONTINUOUS
 10
42.1284272005
 20
-51.633201332
 11
43.924631083
 21
-49.8369974495
  0
LINE
  5
29B
100
AcDbEntity
  8
CURVE
100
AcDbLine
 62
7
  6
CONTINUOUS
 10
42.3871420575
 20
-51.5844971891
 11
42.8599008098
 21
-51.1117384368
  0
LINE
  5
29C
100
AcDbEntity
  8
CURVE
100
AcDbLine
 62
7
  6
CONTINUOUS
 10
43.2772455626
 20
-50.6943936839
 11
43.5596592572
 21
-50.4119799893
  0
LINE
  5
29D
100
AcDbEntity
  8
CURVE
100
AcDbLine
 62
7
  6
CONTINUOUS
 10
43.8081438874
 20
-50.1634953591
 11
43.924631083
 21
-50.0470081635
  0
LINE
  5
29E
100
AcDbEntity
  8
CURVE
100
AcDbLine
 62
7
  6
CONTINUOUS
 10
42.6458569144
 20
-51.5357930461
 11
43.1311505905
 21
-51.05049937
  0
LINE
  5
29F
100
AcDbEntity
  8
CURVE
100
AcDbLine
 62
7
  6
CONTINUOUS
 10
43.2772455626
 20
-50.9044043979
 11
43.5596592572
 21
-50.6219907034
  0
LINE
  5
2A0
100
AcDbEntity
  8
CURVE
100
AcDbLine
 62
7
  6
CONTINUOUS
 10
42.9045717714
 20
-51.4870889031
 11
43.5596592572
 21
-50.8320014174
  0
LINE
  5
2A1
100
AcDbEntity
  8
CURVE
100
AcDbLine
 62
7
  6
CONTINUOUS
 10
43.1632866284
 20
-51.4383847602
 11
43.6737468746
 21
-50.927924514
  0
LINE
  5
2A2
100
AcDbEntity
  8
CURVE
100
AcDbLine
 62
7
  6
CONTINUOUS
 10
42.0964399064
 20
-52.7152421962
 11
42.5950456717
 21
-52.2166364308
  0
LINE
  5
2A3
100
AcDbEntity
  8
CURVE
100
AcDbLine
 62
7
  6
CONTINUOUS
 10
43.4220014854
 20
-51.3896806172
 11
43.924631083
 21
-50.8870510195
  0
LINE
  5
2A4
100
AcDbEntity
  8
CURVE
100
AcDbLine
 62
7
  6
CONTINUOUS
 10
42.0964399064
 20
-52.9252529102
 11
43.1830089679
 21
-51.8386838487
  0
LINE
  5
2A5
100
AcDbEntity
  8
CURVE
100
AcDbLine
 62
7
  6
CONTINUOUS
 10
43.6807163424
 20
-51.3409764742
 11
43.924631083
 21
-51.0970617336
  0
LINE
  5
2A6
100
AcDbEntity
  8
CURVE
100
AcDbLine
 62
250
  6
CONTINUOUS
 10
42.0964399064
 20
-51.227091738
 11
43.924631083
 21
-49.6165352417
  0
LINE
  5
2A7
100
AcDbEntity
  8
CURVE
100
AcDbLine
 62
250
  6
CONTINUOUS
 10
43.924631083
 20
-50.0655514375
 11
43.5596592572
 21
-50.3724244093
  0
LINE
  5
2A8
100
AcDbEntity
  8
CURVE
100
AcDbLine
 62
250
  6
CONTINUOUS
 10
43.2772455626
 20
-50.6096238239
 11
42.5987804353
 21
-51.1706906246
  0
LINE
  5
2A9
100
AcDbEntity
  8
CURVE
100
AcDbLine
 62
250
  6
CONTINUOUS
 10
42.0964399064
 20
-52.5371485066
 11
43.924631083
 21
-51.361956823
  0
LINE
  5
2AA
100
AcDbEntity
  8
CURVE
100
AcDbLine
 62
250
  6
CONTINUOUS
 10
43.924631083
 20
-51.7787257087
 11
42.7358331935
 21
-52.506330148
  0
LINE
  5
2AB
100
AcDbEntity
  8
CURVE
100
AcDbLine
 62
250
  6
CONTINUOUS
 10
43.0712478173
 20
-48.8556152283
 11
43.0604448031
 21
-48.8614318145
  0
LINE
  5
2AC
100
AcDbEntity
  8
CURVE
100
AcDbLine
 62
250
  6
CONTINUOUS
 10
43.9246310951
 20
-49.0671183405
 11
43.209178179
 21
-49.452334305
  0
LINE
  5
2AD
100
AcDbEntity
  8
CURVE
100
AcDbLine
 62
250
  6
CONTINUOUS
 10
42.9097646912
 20
-49.6276717307
 11
42.4078906545
 21
-49.897892016
  0
LINE
  5
2AE
100
AcDbEntity
  8
CURVE
100
AcDbLine
 62
250
  6
CONTINUOUS
 10
42.1177995647
 20
-50.4642712992
 11
43.9246310951
 21
-49.4914325069
  0
LINE
  5
2AF
100
AcDbEntity
  8
CURVE
100
AcDbLine
 62
250
  6
CONTINUOUS
 10
42.730857063
 20
-53.5750901621
 11
43.924631083
 21
-53.0242723442
  0
LINE
  5
2B0
100
AcDbEntity
  8
CURVE
100
AcDbLine
 62
250
  6
CONTINUOUS
 10
43.924631083
 20
-53.4318428758
 11
42.0964399064
 21
-54.2318950436
  0
LINE
  5
2B1
100
AcDbEntity
  8
CURVE
100
AcDbLine
 62
7
  6
CONTINUOUS
 10
42.2968270144
 20
-52.9348765162
 11
43.770972264
 21
-51.4607312666
  0
LINE
  5
2B2
100
AcDbEntity
  8
CURVE
100
AcDbLine
 62
7
  6
CONTINUOUS
 10
42.535122762
 20
-52.9065914826
 11
42.9606342506
 21
-52.4810799941
  0
LINE
  5
2B3
100
AcDbEntity
  8
CURVE
100
AcDbLine
 62
7
  6
CONTINUOUS
 10
43.2502067006
 20
-52.191507544
 11
43.924631083
 21
-51.5170831616
  0
LINE
  5
2B4
100
AcDbEntity
  8
CURVE
100
AcDbLine
 62
7
  6
CONTINUOUS
 10
42.7734185096
 20
-52.8783064491
 11
43.1972186496
 21
-52.454506309
  0
LINE
  5
2B5
100
AcDbEntity
  8
CURVE
100
AcDbLine
 62
7
  6
CONTINUOUS
 10
43.7915419981
 20
-51.8601829605
 11
43.924631083
 21
-51.7270938756
  0
LINE
  5
2B6
100
AcDbEntity
  8
CURVE
100
AcDbLine
 62
7
  6
CONTINUOUS
 10
43.0117142571
 20
-52.8500214155
 11
43.4338030487
 21
-52.4279326239
  0
LINE
  5
2B7
100
AcDbEntity
  8
CURVE
100
AcDbLine
 62
7
  6
CONTINUOUS
 10
42.0964399064
 20
-53.9753064803
 11
43.6703874478
 21
-52.4013589389
  0
LINE
  5
2B8
100
AcDbEntity
  8
CURVE
100
AcDbLine
 62
7
  6
CONTINUOUS
 10
42.0964399064
 20
-54.1853171943
 11
43.9069718469
 21
-52.3747852538
  0
LINE
  5
2B9
100
AcDbEntity
  8
CURVE
100
AcDbLine
 62
7
  6
CONTINUOUS
 10
42.3870489764
 20
-54.1047188383
 11
43.0758693539
 21
-53.4158984608
  0
LINE
  5
2BA
100
AcDbEntity
  8
CURVE
100
AcDbLine
 62
7
  6
CONTINUOUS
 10
42.7604807118
 20
-53.9412978169
 11
43.4657953449
 21
-53.2359831838
  0
LINE
  5
2BB
100
AcDbEntity
  8
CURVE
100
AcDbLine
 62
7
  6
CONTINUOUS
 10
42.0963309347
 20
-54.815458308
 11
42.4643588603
 21
-54.4474303824
  0
LINE
  5
2BC
100
AcDbEntity
  8
CURVE
100
AcDbLine
 62
7
  6
CONTINUOUS
 10
43.1339124473
 20
-53.7778767954
 11
43.8557213359
 21
-53.0560679068
  0
LINE
  5
2BD
100
AcDbEntity
  8
CURVE
100
AcDbLine
 62
7
  6
CONTINUOUS
 10
42.0963309347
 20
-55.0254690221
 11
42.9193436131
 21
-54.2024563437
  0
LINE
  5
2BE
100
AcDbEntity
  8
CURVE
100
AcDbLine
 62
7
  6
CONTINUOUS
 10
43.5073441827
 20
-53.614455774
 11
43.924631083
 21
-53.1971688737
  0
LINE
  5
2BF
100
AcDbEntity
  8
CURVE
100
AcDbLine
 62
7
  6
CONTINUOUS
 10
42.0964399064
 20
-55.2353707644
 11
42.1034064799
 21
-55.2284041909
  0
LINE
  5
2C0
100
AcDbEntity
  8
CURVE
100
AcDbLine
 62
7
  6
CONTINUOUS
 10
42.4513446916
 20
-54.8804659791
 11
43.3743283659
 21
-53.9574823049
  0
LINE
  5
2C1
100
AcDbEntity
  8
CURVE
100
AcDbLine
 62
7
  6
CONTINUOUS
 10
43.8807759182
 20
-53.4510347525
 11
43.924631083
 21
-53.4071795877
  0
LINE
  5
2C2
100
AcDbEntity
  8
CURVE
100
AcDbLine
 62
7
  6
CONTINUOUS
 10
42.0964399064
 20
-55.4453814784
 11
42.3593837119
 21
-55.1824376728
  0
LINE
  5
2C3
100
AcDbEntity
  8
CURVE
100
AcDbLine
 62
7
  6
CONTINUOUS
 10
42.9063294444
 20
-54.6354919403
 11
43.8293131187
 21
-53.7125082661
  0
LINE
  5
2C4
100
AcDbEntity
  8
CURVE
100
AcDbLine
 62
7
  6
CONTINUOUS
 10
42.0964399064
 20
-55.6553921924
 11
42.615360944
 21
-55.1364711548
  0
LINE
  5
2C5
100
AcDbEntity
  8
CURVE
100
AcDbLine
 62
7
  6
CONTINUOUS
 10
43.3613141972
 20
-54.3905179015
 11
43.924631083
 21
-53.8272010157
  0
LINE
  5
2C6
100
AcDbEntity
  8
CURVE
100
AcDbLine
 62
7
  6
CONTINUOUS
 10
42.3656226027
 20
-55.5962202101
 11
42.871338176
 21
-55.0905046367
  0
LINE
  5
2C7
100
AcDbEntity
  8
CURVE
100
AcDbLine
 62
7
  6
CONTINUOUS
 10
43.8162989501
 20
-54.1455438627
 11
43.924631083
 21
-54.0372117297
  0
LINE
  5
2C8
100
AcDbEntity
  8
CURVE
100
AcDbLine
 62
7
  6
CONTINUOUS
 10
42.6348052991
 20
-55.5370482277
 11
43.1273154081
 21
-55.0445381187
  0
LINE
  5
2C9
100
AcDbEntity
  8
CURVE
100
AcDbLine
 62
7
  6
CONTINUOUS
 10
42.9039879954
 20
-55.4778762454
 11
43.3832926402
 21
-54.9985716006
  0
LINE
  5
2CA
100
AcDbEntity
  8
CURVE
100
AcDbLine
 62
7
  6
CONTINUOUS
 10
42.0964399064
 20
-56.4954350484
 11
42.424942078
 21
-56.1669328768
  0
LINE
  5
2CB
100
AcDbEntity
  8
CURVE
100
AcDbLine
 62
7
  6
CONTINUOUS
 10
43.1731706918
 20
-55.418704263
 11
43.6392698722
 21
-54.9526050826
  0
LINE
  5
2CC
100
AcDbEntity
  8
CURVE
100
AcDbLine
 62
7
  6
CONTINUOUS
 10
42.0964399064
 20
-56.7054457625
 11
43.8952471043
 21
-54.9066385645
  0
LINE
  5
2CD
100
AcDbEntity
  8
CURVE
100
AcDbLine
 62
7
  6
CONTINUOUS
 10
42.164184155
 20
-56.8477122278
 11
43.924631083
 21
-55.0872652998
  0
LINE
  5
2CE
100
AcDbEntity
  8
CURVE
100
AcDbLine
 62
250
  6
CONTINUOUS
 10
43.924631083
 20
-52.432552657
 11
42.730857063
 21
-53.5750901621
  0
LINE
  5
2CF
100
AcDbEntity
  8
CURVE
100
AcDbLine
 62
250
  6
CONTINUOUS
 10
42.0964399064
 20
-53.8062192836
 11
43.111457186
 21
-52.838182211
  0
LINE
  5
2D0
100
AcDbEntity
  8
CURVE
100
AcDbLine
 62
250
  6
CONTINUOUS
 10
43.924631083
 20
-55.2767995321
 11
42.0964399064
 21
-56.9081629569
  0
LINE
  5
2D1
100
AcDbEntity
  8
CURVE
100
AcDbLine
 62
250
  6
CONTINUOUS
 10
42.0964399064
 20
-56.4453647428
 11
43.3548407276
 21
-55.3787693924
  0
LINE
  5
2D2
100
AcDbEntity
  8
0
100
AcDbLine
 62
7
  6
CONTINUOUS
 10
39.2480511443
 20
-61.6397627316
 11
39.5270270784
 21
-61.4787166561
  0
LINE
  5
2D3
100
AcDbEntity
  8
0
100
AcDbLine
 62
7
  6
CONTINUOUS
 10
40.2575878617
 20
-62.2511373164
 11
40.9439862093
 21
-61.8548961119
  0
LINE
  5
2D4
100
AcDbEntity
  8
0
100
AcDbLine
 62
7
  6
CONTINUOUS
 10
45.0274205459
 20
-59.8145560459
 11
44.3198832767
 21
-60.2230002398
  0
LINE
  5
2D5
100
AcDbEntity
  8
CURVE
100
AcDbLine
 62
250
  6
CONTINUOUS
 10
43.924631083
 20
-53.6611869272
 11
42.0963309347
 21
-54.6455849069
  0
LINE
  5
2D6
100
AcDbEntity
  8
CURVE
100
AcDbLine
 62
250
  6
CONTINUOUS
 10
42.0963309347
 20
-55.071613382
 11
43.924631083
 21
-54.0872154023
  0
LINE
  5
2D7
100
AcDbEntity
  8
0
100
AcDbLine
 62
7
  6
CONTINUOUS
 10
40.9654875612
 20
-61.8433345602
 11
40.9439862093
 21
-61.8548961119
  0
LINE
  5
2D8
100
AcDbEntity
  8
0
100
AcDbLine
 62
7
  6
CONTINUOUS
 10
40.9654875612
 20
-61.8433345602
 11
45.0274205459
 21
-59.8145560459
  0
LINE
  5
2D9
100
AcDbEntity
  8
0
100
AcDbLine
 62
7
  6
CONTINUOUS
 10
40.2579502919
 20
-62.251778754
 11
44.3198832767
 21
-60.2230002398
  0
ARC
  5
2DA
100
AcDbEntity
  8
0
100
AcDbCircle
 62
7
  6
CONTINUOUS
 10
-21.9911656226
 20
13.114132332
 40
0.3
100
AcDbArc
 50
301.7332683128
 51
359.9978457589
  0
SPLINE
  5
2DB
100
AcDbEntity
  8
0
100
AcDbSpline
 62
250
  6
CONTINUOUS
 70
0
 71
3
 72
11
 73
7
 74
0
 42
0.0000001
 43
0.0000001
 44
0.0000000001
 40
0.0
 40
0.0
 40
0.0
 40
0.0
 40
0.2187601249
 40
0.4523110155
 40
0.711323703
 40
1.0
 40
1.0
 40
1.0
 40
1.0
 10
-21.6911656702
 20
13.1141210525
 30
0.0
 10
-21.6911677548
 20
13.1029520119
 30
0.0
 10
-21.695190154
 20
13.0797094411
 30
0.0
 10
-21.7124401946
 20
13.0472037896
 30
0.0
 10
-21.7397759994
 20
13.0176794676
 30
0.0
 10
-21.762713669
 20
13.0013696921
 30
0.0
 10
-21.7753636825
 20
12.9938062209
 30
0.0
  0
SPLINE
  5
2DC
100
AcDbEntity
  8
0
100
AcDbSpline
 62
250
  6
CONTINUOUS
 70
0
 71
3
 72
11
 73
7
 74
0
 42
0.0000001
 43
0.0000001
 44
0.0000000001
 40
0.0
 40
0.0
 40
0.0
 40
0.0
 40
0.2886987287
 40
0.547729285
 40
0.7812621972
 40
1.0
 40
1.0
 40
1.0
 40
1.0
 10
-21.7753636825
 20
12.9938062209
 30
0.0
 10
-21.7751429891
 20
12.9790752879
 30
0.0
 10
-21.7769498461
 20
12.9510001413
 30
0.0
 10
-21.787675219
 20
12.912239524
 30
0.0
 10
-21.8062388341
 20
12.8804872751
 30
0.0
 10
-21.8238833633
 20
12.8648534121
 30
0.0
 10
-21.8333760898
 20
12.8589808031
 30
0.0
  0
SPLINE
  5
2DD
100
AcDbEntity
  8
0
100
AcDbSpline
 62
7
  6
CONTINUOUS
 70
0
 71
3
 72
13
 73
9
 74
0
 42
0.0000001
 43
0.0000001
 44
0.0000000001
 40
0.0
 40
0.0
 40
0.0
 40
0.0
 40
0.1142615865
 40
0.2375404667
 40
0.5000060664
 40
0.7624683449
 40
0.8857433485
 40
1.0
 40
1.0
 40
1.0
 40
1.0
 10
17.9098754874
 20
-6.7230771293
 30
0.0
 10
17.992169474
 20
-6.7705926459
 30
0.0
 10
18.1547312258
 20
-6.8845335211
 30
0.0
 10
18.4590360165
 20
-7.1693951664
 30
0.0
 10
18.780515164
 20
-7.6084724766
 30
0.0
 10
19.0000273163
 20
-8.1064172778
 30
0.0
 10
19.0945666002
 20
-8.5123748664
 30
0.0
 10
19.1119570154
 20
-8.7101210715
 30
0.0
 10
19.1119570155
 20
-8.8051434085
 30
0.0
  0
SPLINE
  5
2DE
100
AcDbEntity
  8
0
100
AcDbSpline
 62
7
  6
CONTINUOUS
 70
0
 71
3
 72
13
 73
9
 74
0
 42
0.0000001
 43
0.0000001
 44
0.0000000001
 40
0.0
 40
0.0
 40
0.0
 40
0.0
 40
0.1142615865
 40
0.2375404667
 40
0.5000060664
 40
0.7624683449
 40
0.8857433485
 40
1.0
 40
1.0
 40
1.0
 40
1.0
 10
-13.909929666
 20
11.6492795705
 30
0.0
 10
-13.8276356794
 20
11.6017640538
 30
0.0
 10
-13.6650739276
 20
11.4878231787
 30
0.0
 10
-13.3607691369
 20
11.2029615333
 30
0.0
 10
-13.0392899894
 20
10.7638842232
 30
0.0
 10
-12.8197778371
 20
10.265939422
 30
0.0
 10
-12.7252385532
 20
9.8599818333
 30
0.0
 10
-12.707848138
 20
9.6622356283
 30
0.0
 10
-12.7078481379
 20
9.5672132913
 30
0.0
  0
SPLINE
  5
2DF
100
AcDbEntity
  8
0
100
AcDbSpline
 62
7
  6
CONTINUOUS
 70
0
 71
3
 72
11
 73
7
 74
0
 42
0.0000001
 43
0.0000001
 44
0.0000000001
 40
0.0
 40
0.0
 40
0.0
 40
0.0
 40
0.2177670691
 40
0.4509439475
 40
0.710195215
 40
1.0
 40
1.0
 40
1.0
 40
1.0
 10
-23.6316361354
 20
16.9755106926
 30
0.0
 10
-23.5920538168
 20
16.9983650407
 30
0.0
 10
-23.501097857
 20
17.0313994902
 30
0.0
 10
-23.3500416696
 20
17.0351792909
 30
0.0
 10
-23.1890200716
 20
16.9963427033
 30
0.0
 10
-23.0842833678
 20
16.9464758712
 30
0.0
 10
-23.0316071433
 20
16.9160612793
 30
0.0
  0
SPLINE
  5
2E0
100
AcDbEntity
  8
0
100
AcDbSpline
 62
7
  6
CONTINUOUS
 70
0
 71
3
 72
11
 73
7
 74
0
 42
0.0000001
 43
0.0000001
 44
0.0000000001
 40
0.0
 40
0.0
 40
0.0
 40
0.0
 40
0.2177670691
 40
0.4509439475
 40
0.710195215
 40
1.0
 40
1.0
 40
1.0
 40
1.0
 10
8.188169018
 20
-1.3968460072
 30
0.0
 10
8.2277513366
 20
-1.373991659
 30
0.0
 10
8.3187072964
 20
-1.3409572095
 30
0.0
 10
8.4697634838
 20
-1.3371774089
 30
0.0
 10
8.6307850818
 20
-1.3760139964
 30
0.0
 10
8.7355217856
 20
-1.4258808286
 30
0.0
 10
8.7881980101
 20
-1.4562954204
 30
0.0
  0
SPLINE
  5
2E1
100
AcDbEntity
  8
0
100
AcDbSpline
 62
7
  6
CONTINUOUS
 70
0
 71
3
 72
9
 73
5
 74
0
 42
0.0000001
 43
0.0000001
 44
0.0000000001
 40
0.0
 40
0.0
 40
0.0
 40
0.0
 40
0.2715340105
 40
1.0
 40
1.0
 40
1.0
 40
1.0
 10
-12.7078481379
 20
-0.9652138244
 30
0.0
 10
-12.707848138
 20
-0.9964512003
 30
0.0
 10
-12.7125857445
 20
-1.1112704781
 30
0.0
 10
-12.7378884793
 20
-1.2265077206
 30
0.0
 10
-12.7724375354
 20
-1.3028576144
 30
0.0
  0
SPLINE
  5
2E2
100
AcDbEntity
  8
0
100
AcDbSpline
 62
7
  6
CONTINUOUS
 70
0
 71
3
 72
9
 73
5
 74
0
 42
0.0000001
 43
0.0000001
 44
0.0000000001
 40
0.0
 40
0.0
 40
0.0
 40
0.0
 40
0.5170807976
 40
1.0
 40
1.0
 40
1.0
 40
1.0
 10
-12.7724375354
 20
-1.3028576144
 30
0.0
 10
-12.7926100529
 20
-1.3474368227
 30
0.0
 10
-12.8427311059
 20
-1.4294624398
 30
0.0
 10
-12.9167720812
 20
-1.4916478187
 30
0.0
 10
-12.9563472832
 20
-1.5144980578
 30
0.0
  0
SPLINE
  5
2E3
100
AcDbEntity
  8
0
100
AcDbSpline
 62
7
  6
CONTINUOUS
 70
0
 71
3
 72
11
 73
7
 74
0
 42
0.0000001
 43
0.0000001
 44
0.0000000001
 40
0.0
 40
0.0
 40
0.0
 40
0.0
 40
0.2372134916
 40
0.4999938932
 40
0.7627776188
 40
1.0
 40
1.0
 40
1.0
 40
1.0
 10
-22.890185787
 20
6.0571091808
 30
0.0
 10
-22.890185787
 20
5.9180216147
 30
0.0
 10
-22.8380155232
 20
5.6246664965
 30
0.0
 10
-22.6561650433
 20
5.2124360266
 30
0.0
 10
-22.3900845597
 20
4.8488298469
 30
0.0
 10
-22.162113589
 20
4.6569650864
 30
0.0
 10
-22.0416576496
 20
4.5874153367
 30
0.0
  0
SPLINE
  5
2E4
100
AcDbEntity
  8
0
100
AcDbSpline
 62
7
  6
CONTINUOUS
 70
0
 71
3
 72
11
 73
7
 74
0
 42
0.0000001
 43
0.0000001
 44
0.0000000001
 40
0.0
 40
0.0
 40
0.0
 40
0.0
 40
0.2372134916
 40
0.4999938932
 40
0.7627776188
 40
1.0
 40
1.0
 40
1.0
 40
1.0
 10
8.9296193664
 20
-12.3152475189
 30
0.0
 10
8.9296193664
 20
-12.454335085
 30
0.0
 10
8.9817896302
 20
-12.7476902033
 30
0.0
 10
9.1636401101
 20
-13.1599206732
 30
0.0
 10
9.4297205937
 20
-13.5235268528
 30
0.0
 10
9.6576915644
 20
-13.7153916133
 30
0.0
 10
9.7781475038
 20
-13.7849413631
 30
0.0
  0
SPLINE
  5
2E5
100
AcDbEntity
  8
0
100
AcDbSpline
 62
7
  6
CONTINUOUS
 70
0
 71
3
 72
9
 73
5
 74
0
 42
0.0000001
 43
0.0000001
 44
0.0000000001
 40
0.0
 40
0.0
 40
0.0
 40
0.0
 40
0.2715340105
 40
1.0
 40
1.0
 40
1.0
 40
1.0
 10
19.1119570155
 20
-19.3375705242
 30
0.0
 10
19.1119570154
 20
-19.3688079
 30
0.0
 10
19.1072194089
 20
-19.4836271779
 30
0.0
 10
19.081916674
 20
-19.5988644203
 30
0.0
 10
19.047367618
 20
-19.6752143142
 30
0.0
  0
SPLINE
  5
2E6
100
AcDbEntity
  8
0
100
AcDbSpline
 62
7
  6
CONTINUOUS
 70
0
 71
3
 72
9
 73
5
 74
0
 42
0.0000001
 43
0.0000001
 44
0.0000000001
 40
0.0
 40
0.0
 40
0.0
 40
0.0
 40
0.5170807976
 40
1.0
 40
1.0
 40
1.0
 40
1.0
 10
19.047367618
 20
-19.6752143142
 30
0.0
 10
19.0271951005
 20
-19.7197935225
 30
0.0
 10
18.9770740475
 20
-19.8018191395
 30
0.0
 10
18.9030330722
 20
-19.8640045184
 30
0.0
 10
18.8634578702
 20
-19.8868547575
 30
0.0
  0
SPLINE
  5
2E7
100
AcDbEntity
  8
0
100
AcDbSpline
 62
7
  6
CONTINUOUS
 70
0
 71
3
 72
13
 73
9
 74
0
 42
0.0000001
 43
0.0000001
 44
0.0000000001
 40
0.0
 40
0.0
 40
0.0
 40
0.0
 40
0.1142615865
 40
0.2375404667
 40
0.5000060664
 40
0.7624683449
 40
0.8857433485
 40
1.0
 40
1.0
 40
1.0
 40
1.0
 10
-23.3851605339
 20
3.403458471
 30
0.0
 10
-23.4674545204
 20
3.4509739876
 30
0.0
 10
-23.6300162722
 20
3.5649148628
 30
0.0
 10
-23.9343210629
 20
3.8497765081
 30
0.0
 10
-24.2558002104
 20
4.2888538183
 30
0.0
 10
-24.4753123627
 20
4.7867986195
 30
0.0
 10
-24.5698516466
 20
5.1927562081
 30
0.0
 10
-24.5872420618
 20
5.3905024132
 30
0.0
 10
-24.5872420619
 20
5.4855247502
 30
0.0
  0
SPLINE
  5
2E8
100
AcDbEntity
  8
0
100
AcDbSpline
 62
7
  6
CONTINUOUS
 70
0
 71
3
 72
15
 73
11
 74
0
 42
0.0000001
 43
0.0000001
 44
0.0000000001
 40
0.0
 40
0.0
 40
0.0
 40
0.0
 40
0.1449018481
 40
0.2745170406
 40
0.3911053286
 40
0.4999889043
 40
0.6088744936
 40
0.7254681391
 40
0.8550905429
 40
1.0
 40
1.0
 40
1.0
 40
1.0
 10
-12.7078481379
 20
-1.3734884177
 30
0.0
 10
-12.7078481381
 20
-1.4596519383
 30
0.0
 10
-12.7208685952
 20
-1.6234604719
 30
0.0
 10
-12.7872433902
 20
-1.8484665226
 30
0.0
 10
-12.8990143687
 20
-2.0311759957
 30
0.0
 10
-13.0541638374
 20
-2.1616553361
 30
0.0
 10
-13.244747655
 20
-2.2307582207
 30
0.0
 10
-13.4588728229
 20
-2.2361811967
 30
0.0
 10
-13.6869292491
 20
-2.1811443352
 30
0.0
 10
-13.8353071518
 20
-2.110507184
 30
0.0
 10
-13.909929666
 20
-2.0674210796
 30
0.0
  0
SPLINE
  5
2E9
100
AcDbEntity
  8
0
100
AcDbSpline
 62
7
  6
CONTINUOUS
 70
0
 71
3
 72
15
 73
11
 74
0
 42
0.0000001
 43
0.0000001
 44
0.0000000001
 40
0.0
 40
0.0
 40
0.0
 40
0.0
 40
0.1449018481
 40
0.2745170406
 40
0.3911053286
 40
0.4999889043
 40
0.6088744936
 40
0.7254681391
 40
0.8550905429
 40
1.0
 40
1.0
 40
1.0
 40
1.0
 10
19.1119570155
 20
-19.7458451175
 30
0.0
 10
19.1119570153
 20
-19.8320086381
 30
0.0
 10
19.0989365582
 20
-19.9958171716
 30
0.0
 10
19.0325617632
 20
-20.2208232223
 30
0.0
 10
18.9207907847
 20
-20.4035326955
 30
0.0
 10
18.765641316
 20
-20.5340120358
 30
0.0
 10
18.5750574984
 20
-20.6031149205
 30
0.0
 10
18.3609323305
 20
-20.6085378964
 30
0.0
 10
18.1328759043
 20
-20.5535010349
 30
0.0
 10
17.9844980016
 20
-20.4828638838
 30
0.0
 10
17.9098754874
 20
-20.4397777794
 30
0.0
  0
SPLINE
  5
2EA
100
AcDbEntity
  8
0
100
AcDbSpline
 62
7
  6
CONTINUOUS
 70
0
 71
3
 72
15
 73
11
 74
0
 42
0.0000001
 43
0.0000001
 44
0.0000000001
 40
0.0
 40
0.0
 40
0.0
 40
0.0
 40
0.1449018481
 40
0.2745170406
 40
0.3911053286
 40
0.4999889043
 40
0.6088744936
 40
0.7254681391
 40
0.8550905429
 40
1.0
 40
1.0
 40
1.0
 40
1.0
 10
-24.5872420619
 20
16.4262264592
 30
0.0
 10
-24.5872420617
 20
16.5123899798
 30
0.0
 10
-24.5742216046
 20
16.6761985133
 30
0.0
 10
-24.5078468096
 20
16.901204564
 30
0.0
 10
-24.3960758311
 20
17.0839140372
 30
0.0
 10
-24.2409263624
 20
17.2143933775
 30
0.0
 10
-24.0503425448
 20
17.2834962621
 30
0.0
 10
-23.8362173769
 20
17.2889192381
 30
0.0
 10
-23.6081609507
 20
17.2338823766
 30
0.0
 10
-23.459783048
 20
17.1632452255
 30
0.0
 10
-23.3851605339
 20
17.1201591211
 30
0.0
  0
SPLINE
  5
2EB
100
AcDbEntity
  8
0
100
AcDbSpline
 62
7
  6
CONTINUOUS
 70
0
 71
3
 72
15
 73
11
 74
0
 42
0.0000001
 43
0.0000001
 44
0.0000000001
 40
0.0
 40
0.0
 40
0.0
 40
0.0
 40
0.1449018481
 40
0.2745170406
 40
0.3911053286
 40
0.4999889043
 40
0.6088744936
 40
0.7254681391
 40
0.8550905429
 40
1.0
 40
1.0
 40
1.0
 40
1.0
 10
7.2325630915
 20
-1.9461302406
 30
0.0
 10
7.2325630917
 20
-1.85996672
 30
0.0
 10
7.2455835488
 20
-1.6961581864
 30
0.0
 10
7.3119583438
 20
-1.4711521357
 30
0.0
 10
7.4237293223
 20
-1.2884426626
 30
0.0
 10
7.578878791
 20
-1.1579633222
 30
0.0
 10
7.7694626086
 20
-1.0888604376
 30
0.0
 10
7.9835877765
 20
-1.0834374616
 30
0.0
 10
8.2116442027
 20
-1.1384743231
 30
0.0
 10
8.3600221054
 20
-1.2091114743
 30
0.0
 10
8.4346446195
 20
-1.2521975787
 30
0.0
  0
SPLINE
  5
2EC
100
AcDbEntity
  8
0
100
AcDbSpline
 62
7
  6
CONTINUOUS
 70
0
 71
3
 72
9
 73
5
 74
0
 42
0.0000001
 43
0.0000001
 44
0.0000000001
 40
0.0
 40
0.0
 40
0.0
 40
0.0
 40
0.244072513
 40
1.0
 40
1.0
 40
1.0
 40
1.0
 10
-23.0316071433
 20
4.015830906
 30
0.0
 10
-23.0409286574
 20
4.0212130315
 30
0.0
 10
-23.078802363
 20
4.0438124702
 30
0.0
 10
-23.1154114152
 20
4.0685143268
 30
0.0
 10
-23.1423462933
 20
4.088157532
 30
0.0
  0
SPLINE
  5
2ED
100
AcDbEntity
  8
0
100
AcDbSpline
 62
7
  6
CONTINUOUS
 70
0
 71
3
 72
11
 73
7
 74
0
 42
0.0000001
 43
0.0000001
 44
0.0000000001
 40
0.0
 40
0.0
 40
0.0
 40
0.0
 40
0.2411113126
 40
0.5000051076
 40
0.758896199
 40
1.0
 40
1.0
 40
1.0
 40
1.0
 10
-23.1423462933
 20
4.088157532
 30
0.0
 10
-23.2395323242
 20
4.1590338559
 30
0.0
 10
-23.422232939
 20
4.3324294787
 30
0.0
 10
-23.6418851099
 20
4.6432935227
 30
0.0
 10
-23.8012741581
 20
4.9889462597
 30
0.0
 10
-23.8600862164
 20
5.2338631178
 30
0.0
 10
-23.8728713925
 20
5.3534633506
 30
0.0
  0
SPLINE
  5
2EE
100
AcDbEntity
  8
0
100
AcDbSpline
 62
7
  6
CONTINUOUS
 70
0
 71
3
 72
9
 73
5
 74
0
 42
0.0000001
 43
0.0000001
 44
0.0000000001
 40
0.0
 40
0.0
 40
0.0
 40
0.0
 40
0.2558737311
 40
1.0
 40
1.0
 40
1.0
 40
1.0
 10
-23.8728713925
 20
5.3534633506
 30
0.0
 10
-23.8740707726
 20
5.3646830742
 30
0.0
 10
-23.8782123717
 20
5.408587183
 30
0.0
 10
-23.8801352807
 20
5.4527098971
 30
0.0
 10
-23.8801352807
 20
5.4855247502
 30
0.0
  0
SPLINE
  5
2EF
100
AcDbEntity
  8
0
100
AcDbSpline
 62
7
  6
CONTINUOUS
 70
0
 71
3
 72
11
 73
7
 74
0
 42
0.0000001
 43
0.0000001
 44
0.0000000001
 40
0.0
 40
0.0
 40
0.0
 40
0.0
 40
0.2897992298
 40
0.5490484708
 40
0.7822275827
 40
1.0
 40
1.0
 40
1.0
 40
1.0
 10
7.9396698727
 20
-1.9461302406
 30
0.0
 10
7.9396698726
 20
-1.8853142551
 30
0.0
 10
7.9488538224
 20
-1.7696953599
 30
0.0
 10
7.9957268058
 20
-1.6108541288
 30
0.0
 10
8.074517244
 20
-1.4819442733
 30
0.0
 10
8.1485916448
 20
-1.4196974999
 30
0.0
 10
8.188169018
 20
-1.3968460072
 30
0.0
  0
SPLINE
  5
2F0
100
AcDbEntity
  8
0
100
AcDbSpline
 62
7
  6
CONTINUOUS
 70
0
 71
3
 72
11
 73
7
 74
0
 42
0.0000001
 43
0.0000001
 44
0.0000000001
 40
0.0
 40
0.0
 40
0.0
 40
0.0
 40
0.2897992298
 40
0.5490484708
 40
0.7822275827
 40
1.0
 40
1.0
 40
1.0
 40
1.0
 10
-23.8801352807
 20
16.4262264592
 30
0.0
 10
-23.8801352808
 20
16.4870424446
 30
0.0
 10
-23.870951331
 20
16.6026613399
 30
0.0
 10
-23.8240783476
 20
16.7615025709
 30
0.0
 10
-23.7452879094
 20
16.8904124264
 30
0.0
 10
-23.6712135086
 20
16.9526591998
 30
0.0
 10
-23.6316361354
 20
16.9755106926
 30
0.0
  0
SPLINE
  5
2F1
100
AcDbEntity
  8
0
100
AcDbSpline
 62
7
  6
CONTINUOUS
 70
0
 71
3
 72
9
 73
5
 74
0
 42
0.0000001
 43
0.0000001
 44
0.0000000001
 40
0.0
 40
0.0
 40
0.0
 40
0.0
 40
0.244072513
 40
1.0
 40
1.0
 40
1.0
 40
1.0
 10
8.7881980101
 20
-14.3565257937
 30
0.0
 10
8.778876496
 20
-14.3511436683
 30
0.0
 10
8.7410027904
 20
-14.3285442296
 30
0.0
 10
8.7043937382
 20
-14.303842373
 30
0.0
 10
8.67745886
 20
-14.2841991678
 30
0.0
  0
SPLINE
  5
2F2
100
AcDbEntity
  8
0
100
AcDbSpline
 62
7
  6
CONTINUOUS
 70
0
 71
3
 72
11
 73
7
 74
0
 42
0.0000001
 43
0.0000001
 44
0.0000000001
 40
0.0
 40
0.0
 40
0.0
 40
0.0
 40
0.2411113126
 40
0.5000051076
 40
0.758896199
 40
1.0
 40
1.0
 40
1.0
 40
1.0
 10
8.67745886
 20
-14.2841991678
 30
0.0
 10
8.5802728291
 20
-14.2133228438
 30
0.0
 10
8.3975722144
 20
-14.0399272211
 30
0.0
 10
8.1779200435
 20
-13.729063177
 30
0.0
 10
8.0185309953
 20
-13.3834104401
 30
0.0
 10
7.959718937
 20
-13.138493582
 30
0.0
 10
7.9469337609
 20
-13.0188933492
 30
0.0
  0
SPLINE
  5
2F3
100
AcDbEntity
  8
0
100
AcDbSpline
 62
7
  6
CONTINUOUS
 70
0
 71
3
 72
9
 73
5
 74
0
 42
0.0000001
 43
0.0000001
 44
0.0000000001
 40
0.0
 40
0.0
 40
0.0
 40
0.0
 40
0.2558737311
 40
1.0
 40
1.0
 40
1.0
 40
1.0
 10
7.9469337609
 20
-13.0188933492
 30
0.0
 10
7.9457343808
 20
-13.0076736255
 30
0.0
 10
7.9415927817
 20
-12.9637695168
 30
0.0
 10
7.9396698727
 20
-12.9196468026
 30
0.0
 10
7.9396698727
 20
-12.8868319496
 30
0.0
  0
SPLINE
  5
2F4
100
AcDbEntity
  8
0
100
AcDbSpline
 62
7
  6
CONTINUOUS
 70
0
 71
3
 72
11
 73
7
 74
0
 42
0.0000001
 43
0.0000001
 44
0.0000000001
 40
0.0
 40
0.0
 40
0.0
 40
0.0
 40
0.2177670691
 40
0.4509439475
 40
0.710195215
 40
1.0
 40
1.0
 40
1.0
 40
1.0
 10
-12.9563472832
 20
-1.5144980578
 30
0.0
 10
-12.9959296018
 20
-1.537352406
 30
0.0
 10
-13.0868855616
 20
-1.5703868554
 30
0.0
 10
-13.237941749
 20
-1.5741666561
 30
0.0
 10
-13.398963347
 20
-1.5353300685
 30
0.0
 10
-13.5037000508
 20
-1.4854632364
 30
0.0
 10
-13.5563762754
 20
-1.4550486446
 30
0.0
  0
SPLINE
  5
2F5
100
AcDbEntity
  8
0
100
AcDbSpline
 62
7
  6
CONTINUOUS
 70
0
 71
3
 72
13
 73
9
 74
0
 42
0.0000001
 43
0.0000001
 44
0.0000000001
 40
0.0
 40
0.0
 40
0.0
 40
0.0
 40
0.1142615865
 40
0.2375404667
 40
0.5000060664
 40
0.7624683449
 40
0.8857433485
 40
1.0
 40
1.0
 40
1.0
 40
1.0
 10
8.4346446195
 20
-14.9688982288
 30
0.0
 10
8.352350633
 20
-14.9213827121
 30
0.0
 10
8.1897888812
 20
-14.807441837
 30
0.0
 10
7.8854840905
 20
-14.5225801916
 30
0.0
 10
7.564004943
 20
-14.0835028815
 30
0.0
 10
7.3444927907
 20
-13.5855580803
 30
0.0
 10
7.2499535068
 20
-13.1796004916
 30
0.0
 10
7.2325630916
 20
-12.9818542866
 30
0.0
 10
7.2325630915
 20
-12.8868319496
 30
0.0
  0
SPLINE
  5
2F6
100
AcDbEntity
  8
0
100
AcDbSpline
 62
7
  6
CONTINUOUS
 70
0
 71
3
 72
11
 73
7
 74
0
 42
0.0000001
 43
0.0000001
 44
0.0000000001
 40
0.0
 40
0.0
 40
0.0
 40
0.0
 40
0.2177670691
 40
0.4509439475
 40
0.710195215
 40
1.0
 40
1.0
 40
1.0
 40
1.0
 10
18.8634578702
 20
-19.8868547575
 30
0.0
 10
18.8238755516
 20
-19.9097091057
 30
0.0
 10
18.7329195918
 20
-19.9427435552
 30
0.0
 10
18.5818634044
 20
-19.9465233559
 30
0.0
 10
18.4208418064
 20
-19.9076867683
 30
0.0
 10
18.3161051026
 20
-19.8578199362
 30
0.0
 10
18.263428878
 20
-19.8274053443
 30
0.0
  0
SPLINE
  5
2F7
100
AcDbEntity
  8
CURVE
100
AcDbSpline
 62
250
  6
CONTINUOUS
 70
0
 71
3
 72
17
 73
13
 74
0
 42
0.0000001
 43
0.0000001
 44
0.0000000001
 40
0.0
 40
0.0
 40
0.0
 40
0.0
 40
0.0559780952
 40
0.1687540387
 40
0.321006234
 40
0.4122750837
 40
0.516613223
 40
0.6013931059
 40
0.6776022439
 40
0.8103422694
 40
0.9200404832
 40
1.0
 40
1.0
 40
1.0
 40
1.0
 10
43.0604448031
 20
-48.8614318145
 30
0.0
 10
43.0577250637
 20
-48.8393651003
 30
0.0
 10
43.0155284743
 20
-48.802271724
 30
0.0
 10
42.9350900033
 20
-48.7463887611
 30
0.0
 10
42.8112674658
 20
-48.7400200269
 30
0.0
 10
42.6820925321
 20
-48.7770341538
 30
0.0
 10
42.5748800336
 20
-48.8317030325
 30
0.0
 10
42.4747444297
 20
-48.9017276849
 30
0.0
 10
42.3683425389
 20
-48.9980604846
 30
0.0
 10
42.2640663664
 20
-49.1275370424
 30
0.0
 10
42.1825196602
 20
-49.2749825878
 30
0.0
 10
42.1473493128
 20
-49.365108574
 30
0.0
 10
42.1370475746
 20
-49.4025348593
 30
0.0
  0
SPLINE
  5
2F8
100
AcDbEntity
  8
CURVE
100
AcDbSpline
 62
250
  6
CONTINUOUS
 70
0
 71
3
 72
9
 73
5
 74
0
 42
0.0000001
 43
0.0000001
 44
0.0000000001
 40
0.0
 40
0.0
 40
0.0
 40
0.0
 40
0.2426586216
 40
1.0
 40
1.0
 40
1.0
 40
1.0
 10
43.4298174039
 20
-48.4169855186
 30
0.0
 10
43.3965961014
 20
-48.4449764149
 30
0.0
 10
43.2624403859
 20
-48.5558038258
 30
0.0
 10
43.1110509768
 20
-48.7227472196
 30
0.0
 10
43.0712478173
 20
-48.8556152283
 30
0.0
  0
SPLINE
  5
2F9
100
AcDbEntity
  8
CURVE
100
AcDbSpline
 62
250
  6
CONTINUOUS
 70
0
 71
3
 72
9
 73
5
 74
0
 42
0.0000001
 43
0.0000001
 44
0.0000000001
 40
0.0
 40
0.0
 40
0.0
 40
0.0
 40
0.1980141723
 40
1.0
 40
1.0
 40
1.0
 40
1.0
 10
43.9246310951
 20
-48.0049248698
 30
0.0
 10
43.892035783
 20
-48.0323580225
 30
0.0
 10
43.7270547748
 20
-48.1695608711
 30
0.0
 10
43.5618047618
 20
-48.3057762763
 30
0.0
 10
43.4298174039
 20
-48.4169855186
 30
0.0
  0
SPLINE
  5
2FA
100
AcDbEntity
  8
CURVE
100
AcDbSpline
 62
250
  6
CONTINUOUS
 70
0
 71
3
 72
9
 73
5
 74
0
 42
0.0000001
 43
0.0000001
 44
0.0000000001
 40
0.0
 40
0.0
 40
0.0
 40
0.0
 40
0.5586214172
 40
1.0
 40
1.0
 40
1.0
 40
1.0
 10
43.3702637322
 20
-48.8994902564
 30
0.0
 10
43.471182617
 20
-48.8028269329
 30
0.0
 10
43.6580559051
 20
-48.646547268
 30
0.0
 10
43.8427676835
 20
-48.4850669912
 30
0.0
 10
43.9246310951
 20
-48.4147146479
 30
0.0
  0
SPLINE
  5
2FB
100
AcDbEntity
  8
CURVE
100
AcDbSpline
 62
250
  6
CONTINUOUS
 70
0
 71
3
 72
9
 73
5
 74
0
 42
0.0000001
 43
0.0000001
 44
0.0000000001
 40
0.0
 40
0.0
 40
0.0
 40
0.0
 40
0.3559141631
 40
1.0
 40
1.0
 40
1.0
 40
1.0
 10
43.209178179
 20
-49.2239080702
 30
0.0
 10
43.209178179
 20
-49.1867827713
 30
0.0
 10
43.2293151407
 20
-49.0691410484
 30
0.0
 10
43.3139203432
 20
-48.9534326974
 30
0.0
 10
43.3702637322
 20
-48.8994902564
 30
0.0
  0
SPLINE
  5
2FC
100
AcDbEntity
  8
CURVE
100
AcDbSpline
 62
250
  6
CONTINUOUS
 70
0
 71
3
 72
9
 73
5
 74
0
 42
0.0000001
 43
0.0000001
 44
0.0000000001
 40
0.0
 40
0.0
 40
0.0
 40
0.0
 40
0.2957417834
 40
1.0
 40
1.0
 40
1.0
 40
1.0
 10
42.1370475746
 20
-49.4025348593
 30
0.0
 10
42.10528707
 20
-49.5177785455
 30
0.0
 10
42.0535155543
 20
-49.8984185819
 30
0.0
 10
42.0854015216
 20
-50.2358659625
 30
0.0
 10
42.1177995647
 20
-50.4642712992
 30
0.0
  0
SPLINE
  5
2FD
100
AcDbEntity
  8
CURVE
100
AcDbSpline
 62
250
  6
CONTINUOUS
 70
0
 71
3
 72
9
 73
5
 74
0
 42
0.0000001
 43
0.0000001
 44
0.0000000001
 40
0.0
 40
0.0
 40
0.0
 40
0.0
 40
0.5206208722
 40
1.0
 40
1.0
 40
1.0
 40
1.0
 10
42.625664613
 20
-49.2062278952
 30
0.0
 10
42.7046983507
 20
-49.1623129062
 30
0.0
 10
42.8773467732
 20
-49.1316866335
 30
0.0
 10
42.9081394659
 20
-49.303843942
 30
0.0
 10
42.9097646912
 20
-49.3842007395
 30
0.0
  0
SPLINE
  5
2FE
100
AcDbEntity
  8
CURVE
100
AcDbSpline
 62
250
  6
CONTINUOUS
 70
0
 71
3
 72
9
 73
5
 74
0
 42
0.0000001
 43
0.0000001
 44
0.0000000001
 40
0.0
 40
0.0
 40
0.0
 40
0.0
 40
0.5013510385
 40
1.0
 40
1.0
 40
1.0
 40
1.0
 10
42.3971287686
 20
-49.5699316234
 30
0.0
 10
42.4036222376
 20
-49.5039960527
 30
0.0
 10
42.4528767944
 20
-49.3511854293
 30
0.0
 10
42.5696691691
 20
-49.2373548266
 30
0.0
 10
42.625664613
 20
-49.2062278952
 30
0.0
  0
SPLINE
  5
2FF
100
AcDbEntity
  8
CURVE
100
AcDbSpline
 62
250
  6
CONTINUOUS
 70
0
 71
3
 72
9
 73
5
 74
0
 42
0.0000001
 43
0.0000001
 44
0.0000000001
 40
0.0
 40
0.0
 40
0.0
 40
0.0
 40
0.2703953699
 40
1.0
 40
1.0
 40
1.0
 40
1.0
 10
42.4078906545
 20
-49.897892016
 30
0.0
 10
42.4033457905
 20
-49.8706041301
 30
0.0
 10
42.3883980951
 20
-49.7683398582
 30
0.0
 10
42.3887225926
 20
-49.6553079858
 30
0.0
 10
42.3971287686
 20
-49.5699316234
 30
0.0
  0
ENDSEC
  0
SECTION
  2
OBJECTS
  0
DICTIONARY
  5
C
100
AcDbDictionary
280
0
281
1
  3
ACAD_GROUP
350
D
  3
ACAD_MLINESTYLE
350
17
  3
ACAD_LAYOUT
350
1A
  3
ACAD_PLOTSETTINGS
350
19
  3
ACAD_PLOTSTYLENAME
350
E
  0
DICTIONARY
  5
D
102
{ACAD_REACTORS
330
C
102
}
100
AcDbDictionary
280
0
281
1
  0
ACDBDICTIONARYWDFLT
  5
E
102
{ACAD_REACTORS
330
C
102
}
100
AcDbDictionary
281
1
  3
Normal
350
F
100
AcDbDictionaryWithDefault
340
F
  0
DICTIONARY
  5
17
102
{ACAD_REACTORS
330
C
102
}
100
AcDbDictionary
280
0
281
1
  3
Standard
350
18
  0
DICTIONARY
  5
19
102
{ACAD_REACTORS
330
C
102
}
100
AcDbDictionary
281
1
  0
DICTIONARY
  5
1A
102
{ACAD_REACTORS
330
C
102
}
100
AcDbDictionary
281
1
  3
Model
350
300
  3
Layout1
350
301
  0
ACDBPLACEHOLDER
  5
F
102
{ACAD_REACTORS
330
E
102
}
  0
MLINESTYLE
  5
18
102
{ACAD_REACTORS
330
17
102
}
100
AcDbMlineStyle
  2
STANDARD
 70
0
  3

 62
256
 51
90.0
 52
90.0
 71
2
 49
0.5
 62
256
  6
BYLAYER
 49
-0.5
 62
256
  6
BYLAYER
  0
LAYOUT
  5
300
102
{ACAD_REACTORS
330
1A
102
}
100
AcDbPlotSettings
  1

  2
none_device
  4
ISO_A4_(297.00_x_210.00_MM)
  6

 40
0.0
 41
0.0
 42
0.0
 43
0.0
 44
297.0
 45
210.0
 46
0.0
 47
0.0
 48
0.0
 49
0.0
140
0.0
141
0.0
142
1.0
143
1.0
 70
1024
 72
1
 73
0
 74
0
  7

 75
0
147
1.0
148
0.0
149
0.0
100
AcDbLayout
  1
Model
 70
0
 71
0
 10
0.0
 20
0.0
 11
297.0
 21
210.0
 12
0.0
 22
0.0
 32
0.0
 14
0.0
 24
0.0
 34
0.0
 15
0.0
 25
0.0
 35
0.0
146
0.0
 13
0.0
 23
0.0
 33
0.0
 16
1.0
 26
0.0
 36
0.0
 17
0.0
 27
1.0
 37
0.0
 76
0
330
21E
345
0
346
0
  0
LAYOUT
  5
301
102
{ACAD_REACTORS
330
1A
102
}
100
AcDbPlotSettings
  1

  2
none_device
  4
ISO_A4_(297.00_x_210.00_MM)
  6

 40
0.0
 41
0.0
 42
0.0
 43
0.0
 44
297.0
 45
210.0
 46
0.0
 47
0.0
 48
0.0
 49
0.0
140
0.0
141
0.0
142
1.0
143
1.0
 70
0
 72
1
 73
0
 74
0
  7

 75
0
147
1.0
148
0.0
149
0.0
100
AcDbLayout
  1
Layout1
 70
0
 71
1
 10
0.0
 20
0.0
 11
297.0
 21
210.0
 12
0.0
 22
0.0
 32
0.0
 14
0.0
 24
0.0
 34
0.0
 15
0.0
 25
0.0
 35
0.0
146
0.0
 13
0.0
 23
0.0
 33
0.0
 16
1.0
 26
0.0
 36
0.0
 17
0.0
 27
1.0
 37
0.0
 76
0
330
21F
345
0
346
0
  0
ENDSEC
  0
EOF
