  0
SECTION
  2
HEADER
  9
$ACADVER
  1
AC1024
  9
$DWGCODEPAGE
  3
ANSI_1252
  9
$EXTMAX
 10
297.0
 20
210.0
 30
0.0
  9
$EXTMIN
 10
0.0
 20
0.0
 30
0.0
  9
$LIMMIN
 10
0.0
 20
0.0
  9
$LIMMAX
 10
297.0
 20
210.0
  9
$VIEWCTR
 10
148.5
 20
105.0
  9
$VIEWSIZE
 40
210.0
  9
$CLAYER
  8
0
  9
$LTSCALE
 40
16.335
  9
$CELTYPE
  6
BYLAYER
  9
$DIMSCALE
 40
1.0
  9
$DIMASZ
 40
3.0
  9
$DIMEXO
 40
0.5
  9
$DIMDLI
 40
11.286
  9
$DIMEXE
 40
1.5
  9
$DIMCEN
 40
2.673
  9
$DIMLFAC
 40
1.0
  9
$DIMBLK
  1
_FILLED
  9
$DIMALT
 70
0
  9
$DIMALTF
 40
0.0393700787
  9
$DIMTXT
 40
3.0
  9
$DIMTOL
 70
1
  9
$DIMLIM
 70
0
  9
$DIMTFAC
 40
1.0
  9
$DIMTP
 40
0.01
  9
$DIMTM
 40
0.01
  9
$DIMGAP
 40
0.625
  9
$DIMDSEP
 70
44
  9
$AUNITS
 70
0
  9
$PDMODE
 70
3
  9
$PDSIZE
 40
3.0
  9
$HANDSEED
  5
277
  9
$TILEMODE
 70
1
  9
$MEASUREMENT
 70
1
  9
$INSUNITS
 70
4
  0
ENDSEC
  0
SECTION
  2
CLASSES
  0
CLASS
  1
ACDBDICTIONARYWDFLT
  2
AcDbDictionaryWithDefault
  3
AutoCAD 2000
 90
0
 91
1
280
0
281
0
  0
CLASS
  1
ACDBPLACEHOLDER
  2
AcDbPlaceHolder
  3
AutoCAD 2000
 90
0
 91
1
280
0
281
0
  0
CLASS
  1
LAYOUT
  2
AcDbLayout
  3
AutoCAD 2000
 90
0
 91
0
280
0
281
0
  0
ENDSEC
  0
SECTION
  2
TABLES
  0
TABLE
  2
VPORT
  5
8
100
AcDbSymbolTable
 70
2
  0
VPORT
  5
1F4
100
AcDbSymbolTableRecord
100
AcDbViewportTableRecord
  2
*ACTIVE
 70
0
 10
0.0
 20
0.0
 11
1.0
 21
1.0
 12
148.5
 22
105.0
 13
0.0
 23
0.0
 14
1.0
 24
1.0
 15
0.0
 25
0.0
 16
0.0
 26
0.0
 36
1.0
 17
0.0
 27
0.0
 37
0.0
 40
210.0
 41
1.4142857143
 42
50.0
 43
0.0
 44
0.0
 50
0.0
 51
0.0
 71
0
 72
100
 73
1
 74
1
 75
0
 76
0
 77
0
 78
0
  0
ENDTAB
  0
TABLE
  2
LTYPE
  5
5
100
AcDbSymbolTable
 70
6
  0
LTYPE
  5
14
100
AcDbSymbolTableRecord
100
AcDbLinetypeTableRecord
  2
BYBLOCK
 70
0
  3

 72
65
 73
0
 40
0.0
  0
LTYPE
  5
15
100
AcDbSymbolTableRecord
100
AcDbLinetypeTableRecord
  2
BYLAYER
 70
0
  3

 72
65
 73
0
 40
0.0
  0
LTYPE
  5
16
100
AcDbSymbolTableRecord
100
AcDbLinetypeTableRecord
  2
CONTINUOUS
 70
64
  3
Solid line
 72
65
 73
0
 40
0.0
  0
LTYPE
  5
1F5
100
AcDbSymbolTableRecord
100
AcDbLinetypeTableRecord
  2
CENTER
 70
64
  3
____ _ ____ _ ____ _ ____ _ ____ _ ____ _ ____
 72
65
 73
4
 40
0.6
 49
0.375
 74
0
 49
-0.075
 74
0
 49
0.075
 74
0
 49
-0.075
 74
0
  0
LTYPE
  5
1F6
100
AcDbSymbolTableRecord
100
AcDbLinetypeTableRecord
  2
HIDDEN
 70
64
  3
- - - - - - - - - - - - - - - - - - - -
 72
65
 73
2
 40
0.2
 49
0.1
 74
0
 49
-0.1
 74
0
  0
LTYPE
  5
1F7
100
AcDbSymbolTableRecord
100
AcDbLinetypeTableRecord
  2
PHANTOM
 70
64
  3
_____ _ _ _____ _ _ _____ _ _ _____
 72
65
 73
6
 40
0.8
 49
0.45
 74
0
 49
-0.05
 74
0
 49
0.1
 74
0
 49
-0.05
 74
0
 49
0.1
 74
0
 49
-0.05
 74
0
  0
LTYPE
  5
1F8
100
AcDbSymbolTableRecord
100
AcDbLinetypeTableRecord
  2
DOT
 70
64
  3
. . . . . . . . . . . . . . . . . . . .
 72
65
 73
2
 40
0.2
 49
0.1
 74
0
 49
-0.1
 74
0
  0
LTYPE
  5
1F9
100
AcDbSymbolTableRecord
100
AcDbLinetypeTableRecord
  2
DASHED
 70
64
  3
- - - - - - - - - - - - - - - - - - - -
 72
65
 73
2
 40
0.2
 49
0.1
 74
0
 49
-0.1
 74
0
  0
ENDTAB
  0
TABLE
  2
LAYER
  5
2
100
AcDbSymbolTable
 70
36
  0
LAYER
  5
10
100
AcDbSymbolTableRecord
100
AcDbLayerTableRecord
  2
0
 70
0
 62
7
  6
CONTINUOUS
370
-3
390
F
  0
LAYER
  5
1FA
100
AcDbSymbolTableRecord
100
AcDbLayerTableRecord
  2
DEFAULT_1
 70
0
 62
7
  6
CENTER
370
-3
390
F
  0
LAYER
  5
1FB
100
AcDbSymbolTableRecord
100
AcDbLayerTableRecord
  2
DEFAULT_2
 70
0
 62
7
  6
HIDDEN
370
-3
390
F
  0
LAYER
  5
1FC
100
AcDbSymbolTableRecord
100
AcDbLayerTableRecord
  2
DEFAULT_3
 70
0
 62
7
  6
PHANTOM
370
-3
390
F
  0
LAYER
  5
1FD
100
AcDbSymbolTableRecord
100
AcDbLayerTableRecord
  2
ASSI
 70
0
 62
7
  6
CONTINUOUS
370
-3
390
F
  0
LAYER
  5
1FE
100
AcDbSymbolTableRecord
100
AcDbLayerTableRecord
  2
COORDINATE
 70
0
 62
7
  6
CONTINUOUS
370
-3
390
F
  0
LAYER
  5
1FF
100
AcDbSymbolTableRecord
100
AcDbLayerTableRecord
  2
COORD_ORIGINE
 70
0
 62
7
  6
CONTINUOUS
370
-3
390
F
  0
LAYER
  5
200
100
AcDbSymbolTableRecord
100
AcDbLayerTableRecord
  2
COPY_PUBLISH
 70
0
 62
7
  6
CONTINUOUS
370
-3
390
F
  0
LAYER
  5
201
100
AcDbSymbolTableRecord
100
AcDbLayerTableRecord
  2
COSMETIC
 70
0
 62
7
  6
CONTINUOUS
370
-3
390
F
  0
LAYER
  5
202
100
AcDbSymbolTableRecord
100
AcDbLayerTableRecord
  2
COSMETICI
 70
0
 62
7
  6
CONTINUOUS
370
-3
390
F
  0
LAYER
  5
203
100
AcDbSymbolTableRecord
100
AcDbLayerTableRecord
  2
CURVA_TASSELLO
 70
0
 62
7
  6
CONTINUOUS
370
-3
390
F
  0
LAYER
  5
204
100
AcDbSymbolTableRecord
100
AcDbLayerTableRecord
  2
CURVE
 70
0
 62
7
  6
CONTINUOUS
370
-3
390
F
  0
LAYER
  5
205
100
AcDbSymbolTableRecord
100
AcDbLayerTableRecord
  2
DRAFT
 70
0
 62
7
  6
CONTINUOUS
370
-3
390
F
  0
LAYER
  5
206
100
AcDbSymbolTableRecord
100
AcDbLayerTableRecord
  2
IMPORT_IGES
 70
0
 62
7
  6
CONTINUOUS
370
-3
390
F
  0
LAYER
  5
207
100
AcDbSymbolTableRecord
100
AcDbLayerTableRecord
  2
INTFCLR_2
 70
0
 62
7
  6
CONTINUOUS
370
-3
390
F
  0
LAYER
  5
208
100
AcDbSymbolTableRecord
100
AcDbLayerTableRecord
  2
INTF_1
 70
0
 62
7
  6
CONTINUOUS
370
-3
390
F
  0
LAYER
  5
209
100
AcDbSymbolTableRecord
100
AcDbLayerTableRecord
  2
INTF_21
 70
0
 62
7
  6
CONTINUOUS
370
-3
390
F
  0
LAYER
  5
20A
100
AcDbSymbolTableRecord
100
AcDbLayerTableRecord
  2
INTF_7
 70
0
 62
7
  6
CONTINUOUS
370
-3
390
F
  0
LAYER
  5
20B
100
AcDbSymbolTableRecord
100
AcDbLayerTableRecord
  2
INTF_9
 70
0
 62
7
  6
CONTINUOUS
370
-3
390
F
  0
LAYER
  5
20C
100
AcDbSymbolTableRecord
100
AcDbLayerTableRecord
  2
NOTE
 70
0
 62
7
  6
CONTINUOUS
370
-3
390
F
  0
LAYER
  5
20D
100
AcDbSymbolTableRecord
100
AcDbLayerTableRecord
  2
PIANI
 70
0
 62
7
  6
CONTINUOUS
370
-3
390
F
  0
LAYER
  5
20E
100
AcDbSymbolTableRecord
100
AcDbLayerTableRecord
  2
PIANI_ORIGINE
 70
0
 62
7
  6
CONTINUOUS
370
-3
390
F
  0
LAYER
  5
20F
100
AcDbSymbolTableRecord
100
AcDbLayerTableRecord
  2
PIANI_RIFERIMENTO
 70
0
 62
7
  6
CONTINUOUS
370
-3
390
F
  0
LAYER
  5
210
100
AcDbSymbolTableRecord
100
AcDbLayerTableRecord
  2
PUNTI
 70
0
 62
7
  6
CONTINUOUS
370
-3
390
F
  0
LAYER
  5
211
100
AcDbSymbolTableRecord
100
AcDbLayerTableRecord
  2
RACCORDO
 70
0
 62
7
  6
CONTINUOUS
370
-3
390
F
  0
LAYER
  5
212
100
AcDbSymbolTableRecord
100
AcDbLayerTableRecord
  2
RGB__255__255__255__
 70
0
 62
7
  6
CONTINUOUS
370
-3
390
F
  0
LAYER
  5
213
100
AcDbSymbolTableRecord
100
AcDbLayerTableRecord
  2
RGB____0____0____0__
 70
0
 62
7
  6
CONTINUOUS
370
-3
390
F
  0
LAYER
  5
214
100
AcDbSymbolTableRecord
100
AcDbLayerTableRecord
  2
SIMBOLI
 70
0
 62
7
  6
CONTINUOUS
370
-3
390
F
  0
LAYER
  5
215
100
AcDbSymbolTableRecord
100
AcDbLayerTableRecord
  2
SMUSSO
 70
0
 62
7
  6
CONTINUOUS
370
-3
390
F
  0
LAYER
  5
216
100
AcDbSymbolTableRecord
100
AcDbLayerTableRecord
  2
SUPERFICI
 70
0
 62
7
  6
CONTINUOUS
370
-3
390
F
  0
LAYER
  5
217
100
AcDbSymbolTableRecord
100
AcDbLayerTableRecord
  2
TRASH
 70
0
 62
7
  6
CONTINUOUS
370
-3
390
F
  0
LAYER
  5
218
100
AcDbSymbolTableRecord
100
AcDbLayerTableRecord
  2
XSEC_DATUMS
 70
0
 62
7
  6
CONTINUOUS
370
-3
390
F
  0
ENDTAB
  0
TABLE
  2
STYLE
  5
3
100
AcDbSymbolTable
 70
1
  0
STYLE
  5
11
100
AcDbSymbolTableRecord
100
AcDbTextStyleTableRecord
  2
STANDARD
 70
0
 40
0.0
 41
0.8
 50
0.0
 71
0
 42
0.2
  3
txt
  4

  0
STYLE
  5
219
100
AcDbSymbolTableRecord
100
AcDbTextStyleTableRecord
  2
TEXTSTYLE_1
 70
0
 40
0.0
 41
0.8
 50
0.0
 71
0
 42
0.2
  3
gdt
  4

  0
ENDTAB
  0
TABLE
  2
VIEW
  5
6
100
AcDbSymbolTable
 70
0
  0
ENDTAB
  0
TABLE
  2
UCS
  5
7
100
AcDbSymbolTable
 70
0
  0
ENDTAB
  0
TABLE
  2
APPID
  5
9
100
AcDbSymbolTable
 70
1
  0
APPID
  5
21A
100
AcDbSymbolTableRecord
100
AcDbRegAppTableRecord
  2
ACAD
 70
0
  0
ENDTAB
  0
TABLE
  2
BLOCK_RECORD
  5
1
100
AcDbSymbolTable
 70
0
  0
BLOCK_RECORD
  5
21B
100
AcDbSymbolTableRecord
100
AcDbBlockTableRecord
  2
*Model_Space
  0
BLOCK_RECORD
  5
21C
100
AcDbSymbolTableRecord
100
AcDbBlockTableRecord
  2
*Paper_Space
  0
BLOCK_RECORD
  5
21D
100
AcDbSymbolTableRecord
100
AcDbBlockTableRecord
  2
_FILLED
  0
ENDTAB
  0
TABLE
  2
DIMSTYLE
  5
A
100
AcDbSymbolTable
 70
1
100
AcDbDimStyleTable
 71
0
  0
DIMSTYLE
105
21E
100
AcDbSymbolTableRecord
100
AcDbDimStyleTableRecord
  2
STANDARD
 70
0
  3

  4

 40
1.0
 41
3.0
 42
0.5
 43
0.38
 44
1.5
 45
0.0
 46
0.0
 47
0.01
 48
0.01
140
3.0
141
0.09
142
0.0
143
25.4
144
1.0
145
0.0
146
1.0
147
0.625
 71
1.0
 72
0.0
 73
0
 74
0
 75
0
 76
0
 77
1
 78
8
 79
2
170
0
171
1
172
0
173
0
174
0
175
0
176
0
177
0
178
0
270
2
179
2
271
2
272
2
273
2
274
2
275
0
280
0
281
0
282
0
283
1
284
8
285
0
286
0
287
3
288
0
340
11
278
44
341
21D
342
21D
343
21D
344
21D
  0
ENDTAB
  0
ENDSEC
  0
SECTION
  2
BLOCKS
  0
BLOCK
  5
20
100
AcDbEntity
  8
0
100
AcDbBlockBegin
  2
*Model_Space
 70
0
 10
0.0
 20
0.0
 30
0.0
  3
*Model_Space
  1

  0
ENDBLK
  5
21
100
AcDbEntity
  8
0
100
AcDbBlockEnd
  0
BLOCK
  5
1C
100
AcDbEntity
  8
0
100
AcDbBlockBegin
  2
*Paper_Space
 70
0
 10
0.0
 20
0.0
 30
0.0
  3
*Paper_Space
  1

  0
ENDBLK
  5
1D
100
AcDbEntity
  8
0
100
AcDbBlockEnd
  0
BLOCK
  5
21F
100
AcDbEntity
  8
0
100
AcDbBlockBegin
  2
_FILLED
 70
64
 10
0.0
 20
0.0
  3
_FILLED
  1

  0
SOLID
  5
220
100
AcDbEntity
  8
0
  6
BYBLOCK
 62
0
100
AcDbTrace
 10
0.0
 20
0.0
 11
-1.0
 21
0.3166666667
 12
-1.0
 22
-0.3166666667
 13
-1.0
 23
-0.3166666667
  0
ENDBLK
  5
221
100
AcDbEntity
  8
0
  6
BYBLOCK
 62
0
100
AcDbBlockEnd
  0
ENDSEC
  0
SECTION
  2
ENTITIES
  0
LINE
  5
222
100
AcDbEntity
  8
0
100
AcDbLine
 62
7
  6
CONTINUOUS
 10
90.7780276448
 20
148.5127939846
 11
94.565841432
 21
151.016360876
  0
LINE
  5
223
100
AcDbEntity
  8
0
100
AcDbLine
 62
7
  6
CONTINUOUS
 10
91.4855649141
 20
148.9212381785
 11
95.2733787013
 21
151.4248050698
  0
LINE
  5
224
100
AcDbEntity
  8
0
100
AcDbLine
 62
7
  6
CONTINUOUS
 10
91.4648013
 20
148.9083988275
 11
91.4855649141
 21
148.9212381785
  0
LINE
  5
225
100
AcDbEntity
  8
0
100
AcDbLine
 62
7
  6
CONTINUOUS
 10
94.565841432
 20
151.016360876
 11
95.2733787013
 21
151.4248050698
  0
LINE
  5
226
100
AcDbEntity
  8
0
100
AcDbLine
 62
7
  6
CONTINUOUS
 10
91.4648013
 20
148.9083988275
 11
90.7784029523
 21
148.5121576231
  0
LINE
  5
227
100
AcDbEntity
  8
0
100
AcDbLine
 62
7
  6
CONTINUOUS
 10
91.0821120001
 20
147.4931703891
 11
90.803136066
 21
147.3321243136
  0
LINE
  5
228
100
AcDbEntity
  8
0
100
AcDbLine
 62
7
  6
CONTINUOUS
 10
91.0821120001
 20
147.4931703891
 11
91.4648013
 21
148.9083988275
  0
LINE
  5
229
100
AcDbEntity
  8
0
100
AcDbLine
 62
7
  6
CONTINUOUS
 10
90.803136066
 20
76.5004907142
 11
90.7784029523
 21
76.9567262917
  0
LINE
  5
22A
100
AcDbEntity
  8
0
100
AcDbLine
 62
7
  6
CONTINUOUS
 10
175.3324752692
 20
27.6943096597
 11
176.7494344001
 21
27.3181302039
  0
LINE
  5
22B
100
AcDbEntity
  8
0
100
AcDbLine
 62
7
  6
CONTINUOUS
 10
90.803136066
 20
147.3321243136
 11
90.7784029523
 21
148.5121576231
  0
LINE
  5
22C
100
AcDbEntity
  8
0
100
AcDbLine
 62
7
  6
CONTINUOUS
 10
90.7784029523
 20
76.9567262917
 11
90.7780276448
 21
76.9809191524
  0
LINE
  5
22D
100
AcDbEntity
  8
0
100
AcDbLine
 62
7
  6
CONTINUOUS
 10
90.7780276448
 20
148.5127939846
 11
90.7780276448
 21
76.9809191524
  0
LINE
  5
22E
100
AcDbEntity
  8
0
100
AcDbLine
 62
7
  6
CONTINUOUS
 10
90.803136066
 20
147.3321243136
 11
90.803136066
 21
76.5004907142
  0
LINE
  5
22F
100
AcDbEntity
  8
0
100
AcDbLine
 62
7
  6
CONTINUOUS
 10
90.803136066
 20
76.5004907142
 11
91.0821120001
 21
76.0172902227
  0
LINE
  5
230
100
AcDbEntity
  8
0
100
AcDbLine
 62
7
  6
CONTINUOUS
 10
91.0821120001
 20
76.0172902227
 11
91.4648013
 21
75.7678494806
  0
LINE
  5
231
100
AcDbEntity
  8
0
100
AcDbLine
 62
7
  6
CONTINUOUS
 10
91.4855649141
 20
75.755428655
 11
176.0633984827
 21
26.9212475617
  0
LINE
  5
232
100
AcDbEntity
  8
0
100
AcDbLine
 62
7
  6
CONTINUOUS
 10
91.0821120001
 20
76.0172902227
 11
175.0534993351
 21
27.5332635842
  0
LINE
  5
233
100
AcDbEntity
  8
0
100
AcDbLine
 62
7
  6
CONTINUOUS
 10
91.4855649141
 20
75.755428655
 11
91.4648013
 21
75.7678494806
  0
LINE
  5
234
100
AcDbEntity
  8
0
100
AcDbLine
 62
7
  6
CONTINUOUS
 10
175.0534993351
 20
27.5332635842
 11
176.0630360525
 21
26.9218889994
  0
LWPOLYLINE
  5
235
100
AcDbEntity
  8
0
100
AcDbPolyline
 62
7
  6
CONTINUOUS
 90
7
 70
0
 10
128.0324853616
 20
96.8120602177
 10
128.0216653157
 20
96.7836558473
 10
128.0055458709
 20
96.7316026365
 10
127.9929376522
 20
96.6764401401
 10
127.9838941205
 20
96.6184064624
 10
127.9784529879
 20
96.5577494717
 10
127.976636843
 20
96.4947293438
  0
LINE
  5
236
100
AcDbEntity
  8
0
100
AcDbLine
 62
250
  6
CONTINUOUS
 10
128.2159885897
 20
97.0104939091
 11
127.976636843
 21
96.4947293438
  0
LWPOLYLINE
  5
237
100
AcDbEntity
  8
0
100
AcDbPolyline
 62
7
  6
CONTINUOUS
 90
3
 70
0
 10
128.0641448192
 20
96.8775457543
 10
128.0412262473
 20
96.8323731486
 10
128.0324853616
 20
96.8120602177
  0
LWPOLYLINE
  5
238
100
AcDbEntity
  8
0
100
AcDbPolyline
 62
7
  6
CONTINUOUS
 90
4
 70
0
 10
128.1519887721
 20
96.9899357389
 10
128.1196466959
 20
96.9564973746
 10
128.0903229226
 20
96.9189803219
 10
128.0641448192
 20
96.8775457543
  0
LWPOLYLINE
  5
239
100
AcDbEntity
  8
0
100
AcDbPolyline
 62
7
  6
CONTINUOUS
 90
3
 70
0
 10
128.0105673932
 20
96.9082807992
 10
128.0457898218
 20
96.9374994702
 10
128.0837146321
 20
96.9623586585
  0
LINE
  5
23A
100
AcDbEntity
  8
0
100
AcDbLine
 62
250
  6
CONTINUOUS
 10
127.8352154868
 20
96.4130744251
 11
127.976636843
 21
96.4947293438
  0
LWPOLYLINE
  5
23B
100
AcDbEntity
  8
0
100
AcDbPolyline
 62
7
  6
CONTINUOUS
 90
13
 70
0
 10
128.0837146321
 20
96.9623586585
 10
128.1242660479
 20
96.982801929
 10
128.1671838604
 20
96.998691766
 10
128.2123158334
 20
97.0099773358
 10
128.2594709098
 20
97.0166096987
 10
128.3084457868
 20
97.0185591453
 10
128.3590280144
 20
97.0158168303
 10
128.4110009764
 20
97.0083945161
 10
128.4641420244
 20
96.9963240174
 10
128.5182202664
 20
96.9796581973
 10
128.5730028521
 20
96.9584697445
 10
128.6282561788
 20
96.9328499275
 10
128.6837436242
 20
96.9029092453
  0
LWPOLYLINE
  5
23C
100
AcDbEntity
  8
0
100
AcDbPolyline
 62
7
  6
CONTINUOUS
 90
11
 70
0
 10
138.6755342559
 20
78.4360168006
 10
138.630402283
 20
78.4247312308
 10
138.5832472065
 20
78.4180988679
 10
138.5342723295
 20
78.4161494213
 10
138.4836901019
 20
78.4188917363
 10
138.43171714
 20
78.4263140505
 10
138.378576092
 20
78.4383845492
 10
138.32449785
 20
78.4550503693
 10
138.2697152642
 20
78.4762388221
 10
138.2144619375
 20
78.5018586391
 10
138.1589744921
 20
78.5317993213
  0
LINE
  5
23D
100
AcDbEntity
  8
0
100
AcDbLine
 62
250
  6
CONTINUOUS
 10
138.866858676
 20
78.5628930582
 11
138.3003958484
 21
78.61345424
  0
LWPOLYLINE
  5
23E
100
AcDbEntity
  8
0
100
AcDbPolyline
 62
7
  6
CONTINUOUS
 90
6
 70
0
 10
138.6032248639
 20
78.5031245871
 10
138.6251113538
 20
78.5005466653
 10
138.6756935901
 20
78.4978043407
 10
138.7246684973
 20
78.4997537807
 10
138.7718235957
 20
78.506386141
 10
138.8169555711
 20
78.5176717066
  0
LWPOLYLINE
  5
23F
100
AcDbEntity
  8
0
100
AcDbPolyline
 62
7
  6
CONTINUOUS
 90
25
 70
0
 10
127.976636843
 20
85.5540276347
 10
127.9784530229
 20
85.4889096305
 10
127.9838942339
 20
85.4219689345
 10
127.9929378467
 20
85.3534918312
 10
128.0055460834
 20
85.2837698827
 10
128.0216654577
 20
85.2131028146
 10
128.041226309
 20
85.141797397
 10
128.0641448723
 20
85.0701590519
 10
128.0903230115
 20
84.9984945926
 10
128.119646817
 20
84.9271151314
 10
128.151988887
 20
84.8563289881
 10
128.1872113057
 20
84.7864363841
 10
128.225165022
 20
84.7177325278
 10
128.2656875552
 20
84.650511548
 10
128.3086054074
 20
84.585061258
 10
128.3537374143
 20
84.5216583931
 10
128.4008924855
 20
84.46057256
 10
128.4498673464
 20
84.4020681929
 10
128.5004496242
 20
84.3463993848
 10
128.5524228151
 20
84.2938044253
 10
128.6055641716
 20
84.24450874
 10
128.6596425525
 20
84.1987263128
 10
128.7144250137
 20
84.1566533718
 10
128.7696780302
 20
84.1184682961
 10
128.8251649805
 20
84.0843337906
  0
LWPOLYLINE
  5
240
100
AcDbEntity
  8
0
100
AcDbPolyline
 62
7
  6
CONTINUOUS
 90
28
 70
0
 10
128.3352670319
 20
86.3268180824
 10
128.3375934447
 20
86.2351287415
 10
128.3443697765
 20
86.1417726518
 10
128.3555960273
 20
86.0467498133
 10
128.3713399315
 20
85.9497276153
 10
128.3915337546
 20
85.8510386685
 10
128.4159742936
 20
85.7516808046
 10
128.4447048277
 20
85.6516473041
 10
128.4776820776
 20
85.5509448866
 10
128.5145730027
 20
85.4505915425
 10
128.5554172183
 20
85.3505912139
 10
128.6001751091
 20
85.2509399587
 10
128.6483947882
 20
85.1526439421
 10
128.7001112692
 20
85.0557169959
 10
128.7552895385
 20
84.9601452883
 10
128.813372668
 20
84.8668934886
 10
128.8743902261
 20
84.7759849177
 10
128.9383126445
 20
84.6873962548
 10
129.0044942898
 20
84.6020222075
 10
129.0729582406
 20
84.5198952871
 10
129.1436814185
 20
84.4409829822
 10
129.2159489543
 20
84.3660824666
 10
129.2897767372
 20
84.2952344719
 10
129.365148878
 20
84.2283982665
 10
129.4413028401
 20
84.1662488289
 10
129.5179844447
 20
84.109011152
 10
129.5954478707
 20
84.0564602429
 10
129.6736931179
 20
84.0085961017
  0
LINE
  5
241
100
AcDbEntity
  8
0
100
AcDbLine
 62
7
  6
CONTINUOUS
 10
127.1281087056
 20
85.4723727161
 11
127.1281087056
 21
96.4130744251
  0
LINE
  5
242
100
AcDbEntity
  8
0
100
AcDbLine
 62
7
  6
CONTINUOUS
 10
127.8352154868
 20
85.4723727161
 11
127.8352154868
 21
96.4130744251
  0
LINE
  5
243
100
AcDbEntity
  8
0
100
AcDbLine
 62
7
  6
CONTINUOUS
 10
127.976636843
 20
96.4947293438
 11
127.976636843
 21
85.5540276347
  0
LINE
  5
244
100
AcDbEntity
  8
0
100
AcDbLine
 62
7
  6
CONTINUOUS
 10
128.3352670319
 20
97.0171050318
 11
128.3352670319
 21
86.3268180824
  0
LWPOLYLINE
  5
245
100
AcDbEntity
  8
0
100
AcDbPolyline
 62
7
  6
CONTINUOUS
 90
28
 70
0
 10
127.1281087056
 20
96.4130744251
 10
127.1301981952
 20
96.4930112125
 10
127.1362843007
 20
96.5698296266
 10
127.1463670224
 20
96.6435296674
 10
127.1605072051
 20
96.7143397822
 10
127.1786440039
 20
96.7820315236
 10
127.2005948835
 20
96.8459195502
 10
127.2263986722
 20
96.9059649966
 10
127.2560165418
 20
96.962206728
 10
127.2891494725
 20
97.0140759992
 10
127.3258331119
 20
97.0615282749
 10
127.3660318123
 20
97.1046080903
 10
127.4093396108
 20
97.1428803054
 10
127.4557879288
 20
97.1762961192
 10
127.5053453449
 20
97.2049043327
 10
127.5575116322
 20
97.2284162086
 10
127.6123132913
 20
97.2467801417
 10
127.6697238216
 20
97.2600477373
 10
127.7291634941
 20
97.2680850744
 10
127.7906531254
 20
97.2708390278
 10
127.8541718989
 20
97.2683627227
 10
127.919077636
 20
97.2606816134
 10
127.9853845626
 20
97.247742625
 10
128.0530784528
 20
97.2295988325
 10
128.1214744505
 20
97.2064349145
 10
128.1903442706
 20
97.1783124307
 10
128.2599161983
 20
97.1451698216
 10
128.3301902336
 20
97.107007087
  0
LWPOLYLINE
  5
246
100
AcDbEntity
  8
0
100
AcDbPolyline
 62
7
  6
CONTINUOUS
 90
11
 70
0
 10
127.8352154868
 20
96.4130744251
 10
127.8370316333
 20
96.4760945812
 10
127.8424727694
 20
96.5367515858
 10
127.8515163042
 20
96.5947852643
 10
127.8641245219
 20
96.6499477447
 10
127.8802439602
 20
96.7020009307
 10
127.8998048843
 20
96.7507182151
 10
127.9227234527
 20
96.7958908175
 10
127.9489015549
 20
96.8373253868
 10
127.9782253252
 20
96.8748424393
 10
128.0105673932
 20
96.9082807992
  0
LINE
  5
247
100
AcDbEntity
  8
0
100
AcDbLine
 62
250
  6
CONTINUOUS
 10
128.3352670319
 20
86.3268180824
 11
127.976636843
 21
85.5540276347
  0
LINE
  5
248
100
AcDbEntity
  8
0
100
AcDbLine
 62
250
  6
CONTINUOUS
 10
129.6736931179
 20
84.0085961017
 11
128.8251649805
 21
84.0843337906
  0
LWPOLYLINE
  5
249
100
AcDbEntity
  8
0
100
AcDbPolyline
 62
7
  6
CONTINUOUS
 90
7
 70
0
 10
138.3003958484
 20
78.61345424
 10
138.3558833334
 20
78.5835135379
 10
138.4111366759
 20
78.5578937172
 10
138.4659192541
 20
78.5367052714
 10
138.5199974504
 20
78.5200394673
 10
138.5731384321
 20
78.507968981
 10
138.6032248639
 20
78.5031245871
  0
LINE
  5
24A
100
AcDbEntity
  8
0
100
AcDbLine
 62
7
  6
CONTINUOUS
 10
137.8054211015
 20
77.9194268863
 11
128.3301902336
 21
83.3903064369
  0
LINE
  5
24B
100
AcDbEntity
  8
0
100
AcDbLine
 62
7
  6
CONTINUOUS
 10
138.1589744921
 20
78.5317993213
 11
128.6837436242
 21
84.0026788719
  0
LINE
  5
24C
100
AcDbEntity
  8
0
100
AcDbLine
 62
7
  6
CONTINUOUS
 10
128.8251649805
 20
84.0843337906
 11
138.3003958484
 21
78.61345424
  0
LINE
  5
24D
100
AcDbEntity
  8
0
100
AcDbLine
 62
7
  6
CONTINUOUS
 10
129.6736931179
 20
84.0085961017
 11
138.932190481
 21
78.6628557605
  0
LWPOLYLINE
  5
24E
100
AcDbEntity
  8
0
100
AcDbPolyline
 62
7
  6
CONTINUOUS
 90
28
 70
0
 10
128.3301902336
 20
83.3903064369
 10
128.259915869
 20
83.4332946312
 10
128.1903436808
 20
83.4804921438
 10
128.1214736688
 20
83.5318989745
 10
128.0530775603
 20
83.587717181
 10
127.9853836281
 20
83.6477447057
 10
127.919076691
 20
83.7113753761
 10
127.8541709924
 20
83.7786458018
 10
127.790652289
 20
83.8495193733
 10
127.7291626689
 20
83.9232800896
 10
127.6697228763
 20
83.9999571344
 10
127.612312167
 20
84.0795213241
 10
127.5575103966
 20
84.1611691068
 10
127.5053441171
 20
84.2449214327
 10
127.4557867765
 20
84.3307573516
 10
127.4093385741
 20
84.417810461
 10
127.3660309514
 20
84.5060932062
 10
127.325832467
 20
84.5955931419
 10
127.2891489961
 20
84.6854065289
 10
127.2560161385
 20
84.7755368486
 10
127.2263982945
 20
84.8659806196
 10
127.2005945396
 20
84.9558236595
 10
127.1786437257
 20
85.0450599615
 10
127.1605070009
 20
85.1336955323
 10
127.1463668845
 20
85.2208342095
 10
127.1362842164
 20
85.306177272
 10
127.1301981568
 20
85.3900234409
 10
127.1281087056
 20
85.4723727161
  0
LWPOLYLINE
  5
24F
100
AcDbEntity
  8
0
100
AcDbPolyline
 62
7
  6
CONTINUOUS
 90
25
 70
0
 10
128.6837436242
 20
84.0026788719
 10
128.6282566488
 20
84.0368133939
 10
128.5730036185
 20
84.0749984815
 10
128.5182211551
 20
84.1170714274
 10
128.4641427885
 20
84.1628538452
 10
128.4110014567
 20
84.2121495087
 10
128.3590282842
 20
84.264744449
 10
128.3084460109
 20
84.3204132504
 10
128.2594711492
 20
84.3789176166
 10
128.2123160796
 20
84.4400034453
 10
128.1671840807
 20
84.503406296
 10
128.1242662378
 20
84.5688565676
 10
128.083743709
 20
84.6360775342
 10
128.0457899883
 20
84.7047813919
 10
128.0105675623
 20
84.7746740039
 10
127.9782254898
 20
84.8454601457
 10
127.9489016931
 20
84.9168395765
 10
127.9227235632
 20
84.9885039955
 10
127.8998049961
 20
85.0601423328
 10
127.8802441233
 20
85.1314478093
 10
127.8641247266
 20
85.2021149668
 10
127.851516481
 20
85.2718369733
 10
127.8424728703
 20
85.3403140841
 10
127.8370316641
 20
85.4072547591
 10
127.8352154868
 20
85.4723727161
  0
LINE
  5
250
100
AcDbEntity
  8
0
100
AcDbLine
 62
7
  6
CONTINUOUS
 10
90.7780276448
 20
148.5127939846
 11
90.7784029523
 21
148.5121576231
  0
LINE
  5
251
100
AcDbEntity
  8
0
100
AcDbLine
 62
250
  6
CONTINUOUS
 10
128.3301902336
 20
83.3903064369
 11
128.6837436242
 21
84.0026788719
  0
LINE
  5
252
100
AcDbEntity
  8
0
100
AcDbLine
 62
250
  6
CONTINUOUS
 10
127.8352154868
 20
85.4723727161
 11
127.976636843
 21
85.5540276347
  0
LINE
  5
253
100
AcDbEntity
  8
0
100
AcDbLine
 62
7
  6
CONTINUOUS
 10
175.3324752692
 20
98.5259432591
 11
176.7494344001
 21
98.8735615352
  0
LINE
  5
254
100
AcDbEntity
  8
0
100
AcDbLine
 62
250
  6
CONTINUOUS
 10
127.1281087056
 20
85.4723727161
 11
127.8352154868
 21
85.4723727161
  0
LINE
  5
255
100
AcDbEntity
  8
0
100
AcDbLine
 62
7
  6
CONTINUOUS
 10
139.0075026296
 20
89.5540612572
 11
139.0075026296
 21
78.6133595482
  0
LWPOLYLINE
  5
256
100
AcDbEntity
  8
0
100
AcDbPolyline
 62
7
  6
CONTINUOUS
 90
28
 70
0
 10
139.0075026296
 20
78.6133595482
 10
139.00541314
 20
78.5334227608
 10
138.9993270344
 20
78.4566043467
 10
138.9892443128
 20
78.3829043058
 10
138.9751041301
 20
78.3120941911
 10
138.9569673313
 20
78.2444024496
 10
138.9350164517
 20
78.180514423
 10
138.9092126629
 20
78.1204689767
 10
138.8795947934
 20
78.0642272452
 10
138.8464618627
 20
78.0123579741
 10
138.8097782233
 20
77.9649056984
 10
138.7695795229
 20
77.9218258829
 10
138.7262717243
 20
77.8835536678
 10
138.6798234063
 20
77.8501378541
 10
138.6302659902
 20
77.8215296406
 10
138.578099703
 20
77.7980177646
 10
138.5232980439
 20
77.7796538316
 10
138.4658875136
 20
77.766386236
 10
138.4064478411
 20
77.7583488989
 10
138.3449582098
 20
77.7555949455
 10
138.2814394363
 20
77.7580712506
 10
138.2165336991
 20
77.7657523599
 10
138.1502267726
 20
77.7786913482
 10
138.0825328824
 20
77.7968351408
 10
138.0141368846
 20
77.8199990588
 10
137.9452670646
 20
77.8481215425
 10
137.8756951369
 20
77.8812641517
 10
137.8054211015
 20
77.9194268863
  0
LWPOLYLINE
  5
257
100
AcDbEntity
  8
0
100
AcDbPolyline
 62
7
  6
CONTINUOUS
 90
7
 70
0
 10
139.0075026296
 20
79.0216341415
 10
139.005686483
 20
78.9586139854
 10
139.0002453469
 20
78.8979569808
 10
138.9912018122
 20
78.8399233023
 10
138.9785935945
 20
78.7847608219
 10
138.9624741561
 20
78.7327076359
 10
138.9429132321
 20
78.6839903515
  0
LINE
  5
258
100
AcDbEntity
  8
0
100
AcDbLine
 62
250
  6
CONTINUOUS
 10
128.6837436242
 20
84.0026788719
 11
128.8251649805
 21
84.0843337906
  0
LINE
  5
259
100
AcDbEntity
  8
0
100
AcDbLine
 62
7
  6
CONTINUOUS
 10
128.3301902336
 20
97.107007087
 11
137.8054211015
 21
91.6361275364
  0
LWPOLYLINE
  5
25A
100
AcDbEntity
  8
0
100
AcDbPolyline
 62
7
  6
CONTINUOUS
 90
28
 70
0
 10
137.8054211015
 20
91.6361275364
 10
137.8756954661
 20
91.5931393421
 10
137.9452676544
 20
91.5459418295
 10
138.0141376664
 20
91.4945349988
 10
138.0825337749
 20
91.4387167923
 10
138.1502277071
 20
91.3786892676
 10
138.2165346442
 20
91.3150585971
 10
138.2814403427
 20
91.2477881714
 10
138.3449590461
 20
91.1769146
 10
138.4064486663
 20
91.1031538837
 10
138.4658884588
 20
91.0264768388
 10
138.5232991681
 20
90.9469126492
 10
138.5781009385
 20
90.8652648665
 10
138.630267218
 20
90.7815125406
 10
138.6798245587
 20
90.6956766217
 10
138.7262727611
 20
90.6086235123
 10
138.7695803838
 20
90.5203407671
 10
138.8097788682
 20
90.4308408314
 10
138.8464623391
 20
90.3410274443
 10
138.8795951966
 20
90.2508971247
 10
138.9092130407
 20
90.1604533536
 10
138.9350167956
 20
90.0706103138
 10
138.9569676095
 20
89.9813740118
 10
138.9751043343
 20
89.8927384409
 10
138.9892444506
 20
89.8055997638
 10
138.9993271187
 20
89.7202567012
 10
139.0054131784
 20
89.6364105324
 10
139.0075026296
 20
89.5540612572
  0
LINE
  5
25B
100
AcDbEntity
  8
0
100
AcDbLine
 62
7
  6
CONTINUOUS
 10
176.0630360525
 20
26.9218889994
 11
176.0633984827
 21
26.9212475617
  0
LWPOLYLINE
  5
25C
100
AcDbEntity
  8
0
100
AcDbPolyline
 62
7
  6
CONTINUOUS
 90
7
 70
0
 10
138.9429132321
 20
78.6839903515
 10
138.9199946636
 20
78.6388177491
 10
138.8938165615
 20
78.5973831798
 10
138.8644927911
 20
78.5598661273
 10
138.8321507232
 20
78.5264277674
 10
138.7969282946
 20
78.4972090964
 10
138.7590034843
 20
78.4723499081
  0
LINE
  5
25D
100
AcDbEntity
  8
0
100
AcDbLine
 62
250
  6
CONTINUOUS
 10
137.8054211015
 20
77.9194268863
 11
138.1589744921
 21
78.5317993213
  0
LINE
  5
25E
100
AcDbEntity
  8
0
100
AcDbLine
 62
250
  6
CONTINUOUS
 10
138.1589744921
 20
78.5317993213
 11
138.3003958484
 21
78.61345424
  0
LINE
  5
25F
100
AcDbEntity
  8
0
100
AcDbLine
 62
7
  6
CONTINUOUS
 10
176.0633984827
 20
100.0870570852
 11
180.1253314674
 21
102.4323509874
  0
LWPOLYLINE
  5
260
100
AcDbEntity
  8
0
100
AcDbPolyline
 62
7
  6
CONTINUOUS
 90
3
 70
0
 10
138.7590034843
 20
78.4723499081
 10
138.7184520684
 20
78.4519066376
 10
138.6755342559
 20
78.4360168006
  0
LINE
  5
261
100
AcDbEntity
  8
0
100
AcDbLine
 62
250
  6
CONTINUOUS
 10
127.1281087056
 20
96.4130744251
 11
127.8352154868
 21
96.4130744251
  0
LINE
  5
262
100
AcDbEntity
  8
0
100
AcDbLine
 62
7
  6
CONTINUOUS
 10
176.770935752
 20
98.8615665878
 11
180.8328687367
 21
101.20686049
  0
LINE
  5
263
100
AcDbEntity
  8
0
100
AcDbLine
 62
7
  6
CONTINUOUS
 10
175.0534993351
 20
99.0091437506
 11
176.0630360525
 21
100.0624383463
  0
LINE
  5
264
100
AcDbEntity
  8
0
100
AcDbLine
 62
7
  6
CONTINUOUS
 10
176.7494344001
 20
98.8735615352
 11
176.770935752
 21
98.8615665878
  0
LINE
  5
265
100
AcDbEntity
  8
0
100
AcDbLine
 62
7
  6
CONTINUOUS
 10
175.0534993351
 20
99.0091437506
 11
91.0821120001
 21
147.4931703891
  0
LINE
  5
266
100
AcDbEntity
  8
0
100
AcDbLine
 62
7
  6
CONTINUOUS
 10
176.0633984827
 20
100.0870570852
 11
91.4855649141
 21
148.9212381785
  0
LINE
  5
267
100
AcDbEntity
  8
0
100
AcDbLine
 62
7
  6
CONTINUOUS
 10
180.1253314674
 20
102.4323509874
 11
95.2733787013
 21
151.4248050698
  0
LINE
  5
268
100
AcDbEntity
  8
0
100
AcDbLine
 62
7
  6
CONTINUOUS
 10
175.3324752692
 20
27.6943096597
 11
175.3324752692
 21
98.5259432591
  0
LINE
  5
269
100
AcDbEntity
  8
0
100
AcDbLine
 62
7
  6
CONTINUOUS
 10
176.770935752
 20
27.3296917556
 11
176.770935752
 21
98.8615665878
  0
LINE
  5
26A
100
AcDbEntity
  8
0
100
AcDbLine
 62
7
  6
CONTINUOUS
 10
176.0633984827
 20
100.0870570852
 11
176.0630360525
 21
100.0624383463
  0
LINE
  5
26B
100
AcDbEntity
  8
0
100
AcDbLine
 62
7
  6
CONTINUOUS
 10
175.3324752692
 20
98.5259432591
 11
175.0534993351
 21
99.0091437506
  0
LINE
  5
26C
100
AcDbEntity
  8
0
100
AcDbLine
 62
7
  6
CONTINUOUS
 10
176.7494344001
 20
98.8735615352
 11
176.0630360525
 21
100.0624383463
  0
LINE
  5
26D
100
AcDbEntity
  8
0
100
AcDbLine
 62
7
  6
CONTINUOUS
 10
180.8328687367
 20
29.3584702699
 11
180.8328687367
 21
101.20686049
  0
LINE
  5
26E
100
AcDbEntity
  8
0
100
AcDbLine
 62
7
  6
CONTINUOUS
 10
180.1253314674
 20
102.4323509874
 11
180.8328687367
 21
101.20686049
  0
LINE
  5
26F
100
AcDbEntity
  8
0
100
AcDbLine
 62
7
  6
CONTINUOUS
 10
175.0534993351
 20
27.5332635842
 11
175.3324752692
 21
27.6943096597
  0
LINE
  5
270
100
AcDbEntity
  8
0
100
AcDbLine
 62
7
  6
CONTINUOUS
 10
176.0630360525
 20
26.9218889994
 11
176.7494344001
 21
27.3181302039
  0
LINE
  5
271
100
AcDbEntity
  8
0
100
AcDbLine
 62
7
  6
CONTINUOUS
 10
180.8328687367
 20
29.3584702699
 11
180.1253314674
 21
28.950026076
  0
LINE
  5
272
100
AcDbEntity
  8
0
100
AcDbLine
 62
7
  6
CONTINUOUS
 10
176.770935752
 20
27.3296917556
 11
176.7494344001
 21
27.3181302039
  0
LINE
  5
273
100
AcDbEntity
  8
0
100
AcDbLine
 62
7
  6
CONTINUOUS
 10
176.770935752
 20
27.3296917556
 11
180.8328687367
 21
29.3584702699
  0
LINE
  5
274
100
AcDbEntity
  8
0
100
AcDbLine
 62
7
  6
CONTINUOUS
 10
176.0633984827
 20
26.9212475617
 11
180.1253314674
 21
28.950026076
  0
ENDSEC
  0
SECTION
  2
OBJECTS
  0
DICTIONARY
  5
C
100
AcDbDictionary
280
0
281
1
  3
ACAD_GROUP
350
D
  3
ACAD_MLINESTYLE
350
17
  3
ACAD_LAYOUT
350
1A
  3
ACAD_PLOTSETTINGS
350
19
  3
ACAD_PLOTSTYLENAME
350
E
  0
DICTIONARY
  5
D
102
{ACAD_REACTORS
330
C
102
}
100
AcDbDictionary
280
0
281
1
  0
ACDBDICTIONARYWDFLT
  5
E
102
{ACAD_REACTORS
330
C
102
}
100
AcDbDictionary
281
1
  3
Normal
350
F
100
AcDbDictionaryWithDefault
340
F
  0
DICTIONARY
  5
17
102
{ACAD_REACTORS
330
C
102
}
100
AcDbDictionary
280
0
281
1
  3
Standard
350
18
  0
DICTIONARY
  5
19
102
{ACAD_REACTORS
330
C
102
}
100
AcDbDictionary
281
1
  0
DICTIONARY
  5
1A
102
{ACAD_REACTORS
330
C
102
}
100
AcDbDictionary
281
1
  3
Model
350
275
  3
Layout1
350
276
  0
ACDBPLACEHOLDER
  5
F
102
{ACAD_REACTORS
330
E
102
}
  0
MLINESTYLE
  5
18
102
{ACAD_REACTORS
330
17
102
}
100
AcDbMlineStyle
  2
STANDARD
 70
0
  3

 62
256
 51
90.0
 52
90.0
 71
2
 49
0.5
 62
256
  6
BYLAYER
 49
-0.5
 62
256
  6
BYLAYER
  0
LAYOUT
  5
275
102
{ACAD_REACTORS
330
1A
102
}
100
AcDbPlotSettings
  1

  2
none_device
  4
ISO_A4_(297.00_x_210.00_MM)
  6

 40
0.0
 41
0.0
 42
0.0
 43
0.0
 44
297.0
 45
210.0
 46
0.0
 47
0.0
 48
0.0
 49
0.0
140
0.0
141
0.0
142
1.0
143
1.0
 70
1024
 72
1
 73
0
 74
0
  7

 75
0
147
1.0
148
0.0
149
0.0
100
AcDbLayout
  1
Model
 70
0
 71
0
 10
0.0
 20
0.0
 11
297.0
 21
210.0
 12
0.0
 22
0.0
 32
0.0
 14
0.0
 24
0.0
 34
0.0
 15
0.0
 25
0.0
 35
0.0
146
0.0
 13
0.0
 23
0.0
 33
0.0
 16
1.0
 26
0.0
 36
0.0
 17
0.0
 27
1.0
 37
0.0
 76
0
330
21B
345
0
346
0
  0
LAYOUT
  5
276
102
{ACAD_REACTORS
330
1A
102
}
100
AcDbPlotSettings
  1

  2
none_device
  4
ISO_A4_(297.00_x_210.00_MM)
  6

 40
0.0
 41
0.0
 42
0.0
 43
0.0
 44
297.0
 45
210.0
 46
0.0
 47
0.0
 48
0.0
 49
0.0
140
0.0
141
0.0
142
1.0
143
1.0
 70
0
 72
1
 73
0
 74
0
  7

 75
0
147
1.0
148
0.0
149
0.0
100
AcDbLayout
  1
Layout1
 70
0
 71
1
 10
0.0
 20
0.0
 11
297.0
 21
210.0
 12
0.0
 22
0.0
 32
0.0
 14
0.0
 24
0.0
 34
0.0
 15
0.0
 25
0.0
 35
0.0
146
0.0
 13
0.0
 23
0.0
 33
0.0
 16
1.0
 26
0.0
 36
0.0
 17
0.0
 27
1.0
 37
0.0
 76
0
330
21C
345
0
346
0
  0
ENDSEC
  0
EOF
