  0
SECTION
  2
HEADER
  9
$ACADVER
  1
AC1024
  9
$DWGCODEPAGE
  3
ANSI_1252
  9
$EXTMAX
 10
297.0
 20
210.0
 30
0.0
  9
$EXTMIN
 10
0.0
 20
0.0
 30
0.0
  9
$LIMMIN
 10
0.0
 20
0.0
  9
$LIMMAX
 10
297.0
 20
210.0
  9
$VIEWCTR
 10
148.5
 20
105.0
  9
$VIEWSIZE
 40
210.0
  9
$CLAYER
  8
0
  9
$LTSCALE
 40
16.335
  9
$CELTYPE
  6
BYLAYER
  9
$DIMSCALE
 40
1.0
  9
$DIMASZ
 40
3.0
  9
$DIMEXO
 40
0.5
  9
$DIMDLI
 40
11.286
  9
$DIMEXE
 40
1.5
  9
$DIMCEN
 40
2.673
  9
$DIMLFAC
 40
1.0
  9
$DIMBLK
  1
_FILLED
  9
$DIMALT
 70
0
  9
$DIMALTF
 40
0.0393700787
  9
$DIMTXT
 40
3.0
  9
$DIMTOL
 70
1
  9
$DIMLIM
 70
0
  9
$DIMTFAC
 40
1.0
  9
$DIMTP
 40
0.01
  9
$DIMTM
 40
0.01
  9
$DIMGAP
 40
0.625
  9
$DIMDSEP
 70
44
  9
$AUNITS
 70
0
  9
$PDMODE
 70
3
  9
$PDSIZE
 40
3.0
  9
$HANDSEED
  5
2A9
  9
$TILEMODE
 70
1
  9
$MEASUREMENT
 70
1
  9
$INSUNITS
 70
4
  0
ENDSEC
  0
SECTION
  2
CLASSES
  0
CLASS
  1
ACDBDICTIONARYWDFLT
  2
AcDbDictionaryWithDefault
  3
AutoCAD 2000
 90
0
 91
1
280
0
281
0
  0
CLASS
  1
ACDBPLACEHOLDER
  2
AcDbPlaceHolder
  3
AutoCAD 2000
 90
0
 91
1
280
0
281
0
  0
CLASS
  1
LAYOUT
  2
AcDbLayout
  3
AutoCAD 2000
 90
0
 91
0
280
0
281
0
  0
ENDSEC
  0
SECTION
  2
TABLES
  0
TABLE
  2
VPORT
  5
8
100
AcDbSymbolTable
 70
2
  0
VPORT
  5
1F4
100
AcDbSymbolTableRecord
100
AcDbViewportTableRecord
  2
*ACTIVE
 70
0
 10
0.0
 20
0.0
 11
1.0
 21
1.0
 12
148.5
 22
105.0
 13
0.0
 23
0.0
 14
1.0
 24
1.0
 15
0.0
 25
0.0
 16
0.0
 26
0.0
 36
1.0
 17
0.0
 27
0.0
 37
0.0
 40
210.0
 41
1.4142857143
 42
50.0
 43
0.0
 44
0.0
 50
0.0
 51
0.0
 71
0
 72
100
 73
1
 74
1
 75
0
 76
0
 77
0
 78
0
  0
ENDTAB
  0
TABLE
  2
LTYPE
  5
5
100
AcDbSymbolTable
 70
6
  0
LTYPE
  5
14
100
AcDbSymbolTableRecord
100
AcDbLinetypeTableRecord
  2
BYBLOCK
 70
0
  3

 72
65
 73
0
 40
0.0
  0
LTYPE
  5
15
100
AcDbSymbolTableRecord
100
AcDbLinetypeTableRecord
  2
BYLAYER
 70
0
  3

 72
65
 73
0
 40
0.0
  0
LTYPE
  5
16
100
AcDbSymbolTableRecord
100
AcDbLinetypeTableRecord
  2
CONTINUOUS
 70
64
  3
Solid line
 72
65
 73
0
 40
0.0
  0
LTYPE
  5
1F5
100
AcDbSymbolTableRecord
100
AcDbLinetypeTableRecord
  2
CENTER
 70
64
  3
____ _ ____ _ ____ _ ____ _ ____ _ ____ _ ____
 72
65
 73
4
 40
0.6
 49
0.375
 74
0
 49
-0.075
 74
0
 49
0.075
 74
0
 49
-0.075
 74
0
  0
LTYPE
  5
1F6
100
AcDbSymbolTableRecord
100
AcDbLinetypeTableRecord
  2
HIDDEN
 70
64
  3
- - - - - - - - - - - - - - - - - - - -
 72
65
 73
2
 40
0.2
 49
0.1
 74
0
 49
-0.1
 74
0
  0
LTYPE
  5
1F7
100
AcDbSymbolTableRecord
100
AcDbLinetypeTableRecord
  2
PHANTOM
 70
64
  3
_____ _ _ _____ _ _ _____ _ _ _____
 72
65
 73
6
 40
0.8
 49
0.45
 74
0
 49
-0.05
 74
0
 49
0.1
 74
0
 49
-0.05
 74
0
 49
0.1
 74
0
 49
-0.05
 74
0
  0
LTYPE
  5
1F8
100
AcDbSymbolTableRecord
100
AcDbLinetypeTableRecord
  2
DOT
 70
64
  3
. . . . . . . . . . . . . . . . . . . .
 72
65
 73
2
 40
0.2
 49
0.1
 74
0
 49
-0.1
 74
0
  0
LTYPE
  5
1F9
100
AcDbSymbolTableRecord
100
AcDbLinetypeTableRecord
  2
DASHED
 70
64
  3
- - - - - - - - - - - - - - - - - - - -
 72
65
 73
2
 40
0.2
 49
0.1
 74
0
 49
-0.1
 74
0
  0
ENDTAB
  0
TABLE
  2
LAYER
  5
2
100
AcDbSymbolTable
 70
36
  0
LAYER
  5
10
100
AcDbSymbolTableRecord
100
AcDbLayerTableRecord
  2
0
 70
0
 62
7
  6
CONTINUOUS
370
-3
390
F
  0
LAYER
  5
1FA
100
AcDbSymbolTableRecord
100
AcDbLayerTableRecord
  2
DEFAULT_1
 70
0
 62
7
  6
CENTER
370
-3
390
F
  0
LAYER
  5
1FB
100
AcDbSymbolTableRecord
100
AcDbLayerTableRecord
  2
DEFAULT_2
 70
0
 62
7
  6
HIDDEN
370
-3
390
F
  0
LAYER
  5
1FC
100
AcDbSymbolTableRecord
100
AcDbLayerTableRecord
  2
DEFAULT_3
 70
0
 62
7
  6
PHANTOM
370
-3
390
F
  0
LAYER
  5
1FD
100
AcDbSymbolTableRecord
100
AcDbLayerTableRecord
  2
ASSI
 70
0
 62
7
  6
CONTINUOUS
370
-3
390
F
  0
LAYER
  5
1FE
100
AcDbSymbolTableRecord
100
AcDbLayerTableRecord
  2
COORDINATE
 70
0
 62
7
  6
CONTINUOUS
370
-3
390
F
  0
LAYER
  5
1FF
100
AcDbSymbolTableRecord
100
AcDbLayerTableRecord
  2
COORD_ORIGINE
 70
0
 62
7
  6
CONTINUOUS
370
-3
390
F
  0
LAYER
  5
200
100
AcDbSymbolTableRecord
100
AcDbLayerTableRecord
  2
COPY_PUBLISH
 70
0
 62
7
  6
CONTINUOUS
370
-3
390
F
  0
LAYER
  5
201
100
AcDbSymbolTableRecord
100
AcDbLayerTableRecord
  2
COSMETIC
 70
0
 62
7
  6
CONTINUOUS
370
-3
390
F
  0
LAYER
  5
202
100
AcDbSymbolTableRecord
100
AcDbLayerTableRecord
  2
COSMETICI
 70
0
 62
7
  6
CONTINUOUS
370
-3
390
F
  0
LAYER
  5
203
100
AcDbSymbolTableRecord
100
AcDbLayerTableRecord
  2
CURVA_TASSELLO
 70
0
 62
7
  6
CONTINUOUS
370
-3
390
F
  0
LAYER
  5
204
100
AcDbSymbolTableRecord
100
AcDbLayerTableRecord
  2
CURVE
 70
0
 62
7
  6
CONTINUOUS
370
-3
390
F
  0
LAYER
  5
205
100
AcDbSymbolTableRecord
100
AcDbLayerTableRecord
  2
DRAFT
 70
0
 62
7
  6
CONTINUOUS
370
-3
390
F
  0
LAYER
  5
206
100
AcDbSymbolTableRecord
100
AcDbLayerTableRecord
  2
IMPORT_IGES
 70
0
 62
7
  6
CONTINUOUS
370
-3
390
F
  0
LAYER
  5
207
100
AcDbSymbolTableRecord
100
AcDbLayerTableRecord
  2
INTFCLR_2
 70
0
 62
7
  6
CONTINUOUS
370
-3
390
F
  0
LAYER
  5
208
100
AcDbSymbolTableRecord
100
AcDbLayerTableRecord
  2
INTF_1
 70
0
 62
7
  6
CONTINUOUS
370
-3
390
F
  0
LAYER
  5
209
100
AcDbSymbolTableRecord
100
AcDbLayerTableRecord
  2
INTF_21
 70
0
 62
7
  6
CONTINUOUS
370
-3
390
F
  0
LAYER
  5
20A
100
AcDbSymbolTableRecord
100
AcDbLayerTableRecord
  2
INTF_7
 70
0
 62
7
  6
CONTINUOUS
370
-3
390
F
  0
LAYER
  5
20B
100
AcDbSymbolTableRecord
100
AcDbLayerTableRecord
  2
INTF_9
 70
0
 62
7
  6
CONTINUOUS
370
-3
390
F
  0
LAYER
  5
20C
100
AcDbSymbolTableRecord
100
AcDbLayerTableRecord
  2
NOTE
 70
0
 62
7
  6
CONTINUOUS
370
-3
390
F
  0
LAYER
  5
20D
100
AcDbSymbolTableRecord
100
AcDbLayerTableRecord
  2
PIANI
 70
0
 62
7
  6
CONTINUOUS
370
-3
390
F
  0
LAYER
  5
20E
100
AcDbSymbolTableRecord
100
AcDbLayerTableRecord
  2
PIANI_ORIGINE
 70
0
 62
7
  6
CONTINUOUS
370
-3
390
F
  0
LAYER
  5
20F
100
AcDbSymbolTableRecord
100
AcDbLayerTableRecord
  2
PIANI_RIFERIMENTO
 70
0
 62
7
  6
CONTINUOUS
370
-3
390
F
  0
LAYER
  5
210
100
AcDbSymbolTableRecord
100
AcDbLayerTableRecord
  2
PUNTI
 70
0
 62
7
  6
CONTINUOUS
370
-3
390
F
  0
LAYER
  5
211
100
AcDbSymbolTableRecord
100
AcDbLayerTableRecord
  2
RACCORDO
 70
0
 62
7
  6
CONTINUOUS
370
-3
390
F
  0
LAYER
  5
212
100
AcDbSymbolTableRecord
100
AcDbLayerTableRecord
  2
RGB__255__255__255__
 70
0
 62
7
  6
CONTINUOUS
370
-3
390
F
  0
LAYER
  5
213
100
AcDbSymbolTableRecord
100
AcDbLayerTableRecord
  2
RGB____0____0____0__
 70
0
 62
7
  6
CONTINUOUS
370
-3
390
F
  0
LAYER
  5
214
100
AcDbSymbolTableRecord
100
AcDbLayerTableRecord
  2
SIMBOLI
 70
0
 62
7
  6
CONTINUOUS
370
-3
390
F
  0
LAYER
  5
215
100
AcDbSymbolTableRecord
100
AcDbLayerTableRecord
  2
SMUSSO
 70
0
 62
7
  6
CONTINUOUS
370
-3
390
F
  0
LAYER
  5
216
100
AcDbSymbolTableRecord
100
AcDbLayerTableRecord
  2
SUPERFICI
 70
0
 62
7
  6
CONTINUOUS
370
-3
390
F
  0
LAYER
  5
217
100
AcDbSymbolTableRecord
100
AcDbLayerTableRecord
  2
TRASH
 70
0
 62
7
  6
CONTINUOUS
370
-3
390
F
  0
LAYER
  5
218
100
AcDbSymbolTableRecord
100
AcDbLayerTableRecord
  2
XSEC_DATUMS
 70
0
 62
7
  6
CONTINUOUS
370
-3
390
F
  0
ENDTAB
  0
TABLE
  2
STYLE
  5
3
100
AcDbSymbolTable
 70
1
  0
STYLE
  5
11
100
AcDbSymbolTableRecord
100
AcDbTextStyleTableRecord
  2
STANDARD
 70
0
 40
0.0
 41
0.8
 50
0.0
 71
0
 42
0.2
  3
txt
  4

  0
STYLE
  5
219
100
AcDbSymbolTableRecord
100
AcDbTextStyleTableRecord
  2
TEXTSTYLE_1
 70
0
 40
0.0
 41
0.8
 50
0.0
 71
0
 42
0.2
  3
gdt
  4

  0
ENDTAB
  0
TABLE
  2
VIEW
  5
6
100
AcDbSymbolTable
 70
0
  0
ENDTAB
  0
TABLE
  2
UCS
  5
7
100
AcDbSymbolTable
 70
0
  0
ENDTAB
  0
TABLE
  2
APPID
  5
9
100
AcDbSymbolTable
 70
1
  0
APPID
  5
21A
100
AcDbSymbolTableRecord
100
AcDbRegAppTableRecord
  2
ACAD
 70
0
  0
ENDTAB
  0
TABLE
  2
BLOCK_RECORD
  5
1
100
AcDbSymbolTable
 70
0
  0
BLOCK_RECORD
  5
21B
100
AcDbSymbolTableRecord
100
AcDbBlockTableRecord
  2
*Model_Space
  0
BLOCK_RECORD
  5
21C
100
AcDbSymbolTableRecord
100
AcDbBlockTableRecord
  2
*Paper_Space
  0
BLOCK_RECORD
  5
21D
100
AcDbSymbolTableRecord
100
AcDbBlockTableRecord
  2
_FILLED
  0
ENDTAB
  0
TABLE
  2
DIMSTYLE
  5
A
100
AcDbSymbolTable
 70
1
100
AcDbDimStyleTable
 71
0
  0
DIMSTYLE
105
21E
100
AcDbSymbolTableRecord
100
AcDbDimStyleTableRecord
  2
STANDARD
 70
0
  3

  4

 40
1.0
 41
3.0
 42
0.5
 43
0.38
 44
1.5
 45
0.0
 46
0.0
 47
0.01
 48
0.01
140
3.0
141
0.09
142
0.0
143
25.4
144
1.0
145
0.0
146
1.0
147
0.625
 71
1.0
 72
0.0
 73
0
 74
0
 75
0
 76
0
 77
1
 78
8
 79
2
170
0
171
1
172
0
173
0
174
0
175
0
176
0
177
0
178
0
270
2
179
2
271
2
272
2
273
2
274
2
275
0
280
0
281
0
282
0
283
1
284
8
285
0
286
0
287
3
288
0
340
11
278
44
341
21D
342
21D
343
21D
344
21D
  0
ENDTAB
  0
ENDSEC
  0
SECTION
  2
BLOCKS
  0
BLOCK
  5
20
100
AcDbEntity
  8
0
100
AcDbBlockBegin
  2
*Model_Space
 70
0
 10
0.0
 20
0.0
 30
0.0
  3
*Model_Space
  1

  0
ENDBLK
  5
21
100
AcDbEntity
  8
0
100
AcDbBlockEnd
  0
BLOCK
  5
1C
100
AcDbEntity
  8
0
100
AcDbBlockBegin
  2
*Paper_Space
 70
0
 10
0.0
 20
0.0
 30
0.0
  3
*Paper_Space
  1

  0
ENDBLK
  5
1D
100
AcDbEntity
  8
0
100
AcDbBlockEnd
  0
BLOCK
  5
21F
100
AcDbEntity
  8
0
100
AcDbBlockBegin
  2
_FILLED
 70
64
 10
0.0
 20
0.0
  3
_FILLED
  1

  0
SOLID
  5
220
100
AcDbEntity
  8
0
  6
BYBLOCK
 62
0
100
AcDbTrace
 10
0.0
 20
0.0
 11
-1.0
 21
0.3166666667
 12
-1.0
 22
-0.3166666667
 13
-1.0
 23
-0.3166666667
  0
ENDBLK
  5
221
100
AcDbEntity
  8
0
  6
BYBLOCK
 62
0
100
AcDbBlockEnd
  0
ENDSEC
  0
SECTION
  2
ENTITIES
  0
LINE
  5
222
100
AcDbEntity
  8
0
100
AcDbLine
 62
7
  6
CONTINUOUS
 10
211.4537991963
 20
187.3227488327
 11
215.2416129834
 21
189.826315724
  0
LINE
  5
223
100
AcDbEntity
  8
0
100
AcDbLine
 62
7
  6
CONTINUOUS
 10
212.1613364656
 20
187.7311930265
 11
215.9491502527
 21
190.2347599179
  0
LINE
  5
224
100
AcDbEntity
  8
0
100
AcDbLine
 62
7
  6
CONTINUOUS
 10
212.1405728514
 20
187.7183536756
 11
212.1613364656
 21
187.7311930265
  0
LINE
  5
225
100
AcDbEntity
  8
0
100
AcDbLine
 62
7
  6
CONTINUOUS
 10
215.2416129834
 20
189.826315724
 11
215.9491502527
 21
190.2347599179
  0
LINE
  5
226
100
AcDbEntity
  8
0
100
AcDbLine
 62
7
  6
CONTINUOUS
 10
212.1405728514
 20
187.7183536756
 11
211.4541745038
 21
187.3221124712
  0
LINE
  5
227
100
AcDbEntity
  8
0
100
AcDbLine
 62
7
  6
CONTINUOUS
 10
211.7578835515
 20
186.3031252372
 11
211.4789076174
 21
186.1420791616
  0
LINE
  5
228
100
AcDbEntity
  8
0
100
AcDbLine
 62
7
  6
CONTINUOUS
 10
211.7578835515
 20
186.3031252372
 11
212.1405728514
 21
187.7183536756
  0
LINE
  5
229
100
AcDbEntity
  8
0
100
AcDbLine
 62
7
  6
CONTINUOUS
 10
211.4789076174
 20
115.3104455623
 11
211.4541745038
 21
115.7666811398
  0
LINE
  5
22A
100
AcDbEntity
  8
0
100
AcDbLine
 62
7
  6
CONTINUOUS
 10
296.0082468207
 20
66.5042645078
 11
297.4252059516
 21
66.1280850519
  0
LINE
  5
22B
100
AcDbEntity
  8
0
100
AcDbLine
 62
7
  6
CONTINUOUS
 10
211.4789076174
 20
186.1420791616
 11
211.4541745038
 21
187.3221124712
  0
LINE
  5
22C
100
AcDbEntity
  8
0
100
AcDbLine
 62
7
  6
CONTINUOUS
 10
211.4541745038
 20
115.7666811398
 11
211.4537991963
 21
115.7908740005
  0
LINE
  5
22D
100
AcDbEntity
  8
0
100
AcDbLine
 62
7
  6
CONTINUOUS
 10
211.4537991963
 20
187.3227488327
 11
211.4537991963
 21
115.7908740005
  0
LINE
  5
22E
100
AcDbEntity
  8
0
100
AcDbLine
 62
7
  6
CONTINUOUS
 10
211.4789076174
 20
186.1420791616
 11
211.4789076174
 21
115.3104455623
  0
LINE
  5
22F
100
AcDbEntity
  8
0
100
AcDbLine
 62
7
  6
CONTINUOUS
 10
211.4789076174
 20
115.3104455623
 11
211.7578835515
 21
114.8272450708
  0
LINE
  5
230
100
AcDbEntity
  8
0
100
AcDbLine
 62
7
  6
CONTINUOUS
 10
211.7578835515
 20
114.8272450708
 11
212.1405728514
 21
114.5778043287
  0
LINE
  5
231
100
AcDbEntity
  8
0
100
AcDbLine
 62
7
  6
CONTINUOUS
 10
212.1613364656
 20
114.5653835031
 11
296.7391700342
 21
65.7312024098
  0
LINE
  5
232
100
AcDbEntity
  8
0
100
AcDbLine
 62
7
  6
CONTINUOUS
 10
211.7578835515
 20
114.8272450708
 11
295.7292708865
 21
66.3432184322
  0
LINE
  5
233
100
AcDbEntity
  8
0
100
AcDbLine
 62
7
  6
CONTINUOUS
 10
212.1613364656
 20
114.5653835031
 11
212.1405728514
 21
114.5778043287
  0
LINE
  5
234
100
AcDbEntity
  8
0
100
AcDbLine
 62
7
  6
CONTINUOUS
 10
295.7292708865
 20
66.3432184322
 11
296.7388076039
 21
65.7318438475
  0
LWPOLYLINE
  5
235
100
AcDbEntity
  8
0
100
AcDbPolyline
 62
7
  6
CONTINUOUS
 90
28
 70
0
 10
231.8939776804
 20
144.409207623
 10
231.8960671699
 20
144.4891444104
 10
231.9021532755
 20
144.5659628245
 10
231.9122359971
 20
144.6396628654
 10
231.9263761798
 20
144.7104729801
 10
231.9445129786
 20
144.7781647216
 10
231.9664638583
 20
144.8420527482
 10
231.992267647
 20
144.9020981945
 10
232.0218855166
 20
144.958339926
 10
232.0550184472
 20
145.0102091971
 10
232.0917020866
 20
145.0576614728
 10
232.131900787
 20
145.1007412883
 10
232.1752085856
 20
145.1390135034
 10
232.2216569036
 20
145.1724293172
 10
232.2712143197
 20
145.2010375306
 10
232.3233806069
 20
145.2245494066
 10
232.378182266
 20
145.2429133397
 10
232.4355927963
 20
145.2561809352
 10
232.4950324688
 20
145.2642182723
 10
232.5565221001
 20
145.2669722257
 10
232.6200408736
 20
145.2644959206
 10
232.6849466108
 20
145.2568148113
 10
232.7512535373
 20
145.243875823
 10
232.8189474275
 20
145.2257320304
 10
232.8873434253
 20
145.2025681124
 10
232.9562132454
 20
145.1744456287
 10
233.0257851731
 20
145.1413030195
 10
233.0960592084
 20
145.1031402849
  0
LWPOLYLINE
  5
236
100
AcDbEntity
  8
0
100
AcDbPolyline
 62
7
  6
CONTINUOUS
 90
7
 70
0
 10
232.7983543363
 20
144.8081934156
 10
232.7875342905
 20
144.7797890452
 10
232.7714148457
 20
144.7277358345
 10
232.758806627
 20
144.672573338
 10
232.7497630953
 20
144.6145396604
 10
232.7443219627
 20
144.5538826696
 10
232.7425058178
 20
144.4908625417
  0
LINE
  5
237
100
AcDbEntity
  8
0
100
AcDbLine
 62
250
  6
CONTINUOUS
 10
232.9818575645
 20
145.006627107
 11
232.7425058178
 21
144.4908625417
  0
LWPOLYLINE
  5
238
100
AcDbEntity
  8
0
100
AcDbPolyline
 62
7
  6
CONTINUOUS
 90
3
 70
0
 10
232.830013794
 20
144.8736789522
 10
232.807095222
 20
144.8285063466
 10
232.7983543363
 20
144.8081934156
  0
LWPOLYLINE
  5
239
100
AcDbEntity
  8
0
100
AcDbPolyline
 62
7
  6
CONTINUOUS
 90
4
 70
0
 10
232.9178577469
 20
144.9860689368
 10
232.8855156706
 20
144.9526305725
 10
232.8561918974
 20
144.9151135198
 10
232.830013794
 20
144.8736789522
  0
LWPOLYLINE
  5
23A
100
AcDbEntity
  8
0
100
AcDbPolyline
 62
7
  6
CONTINUOUS
 90
3
 70
0
 10
232.7764363679
 20
144.9044139971
 10
232.8116587965
 20
144.9336326681
 10
232.8495836068
 20
144.9584918564
  0
LINE
  5
23B
100
AcDbEntity
  8
0
100
AcDbLine
 62
250
  6
CONTINUOUS
 10
233.3354130654
 20
144.9559406997
 11
233.1011360067
 21
144.8206715978
  0
LINE
  5
23C
100
AcDbEntity
  8
0
100
AcDbLine
 62
250
  6
CONTINUOUS
 10
232.6010844616
 20
144.409207623
 11
232.7425058178
 21
144.4908625417
  0
LINE
  5
23D
100
AcDbEntity
  8
0
100
AcDbLine
 62
250
  6
CONTINUOUS
 10
233.7673850812
 20
144.7155251397
 11
233.1011360067
 21
144.3308399533
  0
LWPOLYLINE
  5
23E
100
AcDbEntity
  8
0
100
AcDbPolyline
 62
7
  6
CONTINUOUS
 90
13
 70
0
 10
232.8495836068
 20
144.9584918564
 10
232.8901350227
 20
144.9789351269
 10
232.9330528352
 20
144.9948249639
 10
232.9781848081
 20
145.0061105337
 10
233.0253398846
 20
145.0127428966
 10
233.0743147616
 20
145.0146923432
 10
233.1248969892
 20
145.0119500283
 10
233.1768699511
 20
145.0045277141
 10
233.2300109991
 20
144.9924572154
 10
233.2840892411
 20
144.9757913952
 10
233.3388718269
 20
144.9546029424
 10
233.3941251536
 20
144.9289831254
 10
233.449612599
 20
144.8990424432
  0
LWPOLYLINE
  5
23F
100
AcDbEntity
  8
0
100
AcDbPolyline
 62
7
  6
CONTINUOUS
 90
25
 70
0
 10
232.7425058178
 20
133.5501608327
 10
232.7443219977
 20
133.4850428285
 10
232.7497632086
 20
133.4181021325
 10
232.7588068215
 20
133.3496250291
 10
232.7714150582
 20
133.2799030806
 10
232.7875344325
 20
133.2092360126
 10
232.8070952838
 20
133.1379305949
 10
232.830013847
 20
133.0662922498
 10
232.8561919862
 20
132.9946277905
 10
232.8855157917
 20
132.9232483293
 10
232.9178578618
 20
132.852462186
 10
232.9530802804
 20
132.782569582
 10
232.9910339968
 20
132.7138657257
 10
233.0315565299
 20
132.646644746
 10
233.0744743821
 20
132.5811944559
 10
233.1196063891
 20
132.517791591
 10
233.1667614602
 20
132.456705758
 10
233.2157363211
 20
132.3982013908
 10
233.266318599
 20
132.3425325827
 10
233.3182917898
 20
132.2899376232
 10
233.3714331464
 20
132.240641938
 10
233.4255115273
 20
132.1948595107
 10
233.4802939885
 20
132.1527865697
 10
233.535547005
 20
132.1146014941
 10
233.5910339552
 20
132.0804669885
  0
LWPOLYLINE
  5
240
100
AcDbEntity
  8
0
100
AcDbPolyline
 62
7
  6
CONTINUOUS
 90
28
 70
0
 10
233.1011360067
 20
134.3229512803
 10
233.1034624195
 20
134.2312619395
 10
233.1102387513
 20
134.1379058498
 10
233.121465002
 20
134.0428830112
 10
233.1372089062
 20
133.9458608132
 10
233.1574027294
 20
133.8471718664
 10
233.1818432684
 20
133.7478140026
 10
233.2105738024
 20
133.6477805021
 10
233.2435510524
 20
133.5470780845
 10
233.2804419774
 20
133.4467247405
 10
233.3212861931
 20
133.3467244118
 10
233.3660440839
 20
133.2470731567
 10
233.4142637629
 20
133.1487771401
 10
233.465980244
 20
133.0518501938
 10
233.5211585133
 20
132.9562784862
 10
233.5792416428
 20
132.8630266866
 10
233.6402592009
 20
132.7721181156
 10
233.7041816192
 20
132.6835294527
 10
233.7703632645
 20
132.5981554054
 10
233.8388272154
 20
132.516028485
 10
233.9095503933
 20
132.4371161802
 10
233.981817929
 20
132.3622156646
 10
234.0556457119
 20
132.2913676699
 10
234.1310178528
 20
132.2245314644
 10
234.2071718149
 20
132.1623820268
 10
234.2838534195
 20
132.1051443499
 10
234.3613168454
 20
132.0525934408
 10
234.4395620926
 20
132.0047292996
  0
LINE
  5
241
100
AcDbEntity
  8
0
100
AcDbLine
 62
7
  6
CONTINUOUS
 10
231.8939776804
 20
133.468505914
 11
231.8939776804
 21
144.409207623
  0
LINE
  5
242
100
AcDbEntity
  8
0
100
AcDbLine
 62
7
  6
CONTINUOUS
 10
232.6010844616
 20
133.468505914
 11
232.6010844616
 21
144.409207623
  0
LINE
  5
243
100
AcDbEntity
  8
0
100
AcDbLine
 62
7
  6
CONTINUOUS
 10
232.7425058178
 20
144.4908625417
 11
232.7425058178
 21
133.5501608327
  0
LINE
  5
244
100
AcDbEntity
  8
0
100
AcDbLine
 62
7
  6
CONTINUOUS
 10
233.1011360067
 20
145.0132382297
 11
233.1011360067
 21
134.3229512803
  0
LINE
  5
245
100
AcDbEntity
  8
0
100
AcDbLine
 62
250
  6
CONTINUOUS
 10
234.7058560598
 20
144.1736637584
 11
234.7058560598
 21
140.9767873848
  0
LINE
  5
246
100
AcDbEntity
  8
0
100
AcDbLine
 62
7
  6
CONTINUOUS
 10
234.7900541197
 20
144.1250488539
 11
234.7900541197
 21
141.0971134959
  0
LWPOLYLINE
  5
247
100
AcDbEntity
  8
0
100
AcDbPolyline
 62
250
  6
CONTINUOUS
 90
10
 70
0
 10
234.7058560598
 20
140.9767873848
 10
234.705352065
 20
140.9560938938
 10
234.7032101561
 20
140.9364732322
 10
234.6994466281
 20
140.9180746674
 10
234.6940901111
 20
140.9010381657
 10
234.6871813564
 20
140.8854933395
 10
234.67877293
 20
140.8715584581
 10
234.6689288135
 20
140.8593395405
 10
234.6577238928
 20
140.8489295259
 10
234.6478437933
 20
140.8419617393
  0
LWPOLYLINE
  5
248
100
AcDbEntity
  8
0
100
AcDbPolyline
 62
7
  6
CONTINUOUS
 90
11
 70
0
 10
232.6010844616
 20
144.409207623
 10
232.6029006081
 20
144.4722277791
 10
232.6083417442
 20
144.5328847837
 10
232.6173852789
 20
144.5909184622
 10
232.6299934966
 20
144.6460809426
 10
232.646112935
 20
144.6981341286
 10
232.6656738591
 20
144.7468514131
 10
232.6885924275
 20
144.7920240155
 10
232.7147705296
 20
144.8334585847
 10
232.7440943
 20
144.8709756373
 10
232.7764363679
 20
144.9044139971
  0
LWPOLYLINE
  5
249
100
AcDbEntity
  8
0
100
AcDbPolyline
 62
250
  6
CONTINUOUS
 90
10
 70
0
 10
234.790054119
 20
141.0971022163
 10
234.7891202348
 20
141.0834566189
 10
234.7859649472
 20
141.0686114715
 10
234.7806033947
 20
141.0539786763
 10
234.7730673338
 20
141.0396539542
 10
234.7634170367
 20
141.0257583193
 10
234.7517575822
 20
141.0124296335
 10
234.7382037853
 20
140.9997731892
 10
234.7228611139
 20
140.9878652819
 10
234.7058560598
 20
140.9767873848
  0
LINE
  5
24A
100
AcDbEntity
  8
0
100
AcDbLine
 62
250
  6
CONTINUOUS
 10
233.1011360067
 20
134.3229512803
 11
232.7425058178
 21
133.5501608327
  0
LINE
  5
24B
100
AcDbEntity
  8
0
100
AcDbLine
 62
250
  6
CONTINUOUS
 10
233.0960592084
 20
131.3864396348
 11
233.449612599
 21
131.9988120699
  0
LINE
  5
24C
100
AcDbEntity
  8
0
100
AcDbLine
 62
250
  6
CONTINUOUS
 10
234.7058560598
 20
140.9767873848
 11
233.1011360067
 21
139.9844044326
  0
LINE
  5
24D
100
AcDbEntity
  8
0
100
AcDbLine
 62
7
  6
CONTINUOUS
 10
234.6478437933
 20
140.8419617393
 11
233.1011360067
 21
139.8854544429
  0
LWPOLYLINE
  5
24E
100
AcDbEntity
  8
0
100
AcDbPolyline
 62
7
  6
CONTINUOUS
 90
11
 70
0
 10
275.2612083841
 20
108.0597932988
 10
275.2160764111
 20
108.048507729
 10
275.1689213347
 20
108.0418753661
 10
275.1199464577
 20
108.0399259195
 10
275.0693642301
 20
108.0426682345
 10
275.0173912681
 20
108.0500905486
 10
274.9642502201
 20
108.0621610474
 10
274.9101719781
 20
108.0788268675
 10
274.8553893924
 20
108.1000153203
 10
274.8001360657
 20
108.1256351373
 10
274.7446486203
 20
108.1555758195
  0
LINE
  5
24F
100
AcDbEntity
  8
0
100
AcDbLine
 62
250
  6
CONTINUOUS
 10
232.6010844616
 20
133.468505914
 11
232.7425058178
 21
133.5501608327
  0
LINE
  5
250
100
AcDbEntity
  8
0
100
AcDbLine
 62
250
  6
CONTINUOUS
 10
233.449612599
 20
131.9988120699
 11
233.5910339552
 21
132.0804669885
  0
LINE
  5
251
100
AcDbEntity
  8
0
100
AcDbLine
 62
250
  6
CONTINUOUS
 10
275.4525328041
 20
108.1866695564
 11
274.8860699765
 21
108.2372307382
  0
LWPOLYLINE
  5
252
100
AcDbEntity
  8
0
100
AcDbPolyline
 62
7
  6
CONTINUOUS
 90
6
 70
0
 10
275.188898992
 20
108.1269010853
 10
275.2107854819
 20
108.1243231635
 10
275.2613677183
 20
108.1215808389
 10
275.3103426254
 20
108.1235302789
 10
275.3574977239
 20
108.1301626392
 10
275.4026296993
 20
108.1414482048
  0
LINE
  5
253
100
AcDbEntity
  8
0
100
AcDbLine
 62
7
  6
CONTINUOUS
 10
243.7733716043
 20
137.5501944551
 11
243.7733716043
 21
126.6094927461
  0
LWPOLYLINE
  5
254
100
AcDbEntity
  8
0
100
AcDbPolyline
 62
7
  6
CONTINUOUS
 90
28
 70
0
 10
243.7733716043
 20
126.6094927461
 10
243.7712821148
 20
126.5295559587
 10
243.7651960092
 20
126.4527375446
 10
243.7551132876
 20
126.3790375038
 10
243.7409731048
 20
126.308227389
 10
243.7228363061
 20
126.2405356476
 10
243.7008854264
 20
126.176647621
 10
243.6750816377
 20
126.1166021746
 10
243.6454637681
 20
126.0603604432
 10
243.6123308375
 20
126.008491172
 10
243.5756471981
 20
125.9610388963
 10
243.5354484976
 20
125.9179590809
 10
243.4921406991
 20
125.8796868658
 10
243.4456923811
 20
125.846271052
 10
243.396134965
 20
125.8176628385
 10
243.3439686777
 20
125.7941509626
 10
243.2891670186
 20
125.7757870295
 10
243.2317564884
 20
125.7625194339
 10
243.1723168158
 20
125.7544820969
 10
243.1108271846
 20
125.7517281434
 10
243.047308411
 20
125.7542044485
 10
242.9824026739
 20
125.7618855578
 10
242.9160957473
 20
125.7748245462
 10
242.8484018572
 20
125.7929683387
 10
242.7800058594
 20
125.8161322567
 10
242.7111360393
 20
125.8442547405
 10
242.6415641116
 20
125.8773973496
 10
242.5712900763
 20
125.9155600842
  0
LWPOLYLINE
  5
255
100
AcDbEntity
  8
0
100
AcDbPolyline
 62
7
  6
CONTINUOUS
 90
7
 70
0
 10
243.7733716043
 20
127.0177673394
 10
243.7715554578
 20
126.9547471833
 10
243.7661143217
 20
126.8940901787
 10
243.7570707869
 20
126.8360565003
 10
243.7444625692
 20
126.7808940198
 10
243.7283431309
 20
126.7288408338
 10
243.7087822068
 20
126.6801235494
  0
LWPOLYLINE
  5
256
100
AcDbEntity
  8
0
100
AcDbPolyline
 62
7
  6
CONTINUOUS
 90
7
 70
0
 10
243.7087822068
 20
126.6801235494
 10
243.6858636384
 20
126.634950947
 10
243.6596855362
 20
126.5935163777
 10
243.6303617659
 20
126.5559993252
 10
243.5980196979
 20
126.5225609654
 10
243.5627972693
 20
126.4933422944
 10
243.524872459
 20
126.4684831061
  0
LINE
  5
257
100
AcDbEntity
  8
0
100
AcDbLine
 62
250
  6
CONTINUOUS
 10
242.5712900763
 20
125.9155600842
 11
242.9248434669
 21
126.5279325193
  0
LINE
  5
258
100
AcDbEntity
  8
0
100
AcDbLine
 62
250
  6
CONTINUOUS
 10
263.7137828338
 20
115.0961492143
 11
264.420889615
 21
115.0961492143
  0
LINE
  5
259
100
AcDbEntity
  8
0
100
AcDbLine
 62
250
  6
CONTINUOUS
 10
266.259367246
 20
113.6323725999
 11
265.4108391086
 21
113.7081102888
  0
LINE
  5
25A
100
AcDbEntity
  8
0
100
AcDbLine
 62
250
  6
CONTINUOUS
 10
242.9248434669
 20
126.5279325193
 11
243.0662648231
 21
126.6095874379
  0
LWPOLYLINE
  5
25B
100
AcDbEntity
  8
0
100
AcDbPolyline
 62
7
  6
CONTINUOUS
 90
3
 70
0
 10
243.524872459
 20
126.4684831061
 10
243.4843210432
 20
126.4480398355
 10
243.4414032307
 20
126.4321499986
  0
LWPOLYLINE
  5
25C
100
AcDbEntity
  8
0
100
AcDbPolyline
 62
7
  6
CONTINUOUS
 90
7
 70
0
 10
274.8860699765
 20
108.2372307382
 10
274.9415574615
 20
108.2072900361
 10
274.9968108041
 20
108.1816702154
 10
275.0515933823
 20
108.1604817695
 10
275.1056715785
 20
108.1438159655
 10
275.1588125602
 20
108.1317454792
 10
275.188898992
 20
108.1269010853
  0
LWPOLYLINE
  5
25D
100
AcDbEntity
  8
0
100
AcDbPolyline
 62
7
  6
CONTINUOUS
 90
7
 70
0
 10
243.0662648231
 20
126.6095874379
 10
243.1217523081
 20
126.5796467359
 10
243.1770056507
 20
126.5540269151
 10
243.2317882289
 20
126.5328384693
 10
243.2858664251
 20
126.5161726652
 10
243.3390074068
 20
126.504102179
 10
243.3690938386
 20
126.499257785
  0
LINE
  5
25E
100
AcDbEntity
  8
0
100
AcDbLine
 62
7
  6
CONTINUOUS
 10
274.3910952297
 20
107.5432033845
 11
264.9158643618
 21
113.0140829351
  0
LINE
  5
25F
100
AcDbEntity
  8
0
100
AcDbLine
 62
7
  6
CONTINUOUS
 10
242.5712900763
 20
125.9155600842
 11
233.0960592084
 21
131.3864396348
  0
LINE
  5
260
100
AcDbEntity
  8
0
100
AcDbLine
 62
7
  6
CONTINUOUS
 10
274.7446486203
 20
108.1555758195
 11
265.2694177524
 21
113.6264553701
  0
LINE
  5
261
100
AcDbEntity
  8
0
100
AcDbLine
 62
7
  6
CONTINUOUS
 10
242.9248434669
 20
126.5279325193
 11
233.449612599
 21
131.9988120699
  0
LINE
  5
262
100
AcDbEntity
  8
0
100
AcDbLine
 62
7
  6
CONTINUOUS
 10
233.5910339552
 20
132.0804669885
 11
243.0662648231
 21
126.6095874379
  0
LINE
  5
263
100
AcDbEntity
  8
0
100
AcDbLine
 62
7
  6
CONTINUOUS
 10
265.4108391086
 20
113.7081102888
 11
274.8860699765
 21
108.2372307382
  0
LINE
  5
264
100
AcDbEntity
  8
0
100
AcDbLine
 62
7
  6
CONTINUOUS
 10
234.4395620926
 20
132.0047292996
 11
243.6980594557
 21
126.6589889584
  0
LINE
  5
265
100
AcDbEntity
  8
0
100
AcDbLine
 62
7
  6
CONTINUOUS
 10
266.259367246
 20
113.6323725999
 11
275.5178646091
 21
108.2866322586
  0
LWPOLYLINE
  5
266
100
AcDbEntity
  8
0
100
AcDbPolyline
 62
7
  6
CONTINUOUS
 90
28
 70
0
 10
233.0960592084
 20
131.3864396348
 10
233.0257848438
 20
131.4294278291
 10
232.9562126555
 20
131.4766253417
 10
232.8873426436
 20
131.5280321725
 10
232.818946535
 20
131.5838503789
 10
232.7512526028
 20
131.6438779036
 10
232.6849456657
 20
131.7075085741
 10
232.6200399672
 20
131.7747789998
 10
232.5565212638
 20
131.8456525712
 10
232.4950316437
 20
131.9194132875
 10
232.4355918511
 20
131.9960903324
 10
232.3781811418
 20
132.075654522
 10
232.3233793714
 20
132.1573023047
 10
232.2712130919
 20
132.2410546306
 10
232.2216557512
 20
132.3268905495
 10
232.1752075489
 20
132.4139436589
 10
232.1318999262
 20
132.5022264041
 10
232.0917014417
 20
132.5917263398
 10
232.0550179708
 20
132.6815397269
 10
232.0218851133
 20
132.7716700465
 10
231.9922672693
 20
132.8621138176
 10
231.9664635143
 20
132.9519568574
 10
231.9445127004
 20
133.0411931594
 10
231.9263759756
 20
133.1298287303
 10
231.9122358593
 20
133.2169674074
 10
231.9021531912
 20
133.30231047
 10
231.8960671316
 20
133.3861566388
 10
231.8939776804
 20
133.468505914
  0
LWPOLYLINE
  5
267
100
AcDbEntity
  8
0
100
AcDbPolyline
 62
7
  6
CONTINUOUS
 90
28
 70
0
 10
264.9158643618
 20
113.0140829351
 10
264.8455899972
 20
113.0570711294
 10
264.7760178089
 20
113.1042686419
 10
264.707147797
 20
113.1556754727
 10
264.6387516884
 20
113.2114936792
 10
264.5710577562
 20
113.2715212039
 10
264.5047508191
 20
113.3351518743
 10
264.4398451206
 20
113.4024223
 10
264.3763264172
 20
113.4732958715
 10
264.3148367971
 20
113.5470565878
 10
264.2553970045
 20
113.6237336326
 10
264.1979862952
 20
113.7032978223
 10
264.1431845248
 20
113.784945605
 10
264.0910182453
 20
113.8686979309
 10
264.0414609046
 20
113.9545338498
 10
263.9950127023
 20
114.0415869591
 10
263.9517050796
 20
114.1298697044
 10
263.9115065951
 20
114.21936964
 10
263.8748231242
 20
114.3091830271
 10
263.8416902667
 20
114.3993133468
 10
263.8120724227
 20
114.4897571178
 10
263.7862686677
 20
114.5796001577
 10
263.7643178538
 20
114.6688364597
 10
263.746181129
 20
114.7574720305
 10
263.7320410127
 20
114.8446107076
 10
263.7219583446
 20
114.9299537702
 10
263.7158722849
 20
115.0137999391
 10
263.7137828338
 20
115.0961492143
  0
LWPOLYLINE
  5
268
100
AcDbEntity
  8
0
100
AcDbPolyline
 62
7
  6
CONTINUOUS
 90
25
 70
0
 10
233.449612599
 20
131.9988120699
 10
233.3941256235
 20
132.0329465919
 10
233.3388725933
 20
132.0711316795
 10
233.2840901298
 20
132.1132046253
 10
233.2300117633
 20
132.1589870431
 10
233.1768704314
 20
132.2082827066
 10
233.124897259
 20
132.2608776469
 10
233.0743149856
 20
132.3165464483
 10
233.0253401239
 20
132.3750508145
 10
232.9781850544
 20
132.4361366433
 10
232.9330530555
 20
132.4995394939
 10
232.8901352126
 20
132.5649897655
 10
232.8496126838
 20
132.6322107321
 10
232.811658963
 20
132.7009145898
 10
232.776436537
 20
132.7708072018
 10
232.7440944646
 20
132.8415933437
 10
232.7147706678
 20
132.9129727744
 10
232.688592538
 20
132.9846371935
 10
232.6656739708
 20
133.0562755307
 10
232.646113098
 20
133.1275810073
 10
232.6299937014
 20
133.1982481648
 10
232.6173854557
 20
133.2679701713
 10
232.6083418451
 20
133.3364472821
 10
232.6029006389
 20
133.403387957
 10
232.6010844616
 20
133.468505914
  0
LWPOLYLINE
  5
269
100
AcDbEntity
  8
0
100
AcDbPolyline
 62
7
  6
CONTINUOUS
 90
25
 70
0
 10
265.2694177524
 20
113.6264553701
 10
265.2139307769
 20
113.6605898921
 10
265.1586777467
 20
113.6987749797
 10
265.1038952832
 20
113.7408479255
 10
265.0498169167
 20
113.7866303433
 10
264.9966755848
 20
113.8359260069
 10
264.9447024124
 20
113.8885209472
 10
264.894120139
 20
113.9441897486
 10
264.8451452773
 20
114.0026941147
 10
264.7979902078
 20
114.0637799435
 10
264.7528582089
 20
114.1271827942
 10
264.7099403659
 20
114.1926330658
 10
264.6694178372
 20
114.2598540324
 10
264.6314641164
 20
114.3285578901
 10
264.5962416904
 20
114.398450502
 10
264.5638996179
 20
114.4692366439
 10
264.5345758212
 20
114.5406160747
 10
264.5083976914
 20
114.6122804937
 10
264.4854791242
 20
114.683918831
 10
264.4659182514
 20
114.7552243075
 10
264.4497988548
 20
114.825891465
 10
264.4371906091
 20
114.8956134715
 10
264.4281469985
 20
114.9640905823
 10
264.4227057923
 20
115.0310312573
 10
264.420889615
 20
115.0961492143
  0
LINE
  5
26A
100
AcDbEntity
  8
0
100
AcDbLine
 62
7
  6
CONTINUOUS
 10
211.4537991963
 20
187.3227488327
 11
211.4541745038
 21
187.3221124712
  0
LINE
  5
26B
100
AcDbEntity
  8
0
100
AcDbLine
 62
7
  6
CONTINUOUS
 10
296.0082468207
 20
137.3358981071
 11
297.4252059516
 21
137.6835163833
  0
LINE
  5
26C
100
AcDbEntity
  8
0
100
AcDbLine
 62
250
  6
CONTINUOUS
 10
263.7137828338
 20
126.0368509233
 11
264.420889615
 21
126.0368509233
  0
LINE
  5
26D
100
AcDbEntity
  8
0
100
AcDbLine
 62
250
  6
CONTINUOUS
 10
243.6327276507
 20
126.5590262561
 11
243.0662648231
 21
126.6095874379
  0
LWPOLYLINE
  5
26E
100
AcDbEntity
  8
0
100
AcDbPolyline
 62
7
  6
CONTINUOUS
 90
6
 70
0
 10
243.3690938386
 20
126.499257785
 10
243.3909803285
 20
126.4966798632
 10
243.4415625649
 20
126.4939375387
 10
243.490537472
 20
126.4958869787
 10
243.5376925705
 20
126.502519339
 10
243.5828245459
 20
126.5138049046
  0
LINE
  5
26F
100
AcDbEntity
  8
0
100
AcDbLine
 62
250
  6
CONTINUOUS
 10
264.420889615
 20
126.0368509233
 11
264.5623109712
 21
126.118505842
  0
LWPOLYLINE
  5
270
100
AcDbEntity
  8
0
100
AcDbPolyline
 62
7
  6
CONTINUOUS
 90
13
 70
0
 10
264.6693887602
 20
126.5861351567
 10
264.7099401761
 20
126.6065784272
 10
264.7528579886
 20
126.6224682642
 10
264.7979899615
 20
126.633753834
 10
264.845145038
 20
126.6403861969
 10
264.894119915
 20
126.6423356435
 10
264.9447021426
 20
126.6395933285
 10
264.9966751045
 20
126.6321710143
 10
265.0498161525
 20
126.6201005156
 10
265.1038943945
 20
126.6034346955
 10
265.1586769803
 20
126.5822462427
 10
265.213930307
 20
126.5566264257
 10
265.2694177524
 20
126.5266857434
  0
LWPOLYLINE
  5
271
100
AcDbEntity
  8
0
100
AcDbPolyline
 62
7
  6
CONTINUOUS
 90
11
 70
0
 10
243.4414032307
 20
126.4321499986
 10
243.3962712577
 20
126.4208644287
 10
243.3491161813
 20
126.4142320658
 10
243.3001413043
 20
126.4122826192
 10
243.2495590767
 20
126.4150249342
 10
243.1975861147
 20
126.4224472484
 10
243.1444450667
 20
126.4345177471
 10
243.0903668247
 20
126.4511835673
 10
243.035584239
 20
126.47237202
 10
242.9803309123
 20
126.4979918371
 10
242.9248434669
 20
126.5279325193
  0
LINE
  5
272
100
AcDbEntity
  8
0
100
AcDbLine
 62
250
  6
CONTINUOUS
 10
231.8939776804
 20
133.468505914
 11
232.6010844616
 21
133.468505914
  0
LINE
  5
273
100
AcDbEntity
  8
0
100
AcDbLine
 62
250
  6
CONTINUOUS
 10
234.4395620926
 20
132.0047292996
 11
233.5910339552
 21
132.0804669885
  0
LINE
  5
274
100
AcDbEntity
  8
0
100
AcDbLine
 62
7
  6
CONTINUOUS
 10
233.0960592084
 20
145.1031402849
 11
242.5712900763
 21
139.6322607343
  0
LINE
  5
275
100
AcDbEntity
  8
0
100
AcDbLine
 62
7
  6
CONTINUOUS
 10
264.9158643618
 20
126.7307835852
 11
274.3910952297
 21
121.2599040346
  0
LWPOLYLINE
  5
276
100
AcDbEntity
  8
0
100
AcDbPolyline
 62
7
  6
CONTINUOUS
 90
28
 70
0
 10
242.5712900763
 20
139.6322607343
 10
242.6415644409
 20
139.58927254
 10
242.7111366292
 20
139.5420750275
 10
242.7800066411
 20
139.4906681967
 10
242.8484027496
 20
139.4348499902
 10
242.9160966819
 20
139.3748224655
 10
242.982403619
 20
139.3111917951
 10
243.0473093175
 20
139.2439213694
 10
243.1108280209
 20
139.1730477979
 10
243.172317641
 20
139.0992870816
 10
243.2317574336
 20
139.0226100368
 10
243.2891681429
 20
138.9430458471
 10
243.3439699133
 20
138.8613980644
 10
243.3961361928
 20
138.7776457385
 10
243.4456935334
 20
138.6918098196
 10
243.4921417358
 20
138.6047567103
 10
243.5354493585
 20
138.516473965
 10
243.5756478429
 20
138.4269740293
 10
243.6123313139
 20
138.3371606423
 10
243.6454641714
 20
138.2470303226
 10
243.6750820154
 20
138.1565865516
 10
243.7008857704
 20
138.0667435117
 10
243.7228365842
 20
137.9775072097
 10
243.740973309
 20
137.8888716389
 10
243.7551134254
 20
137.8017329618
 10
243.7651960935
 20
137.7163898992
 10
243.7712821531
 20
137.6325437303
 10
243.7733716043
 20
137.5501944551
  0
LWPOLYLINE
  5
277
100
AcDbEntity
  8
0
100
AcDbPolyline
 62
7
  6
CONTINUOUS
 90
28
 70
0
 10
274.3910952297
 20
121.2599040346
 10
274.4613695943
 20
121.2169158403
 10
274.5309417826
 20
121.1697183277
 10
274.5998117945
 20
121.1183114969
 10
274.668207903
 20
121.0624932905
 10
274.7359018352
 20
121.0024657658
 10
274.8022087724
 20
120.9388350953
 10
274.8671144709
 20
120.8715646696
 10
274.9306331743
 20
120.8006910982
 10
274.9921227944
 20
120.7269303819
 10
275.051562587
 20
120.650253337
 10
275.1089732963
 20
120.5706891474
 10
275.1637750667
 20
120.4890413647
 10
275.2159413462
 20
120.4052890388
 10
275.2654986868
 20
120.3194531198
 10
275.3119468892
 20
120.2324000105
 10
275.3552545119
 20
120.1441172653
 10
275.3954529963
 20
120.0546173296
 10
275.4321364673
 20
119.9648039425
 10
275.4652693248
 20
119.8746736229
 10
275.4948871688
 20
119.7842298518
 10
275.5206909238
 20
119.694386812
 10
275.5426417376
 20
119.60515051
 10
275.5607784624
 20
119.5165149391
 10
275.5749185788
 20
119.429376262
 10
275.5850012469
 20
119.3440331994
 10
275.5910873065
 20
119.2601870306
 10
275.5931767577
 20
119.1778377554
  0
LINE
  5
278
100
AcDbEntity
  8
0
100
AcDbLine
 62
7
  6
CONTINUOUS
 10
296.7388076039
 20
65.7318438475
 11
296.7391700342
 21
65.7312024098
  0
LWPOLYLINE
  5
279
100
AcDbEntity
  8
0
100
AcDbPolyline
 62
7
  6
CONTINUOUS
 90
25
 70
0
 10
264.5623109712
 20
115.1778041329
 10
264.5641271511
 20
115.1126861287
 10
264.569568362
 20
115.0457454327
 10
264.5786119749
 20
114.9772683294
 10
264.5912202116
 20
114.9075463809
 10
264.6073395859
 20
114.8368793128
 10
264.6269004372
 20
114.7655738952
 10
264.6498190004
 20
114.6939355501
 10
264.6759971396
 20
114.6222710908
 10
264.7053209451
 20
114.5508916296
 10
264.7376630152
 20
114.4801054863
 10
264.7728854338
 20
114.4102128823
 10
264.8108391502
 20
114.3415090259
 10
264.8513616833
 20
114.2742880462
 10
264.8942795355
 20
114.2088377562
 10
264.9394115425
 20
114.1454348913
 10
264.9865666136
 20
114.0843490582
 10
265.0355414745
 20
114.025844691
 10
265.0861237524
 20
113.970175883
 10
265.1380969432
 20
113.9175809235
 10
265.1912382998
 20
113.8682852382
 10
265.2453166807
 20
113.822502811
 10
265.3000991419
 20
113.78042987
 10
265.3553521584
 20
113.7422447943
 10
265.4108391086
 20
113.7081102888
  0
LWPOLYLINE
  5
27A
100
AcDbEntity
  8
0
100
AcDbPolyline
 62
7
  6
CONTINUOUS
 90
28
 70
0
 10
264.9209411601
 20
115.9505945806
 10
264.9232675729
 20
115.8589052397
 10
264.9300439046
 20
115.76554915
 10
264.9412701554
 20
115.6705263115
 10
264.9570140596
 20
115.5735041135
 10
264.9772078828
 20
115.4748151667
 10
265.0016484218
 20
115.3754573028
 10
265.0303789558
 20
115.2754238023
 10
265.0633562058
 20
115.1747213848
 10
265.1002471308
 20
115.0743680407
 10
265.1410913465
 20
114.9743677121
 10
265.1858492373
 20
114.8747164569
 10
265.2340689163
 20
114.7764204403
 10
265.2857853974
 20
114.6794934941
 10
265.3409636667
 20
114.5839217864
 10
265.3990467962
 20
114.4906699868
 10
265.4600643543
 20
114.3997614159
 10
265.5239867726
 20
114.311172753
 10
265.5901684179
 20
114.2257987057
 10
265.6586323688
 20
114.1436717852
 10
265.7293555467
 20
114.0647594804
 10
265.8016230824
 20
113.9898589648
 10
265.8754508653
 20
113.9190109701
 10
265.9508230062
 20
113.8521747647
 10
266.0269769683
 20
113.7900253271
 10
266.1036585729
 20
113.7327876502
 10
266.1811219988
 20
113.6802367411
 10
266.259367246
 20
113.6323725999
  0
LINE
  5
27B
100
AcDbEntity
  8
0
100
AcDbLine
 62
7
  6
CONTINUOUS
 10
263.7137828338
 20
115.0961492143
 11
263.7137828338
 21
126.0368509233
  0
LINE
  5
27C
100
AcDbEntity
  8
0
100
AcDbLine
 62
7
  6
CONTINUOUS
 10
264.420889615
 20
115.0961492143
 11
264.420889615
 21
126.0368509233
  0
LINE
  5
27D
100
AcDbEntity
  8
0
100
AcDbLine
 62
7
  6
CONTINUOUS
 10
264.5623109712
 20
126.118505842
 11
264.5623109712
 21
115.1778041329
  0
LINE
  5
27E
100
AcDbEntity
  8
0
100
AcDbLine
 62
7
  6
CONTINUOUS
 10
264.9209411601
 20
126.6408815299
 11
264.9209411601
 21
115.9505945806
  0
LWPOLYLINE
  5
27F
100
AcDbEntity
  8
0
100
AcDbPolyline
 62
7
  6
CONTINUOUS
 90
28
 70
0
 10
263.7137828338
 20
126.0368509233
 10
263.7158723233
 20
126.1167877107
 10
263.7219584289
 20
126.1936061248
 10
263.7320411505
 20
126.2673061656
 10
263.7461813332
 20
126.3381162804
 10
263.764318132
 20
126.4058080218
 10
263.7862690117
 20
126.4696960484
 10
263.8120728004
 20
126.5297414948
 10
263.84169067
 20
126.5859832262
 10
263.8748236006
 20
126.6378524974
 10
263.91150724
 20
126.6853047731
 10
263.9517059404
 20
126.7283845885
 10
263.995013739
 20
126.7666568036
 10
264.041462057
 20
126.8000726174
 10
264.0910194731
 20
126.8286808309
 10
264.1431857603
 20
126.8521927068
 10
264.1979874194
 20
126.8705566399
 10
264.2553979497
 20
126.8838242355
 10
264.3148376222
 20
126.8918615725
 10
264.3763272535
 20
126.894615526
 10
264.439846027
 20
126.8921392209
 10
264.5047517642
 20
126.8844581116
 10
264.5710586907
 20
126.8715191232
 10
264.6387525809
 20
126.8533753307
 10
264.7071485787
 20
126.8302114127
 10
264.7760183988
 20
126.8020889289
 10
264.8455903265
 20
126.7689463198
 10
264.9158643618
 20
126.7307835852
  0
LWPOLYLINE
  5
280
100
AcDbEntity
  8
0
100
AcDbPolyline
 62
7
  6
CONTINUOUS
 90
11
 70
0
 10
264.420889615
 20
126.0368509233
 10
264.4227057615
 20
126.0998710794
 10
264.4281468976
 20
126.160528084
 10
264.4371904323
 20
126.2185617625
 10
264.44979865
 20
126.2737242429
 10
264.4659180884
 20
126.3257774289
 10
264.4854790125
 20
126.3744947133
 10
264.5083975809
 20
126.4196673157
 10
264.534575683
 20
126.461101885
 10
264.5638994534
 20
126.4986189375
 10
264.5962415213
 20
126.5320572973
  0
LWPOLYLINE
  5
281
100
AcDbEntity
  8
0
100
AcDbPolyline
 62
7
  6
CONTINUOUS
 90
7
 70
0
 10
264.6181594897
 20
126.4358367159
 10
264.6073394439
 20
126.4074323455
 10
264.5912199991
 20
126.3553791347
 10
264.5786117804
 20
126.3002166383
 10
264.5695682487
 20
126.2421829606
 10
264.564127116
 20
126.1815259699
 10
264.5623109712
 20
126.118505842
  0
LINE
  5
282
100
AcDbEntity
  8
0
100
AcDbLine
 62
250
  6
CONTINUOUS
 10
264.8016627179
 20
126.6342704073
 11
264.5623109712
 21
126.118505842
  0
LWPOLYLINE
  5
283
100
AcDbEntity
  8
0
100
AcDbPolyline
 62
7
  6
CONTINUOUS
 90
3
 70
0
 10
264.6498189474
 20
126.5013222524
 10
264.6269003754
 20
126.4561496468
 10
264.6181594897
 20
126.4358367159
  0
LWPOLYLINE
  5
284
100
AcDbEntity
  8
0
100
AcDbPolyline
 62
7
  6
CONTINUOUS
 90
4
 70
0
 10
264.7376629003
 20
126.6137122371
 10
264.705320824
 20
126.5802738727
 10
264.6759970508
 20
126.54275682
 10
264.6498189474
 20
126.5013222524
  0
LWPOLYLINE
  5
285
100
AcDbEntity
  8
0
100
AcDbPolyline
 62
7
  6
CONTINUOUS
 90
3
 70
0
 10
264.5962415213
 20
126.5320572973
 10
264.6314639499
 20
126.5612759683
 10
264.6693887602
 20
126.5861351567
  0
LINE
  5
286
100
AcDbEntity
  8
0
100
AcDbLine
 62
7
  6
CONTINUOUS
 10
296.7391700342
 20
138.8970119333
 11
300.8011030189
 21
141.2423058354
  0
LINE
  5
287
100
AcDbEntity
  8
0
100
AcDbLine
 62
250
  6
CONTINUOUS
 10
264.9209411601
 20
115.9505945806
 11
264.5623109712
 21
115.1778041329
  0
LINE
  5
288
100
AcDbEntity
  8
0
100
AcDbLine
 62
250
  6
CONTINUOUS
 10
264.9158643618
 20
113.0140829351
 11
265.2694177524
 21
113.6264553701
  0
LINE
  5
289
100
AcDbEntity
  8
0
100
AcDbLine
 62
7
  6
CONTINUOUS
 10
297.4467073035
 20
137.6715214359
 11
301.5086402882
 21
140.0168153381
  0
LINE
  5
28A
100
AcDbEntity
  8
0
100
AcDbLine
 62
250
  6
CONTINUOUS
 10
264.420889615
 20
115.0961492143
 11
264.5623109712
 21
115.1778041329
  0
LINE
  5
28B
100
AcDbEntity
  8
0
100
AcDbLine
 62
7
  6
CONTINUOUS
 10
275.5931767577
 20
119.1778377554
 11
275.5931767577
 21
108.2371360464
  0
LWPOLYLINE
  5
28C
100
AcDbEntity
  8
0
100
AcDbPolyline
 62
7
  6
CONTINUOUS
 90
28
 70
0
 10
275.5931767577
 20
108.2371360464
 10
275.5910872682
 20
108.157199259
 10
275.5850011626
 20
108.0803808449
 10
275.574918441
 20
108.006680804
 10
275.5607782582
 20
107.9358706893
 10
275.5426414595
 20
107.8681789478
 10
275.5206905798
 20
107.8042909212
 10
275.4948867911
 20
107.7442454749
 10
275.4652689215
 20
107.6880037434
 10
275.4321359909
 20
107.6361344723
 10
275.3954523515
 20
107.5886821965
 10
275.355253651
 20
107.5456023811
 10
275.3119458525
 20
107.507330166
 10
275.2654975345
 20
107.4739143522
 10
275.2159401184
 20
107.4453061388
 10
275.1637738311
 20
107.4217942628
 10
275.108972172
 20
107.4034303297
 10
275.0515616418
 20
107.3901627342
 10
274.9921219692
 20
107.3821253971
 10
274.9306323379
 20
107.3793714437
 10
274.8671135644
 20
107.3818477488
 10
274.8022078273
 20
107.3895288581
 10
274.7359009007
 20
107.4024678464
 10
274.6682070106
 20
107.420611639
 10
274.5998110128
 20
107.443775557
 10
274.5309411927
 20
107.4718980407
 10
274.461369265
 20
107.5050406499
 10
274.3910952297
 20
107.5432033845
  0
LWPOLYLINE
  5
28D
100
AcDbEntity
  8
0
100
AcDbPolyline
 62
7
  6
CONTINUOUS
 90
7
 70
0
 10
275.5931767577
 20
108.6454106397
 10
275.5913606112
 20
108.5823904836
 10
275.5859194751
 20
108.521733479
 10
275.5768759403
 20
108.4636998005
 10
275.5642677226
 20
108.4085373201
 10
275.5481482843
 20
108.3564841341
 10
275.5285873602
 20
108.3077668497
  0
LINE
  5
28E
100
AcDbEntity
  8
0
100
AcDbLine
 62
250
  6
CONTINUOUS
 10
265.2694177524
 20
113.6264553701
 11
265.4108391086
 21
113.7081102888
  0
LINE
  5
28F
100
AcDbEntity
  8
0
100
AcDbLine
 62
250
  6
CONTINUOUS
 10
231.8939776804
 20
144.409207623
 11
232.6010844616
 21
144.409207623
  0
LWPOLYLINE
  5
290
100
AcDbEntity
  8
0
100
AcDbPolyline
 62
7
  6
CONTINUOUS
 90
7
 70
0
 10
275.5285873602
 20
108.3077668497
 10
275.5056687918
 20
108.2625942473
 10
275.4794906896
 20
108.221159678
 10
275.4501669193
 20
108.1836426255
 10
275.4178248513
 20
108.1502042656
 10
275.3826024227
 20
108.1209855946
 10
275.3446776124
 20
108.0961264063
  0
LINE
  5
291
100
AcDbEntity
  8
0
100
AcDbLine
 62
250
  6
CONTINUOUS
 10
274.3910952297
 20
107.5432033845
 11
274.7446486203
 21
108.1555758195
  0
LINE
  5
292
100
AcDbEntity
  8
0
100
AcDbLine
 62
7
  6
CONTINUOUS
 10
295.7292708865
 20
137.8190985986
 11
296.7388076039
 21
138.8723931944
  0
LWPOLYLINE
  5
293
100
AcDbEntity
  8
0
100
AcDbPolyline
 62
7
  6
CONTINUOUS
 90
3
 70
0
 10
275.3446776124
 20
108.0961264063
 10
275.3041261966
 20
108.0756831358
 10
275.2612083841
 20
108.0597932988
  0
LINE
  5
294
100
AcDbEntity
  8
0
100
AcDbLine
 62
250
  6
CONTINUOUS
 10
274.7446486203
 20
108.1555758195
 11
274.8860699765
 21
108.2372307382
  0
LINE
  5
295
100
AcDbEntity
  8
0
100
AcDbLine
 62
7
  6
CONTINUOUS
 10
297.4252059516
 20
137.6835163833
 11
297.4467073035
 21
137.6715214359
  0
LINE
  5
296
100
AcDbEntity
  8
0
100
AcDbLine
 62
7
  6
CONTINUOUS
 10
295.7292708865
 20
137.8190985986
 11
211.7578835515
 21
186.3031252372
  0
LINE
  5
297
100
AcDbEntity
  8
0
100
AcDbLine
 62
7
  6
CONTINUOUS
 10
296.7391700342
 20
138.8970119333
 11
212.1613364656
 21
187.7311930265
  0
LINE
  5
298
100
AcDbEntity
  8
0
100
AcDbLine
 62
7
  6
CONTINUOUS
 10
300.8011030189
 20
141.2423058354
 11
215.9491502527
 21
190.2347599179
  0
LINE
  5
299
100
AcDbEntity
  8
0
100
AcDbLine
 62
7
  6
CONTINUOUS
 10
296.0082468207
 20
66.5042645078
 11
296.0082468207
 21
137.3358981071
  0
LINE
  5
29A
100
AcDbEntity
  8
0
100
AcDbLine
 62
7
  6
CONTINUOUS
 10
297.4467073035
 20
66.1396466037
 11
297.4467073035
 21
137.6715214359
  0
LINE
  5
29B
100
AcDbEntity
  8
0
100
AcDbLine
 62
7
  6
CONTINUOUS
 10
296.7391700342
 20
138.8970119333
 11
296.7388076039
 21
138.8723931944
  0
LINE
  5
29C
100
AcDbEntity
  8
0
100
AcDbLine
 62
7
  6
CONTINUOUS
 10
296.0082468207
 20
137.3358981071
 11
295.7292708865
 21
137.8190985986
  0
LINE
  5
29D
100
AcDbEntity
  8
0
100
AcDbLine
 62
7
  6
CONTINUOUS
 10
297.4252059516
 20
137.6835163833
 11
296.7388076039
 21
138.8723931944
  0
LINE
  5
29E
100
AcDbEntity
  8
0
100
AcDbLine
 62
7
  6
CONTINUOUS
 10
301.5086402882
 20
68.1684251179
 11
301.5086402882
 21
140.0168153381
  0
LINE
  5
29F
100
AcDbEntity
  8
0
100
AcDbLine
 62
7
  6
CONTINUOUS
 10
300.8011030189
 20
141.2423058354
 11
301.5086402882
 21
140.0168153381
  0
LINE
  5
2A0
100
AcDbEntity
  8
0
100
AcDbLine
 62
7
  6
CONTINUOUS
 10
295.7292708865
 20
66.3432184322
 11
296.0082468207
 21
66.5042645078
  0
LINE
  5
2A1
100
AcDbEntity
  8
0
100
AcDbLine
 62
7
  6
CONTINUOUS
 10
296.7388076039
 20
65.7318438475
 11
297.4252059516
 21
66.1280850519
  0
LINE
  5
2A2
100
AcDbEntity
  8
0
100
AcDbLine
 62
7
  6
CONTINUOUS
 10
301.5086402882
 20
68.1684251179
 11
300.8011030189
 21
67.7599809241
  0
LINE
  5
2A3
100
AcDbEntity
  8
0
100
AcDbLine
 62
7
  6
CONTINUOUS
 10
297.4467073035
 20
66.1396466037
 11
297.4252059516
 21
66.1280850519
  0
LINE
  5
2A4
100
AcDbEntity
  8
0
100
AcDbLine
 62
7
  6
CONTINUOUS
 10
297.4467073035
 20
66.1396466037
 11
301.5086402882
 21
68.1684251179
  0
LINE
  5
2A5
100
AcDbEntity
  8
0
100
AcDbLine
 62
7
  6
CONTINUOUS
 10
296.7391700342
 20
65.7312024098
 11
300.8011030189
 21
67.7599809241
  0
ARC
  5
2A6
100
AcDbEntity
  8
0
100
AcDbCircle
 62
7
  6
CONTINUOUS
 10
234.4900541197
 20
141.0971134959
 40
0.3
100
AcDbArc
 50
301.7332683128
 51
359.9978457589
  0
ENDSEC
  0
SECTION
  2
OBJECTS
  0
DICTIONARY
  5
C
100
AcDbDictionary
280
0
281
1
  3
ACAD_GROUP
350
D
  3
ACAD_MLINESTYLE
350
17
  3
ACAD_LAYOUT
350
1A
  3
ACAD_PLOTSETTINGS
350
19
  3
ACAD_PLOTSTYLENAME
350
E
  0
DICTIONARY
  5
D
102
{ACAD_REACTORS
330
C
102
}
100
AcDbDictionary
280
0
281
1
  0
ACDBDICTIONARYWDFLT
  5
E
102
{ACAD_REACTORS
330
C
102
}
100
AcDbDictionary
281
1
  3
Normal
350
F
100
AcDbDictionaryWithDefault
340
F
  0
DICTIONARY
  5
17
102
{ACAD_REACTORS
330
C
102
}
100
AcDbDictionary
280
0
281
1
  3
Standard
350
18
  0
DICTIONARY
  5
19
102
{ACAD_REACTORS
330
C
102
}
100
AcDbDictionary
281
1
  0
DICTIONARY
  5
1A
102
{ACAD_REACTORS
330
C
102
}
100
AcDbDictionary
281
1
  3
Model
350
2A7
  3
Layout1
350
2A8
  0
ACDBPLACEHOLDER
  5
F
102
{ACAD_REACTORS
330
E
102
}
  0
MLINESTYLE
  5
18
102
{ACAD_REACTORS
330
17
102
}
100
AcDbMlineStyle
  2
STANDARD
 70
0
  3

 62
256
 51
90.0
 52
90.0
 71
2
 49
0.5
 62
256
  6
BYLAYER
 49
-0.5
 62
256
  6
BYLAYER
  0
LAYOUT
  5
2A7
102
{ACAD_REACTORS
330
1A
102
}
100
AcDbPlotSettings
  1

  2
none_device
  4
ISO_A4_(297.00_x_210.00_MM)
  6

 40
0.0
 41
0.0
 42
0.0
 43
0.0
 44
297.0
 45
210.0
 46
0.0
 47
0.0
 48
0.0
 49
0.0
140
0.0
141
0.0
142
1.0
143
1.0
 70
1024
 72
1
 73
0
 74
0
  7

 75
0
147
1.0
148
0.0
149
0.0
100
AcDbLayout
  1
Model
 70
0
 71
0
 10
0.0
 20
0.0
 11
297.0
 21
210.0
 12
0.0
 22
0.0
 32
0.0
 14
0.0
 24
0.0
 34
0.0
 15
0.0
 25
0.0
 35
0.0
146
0.0
 13
0.0
 23
0.0
 33
0.0
 16
1.0
 26
0.0
 36
0.0
 17
0.0
 27
1.0
 37
0.0
 76
0
330
21B
345
0
346
0
  0
LAYOUT
  5
2A8
102
{ACAD_REACTORS
330
1A
102
}
100
AcDbPlotSettings
  1

  2
none_device
  4
ISO_A4_(297.00_x_210.00_MM)
  6

 40
0.0
 41
0.0
 42
0.0
 43
0.0
 44
297.0
 45
210.0
 46
0.0
 47
0.0
 48
0.0
 49
0.0
140
0.0
141
0.0
142
1.0
143
1.0
 70
0
 72
1
 73
0
 74
0
  7

 75
0
147
1.0
148
0.0
149
0.0
100
AcDbLayout
  1
Layout1
 70
0
 71
1
 10
0.0
 20
0.0
 11
297.0
 21
210.0
 12
0.0
 22
0.0
 32
0.0
 14
0.0
 24
0.0
 34
0.0
 15
0.0
 25
0.0
 35
0.0
146
0.0
 13
0.0
 23
0.0
 33
0.0
 16
1.0
 26
0.0
 36
0.0
 17
0.0
 27
1.0
 37
0.0
 76
0
330
21C
345
0
346
0
  0
ENDSEC
  0
EOF
