  0
SECTION
  2
HEADER
  9
$ACADVER
  1
AC1024
  9
$DWGCODEPAGE
  3
ANSI_1252
  9
$EXTMAX
 10
297.0
 20
210.0
 30
0.0
  9
$EXTMIN
 10
0.0
 20
0.0
 30
0.0
  9
$LIMMIN
 10
0.0
 20
0.0
  9
$LIMMAX
 10
297.0
 20
210.0
  9
$VIEWCTR
 10
148.5
 20
105.0
  9
$VIEWSIZE
 40
210.0
  9
$CLAYER
  8
0
  9
$LTSCALE
 40
16.335
  9
$CELTYPE
  6
BYLAYER
  9
$DIMSCALE
 40
1.0
  9
$DIMASZ
 40
3.0
  9
$DIMEXO
 40
0.5
  9
$DIMDLI
 40
11.286
  9
$DIMEXE
 40
1.5
  9
$DIMCEN
 40
2.673
  9
$DIMLFAC
 40
1.0
  9
$DIMBLK
  1
_FILLED
  9
$DIMALT
 70
0
  9
$DIMALTF
 40
0.0393700787
  9
$DIMTXT
 40
3.0
  9
$DIMTOL
 70
1
  9
$DIMLIM
 70
0
  9
$DIMTFAC
 40
1.0
  9
$DIMTP
 40
0.01
  9
$DIMTM
 40
0.01
  9
$DIMGAP
 40
0.625
  9
$DIMDSEP
 70
44
  9
$AUNITS
 70
0
  9
$PDMODE
 70
3
  9
$PDSIZE
 40
3.0
  9
$HANDSEED
  5
2D2
  9
$TILEMODE
 70
1
  9
$MEASUREMENT
 70
1
  9
$INSUNITS
 70
4
  0
ENDSEC
  0
SECTION
  2
CLASSES
  0
CLASS
  1
ACDBDICTIONARYWDFLT
  2
AcDbDictionaryWithDefault
  3
AutoCAD 2000
 90
0
 91
1
280
0
281
0
  0
CLASS
  1
ACDBPLACEHOLDER
  2
AcDbPlaceHolder
  3
AutoCAD 2000
 90
0
 91
1
280
0
281
0
  0
CLASS
  1
LAYOUT
  2
AcDbLayout
  3
AutoCAD 2000
 90
0
 91
0
280
0
281
0
  0
ENDSEC
  0
SECTION
  2
TABLES
  0
TABLE
  2
VPORT
  5
8
100
AcDbSymbolTable
 70
2
  0
VPORT
  5
1F4
100
AcDbSymbolTableRecord
100
AcDbViewportTableRecord
  2
*ACTIVE
 70
0
 10
0.0
 20
0.0
 11
1.0
 21
1.0
 12
148.5
 22
105.0
 13
0.0
 23
0.0
 14
1.0
 24
1.0
 15
0.0
 25
0.0
 16
0.0
 26
0.0
 36
1.0
 17
0.0
 27
0.0
 37
0.0
 40
210.0
 41
1.4142857143
 42
50.0
 43
0.0
 44
0.0
 50
0.0
 51
0.0
 71
0
 72
100
 73
1
 74
1
 75
0
 76
0
 77
0
 78
0
  0
ENDTAB
  0
TABLE
  2
LTYPE
  5
5
100
AcDbSymbolTable
 70
6
  0
LTYPE
  5
14
100
AcDbSymbolTableRecord
100
AcDbLinetypeTableRecord
  2
BYBLOCK
 70
0
  3

 72
65
 73
0
 40
0.0
  0
LTYPE
  5
15
100
AcDbSymbolTableRecord
100
AcDbLinetypeTableRecord
  2
BYLAYER
 70
0
  3

 72
65
 73
0
 40
0.0
  0
LTYPE
  5
16
100
AcDbSymbolTableRecord
100
AcDbLinetypeTableRecord
  2
CONTINUOUS
 70
64
  3
Solid line
 72
65
 73
0
 40
0.0
  0
LTYPE
  5
1F5
100
AcDbSymbolTableRecord
100
AcDbLinetypeTableRecord
  2
CENTER
 70
64
  3
____ _ ____ _ ____ _ ____ _ ____ _ ____ _ ____
 72
65
 73
4
 40
0.6
 49
0.375
 74
0
 49
-0.075
 74
0
 49
0.075
 74
0
 49
-0.075
 74
0
  0
LTYPE
  5
1F6
100
AcDbSymbolTableRecord
100
AcDbLinetypeTableRecord
  2
HIDDEN
 70
64
  3
- - - - - - - - - - - - - - - - - - - -
 72
65
 73
2
 40
0.2
 49
0.1
 74
0
 49
-0.1
 74
0
  0
LTYPE
  5
1F7
100
AcDbSymbolTableRecord
100
AcDbLinetypeTableRecord
  2
PHANTOM
 70
64
  3
_____ _ _ _____ _ _ _____ _ _ _____
 72
65
 73
6
 40
0.8
 49
0.45
 74
0
 49
-0.05
 74
0
 49
0.1
 74
0
 49
-0.05
 74
0
 49
0.1
 74
0
 49
-0.05
 74
0
  0
LTYPE
  5
1F8
100
AcDbSymbolTableRecord
100
AcDbLinetypeTableRecord
  2
DOT
 70
64
  3
. . . . . . . . . . . . . . . . . . . .
 72
65
 73
2
 40
0.2
 49
0.1
 74
0
 49
-0.1
 74
0
  0
LTYPE
  5
1F9
100
AcDbSymbolTableRecord
100
AcDbLinetypeTableRecord
  2
DASHED
 70
64
  3
- - - - - - - - - - - - - - - - - - - -
 72
65
 73
2
 40
0.2
 49
0.1
 74
0
 49
-0.1
 74
0
  0
ENDTAB
  0
TABLE
  2
LAYER
  5
2
100
AcDbSymbolTable
 70
36
  0
LAYER
  5
10
100
AcDbSymbolTableRecord
100
AcDbLayerTableRecord
  2
0
 70
0
 62
7
  6
CONTINUOUS
370
-3
390
F
  0
LAYER
  5
1FA
100
AcDbSymbolTableRecord
100
AcDbLayerTableRecord
  2
DEFAULT_1
 70
0
 62
7
  6
CENTER
370
-3
390
F
  0
LAYER
  5
1FB
100
AcDbSymbolTableRecord
100
AcDbLayerTableRecord
  2
DEFAULT_2
 70
0
 62
7
  6
HIDDEN
370
-3
390
F
  0
LAYER
  5
1FC
100
AcDbSymbolTableRecord
100
AcDbLayerTableRecord
  2
DEFAULT_3
 70
0
 62
7
  6
PHANTOM
370
-3
390
F
  0
LAYER
  5
1FD
100
AcDbSymbolTableRecord
100
AcDbLayerTableRecord
  2
ASSI
 70
0
 62
7
  6
CONTINUOUS
370
-3
390
F
  0
LAYER
  5
1FE
100
AcDbSymbolTableRecord
100
AcDbLayerTableRecord
  2
COORDINATE
 70
0
 62
7
  6
CONTINUOUS
370
-3
390
F
  0
LAYER
  5
1FF
100
AcDbSymbolTableRecord
100
AcDbLayerTableRecord
  2
COORD_ORIGINE
 70
0
 62
7
  6
CONTINUOUS
370
-3
390
F
  0
LAYER
  5
200
100
AcDbSymbolTableRecord
100
AcDbLayerTableRecord
  2
COPY_PUBLISH
 70
0
 62
7
  6
CONTINUOUS
370
-3
390
F
  0
LAYER
  5
201
100
AcDbSymbolTableRecord
100
AcDbLayerTableRecord
  2
COSMETIC
 70
0
 62
7
  6
CONTINUOUS
370
-3
390
F
  0
LAYER
  5
202
100
AcDbSymbolTableRecord
100
AcDbLayerTableRecord
  2
COSMETICI
 70
0
 62
7
  6
CONTINUOUS
370
-3
390
F
  0
LAYER
  5
203
100
AcDbSymbolTableRecord
100
AcDbLayerTableRecord
  2
CURVA_TASSELLO
 70
0
 62
7
  6
CONTINUOUS
370
-3
390
F
  0
LAYER
  5
204
100
AcDbSymbolTableRecord
100
AcDbLayerTableRecord
  2
CURVE
 70
0
 62
7
  6
CONTINUOUS
370
-3
390
F
  0
LAYER
  5
205
100
AcDbSymbolTableRecord
100
AcDbLayerTableRecord
  2
DRAFT
 70
0
 62
7
  6
CONTINUOUS
370
-3
390
F
  0
LAYER
  5
206
100
AcDbSymbolTableRecord
100
AcDbLayerTableRecord
  2
IMPORT_IGES
 70
0
 62
7
  6
CONTINUOUS
370
-3
390
F
  0
LAYER
  5
207
100
AcDbSymbolTableRecord
100
AcDbLayerTableRecord
  2
INTFCLR_2
 70
0
 62
7
  6
CONTINUOUS
370
-3
390
F
  0
LAYER
  5
208
100
AcDbSymbolTableRecord
100
AcDbLayerTableRecord
  2
INTF_1
 70
0
 62
7
  6
CONTINUOUS
370
-3
390
F
  0
LAYER
  5
209
100
AcDbSymbolTableRecord
100
AcDbLayerTableRecord
  2
INTF_21
 70
0
 62
7
  6
CONTINUOUS
370
-3
390
F
  0
LAYER
  5
20A
100
AcDbSymbolTableRecord
100
AcDbLayerTableRecord
  2
INTF_7
 70
0
 62
7
  6
CONTINUOUS
370
-3
390
F
  0
LAYER
  5
20B
100
AcDbSymbolTableRecord
100
AcDbLayerTableRecord
  2
INTF_9
 70
0
 62
7
  6
CONTINUOUS
370
-3
390
F
  0
LAYER
  5
20C
100
AcDbSymbolTableRecord
100
AcDbLayerTableRecord
  2
NOTE
 70
0
 62
7
  6
CONTINUOUS
370
-3
390
F
  0
LAYER
  5
20D
100
AcDbSymbolTableRecord
100
AcDbLayerTableRecord
  2
PIANI
 70
0
 62
7
  6
CONTINUOUS
370
-3
390
F
  0
LAYER
  5
20E
100
AcDbSymbolTableRecord
100
AcDbLayerTableRecord
  2
PIANI_ORIGINE
 70
0
 62
7
  6
CONTINUOUS
370
-3
390
F
  0
LAYER
  5
20F
100
AcDbSymbolTableRecord
100
AcDbLayerTableRecord
  2
PIANI_RIFERIMENTO
 70
0
 62
7
  6
CONTINUOUS
370
-3
390
F
  0
LAYER
  5
210
100
AcDbSymbolTableRecord
100
AcDbLayerTableRecord
  2
PUNTI
 70
0
 62
7
  6
CONTINUOUS
370
-3
390
F
  0
LAYER
  5
211
100
AcDbSymbolTableRecord
100
AcDbLayerTableRecord
  2
RACCORDO
 70
0
 62
7
  6
CONTINUOUS
370
-3
390
F
  0
LAYER
  5
212
100
AcDbSymbolTableRecord
100
AcDbLayerTableRecord
  2
RGB__255__255__255__
 70
0
 62
7
  6
CONTINUOUS
370
-3
390
F
  0
LAYER
  5
213
100
AcDbSymbolTableRecord
100
AcDbLayerTableRecord
  2
RGB____0____0____0__
 70
0
 62
7
  6
CONTINUOUS
370
-3
390
F
  0
LAYER
  5
214
100
AcDbSymbolTableRecord
100
AcDbLayerTableRecord
  2
SIMBOLI
 70
0
 62
7
  6
CONTINUOUS
370
-3
390
F
  0
LAYER
  5
215
100
AcDbSymbolTableRecord
100
AcDbLayerTableRecord
  2
SMUSSO
 70
0
 62
7
  6
CONTINUOUS
370
-3
390
F
  0
LAYER
  5
216
100
AcDbSymbolTableRecord
100
AcDbLayerTableRecord
  2
SUPERFICI
 70
0
 62
7
  6
CONTINUOUS
370
-3
390
F
  0
LAYER
  5
217
100
AcDbSymbolTableRecord
100
AcDbLayerTableRecord
  2
TRASH
 70
0
 62
7
  6
CONTINUOUS
370
-3
390
F
  0
LAYER
  5
218
100
AcDbSymbolTableRecord
100
AcDbLayerTableRecord
  2
XSEC_DATUMS
 70
0
 62
7
  6
CONTINUOUS
370
-3
390
F
  0
ENDTAB
  0
TABLE
  2
STYLE
  5
3
100
AcDbSymbolTable
 70
1
  0
STYLE
  5
11
100
AcDbSymbolTableRecord
100
AcDbTextStyleTableRecord
  2
STANDARD
 70
0
 40
0.0
 41
0.8
 50
0.0
 71
0
 42
0.2
  3
txt
  4

  0
STYLE
  5
219
100
AcDbSymbolTableRecord
100
AcDbTextStyleTableRecord
  2
TEXTSTYLE_1
 70
0
 40
0.0
 41
0.8
 50
0.0
 71
0
 42
0.2
  3
gdt
  4

  0
ENDTAB
  0
TABLE
  2
VIEW
  5
6
100
AcDbSymbolTable
 70
0
  0
ENDTAB
  0
TABLE
  2
UCS
  5
7
100
AcDbSymbolTable
 70
0
  0
ENDTAB
  0
TABLE
  2
APPID
  5
9
100
AcDbSymbolTable
 70
1
  0
APPID
  5
21A
100
AcDbSymbolTableRecord
100
AcDbRegAppTableRecord
  2
ACAD
 70
0
  0
ENDTAB
  0
TABLE
  2
BLOCK_RECORD
  5
1
100
AcDbSymbolTable
 70
0
  0
BLOCK_RECORD
  5
21B
100
AcDbSymbolTableRecord
100
AcDbBlockTableRecord
  2
*Model_Space
  0
BLOCK_RECORD
  5
21C
100
AcDbSymbolTableRecord
100
AcDbBlockTableRecord
  2
*Paper_Space
  0
BLOCK_RECORD
  5
21D
100
AcDbSymbolTableRecord
100
AcDbBlockTableRecord
  2
_FILLED
  0
ENDTAB
  0
TABLE
  2
DIMSTYLE
  5
A
100
AcDbSymbolTable
 70
1
100
AcDbDimStyleTable
 71
0
  0
DIMSTYLE
105
21E
100
AcDbSymbolTableRecord
100
AcDbDimStyleTableRecord
  2
STANDARD
 70
0
  3

  4

 40
1.0
 41
3.0
 42
0.5
 43
0.38
 44
1.5
 45
0.0
 46
0.0
 47
0.01
 48
0.01
140
3.0
141
0.09
142
0.0
143
25.4
144
1.0
145
0.0
146
1.0
147
0.625
 71
1.0
 72
0.0
 73
0
 74
0
 75
0
 76
0
 77
1
 78
8
 79
2
170
0
171
1
172
0
173
0
174
0
175
0
176
0
177
0
178
0
270
2
179
2
271
2
272
2
273
2
274
2
275
0
280
0
281
0
282
0
283
1
284
8
285
0
286
0
287
3
288
0
340
11
278
44
341
21D
342
21D
343
21D
344
21D
  0
ENDTAB
  0
ENDSEC
  0
SECTION
  2
BLOCKS
  0
BLOCK
  5
20
100
AcDbEntity
  8
0
100
AcDbBlockBegin
  2
*Model_Space
 70
0
 10
0.0
 20
0.0
 30
0.0
  3
*Model_Space
  1

  0
ENDBLK
  5
21
100
AcDbEntity
  8
0
100
AcDbBlockEnd
  0
BLOCK
  5
1C
100
AcDbEntity
  8
0
100
AcDbBlockBegin
  2
*Paper_Space
 70
0
 10
0.0
 20
0.0
 30
0.0
  3
*Paper_Space
  1

  0
ENDBLK
  5
1D
100
AcDbEntity
  8
0
100
AcDbBlockEnd
  0
BLOCK
  5
21F
100
AcDbEntity
  8
0
100
AcDbBlockBegin
  2
_FILLED
 70
64
 10
0.0
 20
0.0
  3
_FILLED
  1

  0
SOLID
  5
220
100
AcDbEntity
  8
0
  6
BYBLOCK
 62
0
100
AcDbTrace
 10
0.0
 20
0.0
 11
-1.0
 21
0.1333333333
 12
-1.0
 22
-0.1333333333
 13
-1.0
 23
-0.1333333333
  0
ENDBLK
  5
221
100
AcDbEntity
  8
0
  6
BYBLOCK
 62
0
100
AcDbBlockEnd
  0
ENDSEC
  0
SECTION
  2
ENTITIES
  0
LINE
  5
222
100
AcDbEntity
  8
0
100
AcDbLine
 62
7
  6
CONTINUOUS
 10
120.1238746843
 20
156.0965522083
 11
123.9116884715
 21
158.6001190997
  0
LINE
  5
223
100
AcDbEntity
  8
0
100
AcDbLine
 62
7
  6
CONTINUOUS
 10
120.8314119536
 20
156.5049964022
 11
124.6192257407
 21
159.0085632935
  0
LINE
  5
224
100
AcDbEntity
  8
0
100
AcDbLine
 62
7
  6
CONTINUOUS
 10
120.8106483394
 20
156.4921570512
 11
120.8314119536
 21
156.5049964022
  0
LINE
  5
225
100
AcDbEntity
  8
0
100
AcDbLine
 62
7
  6
CONTINUOUS
 10
123.9116884715
 20
158.6001190997
 11
124.6192257407
 21
159.0085632935
  0
LINE
  5
226
100
AcDbEntity
  8
0
100
AcDbLine
 62
7
  6
CONTINUOUS
 10
120.8106483394
 20
156.4921570512
 11
120.1242499918
 21
156.0959158468
  0
LINE
  5
227
100
AcDbEntity
  8
0
100
AcDbLine
 62
7
  6
CONTINUOUS
 10
120.4279590396
 20
155.0769286128
 11
120.1489831054
 21
154.9158825373
  0
LINE
  5
228
100
AcDbEntity
  8
0
100
AcDbLine
 62
7
  6
CONTINUOUS
 10
120.4279590396
 20
155.0769286128
 11
120.8106483394
 21
156.4921570512
  0
LINE
  5
229
100
AcDbEntity
  8
0
100
AcDbLine
 62
7
  6
CONTINUOUS
 10
120.1489831054
 20
84.0842489379
 11
120.1242499918
 21
84.5404845154
  0
LINE
  5
22A
100
AcDbEntity
  8
0
100
AcDbLine
 62
7
  6
CONTINUOUS
 10
204.6783223087
 20
35.2780678834
 11
206.0952814396
 21
34.9018884276
  0
LINE
  5
22B
100
AcDbEntity
  8
0
100
AcDbLine
 62
7
  6
CONTINUOUS
 10
120.1489831054
 20
154.9158825373
 11
120.1242499918
 21
156.0959158468
  0
LINE
  5
22C
100
AcDbEntity
  8
0
100
AcDbLine
 62
7
  6
CONTINUOUS
 10
120.1242499918
 20
84.5404845154
 11
120.1238746843
 21
84.5646773761
  0
LINE
  5
22D
100
AcDbEntity
  8
0
100
AcDbLine
 62
7
  6
CONTINUOUS
 10
120.1238746843
 20
156.0965522083
 11
120.1238746843
 21
84.5646773761
  0
LINE
  5
22E
100
AcDbEntity
  8
0
100
AcDbLine
 62
7
  6
CONTINUOUS
 10
120.1489831054
 20
154.9158825373
 11
120.1489831054
 21
84.0842489379
  0
LINE
  5
22F
100
AcDbEntity
  8
0
100
AcDbLine
 62
7
  6
CONTINUOUS
 10
120.1489831054
 20
84.0842489379
 11
120.4279590396
 21
83.6010484464
  0
LINE
  5
230
100
AcDbEntity
  8
0
100
AcDbLine
 62
7
  6
CONTINUOUS
 10
120.4279590396
 20
83.6010484464
 11
120.8106483394
 21
83.3516077043
  0
LINE
  5
231
100
AcDbEntity
  8
0
100
AcDbLine
 62
7
  6
CONTINUOUS
 10
120.8314119536
 20
83.3391868787
 11
205.4092455222
 21
34.5050057854
  0
LINE
  5
232
100
AcDbEntity
  8
0
100
AcDbLine
 62
7
  6
CONTINUOUS
 10
120.4279590396
 20
83.6010484464
 11
204.3993463746
 21
35.1170218078
  0
LINE
  5
233
100
AcDbEntity
  8
0
100
AcDbLine
 62
7
  6
CONTINUOUS
 10
120.8314119536
 20
83.3391868787
 11
120.8106483394
 21
83.3516077043
  0
LINE
  5
234
100
AcDbEntity
  8
0
100
AcDbLine
 62
7
  6
CONTINUOUS
 10
204.3993463746
 20
35.1170218078
 11
205.408883092
 21
34.5056472231
  0
LWPOLYLINE
  5
235
100
AcDbEntity
  8
0
100
AcDbPolyline
 62
7
  6
CONTINUOUS
 90
28
 70
0
 10
140.5640531684
 20
113.1830109987
 10
140.5661426579
 20
113.262947786
 10
140.5722287635
 20
113.3397662002
 10
140.5823114851
 20
113.413466241
 10
140.5964516679
 20
113.4842763557
 10
140.6145884666
 20
113.5519680972
 10
140.6365393463
 20
113.6158561238
 10
140.662343135
 20
113.6759015701
 10
140.6919610046
 20
113.7321433016
 10
140.7250939352
 20
113.7840125727
 10
140.7617775746
 20
113.8314648485
 10
140.8019762751
 20
113.8745446639
 10
140.8452840736
 20
113.912816879
 10
140.8917323916
 20
113.9462326928
 10
140.9412898077
 20
113.9748409062
 10
140.993456095
 20
113.9983527822
 10
141.0482577541
 20
114.0167167153
 10
141.1056682843
 20
114.0299843109
 10
141.1651079569
 20
114.0380216479
 10
141.2265975881
 20
114.0407756013
 10
141.2901163617
 20
114.0382992962
 10
141.3550220988
 20
114.0306181869
 10
141.4213290254
 20
114.0176791986
 10
141.4890229155
 20
113.999535406
 10
141.5574189133
 20
113.9763714881
 10
141.6262887334
 20
113.9482490043
 10
141.6958606611
 20
113.9151063951
 10
141.7661346964
 20
113.8769436606
  0
LWPOLYLINE
  5
236
100
AcDbEntity
  8
0
100
AcDbPolyline
 62
7
  6
CONTINUOUS
 90
7
 70
0
 10
141.4684298244
 20
113.5819967913
 10
141.4576097785
 20
113.5535924209
 10
141.4414903337
 20
113.5015392101
 10
141.428882115
 20
113.4463767137
 10
141.4198385833
 20
113.388343036
 10
141.4143974507
 20
113.3276860453
 10
141.4125813058
 20
113.2646659173
  0
LINE
  5
237
100
AcDbEntity
  8
0
100
AcDbLine
 62
250
  6
CONTINUOUS
 10
141.6519330525
 20
113.7804304826
 11
141.4125813058
 21
113.2646659173
  0
LWPOLYLINE
  5
238
100
AcDbEntity
  8
0
100
AcDbPolyline
 62
7
  6
CONTINUOUS
 90
3
 70
0
 10
141.500089282
 20
113.6474823278
 10
141.47717071
 20
113.6023097222
 10
141.4684298244
 20
113.5819967913
  0
LWPOLYLINE
  5
239
100
AcDbEntity
  8
0
100
AcDbPolyline
 62
7
  6
CONTINUOUS
 90
4
 70
0
 10
141.5879332349
 20
113.7598723124
 10
141.5555911587
 20
113.7264339481
 10
141.5262673854
 20
113.6889168954
 10
141.500089282
 20
113.6474823278
  0
LWPOLYLINE
  5
23A
100
AcDbEntity
  8
0
100
AcDbPolyline
 62
7
  6
CONTINUOUS
 90
3
 70
0
 10
141.446511856
 20
113.6782173727
 10
141.4817342845
 20
113.7074360437
 10
141.5196590948
 20
113.732295232
  0
LINE
  5
23B
100
AcDbEntity
  8
0
100
AcDbLine
 62
250
  6
CONTINUOUS
 10
142.0054885534
 20
113.7297440754
 11
141.7712114947
 21
113.5944749734
  0
LINE
  5
23C
100
AcDbEntity
  8
0
100
AcDbLine
 62
250
  6
CONTINUOUS
 10
141.2711599496
 20
113.1830109987
 11
141.4125813058
 21
113.2646659173
  0
LINE
  5
23D
100
AcDbEntity
  8
0
100
AcDbLine
 62
250
  6
CONTINUOUS
 10
142.4374605692
 20
113.4893285153
 11
141.7712114947
 21
113.1046433289
  0
LWPOLYLINE
  5
23E
100
AcDbEntity
  8
0
100
AcDbPolyline
 62
7
  6
CONTINUOUS
 90
13
 70
0
 10
141.5196590948
 20
113.732295232
 10
141.5602105107
 20
113.7527385026
 10
141.6031283232
 20
113.7686283395
 10
141.6482602962
 20
113.7799139094
 10
141.6954153726
 20
113.7865462723
 10
141.7443902496
 20
113.7884957189
 10
141.7949724772
 20
113.7857534039
 10
141.8469454391
 20
113.7783310897
 10
141.9000864871
 20
113.766260591
 10
141.9541647291
 20
113.7495947708
 10
142.0089473149
 20
113.7284063181
 10
142.0642006416
 20
113.702786501
 10
142.119688087
 20
113.6728458188
  0
LWPOLYLINE
  5
23F
100
AcDbEntity
  8
0
100
AcDbPolyline
 62
7
  6
CONTINUOUS
 90
25
 70
0
 10
141.4125813058
 20
102.3239642083
 10
141.4143974857
 20
102.2588462041
 10
141.4198386966
 20
102.1919055081
 10
141.4288823095
 20
102.1234284048
 10
141.4414905462
 20
102.0537064562
 10
141.4576099205
 20
101.9830393882
 10
141.4771707718
 20
101.9117339705
 10
141.5000893351
 20
101.8400956255
 10
141.5262674743
 20
101.7684311662
 10
141.5555912798
 20
101.6970517049
 10
141.5879333498
 20
101.6262655616
 10
141.6231557685
 20
101.5563729576
 10
141.6611094848
 20
101.4876691013
 10
141.701632018
 20
101.4204481216
 10
141.7445498702
 20
101.3549978316
 10
141.7896818771
 20
101.2915949666
 10
141.8368369482
 20
101.2305091336
 10
141.8858118091
 20
101.1720047664
 10
141.936394087
 20
101.1163359583
 10
141.9883672778
 20
101.0637409988
 10
142.0415086344
 20
101.0144453136
 10
142.0955870153
 20
100.9686628863
 10
142.1503694765
 20
100.9265899453
 10
142.205622493
 20
100.8884048697
 10
142.2611094432
 20
100.8542703642
  0
LWPOLYLINE
  5
240
100
AcDbEntity
  8
0
100
AcDbPolyline
 62
7
  6
CONTINUOUS
 90
28
 70
0
 10
141.7712114947
 20
103.0967546559
 10
141.7735379075
 20
103.0050653151
 10
141.7803142393
 20
102.9117092254
 10
141.7915404901
 20
102.8166863868
 10
141.8072843942
 20
102.7196641889
 10
141.8274782174
 20
102.6209752421
 10
141.8519187564
 20
102.5216173782
 10
141.8806492905
 20
102.4215838777
 10
141.9136265404
 20
102.3208814601
 10
141.9505174655
 20
102.2205281161
 10
141.9913616811
 20
102.1205277874
 10
142.0361195719
 20
102.0208765323
 10
142.0843392509
 20
101.9225805157
 10
142.136055732
 20
101.8256535695
 10
142.1912340013
 20
101.7300818618
 10
142.2493171308
 20
101.6368300622
 10
142.3103346889
 20
101.5459214913
 10
142.3742571072
 20
101.4573328284
 10
142.4404387525
 20
101.371958781
 10
142.5089027034
 20
101.2898318606
 10
142.5796258813
 20
101.2109195558
 10
142.6518934171
 20
101.1360190402
 10
142.7257212
 20
101.0651710455
 10
142.8010933408
 20
100.9983348401
 10
142.8772473029
 20
100.9361854024
 10
142.9539289075
 20
100.8789477255
 10
143.0313923334
 20
100.8263968165
 10
143.1096375807
 20
100.7785326752
  0
LINE
  5
241
100
AcDbEntity
  8
0
100
AcDbLine
 62
7
  6
CONTINUOUS
 10
140.5640531684
 20
102.2423092896
 11
140.5640531684
 21
113.1830109987
  0
LINE
  5
242
100
AcDbEntity
  8
0
100
AcDbLine
 62
7
  6
CONTINUOUS
 10
141.2711599496
 20
102.2423092896
 11
141.2711599496
 21
113.1830109987
  0
LINE
  5
243
100
AcDbEntity
  8
0
100
AcDbLine
 62
7
  6
CONTINUOUS
 10
141.4125813058
 20
113.2646659173
 11
141.4125813058
 21
102.3239642083
  0
LINE
  5
244
100
AcDbEntity
  8
0
100
AcDbLine
 62
7
  6
CONTINUOUS
 10
141.7712114947
 20
113.7870416053
 11
141.7712114947
 21
103.0967546559
  0
LINE
  5
245
100
AcDbEntity
  8
0
100
AcDbLine
 62
250
  6
CONTINUOUS
 10
143.3759315478
 20
112.9474671341
 11
143.3759315478
 21
109.7505907604
  0
LINE
  5
246
100
AcDbEntity
  8
0
100
AcDbLine
 62
7
  6
CONTINUOUS
 10
143.4601296077
 20
112.8988522295
 11
143.4601296077
 21
109.8709168715
  0
LWPOLYLINE
  5
247
100
AcDbEntity
  8
0
100
AcDbPolyline
 62
250
  6
CONTINUOUS
 90
10
 70
0
 10
143.3759315478
 20
109.7505907604
 10
143.375427553
 20
109.7298972694
 10
143.3732856442
 20
109.7102766078
 10
143.3695221162
 20
109.691878043
 10
143.3641655992
 20
109.6748415413
 10
143.3572568444
 20
109.6592967151
 10
143.348848418
 20
109.6453618337
 10
143.3390043015
 20
109.6331429161
 10
143.3277993809
 20
109.6227329015
 10
143.3179192813
 20
109.6157651149
  0
LWPOLYLINE
  5
248
100
AcDbEntity
  8
0
100
AcDbPolyline
 62
7
  6
CONTINUOUS
 90
11
 70
0
 10
141.2711599496
 20
113.1830109987
 10
141.2729760961
 20
113.2460311548
 10
141.2784172322
 20
113.3066881594
 10
141.287460767
 20
113.3647218378
 10
141.3000689846
 20
113.4198843183
 10
141.316188423
 20
113.4719375042
 10
141.3357493471
 20
113.5206547887
 10
141.3586679155
 20
113.5658273911
 10
141.3848460176
 20
113.6072619604
 10
141.414169788
 20
113.6447790129
 10
141.446511856
 20
113.6782173727
  0
LWPOLYLINE
  5
249
100
AcDbEntity
  8
0
100
AcDbPolyline
 62
250
  6
CONTINUOUS
 90
10
 70
0
 10
143.4601296071
 20
109.8709055919
 10
143.4591957228
 20
109.8572599945
 10
143.4560404352
 20
109.8424148471
 10
143.4506788827
 20
109.8277820519
 10
143.4431428219
 20
109.8134573298
 10
143.4334925247
 20
109.7995616949
 10
143.4218330702
 20
109.7862330091
 10
143.4082792733
 20
109.7735765648
 10
143.3929366019
 20
109.7616686575
 10
143.3759315478
 20
109.7505907604
  0
LINE
  5
24A
100
AcDbEntity
  8
0
100
AcDbLine
 62
250
  6
CONTINUOUS
 10
141.7712114947
 20
103.0967546559
 11
141.4125813058
 21
102.3239642083
  0
LINE
  5
24B
100
AcDbEntity
  8
0
100
AcDbLine
 62
250
  6
CONTINUOUS
 10
141.7661346964
 20
100.1602430104
 11
142.119688087
 21
100.7726154455
  0
LINE
  5
24C
100
AcDbEntity
  8
0
100
AcDbLine
 62
250
  6
CONTINUOUS
 10
143.3759315478
 20
109.7505907604
 11
141.7712114947
 21
108.7582078083
  0
LINE
  5
24D
100
AcDbEntity
  8
0
100
AcDbLine
 62
7
  6
CONTINUOUS
 10
143.3179192813
 20
109.6157651149
 11
141.7712114947
 21
108.6592578186
  0
LWPOLYLINE
  5
24E
100
AcDbEntity
  8
0
100
AcDbPolyline
 62
7
  6
CONTINUOUS
 90
11
 70
0
 10
183.9312838721
 20
76.8335966744
 10
183.8861518992
 20
76.8223111046
 10
183.8389968227
 20
76.8156787417
 10
183.7900219457
 20
76.8137292951
 10
183.7394397181
 20
76.8164716101
 10
183.6874667562
 20
76.8238939243
 10
183.6343257082
 20
76.835964423
 10
183.5802474662
 20
76.8526302431
 10
183.5254648804
 20
76.8738186959
 10
183.4702115537
 20
76.8994385129
 10
183.4147241083
 20
76.9293791952
  0
LINE
  5
24F
100
AcDbEntity
  8
0
100
AcDbLine
 62
250
  6
CONTINUOUS
 10
141.2711599496
 20
102.2423092896
 11
141.4125813058
 21
102.3239642083
  0
LINE
  5
250
100
AcDbEntity
  8
0
100
AcDbLine
 62
250
  6
CONTINUOUS
 10
142.119688087
 20
100.7726154455
 11
142.2611094432
 21
100.8542703642
  0
LINE
  5
251
100
AcDbEntity
  8
0
100
AcDbLine
 62
250
  6
CONTINUOUS
 10
184.1226082922
 20
76.960472932
 11
183.5561454645
 21
77.0110341138
  0
LWPOLYLINE
  5
252
100
AcDbEntity
  8
0
100
AcDbPolyline
 62
7
  6
CONTINUOUS
 90
6
 70
0
 10
183.85897448
 20
76.9007044609
 10
183.8808609699
 20
76.8981265391
 10
183.9314432063
 20
76.8953842145
 10
183.9804181134
 20
76.8973336545
 10
184.0275732119
 20
76.9039660148
 10
184.0727051873
 20
76.9152515804
  0
LINE
  5
253
100
AcDbEntity
  8
0
100
AcDbLine
 62
7
  6
CONTINUOUS
 10
152.4434470923
 20
106.3239978308
 11
152.4434470923
 21
95.3832961217
  0
LWPOLYLINE
  5
254
100
AcDbEntity
  8
0
100
AcDbPolyline
 62
7
  6
CONTINUOUS
 90
28
 70
0
 10
152.4434470923
 20
95.3832961217
 10
152.4413576028
 20
95.3033593343
 10
152.4352714972
 20
95.2265409202
 10
152.4251887756
 20
95.1528408794
 10
152.4110485929
 20
95.0820307647
 10
152.3929117941
 20
95.0143390232
 10
152.3709609144
 20
94.9504509966
 10
152.3451571257
 20
94.8904055503
 10
152.3155392561
 20
94.8341638188
 10
152.2824063255
 20
94.7822945476
 10
152.2457226861
 20
94.7348422719
 10
152.2055239857
 20
94.6917624565
 10
152.1622161871
 20
94.6534902414
 10
152.1157678691
 20
94.6200744276
 10
152.066210453
 20
94.5914662142
 10
152.0140441658
 20
94.5679543382
 10
151.9592425067
 20
94.5495904051
 10
151.9018319764
 20
94.5363228095
 10
151.8423923039
 20
94.5282854725
 10
151.7809026726
 20
94.5255315191
 10
151.7173838991
 20
94.5280078242
 10
151.6524781619
 20
94.5356889335
 10
151.5861712354
 20
94.5486279218
 10
151.5184773452
 20
94.5667717144
 10
151.4500813474
 20
94.5899356323
 10
151.3812115273
 20
94.6180581161
 10
151.3116395996
 20
94.6512007253
 10
151.2413655643
 20
94.6893634598
  0
LWPOLYLINE
  5
255
100
AcDbEntity
  8
0
100
AcDbPolyline
 62
7
  6
CONTINUOUS
 90
7
 70
0
 10
152.4434470923
 20
95.7915707151
 10
152.4416309458
 20
95.7285505589
 10
152.4361898097
 20
95.6678935544
 10
152.4271462749
 20
95.6098598759
 10
152.4145380573
 20
95.5546973955
 10
152.3984186189
 20
95.5026442095
 10
152.3788576948
 20
95.453926925
  0
LWPOLYLINE
  5
256
100
AcDbEntity
  8
0
100
AcDbPolyline
 62
7
  6
CONTINUOUS
 90
7
 70
0
 10
157.378332401
 20
104.3958184414
 10
157.3675123552
 20
104.367414071
 10
157.3513929104
 20
104.3153608602
 10
157.3387846917
 20
104.2601983638
 10
157.32974116
 20
104.2021646861
 10
157.3243000274
 20
104.1415076954
 10
157.3224838825
 20
104.0784875675
  0
LINE
  5
257
100
AcDbEntity
  8
0
100
AcDbLine
 62
250
  6
CONTINUOUS
 10
157.5618356292
 20
104.5942521328
 11
157.3224838825
 21
104.0784875675
  0
LWPOLYLINE
  5
258
100
AcDbEntity
  8
0
100
AcDbPolyline
 62
7
  6
CONTINUOUS
 90
7
 70
0
 10
152.3788576948
 20
95.453926925
 10
152.3559391264
 20
95.4087543226
 10
152.3297610243
 20
95.3673197534
 10
152.3004372539
 20
95.3298027008
 10
152.2680951859
 20
95.296364341
 10
152.2328727574
 20
95.26714567
 10
152.1949479471
 20
95.2422864817
  0
LWPOLYLINE
  5
259
100
AcDbEntity
  8
0
100
AcDbPolyline
 62
7
  6
CONTINUOUS
 90
3
 70
0
 10
157.4099918587
 20
104.4613039779
 10
157.3870732867
 20
104.4161313723
 10
157.378332401
 20
104.3958184414
  0
LINE
  5
25A
100
AcDbEntity
  8
0
100
AcDbLine
 62
250
  6
CONTINUOUS
 10
151.2413655643
 20
94.6893634598
 11
151.5949189549
 21
95.3017358949
  0
LWPOLYLINE
  5
25B
100
AcDbEntity
  8
0
100
AcDbPolyline
 62
7
  6
CONTINUOUS
 90
4
 70
0
 10
157.4978358116
 20
104.5736939626
 10
157.4654937354
 20
104.5402555982
 10
157.4361699621
 20
104.5027385455
 10
157.4099918587
 20
104.4613039779
  0
LWPOLYLINE
  5
25C
100
AcDbEntity
  8
0
100
AcDbPolyline
 62
7
  6
CONTINUOUS
 90
3
 70
0
 10
157.3564144327
 20
104.4920390228
 10
157.3916368612
 20
104.5212576938
 10
157.4295616715
 20
104.5461168822
  0
LINE
  5
25D
100
AcDbEntity
  8
0
100
AcDbLine
 62
250
  6
CONTINUOUS
 10
157.1810625263
 20
103.9968326488
 11
157.3224838825
 21
104.0784875675
  0
LWPOLYLINE
  5
25E
100
AcDbEntity
  8
0
100
AcDbPolyline
 62
7
  6
CONTINUOUS
 90
13
 70
0
 10
157.4295616715
 20
104.5461168822
 10
157.4701130874
 20
104.5665601527
 10
157.5130308999
 20
104.5824499897
 10
157.5581628728
 20
104.5937355595
 10
157.6053179493
 20
104.6003679224
 10
157.6542928263
 20
104.602317369
 10
157.7048750539
 20
104.599575054
 10
157.7568480158
 20
104.5921527398
 10
157.8099890638
 20
104.5800822411
 10
157.8640673058
 20
104.5634164209
 10
157.9188498916
 20
104.5422279682
 10
157.9741032183
 20
104.5166081512
 10
158.0295906637
 20
104.4866674689
  0
LWPOLYLINE
  5
25F
100
AcDbEntity
  8
0
100
AcDbPolyline
 62
7
  6
CONTINUOUS
 90
11
 70
0
 10
168.0213812954
 20
86.0197750243
 10
167.9762493225
 20
86.0084894545
 10
167.929094246
 20
86.0018570916
 10
167.880119369
 20
85.999907645
 10
167.8295371414
 20
86.00264996
 10
167.7775641795
 20
86.0100722741
 10
167.7244231315
 20
86.0221427729
 10
167.6703448895
 20
86.038808593
 10
167.6155623037
 20
86.0599970458
 10
167.560308977
 20
86.0856168628
 10
167.5048215316
 20
86.115557545
  0
LINE
  5
260
100
AcDbEntity
  8
0
100
AcDbLine
 62
250
  6
CONTINUOUS
 10
172.3838583218
 20
83.8699525899
 11
173.090965103
 21
83.8699525899
  0
LINE
  5
261
100
AcDbEntity
  8
0
100
AcDbLine
 62
250
  6
CONTINUOUS
 10
174.9294427341
 20
82.4061759755
 11
174.0809145966
 21
82.4819136644
  0
LINE
  5
262
100
AcDbEntity
  8
0
100
AcDbLine
 62
250
  6
CONTINUOUS
 10
168.2127057155
 20
86.1466512819
 11
167.6462428878
 21
86.1972124637
  0
LWPOLYLINE
  5
263
100
AcDbEntity
  8
0
100
AcDbPolyline
 62
7
  6
CONTINUOUS
 90
6
 70
0
 10
167.9490719033
 20
86.0868828108
 10
167.9709583932
 20
86.084304889
 10
168.0215406296
 20
86.0815625644
 10
168.0705155367
 20
86.0835120044
 10
168.1176706352
 20
86.0901443647
 10
168.1628026106
 20
86.1014299303
  0
LWPOLYLINE
  5
264
100
AcDbEntity
  8
0
100
AcDbPolyline
 62
7
  6
CONTINUOUS
 90
25
 70
0
 10
157.3224838825
 20
93.1377858584
 10
157.3243000624
 20
93.0726678542
 10
157.3297412733
 20
93.0057271582
 10
157.3387848862
 20
92.9372500549
 10
157.3513931229
 20
92.8675281064
 10
157.3675124972
 20
92.7968610383
 10
157.3870733485
 20
92.7255556207
 10
157.4099919118
 20
92.6539172756
 10
157.436170051
 20
92.5822528163
 10
157.4654938565
 20
92.5108733551
 10
157.4978359265
 20
92.4400872118
 10
157.5330583452
 20
92.3701946078
 10
157.5710120615
 20
92.3014907514
 10
157.6115345947
 20
92.2342697717
 10
157.6544524469
 20
92.1688194817
 10
157.6995844538
 20
92.1054166168
 10
157.7467395249
 20
92.0443307837
 10
157.7957143858
 20
91.9858264165
 10
157.8462966637
 20
91.9301576085
 10
157.8982698545
 20
91.877562649
 10
157.9514112111
 20
91.8282669637
 10
158.005489592
 20
91.7824845365
 10
158.0602720532
 20
91.7404115955
 10
158.1155250697
 20
91.7022265198
 10
158.1710120199
 20
91.6680920143
  0
LWPOLYLINE
  5
265
100
AcDbEntity
  8
0
100
AcDbPolyline
 62
7
  6
CONTINUOUS
 90
28
 70
0
 10
157.6811140714
 20
93.9105763061
 10
157.6834404842
 20
93.8188869652
 10
157.690216816
 20
93.7255308755
 10
157.7014430668
 20
93.630508037
 10
157.7171869709
 20
93.533485839
 10
157.7373807941
 20
93.4347968922
 10
157.7618213331
 20
93.3354390283
 10
157.7905518672
 20
93.2354055278
 10
157.8235291171
 20
93.1347031103
 10
157.8604200422
 20
93.0343497662
 10
157.9012642578
 20
92.9343494376
 10
157.9460221486
 20
92.8346981824
 10
157.9942418276
 20
92.7364021658
 10
158.0459583087
 20
92.6394752196
 10
158.101136578
 20
92.5439035119
 10
158.1592197075
 20
92.4506517123
 10
158.2202372656
 20
92.3597431414
 10
158.2841596839
 20
92.2711544785
 10
158.3503413292
 20
92.1857804312
 10
158.4188052801
 20
92.1036535107
 10
158.489528458
 20
92.0247412059
 10
158.5617959938
 20
91.9498406903
 10
158.6356237767
 20
91.8789926956
 10
158.7109959175
 20
91.8121564902
 10
158.7871498796
 20
91.7500070526
 10
158.8638314842
 20
91.6927693757
 10
158.9412949101
 20
91.6402184666
 10
159.0195401574
 20
91.5923543254
  0
LINE
  5
266
100
AcDbEntity
  8
0
100
AcDbLine
 62
7
  6
CONTINUOUS
 10
156.4739557451
 20
93.0561309398
 11
156.4739557451
 21
103.9968326488
  0
LINE
  5
267
100
AcDbEntity
  8
0
100
AcDbLine
 62
7
  6
CONTINUOUS
 10
157.1810625263
 20
93.0561309398
 11
157.1810625263
 21
103.9968326488
  0
LINE
  5
268
100
AcDbEntity
  8
0
100
AcDbLine
 62
7
  6
CONTINUOUS
 10
157.3224838825
 20
104.0784875675
 11
157.3224838825
 21
93.1377858584
  0
LINE
  5
269
100
AcDbEntity
  8
0
100
AcDbLine
 62
7
  6
CONTINUOUS
 10
157.6811140714
 20
104.6008632554
 11
157.6811140714
 21
93.9105763061
  0
LWPOLYLINE
  5
26A
100
AcDbEntity
  8
0
100
AcDbPolyline
 62
7
  6
CONTINUOUS
 90
28
 70
0
 10
156.4739557451
 20
103.9968326488
 10
156.4760452346
 20
104.0767694362
 10
156.4821313402
 20
104.1535878503
 10
156.4922140618
 20
104.2272878911
 10
156.5063542446
 20
104.2980980059
 10
156.5244910433
 20
104.3657897473
 10
156.546441923
 20
104.4296777739
 10
156.5722457117
 20
104.4897232203
 10
156.6018635813
 20
104.5459649517
 10
156.6349965119
 20
104.5978342229
 10
156.6716801513
 20
104.6452864986
 10
156.7118788518
 20
104.688366314
 10
156.7551866503
 20
104.7266385291
 10
156.8016349683
 20
104.7600543429
 10
156.8511923844
 20
104.7886625564
 10
156.9033586717
 20
104.8121744323
 10
156.9581603308
 20
104.8305383654
 10
157.015570861
 20
104.843805961
 10
157.0750105335
 20
104.851843298
 10
157.1365001648
 20
104.8545972515
 10
157.2000189384
 20
104.8521209464
 10
157.2649246755
 20
104.8444398371
 10
157.3312316021
 20
104.8315008487
 10
157.3989254922
 20
104.8133570562
 10
157.46732149
 20
104.7901931382
 10
157.5361913101
 20
104.7620706544
 10
157.6057632378
 20
104.7289280453
 10
157.6760372731
 20
104.6907653107
  0
LWPOLYLINE
  5
26B
100
AcDbEntity
  8
0
100
AcDbPolyline
 62
7
  6
CONTINUOUS
 90
11
 70
0
 10
157.1810625263
 20
103.9968326488
 10
157.1828786728
 20
104.0598528049
 10
157.1883198089
 20
104.1205098095
 10
157.1973633437
 20
104.178543488
 10
157.2099715613
 20
104.2337059684
 10
157.2260909997
 20
104.2857591544
 10
157.2456519238
 20
104.3344764388
 10
157.2685704922
 20
104.3796490412
 10
157.2947485943
 20
104.4210836105
 10
157.3240723647
 20
104.458600663
 10
157.3564144327
 20
104.4920390228
  0
LINE
  5
26C
100
AcDbEntity
  8
0
100
AcDbLine
 62
250
  6
CONTINUOUS
 10
157.6811140714
 20
93.9105763061
 11
157.3224838825
 21
93.1377858584
  0
LINE
  5
26D
100
AcDbEntity
  8
0
100
AcDbLine
 62
250
  6
CONTINUOUS
 10
151.5949189549
 20
95.3017358949
 11
151.7363403111
 21
95.3833908136
  0
LWPOLYLINE
  5
26E
100
AcDbEntity
  8
0
100
AcDbPolyline
 62
7
  6
CONTINUOUS
 90
3
 70
0
 10
152.1949479471
 20
95.2422864817
 10
152.1543965312
 20
95.2218432112
 10
152.1114787187
 20
95.2059533742
  0
LINE
  5
26F
100
AcDbEntity
  8
0
100
AcDbLine
 62
250
  6
CONTINUOUS
 10
159.0195401574
 20
91.5923543254
 11
158.1710120199
 21
91.6680920143
  0
LWPOLYLINE
  5
270
100
AcDbEntity
  8
0
100
AcDbPolyline
 62
7
  6
CONTINUOUS
 90
7
 70
0
 10
183.5561454645
 20
77.0110341138
 10
183.6116329495
 20
76.9810934117
 10
183.6668862921
 20
76.955473591
 10
183.7216688703
 20
76.9342851452
 10
183.7757470666
 20
76.9176193411
 10
183.8288880483
 20
76.9055488548
 10
183.85897448
 20
76.9007044609
  0
LWPOLYLINE
  5
271
100
AcDbEntity
  8
0
100
AcDbPolyline
 62
7
  6
CONTINUOUS
 90
7
 70
0
 10
167.6462428878
 20
86.1972124637
 10
167.7017303729
 20
86.1672717616
 10
167.7569837154
 20
86.1416519409
 10
167.8117662936
 20
86.120463495
 10
167.8658444899
 20
86.103797691
 10
167.9189854716
 20
86.0917272047
 10
167.9490719033
 20
86.0868828108
  0
LWPOLYLINE
  5
272
100
AcDbEntity
  8
0
100
AcDbPolyline
 62
7
  6
CONTINUOUS
 90
7
 70
0
 10
151.7363403111
 20
95.3833908136
 10
151.7918277962
 20
95.3534501115
 10
151.8470811387
 20
95.3278302907
 10
151.9018637169
 20
95.3066418449
 10
151.9559419132
 20
95.2899760408
 10
152.0090828949
 20
95.2779055546
 10
152.0391693266
 20
95.2730611606
  0
LINE
  5
273
100
AcDbEntity
  8
0
100
AcDbLine
 62
7
  6
CONTINUOUS
 10
183.0611707177
 20
76.3170067601
 11
173.5859398498
 21
81.7878863107
  0
LINE
  5
274
100
AcDbEntity
  8
0
100
AcDbLine
 62
7
  6
CONTINUOUS
 10
167.151268141
 20
85.50318511
 11
157.6760372731
 21
90.9740646606
  0
LINE
  5
275
100
AcDbEntity
  8
0
100
AcDbLine
 62
7
  6
CONTINUOUS
 10
151.2413655643
 20
94.6893634598
 11
141.7661346964
 21
100.1602430104
  0
LINE
  5
276
100
AcDbEntity
  8
0
100
AcDbLine
 62
7
  6
CONTINUOUS
 10
183.4147241083
 20
76.9293791952
 11
173.9394932404
 21
82.4002587457
  0
LINE
  5
277
100
AcDbEntity
  8
0
100
AcDbLine
 62
7
  6
CONTINUOUS
 10
167.5048215316
 20
86.115557545
 11
158.0295906637
 21
91.5864370956
  0
LINE
  5
278
100
AcDbEntity
  8
0
100
AcDbLine
 62
7
  6
CONTINUOUS
 10
151.5949189549
 20
95.3017358949
 11
142.119688087
 21
100.7726154455
  0
LINE
  5
279
100
AcDbEntity
  8
0
100
AcDbLine
 62
7
  6
CONTINUOUS
 10
142.2611094432
 20
100.8542703642
 11
151.7363403111
 21
95.3833908136
  0
LINE
  5
27A
100
AcDbEntity
  8
0
100
AcDbLine
 62
7
  6
CONTINUOUS
 10
158.1710120199
 20
91.6680920143
 11
167.6462428878
 21
86.1972124637
  0
LINE
  5
27B
100
AcDbEntity
  8
0
100
AcDbLine
 62
7
  6
CONTINUOUS
 10
174.0809145966
 20
82.4819136644
 11
183.5561454645
 21
77.0110341138
  0
LINE
  5
27C
100
AcDbEntity
  8
0
100
AcDbLine
 62
7
  6
CONTINUOUS
 10
143.1096375807
 20
100.7785326752
 11
152.3681349438
 21
95.432792334
  0
LINE
  5
27D
100
AcDbEntity
  8
0
100
AcDbLine
 62
7
  6
CONTINUOUS
 10
159.0195401574
 20
91.5923543254
 11
168.2780375205
 21
86.2466139841
  0
LINE
  5
27E
100
AcDbEntity
  8
0
100
AcDbLine
 62
7
  6
CONTINUOUS
 10
174.9294427341
 20
82.4061759755
 11
184.1879400972
 21
77.0604356343
  0
LWPOLYLINE
  5
27F
100
AcDbEntity
  8
0
100
AcDbPolyline
 62
7
  6
CONTINUOUS
 90
28
 70
0
 10
141.7661346964
 20
100.1602430104
 10
141.6958603318
 20
100.2032312048
 10
141.6262881435
 20
100.2504287173
 10
141.5574181316
 20
100.3018355481
 10
141.4890220231
 20
100.3576537546
 10
141.4213280908
 20
100.4176812792
 10
141.3550211537
 20
100.4813119497
 10
141.2901154552
 20
100.5485823754
 10
141.2265967518
 20
100.6194559468
 10
141.1651071317
 20
100.6932166632
 10
141.1056673391
 20
100.769893708
 10
141.0482566298
 20
100.8494578977
 10
140.9934548594
 20
100.9311056803
 10
140.9412885799
 20
101.0148580063
 10
140.8917312393
 20
101.1006939252
 10
140.8452830369
 20
101.1877470345
 10
140.8019754142
 20
101.2760297798
 10
140.7617769298
 20
101.3655297154
 10
140.7250934588
 20
101.4553431025
 10
140.6919606013
 20
101.5454734221
 10
140.6623427573
 20
101.6359171932
 10
140.6365390023
 20
101.7257602331
 10
140.6145881885
 20
101.8149965351
 10
140.5964514637
 20
101.9036321059
 10
140.5823113473
 20
101.990770783
 10
140.5722286792
 20
102.0761138456
 10
140.5661426196
 20
102.1599600145
 10
140.5640531684
 20
102.2423092896
  0
LWPOLYLINE
  5
280
100
AcDbEntity
  8
0
100
AcDbPolyline
 62
7
  6
CONTINUOUS
 90
28
 70
0
 10
157.6760372731
 20
90.9740646606
 10
157.6057629085
 20
91.0170528549
 10
157.5361907202
 20
91.0642503674
 10
157.4673207083
 20
91.1156571982
 10
157.3989245998
 20
91.1714754047
 10
157.3312306675
 20
91.2315029294
 10
157.2649237304
 20
91.2951335998
 10
157.2000180319
 20
91.3624040255
 10
157.1364993285
 20
91.433277597
 10
157.0750097084
 20
91.5070383133
 10
157.0155699158
 20
91.5837153581
 10
156.9581592065
 20
91.6632795478
 10
156.9033574361
 20
91.7449273305
 10
156.8511911566
 20
91.8286796564
 10
156.8016338159
 20
91.9145155753
 10
156.7551856136
 20
92.0015686846
 10
156.7118779909
 20
92.0898514299
 10
156.6716795065
 20
92.1793513655
 10
156.6349960355
 20
92.2691647526
 10
156.601863178
 20
92.3592950723
 10
156.572245334
 20
92.4497388433
 10
156.546441579
 20
92.5395818832
 10
156.5244907652
 20
92.6288181852
 10
156.5063540404
 20
92.717453756
 10
156.492213924
 20
92.8045924331
 10
156.4821312559
 20
92.8899354957
 10
156.4760451963
 20
92.9737816646
 10
156.4739557451
 20
93.0561309398
  0
LWPOLYLINE
  5
281
100
AcDbEntity
  8
0
100
AcDbPolyline
 62
7
  6
CONTINUOUS
 90
28
 70
0
 10
173.5859398498
 20
81.7878863107
 10
173.5156654852
 20
81.830874505
 10
173.4460932969
 20
81.8780720176
 10
173.377223285
 20
81.9294788483
 10
173.3088271765
 20
81.9852970548
 10
173.2411332442
 20
82.0453245795
 10
173.1748263071
 20
82.1089552499
 10
173.1099206086
 20
82.1762256756
 10
173.0464019052
 20
82.2470992471
 10
172.9849122851
 20
82.3208599634
 10
172.9254724925
 20
82.3975370082
 10
172.8680617832
 20
82.4771011979
 10
172.8132600128
 20
82.5587489806
 10
172.7610937333
 20
82.6425013065
 10
172.7115363926
 20
82.7283372254
 10
172.6650881903
 20
82.8153903348
 10
172.6217805676
 20
82.90367308
 10
172.5815820832
 20
82.9931730157
 10
172.5448986122
 20
83.0829864027
 10
172.5117657547
 20
83.1731167224
 10
172.4821479107
 20
83.2635604934
 10
172.4563441557
 20
83.3534035333
 10
172.4343933419
 20
83.4426398353
 10
172.4162566171
 20
83.5312754061
 10
172.4021165007
 20
83.6184140833
 10
172.3920338326
 20
83.7037571458
 10
172.385947773
 20
83.7876033147
 10
172.3838583218
 20
83.8699525899
  0
LWPOLYLINE
  5
282
100
AcDbEntity
  8
0
100
AcDbPolyline
 62
7
  6
CONTINUOUS
 90
25
 70
0
 10
142.119688087
 20
100.7726154455
 10
142.0642011115
 20
100.8067499675
 10
142.0089480813
 20
100.8449350551
 10
141.9541656179
 20
100.8870080009
 10
141.9000872513
 20
100.9327904187
 10
141.8469459194
 20
100.9820860823
 10
141.794972747
 20
101.0346810225
 10
141.7443904737
 20
101.090349824
 10
141.695415612
 20
101.1488541901
 10
141.6482605424
 20
101.2099400189
 10
141.6031285435
 20
101.2733428696
 10
141.5602107006
 20
101.3387931412
 10
141.5196881718
 20
101.4060141078
 10
141.481734451
 20
101.4747179654
 10
141.446512025
 20
101.5446105774
 10
141.4141699526
 20
101.6153967193
 10
141.3848461558
 20
101.68677615
 10
141.358668026
 20
101.7584405691
 10
141.3357494588
 20
101.8300789063
 10
141.3161885861
 20
101.9013843829
 10
141.3000691894
 20
101.9720515404
 10
141.2874609437
 20
102.0417735469
 10
141.2784173331
 20
102.1102506577
 10
141.2729761269
 20
102.1771913326
 10
141.2711599496
 20
102.2423092896
  0
LWPOLYLINE
  5
283
100
AcDbEntity
  8
0
100
AcDbPolyline
 62
7
  6
CONTINUOUS
 90
25
 70
0
 10
158.0295906637
 20
91.5864370956
 10
157.9741036882
 20
91.6205716176
 10
157.918850658
 20
91.6587567052
 10
157.8640681946
 20
91.700829651
 10
157.809989828
 20
91.7466120688
 10
157.7568484961
 20
91.7959077324
 10
157.7048753237
 20
91.8485026727
 10
157.6542930504
 20
91.9041714741
 10
157.6053181887
 20
91.9626758402
 10
157.5581631191
 20
92.023761669
 10
157.5130311202
 20
92.0871645197
 10
157.4701132773
 20
92.1526147913
 10
157.4295907485
 20
92.2198357579
 10
157.3916370277
 20
92.2885396156
 10
157.3564146017
 20
92.3584322275
 10
157.3240725293
 20
92.4292183694
 10
157.2947487325
 20
92.5005978002
 10
157.2685706027
 20
92.5722622192
 10
157.2456520355
 20
92.6439005565
 10
157.2260911627
 20
92.715206033
 10
157.2099717661
 20
92.7858731905
 10
157.1973635204
 20
92.855595197
 10
157.1883199098
 20
92.9240723078
 10
157.1828787036
 20
92.9910129828
 10
157.1810625263
 20
93.0561309398
  0
LWPOLYLINE
  5
284
100
AcDbEntity
  8
0
100
AcDbPolyline
 62
7
  6
CONTINUOUS
 90
25
 70
0
 10
173.9394932404
 20
82.4002587457
 10
173.8840062649
 20
82.4343932678
 10
173.8287532347
 20
82.4725783553
 10
173.7739707713
 20
82.5146513012
 10
173.7198924047
 20
82.560433719
 10
173.6667510728
 20
82.6097293825
 10
173.6147779004
 20
82.6623243228
 10
173.5641956271
 20
82.7179931242
 10
173.5152207653
 20
82.7764974904
 10
173.4680656958
 20
82.8375833191
 10
173.4229336969
 20
82.9009861698
 10
173.380015854
 20
82.9664364414
 10
173.3394933252
 20
83.033657408
 10
173.3015396044
 20
83.1023612657
 10
173.2663171784
 20
83.1722538777
 10
173.233975106
 20
83.2430400195
 10
173.2046513092
 20
83.3144194503
 10
173.1784731794
 20
83.3860838693
 10
173.1555546122
 20
83.4577222066
 10
173.1359937394
 20
83.5290276831
 10
173.1198743428
 20
83.5996948407
 10
173.1072660971
 20
83.6694168471
 10
173.0982224865
 20
83.737893958
 10
173.0927812803
 20
83.8048346329
 10
173.090965103
 20
83.8699525899
  0
LINE
  5
285
100
AcDbEntity
  8
0
100
AcDbLine
 62
7
  6
CONTINUOUS
 10
120.1238746843
 20
156.0965522083
 11
120.1242499918
 21
156.0959158468
  0
LINE
  5
286
100
AcDbEntity
  8
0
100
AcDbLine
 62
250
  6
CONTINUOUS
 10
157.6760372731
 20
90.9740646606
 11
158.0295906637
 21
91.5864370956
  0
LINE
  5
287
100
AcDbEntity
  8
0
100
AcDbLine
 62
250
  6
CONTINUOUS
 10
157.1810625263
 20
93.0561309398
 11
157.3224838825
 21
93.1377858584
  0
LINE
  5
288
100
AcDbEntity
  8
0
100
AcDbLine
 62
7
  6
CONTINUOUS
 10
204.6783223087
 20
106.1097014827
 11
206.0952814396
 21
106.4573197589
  0
LINE
  5
289
100
AcDbEntity
  8
0
100
AcDbLine
 62
250
  6
CONTINUOUS
 10
156.4739557451
 20
93.0561309398
 11
157.1810625263
 21
93.0561309398
  0
LINE
  5
28A
100
AcDbEntity
  8
0
100
AcDbLine
 62
250
  6
CONTINUOUS
 10
172.3838583218
 20
94.8106542989
 11
173.090965103
 21
94.8106542989
  0
LINE
  5
28B
100
AcDbEntity
  8
0
100
AcDbLine
 62
250
  6
CONTINUOUS
 10
152.3028031388
 20
95.3328296318
 11
151.7363403111
 21
95.3833908136
  0
LWPOLYLINE
  5
28C
100
AcDbEntity
  8
0
100
AcDbPolyline
 62
7
  6
CONTINUOUS
 90
6
 70
0
 10
152.0391693266
 20
95.2730611606
 10
152.0610558165
 20
95.2704832388
 10
152.1116380529
 20
95.2677409143
 10
152.1606129601
 20
95.2696903543
 10
152.2077680585
 20
95.2763227146
 10
152.2529000339
 20
95.2876082802
  0
LINE
  5
28D
100
AcDbEntity
  8
0
100
AcDbLine
 62
7
  6
CONTINUOUS
 10
168.353349669
 20
97.1378194809
 11
168.353349669
 21
86.1971177719
  0
LWPOLYLINE
  5
28E
100
AcDbEntity
  8
0
100
AcDbPolyline
 62
7
  6
CONTINUOUS
 90
28
 70
0
 10
168.353349669
 20
86.1971177719
 10
168.3512601795
 20
86.1171809845
 10
168.3451740739
 20
86.0403625704
 10
168.3350913523
 20
85.9666625295
 10
168.3209511696
 20
85.8958524148
 10
168.3028143708
 20
85.8281606733
 10
168.2808634911
 20
85.7642726467
 10
168.2550597024
 20
85.7042272004
 10
168.2254418328
 20
85.6479854689
 10
168.1923089022
 20
85.5961161978
 10
168.1556252628
 20
85.548663922
 10
168.1154265623
 20
85.5055841066
 10
168.0721187638
 20
85.4673118915
 10
168.0256704458
 20
85.4338960777
 10
167.9761130297
 20
85.4052878643
 10
167.9239467425
 20
85.3817759883
 10
167.8691450834
 20
85.3634120552
 10
167.8117345531
 20
85.3501444597
 10
167.7522948806
 20
85.3421071226
 10
167.6908052493
 20
85.3393531692
 10
167.6272864757
 20
85.3418294743
 10
167.5623807386
 20
85.3495105836
 10
167.4960738121
 20
85.3624495719
 10
167.4283799219
 20
85.3805933645
 10
167.3599839241
 20
85.4037572825
 10
167.291114104
 20
85.4318797662
 10
167.2215421763
 20
85.4650223754
 10
167.151268141
 20
85.50318511
  0
LWPOLYLINE
  5
28F
100
AcDbEntity
  8
0
100
AcDbPolyline
 62
7
  6
CONTINUOUS
 90
7
 70
0
 10
168.353349669
 20
86.6053923652
 10
168.3515335225
 20
86.5423722091
 10
168.3460923864
 20
86.4817152045
 10
168.3370488516
 20
86.423681526
 10
168.324440634
 20
86.3685190456
 10
168.3083211956
 20
86.3164658596
 10
168.2887602715
 20
86.2677485752
  0
LINE
  5
290
100
AcDbEntity
  8
0
100
AcDbLine
 62
250
  6
CONTINUOUS
 10
158.0295906637
 20
91.5864370956
 11
158.1710120199
 21
91.6680920143
  0
LINE
  5
291
100
AcDbEntity
  8
0
100
AcDbLine
 62
250
  6
CONTINUOUS
 10
173.090965103
 20
94.8106542989
 11
173.2323864592
 21
94.8923092176
  0
LWPOLYLINE
  5
292
100
AcDbEntity
  8
0
100
AcDbPolyline
 62
7
  6
CONTINUOUS
 90
13
 70
0
 10
173.3394642482
 20
95.3599385323
 10
173.3800156641
 20
95.3803818028
 10
173.4229334766
 20
95.3962716398
 10
173.4680654495
 20
95.4075572096
 10
173.515220526
 20
95.4141895725
 10
173.564195403
 20
95.4161390191
 10
173.6147776306
 20
95.4133967041
 10
173.6667505925
 20
95.40597439
 10
173.7198916405
 20
95.3939038912
 10
173.7739698825
 20
95.3772380711
 10
173.8287524683
 20
95.3560496183
 10
173.884005795
 20
95.3304298013
 10
173.9394932404
 20
95.3004891191
  0
LWPOLYLINE
  5
293
100
AcDbEntity
  8
0
100
AcDbPolyline
 62
7
  6
CONTINUOUS
 90
11
 70
0
 10
152.1114787187
 20
95.2059533742
 10
152.0663467458
 20
95.1946678044
 10
152.0191916693
 20
95.1880354415
 10
151.9702167923
 20
95.1860859949
 10
151.9196345647
 20
95.1888283098
 10
151.8676616028
 20
95.196250624
 10
151.8145205548
 20
95.2083211227
 10
151.7604423128
 20
95.2249869429
 10
151.705659727
 20
95.2461753957
 10
151.6504064003
 20
95.2717952127
 10
151.5949189549
 20
95.3017358949
  0
LINE
  5
294
100
AcDbEntity
  8
0
100
AcDbLine
 62
250
  6
CONTINUOUS
 10
140.5640531684
 20
102.2423092896
 11
141.2711599496
 21
102.2423092896
  0
LINE
  5
295
100
AcDbEntity
  8
0
100
AcDbLine
 62
250
  6
CONTINUOUS
 10
143.1096375807
 20
100.7785326752
 11
142.2611094432
 21
100.8542703642
  0
LINE
  5
296
100
AcDbEntity
  8
0
100
AcDbLine
 62
7
  6
CONTINUOUS
 10
141.7661346964
 20
113.8769436606
 11
151.2413655643
 21
108.40606411
  0
LINE
  5
297
100
AcDbEntity
  8
0
100
AcDbLine
 62
7
  6
CONTINUOUS
 10
157.6760372731
 20
104.6907653107
 11
167.151268141
 21
99.2198857601
  0
LINE
  5
298
100
AcDbEntity
  8
0
100
AcDbLine
 62
7
  6
CONTINUOUS
 10
173.5859398498
 20
95.5045869608
 11
183.0611707177
 21
90.0337074102
  0
LWPOLYLINE
  5
299
100
AcDbEntity
  8
0
100
AcDbPolyline
 62
7
  6
CONTINUOUS
 90
28
 70
0
 10
151.2413655643
 20
108.40606411
 10
151.3116399289
 20
108.3630759156
 10
151.3812121172
 20
108.3158784031
 10
151.4500821291
 20
108.2644715723
 10
151.5184782377
 20
108.2086533658
 10
151.5861721699
 20
108.1486258412
 10
151.652479107
 20
108.0849951707
 10
151.7173848055
 20
108.017724745
 10
151.7809035089
 20
107.9468511735
 10
151.842393129
 20
107.8730904572
 10
151.9018329216
 20
107.7964134124
 10
151.9592436309
 20
107.7168492227
 10
152.0140454013
 20
107.63520144
 10
152.0662116808
 20
107.5514491141
 10
152.1157690215
 20
107.4656131952
 10
152.1622172238
 20
107.3785600859
 10
152.2055248465
 20
107.2902773406
 10
152.245723331
 20
107.200777405
 10
152.2824068019
 20
107.1109640179
 10
152.3155396594
 20
107.0208336983
 10
152.3451575034
 20
106.9303899272
 10
152.3709612584
 20
106.8405468873
 10
152.3929120723
 20
106.7513105853
 10
152.4110487971
 20
106.6626750145
 10
152.4251889134
 20
106.5755363374
 10
152.4352715815
 20
106.4901932748
 10
152.4413576411
 20
106.4063471059
 10
152.4434470923
 20
106.3239978308
  0
LWPOLYLINE
  5
29A
100
AcDbEntity
  8
0
100
AcDbPolyline
 62
7
  6
CONTINUOUS
 90
28
 70
0
 10
167.151268141
 20
99.2198857601
 10
167.2215425056
 20
99.1768975658
 10
167.2911146939
 20
99.1297000532
 10
167.3599847058
 20
99.0782932224
 10
167.4283808144
 20
99.022475016
 10
167.4960747466
 20
98.9624474913
 10
167.5623816837
 20
98.8988168208
 10
167.6272873822
 20
98.8315463951
 10
167.6908060856
 20
98.7606728237
 10
167.7522957057
 20
98.6869121074
 10
167.8117354983
 20
98.6102350625
 10
167.8691462076
 20
98.5306708728
 10
167.923947978
 20
98.4490230902
 10
167.9761142575
 20
98.3652707643
 10
168.0256715982
 20
98.2794348453
 10
168.0721198005
 20
98.192381736
 10
168.1154274232
 20
98.1040989908
 10
168.1556259077
 20
98.0145990551
 10
168.1923093786
 20
97.924785668
 10
168.2254422361
 20
97.8346553484
 10
168.2550600801
 20
97.7442115773
 10
168.2808638351
 20
97.6543685375
 10
168.302814649
 20
97.5651322355
 10
168.3209513738
 20
97.4764966646
 10
168.3350914901
 20
97.3893579875
 10
168.3451741582
 20
97.3040149249
 10
168.3512602178
 20
97.2201687561
 10
168.353349669
 20
97.1378194809
  0
LWPOLYLINE
  5
29B
100
AcDbEntity
  8
0
100
AcDbPolyline
 62
7
  6
CONTINUOUS
 90
28
 70
0
 10
183.0611707177
 20
90.0337074102
 10
183.1314450823
 20
89.9907192159
 10
183.2010172706
 20
89.9435217033
 10
183.2698872825
 20
89.8921148726
 10
183.3382833911
 20
89.8362966661
 10
183.4059773233
 20
89.7762691414
 10
183.4722842604
 20
89.712638471
 10
183.5371899589
 20
89.6453680453
 10
183.6007086623
 20
89.5744944738
 10
183.6621982824
 20
89.5007337575
 10
183.721638075
 20
89.4240567127
 10
183.7790487843
 20
89.344492523
 10
183.8338505547
 20
89.2628447403
 10
183.8860168342
 20
89.1790924144
 10
183.9355741749
 20
89.0932564955
 10
183.9820223772
 20
89.0062033861
 10
184.0253299999
 20
88.9179206409
 10
184.0655284844
 20
88.8284207052
 10
184.1022119553
 20
88.7386073182
 10
184.1353448128
 20
88.6484769985
 10
184.1649626568
 20
88.5580332275
 10
184.1907664118
 20
88.4681901876
 10
184.2127172257
 20
88.3789538856
 10
184.2308539505
 20
88.2903183148
 10
184.2449940668
 20
88.2031796376
 10
184.2550767349
 20
88.1178365751
 10
184.2611627945
 20
88.0339904062
 10
184.2632522457
 20
87.951641131
  0
LINE
  5
29C
100
AcDbEntity
  8
0
100
AcDbLine
 62
7
  6
CONTINUOUS
 10
205.408883092
 20
34.5056472231
 11
205.4092455222
 21
34.5050057854
  0
LWPOLYLINE
  5
29D
100
AcDbEntity
  8
0
100
AcDbPolyline
 62
7
  6
CONTINUOUS
 90
25
 70
0
 10
173.2323864592
 20
83.9516075086
 10
173.2342026391
 20
83.8864895043
 10
173.23964385
 20
83.8195488083
 10
173.2486874629
 20
83.751071705
 10
173.2612956996
 20
83.6813497565
 10
173.2774150739
 20
83.6106826884
 10
173.2969759252
 20
83.5393772708
 10
173.3198944885
 20
83.4677389257
 10
173.3460726276
 20
83.3960744664
 10
173.3753964332
 20
83.3246950052
 10
173.4077385032
 20
83.2539088619
 10
173.4429609219
 20
83.1840162579
 10
173.4809146382
 20
83.1153124016
 10
173.5214371714
 20
83.0480914219
 10
173.5643550235
 20
82.9826411318
 10
173.6094870305
 20
82.9192382669
 10
173.6566421016
 20
82.8581524339
 10
173.7056169625
 20
82.7996480667
 10
173.7561992404
 20
82.7439792586
 10
173.8081724312
 20
82.6913842991
 10
173.8613137878
 20
82.6420886138
 10
173.9153921687
 20
82.5963061866
 10
173.9701746299
 20
82.5542332456
 10
174.0254276464
 20
82.5160481699
 10
174.0809145966
 20
82.4819136644
  0
LWPOLYLINE
  5
29E
100
AcDbEntity
  8
0
100
AcDbPolyline
 62
7
  6
CONTINUOUS
 90
28
 70
0
 10
173.5910166481
 20
84.7243979562
 10
173.5933430609
 20
84.6327086153
 10
173.6001193927
 20
84.5393525256
 10
173.6113456435
 20
84.4443296871
 10
173.6270895476
 20
84.3473074891
 10
173.6472833708
 20
84.2486185423
 10
173.6717239098
 20
84.1492606784
 10
173.7004544439
 20
84.0492271779
 10
173.7334316938
 20
83.9485247604
 10
173.7703226189
 20
83.8481714164
 10
173.8111668345
 20
83.7481710877
 10
173.8559247253
 20
83.6485198325
 10
173.9041444043
 20
83.5502238159
 10
173.9558608854
 20
83.4532968697
 10
174.0110391547
 20
83.3577251621
 10
174.0691222842
 20
83.2644733624
 10
174.1301398423
 20
83.1735647915
 10
174.1940622606
 20
83.0849761286
 10
174.2602439059
 20
82.9996020813
 10
174.3287078568
 20
82.9174751609
 10
174.3994310347
 20
82.838562856
 10
174.4716985705
 20
82.7636623404
 10
174.5455263534
 20
82.6928143457
 10
174.6208984942
 20
82.6259781403
 10
174.6970524563
 20
82.5638287027
 10
174.7737340609
 20
82.5065910258
 10
174.8511974868
 20
82.4540401167
 10
174.9294427341
 20
82.4061759755
  0
LINE
  5
29F
100
AcDbEntity
  8
0
100
AcDbLine
 62
7
  6
CONTINUOUS
 10
172.3838583218
 20
83.8699525899
 11
172.3838583218
 21
94.8106542989
  0
LINE
  5
2A0
100
AcDbEntity
  8
0
100
AcDbLine
 62
7
  6
CONTINUOUS
 10
173.090965103
 20
83.8699525899
 11
173.090965103
 21
94.8106542989
  0
LINE
  5
2A1
100
AcDbEntity
  8
0
100
AcDbLine
 62
7
  6
CONTINUOUS
 10
173.2323864592
 20
94.8923092176
 11
173.2323864592
 21
83.9516075086
  0
LINE
  5
2A2
100
AcDbEntity
  8
0
100
AcDbLine
 62
7
  6
CONTINUOUS
 10
173.5910166481
 20
95.4146849056
 11
173.5910166481
 21
84.7243979562
  0
LWPOLYLINE
  5
2A3
100
AcDbEntity
  8
0
100
AcDbPolyline
 62
7
  6
CONTINUOUS
 90
28
 70
0
 10
172.3838583218
 20
94.8106542989
 10
172.3859478113
 20
94.8905910863
 10
172.3920339169
 20
94.9674095004
 10
172.4021166385
 20
95.0411095412
 10
172.4162568213
 20
95.111919656
 10
172.43439362
 20
95.1796113975
 10
172.4563444997
 20
95.243499424
 10
172.4821482884
 20
95.3035448704
 10
172.511766158
 20
95.3597866018
 10
172.5448990886
 20
95.411655873
 10
172.581582728
 20
95.4591081487
 10
172.6217814285
 20
95.5021879641
 10
172.665089227
 20
95.5404601792
 10
172.711537545
 20
95.573875993
 10
172.7610949611
 20
95.6024842065
 10
172.8132612484
 20
95.6259960825
 10
172.8680629075
 20
95.6443600155
 10
172.9254734377
 20
95.6576276111
 10
172.9849131102
 20
95.6656649482
 10
173.0464027415
 20
95.6684189016
 10
173.1099215151
 20
95.6659425965
 10
173.1748272522
 20
95.6582614872
 10
173.2411341788
 20
95.6453224988
 10
173.3088280689
 20
95.6271787063
 10
173.3772240667
 20
95.6040147883
 10
173.4460938868
 20
95.5758923046
 10
173.5156658145
 20
95.5427496954
 10
173.5859398498
 20
95.5045869608
  0
LWPOLYLINE
  5
2A4
100
AcDbEntity
  8
0
100
AcDbPolyline
 62
7
  6
CONTINUOUS
 90
11
 70
0
 10
173.090965103
 20
94.8106542989
 10
173.0927812495
 20
94.873674455
 10
173.0982223856
 20
94.9343314596
 10
173.1072659204
 20
94.9923651381
 10
173.119874138
 20
95.0475276185
 10
173.1359935764
 20
95.0995808045
 10
173.1555545005
 20
95.1482980889
 10
173.1784730689
 20
95.1934706913
 10
173.204651171
 20
95.2349052606
 10
173.2339749414
 20
95.2724223131
 10
173.2663170094
 20
95.305860673
  0
LWPOLYLINE
  5
2A5
100
AcDbEntity
  8
0
100
AcDbPolyline
 62
7
  6
CONTINUOUS
 90
7
 70
0
 10
173.2882349777
 20
95.2096400915
 10
173.2774149319
 20
95.1812357211
 10
173.2612954871
 20
95.1291825103
 10
173.2486872684
 20
95.0740200139
 10
173.2396437367
 20
95.0159863363
 10
173.2342026041
 20
94.9553293455
 10
173.2323864592
 20
94.8923092176
  0
LINE
  5
2A6
100
AcDbEntity
  8
0
100
AcDbLine
 62
250
  6
CONTINUOUS
 10
173.4717382059
 20
95.4080737829
 11
173.2323864592
 21
94.8923092176
  0
LWPOLYLINE
  5
2A7
100
AcDbEntity
  8
0
100
AcDbPolyline
 62
7
  6
CONTINUOUS
 90
7
 70
0
 10
168.2887602715
 20
86.2677485752
 10
168.2658417031
 20
86.2225759728
 10
168.239663601
 20
86.1811414035
 10
168.2103398306
 20
86.143624351
 10
168.1779977626
 20
86.1101859911
 10
168.1427753341
 20
86.0809673201
 10
168.1048505238
 20
86.0561081318
  0
LWPOLYLINE
  5
2A8
100
AcDbEntity
  8
0
100
AcDbPolyline
 62
7
  6
CONTINUOUS
 90
3
 70
0
 10
173.3198944354
 20
95.2751256281
 10
173.2969758634
 20
95.2299530224
 10
173.2882349777
 20
95.2096400915
  0
LINE
  5
2A9
100
AcDbEntity
  8
0
100
AcDbLine
 62
250
  6
CONTINUOUS
 10
167.151268141
 20
85.50318511
 11
167.5048215316
 21
86.115557545
  0
LWPOLYLINE
  5
2AA
100
AcDbEntity
  8
0
100
AcDbPolyline
 62
7
  6
CONTINUOUS
 90
4
 70
0
 10
173.4077383883
 20
95.3875156127
 10
173.3753963121
 20
95.3540772484
 10
173.3460725388
 20
95.3165601957
 10
173.3198944354
 20
95.2751256281
  0
LWPOLYLINE
  5
2AB
100
AcDbEntity
  8
0
100
AcDbPolyline
 62
7
  6
CONTINUOUS
 90
3
 70
0
 10
173.2663170094
 20
95.305860673
 10
173.3015394379
 20
95.335079344
 10
173.3394642482
 20
95.3599385323
  0
LINE
  5
2AC
100
AcDbEntity
  8
0
100
AcDbLine
 62
250
  6
CONTINUOUS
 10
167.5048215316
 20
86.115557545
 11
167.6462428878
 21
86.1972124637
  0
LINE
  5
2AD
100
AcDbEntity
  8
0
100
AcDbLine
 62
7
  6
CONTINUOUS
 10
205.4092455222
 20
107.6708153089
 11
209.4711785069
 21
110.0161092111
  0
LWPOLYLINE
  5
2AE
100
AcDbEntity
  8
0
100
AcDbPolyline
 62
7
  6
CONTINUOUS
 90
3
 70
0
 10
168.1048505238
 20
86.0561081318
 10
168.0642991079
 20
86.0356648613
 10
168.0213812954
 20
86.0197750243
  0
LINE
  5
2AF
100
AcDbEntity
  8
0
100
AcDbLine
 62
250
  6
CONTINUOUS
 10
156.4739557451
 20
103.9968326488
 11
157.1810625263
 21
103.9968326488
  0
LINE
  5
2B0
100
AcDbEntity
  8
0
100
AcDbLine
 62
250
  6
CONTINUOUS
 10
173.5910166481
 20
84.7243979562
 11
173.2323864592
 21
83.9516075086
  0
LINE
  5
2B1
100
AcDbEntity
  8
0
100
AcDbLine
 62
250
  6
CONTINUOUS
 10
173.5859398498
 20
81.7878863107
 11
173.9394932404
 21
82.4002587457
  0
LINE
  5
2B2
100
AcDbEntity
  8
0
100
AcDbLine
 62
7
  6
CONTINUOUS
 10
206.1167827915
 20
106.4453248115
 11
210.1787157762
 21
108.7906187137
  0
LINE
  5
2B3
100
AcDbEntity
  8
0
100
AcDbLine
 62
250
  6
CONTINUOUS
 10
173.090965103
 20
83.8699525899
 11
173.2323864592
 21
83.9516075086
  0
LINE
  5
2B4
100
AcDbEntity
  8
0
100
AcDbLine
 62
7
  6
CONTINUOUS
 10
184.2632522457
 20
87.951641131
 11
184.2632522457
 21
77.010939422
  0
LWPOLYLINE
  5
2B5
100
AcDbEntity
  8
0
100
AcDbPolyline
 62
7
  6
CONTINUOUS
 90
28
 70
0
 10
184.2632522457
 20
77.010939422
 10
184.2611627562
 20
76.9310026346
 10
184.2550766506
 20
76.8541842205
 10
184.244993929
 20
76.7804841797
 10
184.2308537463
 20
76.7096740649
 10
184.2127169475
 20
76.6419823234
 10
184.1907660678
 20
76.5780942968
 10
184.1649622791
 20
76.5180488505
 10
184.1353444095
 20
76.4618071191
 10
184.1022114789
 20
76.4099378479
 10
184.0655278395
 20
76.3624855722
 10
184.025329139
 20
76.3194057567
 10
183.9820213405
 20
76.2811335417
 10
183.9355730225
 20
76.2477177279
 10
183.8860156064
 20
76.2191095144
 10
183.8338493192
 20
76.1955976384
 10
183.7790476601
 20
76.1772337054
 10
183.7216371298
 20
76.1639661098
 10
183.6621974573
 20
76.1559287727
 10
183.600707826
 20
76.1531748193
 10
183.5371890524
 20
76.1556511244
 10
183.4722833153
 20
76.1633322337
 10
183.4059763888
 20
76.1762712221
 10
183.3382824986
 20
76.1944150146
 10
183.2698865008
 20
76.2175789326
 10
183.2010166807
 20
76.2457014163
 10
183.131444753
 20
76.2788440255
 10
183.0611707177
 20
76.3170067601
  0
LWPOLYLINE
  5
2B6
100
AcDbEntity
  8
0
100
AcDbPolyline
 62
7
  6
CONTINUOUS
 90
7
 70
0
 10
184.2632522457
 20
77.4192140153
 10
184.2614360992
 20
77.3561938592
 10
184.2559949631
 20
77.2955368546
 10
184.2469514283
 20
77.2375031761
 10
184.2343432107
 20
77.1823406957
 10
184.2182237723
 20
77.1302875097
 10
184.1986628482
 20
77.0815702253
  0
LINE
  5
2B7
100
AcDbEntity
  8
0
100
AcDbLine
 62
250
  6
CONTINUOUS
 10
173.9394932404
 20
82.4002587457
 11
174.0809145966
 21
82.4819136644
  0
LINE
  5
2B8
100
AcDbEntity
  8
0
100
AcDbLine
 62
250
  6
CONTINUOUS
 10
140.5640531684
 20
113.1830109987
 11
141.2711599496
 21
113.1830109987
  0
LWPOLYLINE
  5
2B9
100
AcDbEntity
  8
0
100
AcDbPolyline
 62
7
  6
CONTINUOUS
 90
7
 70
0
 10
184.1986628482
 20
77.0815702253
 10
184.1757442798
 20
77.0363976229
 10
184.1495661777
 20
76.9949630536
 10
184.1202424073
 20
76.9574460011
 10
184.0879003393
 20
76.9240076413
 10
184.0526779108
 20
76.8947889703
 10
184.0147531005
 20
76.8699297819
  0
LINE
  5
2BA
100
AcDbEntity
  8
0
100
AcDbLine
 62
250
  6
CONTINUOUS
 10
183.0611707177
 20
76.3170067601
 11
183.4147241083
 21
76.9293791952
  0
LINE
  5
2BB
100
AcDbEntity
  8
0
100
AcDbLine
 62
7
  6
CONTINUOUS
 10
204.3993463746
 20
106.5929019742
 11
205.408883092
 21
107.64619657
  0
LWPOLYLINE
  5
2BC
100
AcDbEntity
  8
0
100
AcDbPolyline
 62
7
  6
CONTINUOUS
 90
3
 70
0
 10
184.0147531005
 20
76.8699297819
 10
183.9742016846
 20
76.8494865114
 10
183.9312838721
 20
76.8335966744
  0
LINE
  5
2BD
100
AcDbEntity
  8
0
100
AcDbLine
 62
250
  6
CONTINUOUS
 10
183.4147241083
 20
76.9293791952
 11
183.5561454645
 21
77.0110341138
  0
LINE
  5
2BE
100
AcDbEntity
  8
0
100
AcDbLine
 62
7
  6
CONTINUOUS
 10
206.0952814396
 20
106.4573197589
 11
206.1167827915
 21
106.4453248115
  0
LINE
  5
2BF
100
AcDbEntity
  8
0
100
AcDbLine
 62
7
  6
CONTINUOUS
 10
204.3993463746
 20
106.5929019742
 11
120.4279590396
 21
155.0769286128
  0
LINE
  5
2C0
100
AcDbEntity
  8
0
100
AcDbLine
 62
7
  6
CONTINUOUS
 10
205.4092455222
 20
107.6708153089
 11
120.8314119536
 21
156.5049964022
  0
LINE
  5
2C1
100
AcDbEntity
  8
0
100
AcDbLine
 62
7
  6
CONTINUOUS
 10
209.4711785069
 20
110.0161092111
 11
124.6192257407
 21
159.0085632935
  0
LINE
  5
2C2
100
AcDbEntity
  8
0
100
AcDbLine
 62
7
  6
CONTINUOUS
 10
204.6783223087
 20
35.2780678834
 11
204.6783223087
 21
106.1097014827
  0
LINE
  5
2C3
100
AcDbEntity
  8
0
100
AcDbLine
 62
7
  6
CONTINUOUS
 10
206.1167827915
 20
34.9134499793
 11
206.1167827915
 21
106.4453248115
  0
LINE
  5
2C4
100
AcDbEntity
  8
0
100
AcDbLine
 62
7
  6
CONTINUOUS
 10
205.4092455222
 20
107.6708153089
 11
205.408883092
 21
107.64619657
  0
LINE
  5
2C5
100
AcDbEntity
  8
0
100
AcDbLine
 62
7
  6
CONTINUOUS
 10
204.6783223087
 20
106.1097014827
 11
204.3993463746
 21
106.5929019742
  0
LINE
  5
2C6
100
AcDbEntity
  8
0
100
AcDbLine
 62
7
  6
CONTINUOUS
 10
206.0952814396
 20
106.4573197589
 11
205.408883092
 21
107.64619657
  0
LINE
  5
2C7
100
AcDbEntity
  8
0
100
AcDbLine
 62
7
  6
CONTINUOUS
 10
210.1787157762
 20
36.9422284936
 11
210.1787157762
 21
108.7906187137
  0
LINE
  5
2C8
100
AcDbEntity
  8
0
100
AcDbLine
 62
7
  6
CONTINUOUS
 10
209.4711785069
 20
110.0161092111
 11
210.1787157762
 21
108.7906187137
  0
LINE
  5
2C9
100
AcDbEntity
  8
0
100
AcDbLine
 62
7
  6
CONTINUOUS
 10
204.3993463746
 20
35.1170218078
 11
204.6783223087
 21
35.2780678834
  0
LINE
  5
2CA
100
AcDbEntity
  8
0
100
AcDbLine
 62
7
  6
CONTINUOUS
 10
205.408883092
 20
34.5056472231
 11
206.0952814396
 21
34.9018884276
  0
LINE
  5
2CB
100
AcDbEntity
  8
0
100
AcDbLine
 62
7
  6
CONTINUOUS
 10
210.1787157762
 20
36.9422284936
 11
209.4711785069
 21
36.5337842997
  0
LINE
  5
2CC
100
AcDbEntity
  8
0
100
AcDbLine
 62
7
  6
CONTINUOUS
 10
206.1167827915
 20
34.9134499793
 11
206.0952814396
 21
34.9018884276
  0
LINE
  5
2CD
100
AcDbEntity
  8
0
100
AcDbLine
 62
7
  6
CONTINUOUS
 10
206.1167827915
 20
34.9134499793
 11
210.1787157762
 21
36.9422284936
  0
LINE
  5
2CE
100
AcDbEntity
  8
0
100
AcDbLine
 62
7
  6
CONTINUOUS
 10
205.4092455222
 20
34.5050057854
 11
209.4711785069
 21
36.5337842997
  0
ARC
  5
2CF
100
AcDbEntity
  8
0
100
AcDbCircle
 62
7
  6
CONTINUOUS
 10
143.1601296077
 20
109.8709168715
 40
0.3
100
AcDbArc
 50
301.7332683128
 51
359.9978457589
  0
ENDSEC
  0
SECTION
  2
OBJECTS
  0
DICTIONARY
  5
C
100
AcDbDictionary
280
0
281
1
  3
ACAD_GROUP
350
D
  3
ACAD_MLINESTYLE
350
17
  3
ACAD_LAYOUT
350
1A
  3
ACAD_PLOTSETTINGS
350
19
  3
ACAD_PLOTSTYLENAME
350
E
  0
DICTIONARY
  5
D
102
{ACAD_REACTORS
330
C
102
}
100
AcDbDictionary
280
0
281
1
  0
ACDBDICTIONARYWDFLT
  5
E
102
{ACAD_REACTORS
330
C
102
}
100
AcDbDictionary
281
1
  3
Normal
350
F
100
AcDbDictionaryWithDefault
340
F
  0
DICTIONARY
  5
17
102
{ACAD_REACTORS
330
C
102
}
100
AcDbDictionary
280
0
281
1
  3
Standard
350
18
  0
DICTIONARY
  5
19
102
{ACAD_REACTORS
330
C
102
}
100
AcDbDictionary
281
1
  0
DICTIONARY
  5
1A
102
{ACAD_REACTORS
330
C
102
}
100
AcDbDictionary
281
1
  3
Model
350
2D0
  3
Layout1
350
2D1
  0
ACDBPLACEHOLDER
  5
F
102
{ACAD_REACTORS
330
E
102
}
  0
MLINESTYLE
  5
18
102
{ACAD_REACTORS
330
17
102
}
100
AcDbMlineStyle
  2
STANDARD
 70
0
  3

 62
256
 51
90.0
 52
90.0
 71
2
 49
0.5
 62
256
  6
BYLAYER
 49
-0.5
 62
256
  6
BYLAYER
  0
LAYOUT
  5
2D0
102
{ACAD_REACTORS
330
1A
102
}
100
AcDbPlotSettings
  1

  2
none_device
  4
ISO_A4_(297.00_x_210.00_MM)
  6

 40
0.0
 41
0.0
 42
0.0
 43
0.0
 44
297.0
 45
210.0
 46
0.0
 47
0.0
 48
0.0
 49
0.0
140
0.0
141
0.0
142
1.0
143
1.0
 70
1024
 72
1
 73
0
 74
0
  7

 75
0
147
1.0
148
0.0
149
0.0
100
AcDbLayout
  1
Model
 70
0
 71
0
 10
0.0
 20
0.0
 11
297.0
 21
210.0
 12
0.0
 22
0.0
 32
0.0
 14
0.0
 24
0.0
 34
0.0
 15
0.0
 25
0.0
 35
0.0
146
0.0
 13
0.0
 23
0.0
 33
0.0
 16
1.0
 26
0.0
 36
0.0
 17
0.0
 27
1.0
 37
0.0
 76
0
330
21B
345
0
346
0
  0
LAYOUT
  5
2D1
102
{ACAD_REACTORS
330
1A
102
}
100
AcDbPlotSettings
  1

  2
none_device
  4
ISO_A4_(297.00_x_210.00_MM)
  6

 40
0.0
 41
0.0
 42
0.0
 43
0.0
 44
297.0
 45
210.0
 46
0.0
 47
0.0
 48
0.0
 49
0.0
140
0.0
141
0.0
142
1.0
143
1.0
 70
0
 72
1
 73
0
 74
0
  7

 75
0
147
1.0
148
0.0
149
0.0
100
AcDbLayout
  1
Layout1
 70
0
 71
1
 10
0.0
 20
0.0
 11
297.0
 21
210.0
 12
0.0
 22
0.0
 32
0.0
 14
0.0
 24
0.0
 34
0.0
 15
0.0
 25
0.0
 35
0.0
146
0.0
 13
0.0
 23
0.0
 33
0.0
 16
1.0
 26
0.0
 36
0.0
 17
0.0
 27
1.0
 37
0.0
 76
0
330
21C
345
0
346
0
  0
ENDSEC
  0
EOF
