  0
SECTION
  2
HEADER
  9
$ACADVER
  1
AC1024
  9
$DWGCODEPAGE
  3
ANSI_1252
  9
$EXTMAX
 10
297.0
 20
210.0
 30
0.0
  9
$EXTMIN
 10
0.0
 20
0.0
 30
0.0
  9
$LIMMIN
 10
0.0
 20
0.0
  9
$LIMMAX
 10
297.0
 20
210.0
  9
$VIEWCTR
 10
148.5
 20
105.0
  9
$VIEWSIZE
 40
210.0
  9
$CLAYER
  8
0
  9
$LTSCALE
 40
16.335
  9
$CELTYPE
  6
BYLAYER
  9
$DIMSCALE
 40
1.0
  9
$DIMASZ
 40
3.0
  9
$DIMEXO
 40
0.5
  9
$DIMDLI
 40
11.286
  9
$DIMEXE
 40
1.5
  9
$DIMCEN
 40
2.673
  9
$DIMLFAC
 40
1.0
  9
$DIMBLK
  1
_FILLED
  9
$DIMALT
 70
0
  9
$DIMALTF
 40
0.0393700787
  9
$DIMTXT
 40
3.0
  9
$DIMTOL
 70
1
  9
$DIMLIM
 70
0
  9
$DIMTFAC
 40
1.0
  9
$DIMTP
 40
0.01
  9
$DIMTM
 40
0.01
  9
$DIMGAP
 40
0.625
  9
$DIMDSEP
 70
44
  9
$AUNITS
 70
0
  9
$PDMODE
 70
3
  9
$PDSIZE
 40
3.0
  9
$HANDSEED
  5
321
  9
$TILEMODE
 70
1
  9
$MEASUREMENT
 70
1
  9
$INSUNITS
 70
4
  0
ENDSEC
  0
SECTION
  2
CLASSES
  0
CLASS
  1
ACDBDICTIONARYWDFLT
  2
AcDbDictionaryWithDefault
  3
AutoCAD 2000
 90
0
 91
1
280
0
281
0
  0
CLASS
  1
ACDBPLACEHOLDER
  2
AcDbPlaceHolder
  3
AutoCAD 2000
 90
0
 91
1
280
0
281
0
  0
CLASS
  1
LAYOUT
  2
AcDbLayout
  3
AutoCAD 2000
 90
0
 91
0
280
0
281
0
  0
ENDSEC
  0
SECTION
  2
TABLES
  0
TABLE
  2
VPORT
  5
8
100
AcDbSymbolTable
 70
2
  0
VPORT
  5
1F4
100
AcDbSymbolTableRecord
100
AcDbViewportTableRecord
  2
*ACTIVE
 70
0
 10
0.0
 20
0.0
 11
1.0
 21
1.0
 12
148.5
 22
105.0
 13
0.0
 23
0.0
 14
1.0
 24
1.0
 15
0.0
 25
0.0
 16
0.0
 26
0.0
 36
1.0
 17
0.0
 27
0.0
 37
0.0
 40
210.0
 41
1.4142857143
 42
50.0
 43
0.0
 44
0.0
 50
0.0
 51
0.0
 71
0
 72
100
 73
1
 74
1
 75
0
 76
0
 77
0
 78
0
  0
ENDTAB
  0
TABLE
  2
LTYPE
  5
5
100
AcDbSymbolTable
 70
6
  0
LTYPE
  5
14
100
AcDbSymbolTableRecord
100
AcDbLinetypeTableRecord
  2
BYBLOCK
 70
0
  3

 72
65
 73
0
 40
0.0
  0
LTYPE
  5
15
100
AcDbSymbolTableRecord
100
AcDbLinetypeTableRecord
  2
BYLAYER
 70
0
  3

 72
65
 73
0
 40
0.0
  0
LTYPE
  5
16
100
AcDbSymbolTableRecord
100
AcDbLinetypeTableRecord
  2
CONTINUOUS
 70
64
  3
Solid line
 72
65
 73
0
 40
0.0
  0
LTYPE
  5
1F5
100
AcDbSymbolTableRecord
100
AcDbLinetypeTableRecord
  2
CENTER
 70
64
  3
____ _ ____ _ ____ _ ____ _ ____ _ ____ _ ____
 72
65
 73
4
 40
0.6
 49
0.375
 74
0
 49
-0.075
 74
0
 49
0.075
 74
0
 49
-0.075
 74
0
  0
LTYPE
  5
1F6
100
AcDbSymbolTableRecord
100
AcDbLinetypeTableRecord
  2
HIDDEN
 70
64
  3
- - - - - - - - - - - - - - - - - - - -
 72
65
 73
2
 40
0.2
 49
0.1
 74
0
 49
-0.1
 74
0
  0
LTYPE
  5
1F7
100
AcDbSymbolTableRecord
100
AcDbLinetypeTableRecord
  2
PHANTOM
 70
64
  3
_____ _ _ _____ _ _ _____ _ _ _____
 72
65
 73
6
 40
0.8
 49
0.45
 74
0
 49
-0.05
 74
0
 49
0.1
 74
0
 49
-0.05
 74
0
 49
0.1
 74
0
 49
-0.05
 74
0
  0
LTYPE
  5
1F8
100
AcDbSymbolTableRecord
100
AcDbLinetypeTableRecord
  2
DOT
 70
64
  3
. . . . . . . . . . . . . . . . . . . .
 72
65
 73
2
 40
0.2
 49
0.1
 74
0
 49
-0.1
 74
0
  0
LTYPE
  5
1F9
100
AcDbSymbolTableRecord
100
AcDbLinetypeTableRecord
  2
DASHED
 70
64
  3
- - - - - - - - - - - - - - - - - - - -
 72
65
 73
2
 40
0.2
 49
0.1
 74
0
 49
-0.1
 74
0
  0
ENDTAB
  0
TABLE
  2
LAYER
  5
2
100
AcDbSymbolTable
 70
36
  0
LAYER
  5
10
100
AcDbSymbolTableRecord
100
AcDbLayerTableRecord
  2
0
 70
0
 62
7
  6
CONTINUOUS
370
-3
390
F
  0
LAYER
  5
1FA
100
AcDbSymbolTableRecord
100
AcDbLayerTableRecord
  2
DEFAULT_1
 70
0
 62
7
  6
CENTER
370
-3
390
F
  0
LAYER
  5
1FB
100
AcDbSymbolTableRecord
100
AcDbLayerTableRecord
  2
DEFAULT_2
 70
0
 62
7
  6
HIDDEN
370
-3
390
F
  0
LAYER
  5
1FC
100
AcDbSymbolTableRecord
100
AcDbLayerTableRecord
  2
DEFAULT_3
 70
0
 62
7
  6
PHANTOM
370
-3
390
F
  0
LAYER
  5
1FD
100
AcDbSymbolTableRecord
100
AcDbLayerTableRecord
  2
ASSI
 70
0
 62
7
  6
CONTINUOUS
370
-3
390
F
  0
LAYER
  5
1FE
100
AcDbSymbolTableRecord
100
AcDbLayerTableRecord
  2
COORDINATE
 70
0
 62
7
  6
CONTINUOUS
370
-3
390
F
  0
LAYER
  5
1FF
100
AcDbSymbolTableRecord
100
AcDbLayerTableRecord
  2
COORD_ORIGINE
 70
0
 62
7
  6
CONTINUOUS
370
-3
390
F
  0
LAYER
  5
200
100
AcDbSymbolTableRecord
100
AcDbLayerTableRecord
  2
COPY_PUBLISH
 70
0
 62
7
  6
CONTINUOUS
370
-3
390
F
  0
LAYER
  5
201
100
AcDbSymbolTableRecord
100
AcDbLayerTableRecord
  2
COSMETIC
 70
0
 62
7
  6
CONTINUOUS
370
-3
390
F
  0
LAYER
  5
202
100
AcDbSymbolTableRecord
100
AcDbLayerTableRecord
  2
COSMETICI
 70
0
 62
7
  6
CONTINUOUS
370
-3
390
F
  0
LAYER
  5
203
100
AcDbSymbolTableRecord
100
AcDbLayerTableRecord
  2
CURVA_TASSELLO
 70
0
 62
7
  6
CONTINUOUS
370
-3
390
F
  0
LAYER
  5
204
100
AcDbSymbolTableRecord
100
AcDbLayerTableRecord
  2
CURVE
 70
0
 62
7
  6
CONTINUOUS
370
-3
390
F
  0
LAYER
  5
205
100
AcDbSymbolTableRecord
100
AcDbLayerTableRecord
  2
DRAFT
 70
0
 62
7
  6
CONTINUOUS
370
-3
390
F
  0
LAYER
  5
206
100
AcDbSymbolTableRecord
100
AcDbLayerTableRecord
  2
IMPORT_IGES
 70
0
 62
7
  6
CONTINUOUS
370
-3
390
F
  0
LAYER
  5
207
100
AcDbSymbolTableRecord
100
AcDbLayerTableRecord
  2
INTFCLR_2
 70
0
 62
7
  6
CONTINUOUS
370
-3
390
F
  0
LAYER
  5
208
100
AcDbSymbolTableRecord
100
AcDbLayerTableRecord
  2
INTF_1
 70
0
 62
7
  6
CONTINUOUS
370
-3
390
F
  0
LAYER
  5
209
100
AcDbSymbolTableRecord
100
AcDbLayerTableRecord
  2
INTF_6
 70
0
 62
7
  6
CONTINUOUS
370
-3
390
F
  0
LAYER
  5
20A
100
AcDbSymbolTableRecord
100
AcDbLayerTableRecord
  2
INTF_7
 70
0
 62
7
  6
CONTINUOUS
370
-3
390
F
  0
LAYER
  5
20B
100
AcDbSymbolTableRecord
100
AcDbLayerTableRecord
  2
LINEA_CHIUSURA
 70
0
 62
7
  6
CONTINUOUS
370
-3
390
F
  0
LAYER
  5
20C
100
AcDbSymbolTableRecord
100
AcDbLayerTableRecord
  2
LIVELLO_1
 70
0
 62
7
  6
CONTINUOUS
370
-3
390
F
  0
LAYER
  5
20D
100
AcDbSymbolTableRecord
100
AcDbLayerTableRecord
  2
NOTE
 70
0
 62
7
  6
CONTINUOUS
370
-3
390
F
  0
LAYER
  5
20E
100
AcDbSymbolTableRecord
100
AcDbLayerTableRecord
  2
PIANI
 70
0
 62
7
  6
CONTINUOUS
370
-3
390
F
  0
LAYER
  5
20F
100
AcDbSymbolTableRecord
100
AcDbLayerTableRecord
  2
PIANI_ORIGINE
 70
0
 62
7
  6
CONTINUOUS
370
-3
390
F
  0
LAYER
  5
210
100
AcDbSymbolTableRecord
100
AcDbLayerTableRecord
  2
PIANI_RIFERIMENTO
 70
0
 62
7
  6
CONTINUOUS
370
-3
390
F
  0
LAYER
  5
211
100
AcDbSymbolTableRecord
100
AcDbLayerTableRecord
  2
PUNTI
 70
0
 62
7
  6
CONTINUOUS
370
-3
390
F
  0
LAYER
  5
212
100
AcDbSymbolTableRecord
100
AcDbLayerTableRecord
  2
RACCORDO
 70
0
 62
7
  6
CONTINUOUS
370
-3
390
F
  0
LAYER
  5
213
100
AcDbSymbolTableRecord
100
AcDbLayerTableRecord
  2
RGB__255__255__255__
 70
0
 62
7
  6
CONTINUOUS
370
-3
390
F
  0
LAYER
  5
214
100
AcDbSymbolTableRecord
100
AcDbLayerTableRecord
  2
RGB____0____0____0__
 70
0
 62
7
  6
CONTINUOUS
370
-3
390
F
  0
LAYER
  5
215
100
AcDbSymbolTableRecord
100
AcDbLayerTableRecord
  2
SIMBOLI
 70
0
 62
7
  6
CONTINUOUS
370
-3
390
F
  0
LAYER
  5
216
100
AcDbSymbolTableRecord
100
AcDbLayerTableRecord
  2
SMUSSO
 70
0
 62
7
  6
CONTINUOUS
370
-3
390
F
  0
LAYER
  5
217
100
AcDbSymbolTableRecord
100
AcDbLayerTableRecord
  2
SNAPLINE
 70
0
 62
7
  6
CONTINUOUS
370
-3
390
F
  0
LAYER
  5
218
100
AcDbSymbolTableRecord
100
AcDbLayerTableRecord
  2
SUPERFICI
 70
0
 62
7
  6
CONTINUOUS
370
-3
390
F
  0
LAYER
  5
219
100
AcDbSymbolTableRecord
100
AcDbLayerTableRecord
  2
TRASH
 70
0
 62
7
  6
CONTINUOUS
370
-3
390
F
  0
LAYER
  5
21A
100
AcDbSymbolTableRecord
100
AcDbLayerTableRecord
  2
WHITE
 70
0
 62
7
  6
CONTINUOUS
370
-3
390
F
  0
LAYER
  5
21B
100
AcDbSymbolTableRecord
100
AcDbLayerTableRecord
  2
XSEC_DATUMS
 70
0
 62
7
  6
CONTINUOUS
370
-3
390
F
  0
ENDTAB
  0
TABLE
  2
STYLE
  5
3
100
AcDbSymbolTable
 70
1
  0
STYLE
  5
11
100
AcDbSymbolTableRecord
100
AcDbTextStyleTableRecord
  2
STANDARD
 70
0
 40
0.0
 41
0.8
 50
0.0
 71
0
 42
0.2
  3
txt
  4

  0
STYLE
  5
21C
100
AcDbSymbolTableRecord
100
AcDbTextStyleTableRecord
  2
TEXTSTYLE_1
 70
0
 40
0.0
 41
0.8
 50
0.0
 71
0
 42
0.2
  3
gdt
  4

  0
ENDTAB
  0
TABLE
  2
VIEW
  5
6
100
AcDbSymbolTable
 70
0
  0
ENDTAB
  0
TABLE
  2
UCS
  5
7
100
AcDbSymbolTable
 70
0
  0
ENDTAB
  0
TABLE
  2
APPID
  5
9
100
AcDbSymbolTable
 70
1
  0
APPID
  5
21D
100
AcDbSymbolTableRecord
100
AcDbRegAppTableRecord
  2
ACAD
 70
0
  0
ENDTAB
  0
TABLE
  2
BLOCK_RECORD
  5
1
100
AcDbSymbolTable
 70
0
  0
BLOCK_RECORD
  5
21E
100
AcDbSymbolTableRecord
100
AcDbBlockTableRecord
  2
*Model_Space
  0
BLOCK_RECORD
  5
21F
100
AcDbSymbolTableRecord
100
AcDbBlockTableRecord
  2
*Paper_Space
  0
BLOCK_RECORD
  5
220
100
AcDbSymbolTableRecord
100
AcDbBlockTableRecord
  2
_FILLED
  0
ENDTAB
  0
TABLE
  2
DIMSTYLE
  5
A
100
AcDbSymbolTable
 70
1
100
AcDbDimStyleTable
 71
0
  0
DIMSTYLE
105
221
100
AcDbSymbolTableRecord
100
AcDbDimStyleTableRecord
  2
STANDARD
 70
0
  3

  4

 40
1.0
 41
3.0
 42
0.5
 43
0.38
 44
1.5
 45
0.0
 46
0.0
 47
0.01
 48
0.01
140
3.0
141
0.09
142
0.0
143
25.4
144
1.0
145
0.0
146
1.0
147
0.625
 71
1
 72
0
 73
0
 74
0
 75
0
 76
0
 77
1
 78
8
 79
2
170
0
171
1
172
0
173
0
174
0
175
0
176
0
177
0
178
0
270
2
179
2
271
2
272
2
273
2
274
2
275
0
280
0
281
0
282
0
283
1
284
8
285
0
286
0
287
3
288
0
340
11
278
44
341
220
342
220
343
220
344
220
  0
ENDTAB
  0
ENDSEC
  0
SECTION
  2
BLOCKS
  0
BLOCK
  5
20
100
AcDbEntity
  8
0
100
AcDbBlockBegin
  2
*Model_Space
 70
0
 10
0.0
 20
0.0
 30
0.0
  3
*Model_Space
  1

  0
ENDBLK
  5
21
100
AcDbEntity
  8
0
100
AcDbBlockEnd
  0
BLOCK
  5
1C
100
AcDbEntity
  8
0
100
AcDbBlockBegin
  2
*Paper_Space
 70
0
 10
0.0
 20
0.0
 30
0.0
  3
*Paper_Space
  1

  0
ENDBLK
  5
1D
100
AcDbEntity
  8
0
100
AcDbBlockEnd
  0
BLOCK
  5
222
100
AcDbEntity
  8
0
100
AcDbBlockBegin
  2
_FILLED
 70
64
 10
0.0
 20
0.0
  3
_FILLED
  1

  0
SOLID
  5
223
100
AcDbEntity
  8
0
  6
BYBLOCK
 62
0
100
AcDbTrace
 10
0.0
 20
0.0
 11
-1.0
 21
0.3166666667
 12
-1.0
 22
-0.3166666667
 13
-1.0
 23
-0.3166666667
  0
ENDBLK
  5
224
100
AcDbEntity
  8
0
  6
BYBLOCK
 62
0
100
AcDbBlockEnd
  0
ENDSEC
  0
SECTION
  2
ENTITIES
  0
LINE
  5
225
100
AcDbEntity
  8
ASSI
100
AcDbLine
 62
7
  6
CONTINUOUS
 10
-52.9823718343
 20
63.9328568438
 11
-49.1945580472
 21
66.4364237351
  0
LINE
  5
226
100
AcDbEntity
  8
ASSI
100
AcDbLine
 62
7
  6
CONTINUOUS
 10
-52.274834565
 20
64.3413010376
 11
-48.4870207779
 21
66.844867929
  0
LINE
  5
227
100
AcDbEntity
  8
ASSI
100
AcDbLine
 62
7
  6
CONTINUOUS
 10
-52.2955981792
 20
64.3284616867
 11
-52.274834565
 21
64.3413010376
  0
LINE
  5
228
100
AcDbEntity
  8
ASSI
100
AcDbLine
 62
7
  6
CONTINUOUS
 10
-49.1945580472
 20
66.4364237351
 11
-48.4870207779
 21
66.844867929
  0
LINE
  5
229
100
AcDbEntity
  8
ASSI
100
AcDbLine
 62
7
  6
CONTINUOUS
 10
-52.2955981792
 20
64.3284616867
 11
-52.9819965268
 21
63.9322204822
  0
LINE
  5
22A
100
AcDbEntity
  8
ASSI
100
AcDbLine
 62
7
  6
CONTINUOUS
 10
-52.678287479
 20
62.9132332483
 11
-52.9572634132
 21
62.7521871727
  0
LINE
  5
22B
100
AcDbEntity
  8
CURVE
100
AcDbLine
 62
250
  6
CONTINUOUS
 10
51.2914970286
 20
-59.9817090006
 11
50.0330962074
 21
-60.2583318006
  0
LINE
  5
22C
100
AcDbEntity
  8
CURVE
100
AcDbLine
 62
250
  6
CONTINUOUS
 10
50.0330962074
 20
-59.8325948053
 11
51.861287384
 21
-59.5043016129
  0
LINE
  5
22D
100
AcDbEntity
  8
ASSI
100
AcDbLine
 62
7
  6
CONTINUOUS
 10
-52.678287479
 20
62.9132332483
 11
-52.2955981792
 21
64.3284616867
  0
LINE
  5
22E
100
AcDbEntity
  8
CURVE
100
AcDbLine
 62
250
  6
CONTINUOUS
 10
50.5354367363
 20
-55.7736302328
 11
51.2139018636
 21
-55.620455653
  0
LINE
  5
22F
100
AcDbEntity
  8
CURVE
100
AcDbLine
 62
250
  6
CONTINUOUS
 10
51.4963155582
 20
-55.5555437138
 11
51.861287384
 21
-55.4765925022
  0
LINE
  5
230
100
AcDbEntity
  8
CURVE
100
AcDbLine
 62
250
  6
CONTINUOUS
 10
51.861287384
 20
-55.8979981226
 11
50.0330962074
 21
-56.2421626808
  0
LINE
  5
231
100
AcDbEntity
  8
CURVE
100
AcDbLine
 62
250
  6
CONTINUOUS
 10
51.048113487
 20
-57.4411218192
 11
50.0330962074
 21
-57.5616015093
  0
LINE
  5
232
100
AcDbEntity
  8
CURVE
100
AcDbLine
 62
250
  6
CONTINUOUS
 10
50.6724894945
 20
-57.1092697562
 11
51.861287384
 21
-56.9757413374
  0
LINE
  5
233
100
AcDbEntity
  8
ASSI
100
AcDbLine
 62
7
  6
CONTINUOUS
 10
-52.9572634132
 20
-8.0794464266
 11
-52.9819965268
 21
-7.6232108491
  0
LINE
  5
234
100
AcDbEntity
  8
ASSI
100
AcDbLine
 62
7
  6
CONTINUOUS
 10
-52.9572634132
 20
62.7521871727
 11
-52.9819965268
 21
63.9322204822
  0
LINE
  5
235
100
AcDbEntity
  8
ASSI
100
AcDbLine
 62
7
  6
CONTINUOUS
 10
-52.9819965268
 20
-7.6232108491
 11
-52.9823718343
 21
-7.5990179884
  0
LINE
  5
236
100
AcDbEntity
  8
ASSI
100
AcDbLine
 62
7
  6
CONTINUOUS
 10
-52.9823718343
 20
63.9328568438
 11
-52.9823718343
 21
-7.5990179884
  0
LINE
  5
237
100
AcDbEntity
  8
ASSI
100
AcDbLine
 62
7
  6
CONTINUOUS
 10
-52.9572634132
 20
62.7521871727
 11
-52.9572634132
 21
-8.0794464266
  0
LINE
  5
238
100
AcDbEntity
  8
ASSI
100
AcDbLine
 62
7
  6
CONTINUOUS
 10
47.4819783668
 20
-66.071805831
 11
48.8989374977
 21
-66.4479852869
  0
LINE
  5
239
100
AcDbEntity
  8
ASSI
100
AcDbLine
 62
7
  6
CONTINUOUS
 10
-52.9572634132
 20
-8.0794464266
 11
-52.678287479
 21
-8.5626469181
  0
LINE
  5
23A
100
AcDbEntity
  8
ASSI
100
AcDbLine
 62
7
  6
CONTINUOUS
 10
-52.274834565
 20
-8.8245084858
 11
48.2129015803
 21
-66.844867929
  0
LINE
  5
23B
100
AcDbEntity
  8
ASSI
100
AcDbLine
 62
7
  6
CONTINUOUS
 10
-52.678287479
 20
-8.5626469181
 11
47.2030024326
 21
-66.2328519066
  0
LINE
  5
23C
100
AcDbEntity
  8
ASSI
100
AcDbLine
 62
7
  6
CONTINUOUS
 10
-52.274834565
 20
-8.8245084858
 11
-52.2955981792
 21
-8.8120876602
  0
LINE
  5
23D
100
AcDbEntity
  8
ASSI
100
AcDbLine
 62
7
  6
CONTINUOUS
 10
-52.678287479
 20
-8.5626469181
 11
-52.2955981792
 21
-8.8120876602
  0
LWPOLYLINE
  5
23E
100
AcDbEntity
  8
0
100
AcDbPolyline
 62
7
  6
CONTINUOUS
 90
49
 70
0
 10
-28.829882749
 20
14.3853821886
 10
-28.8263332242
 20
14.2137054937
 10
-28.8158970994
 20
14.0391958447
 10
-28.7985743745
 20
13.8618532416
 10
-28.7742947136
 20
13.6812637372
 10
-28.7431284526
 20
13.4978412788
 10
-28.7052865993
 20
13.3128277081
 10
-28.660723855
 20
13.1262122285
 10
-28.6094855185
 20
12.9380056366
 10
-28.5519184933
 20
12.7494821648
 10
-28.4879798348
 20
12.5606396629
 10
-28.4177124876
 20
12.371480281
 10
-28.3415921891
 20
12.1832847023
 10
-28.259579223
 20
11.9960594669
 10
-28.1717133056
 20
11.8097980346
 10
-28.0785893236
 20
11.6257614682
 10
-27.9801715973
 20
11.4439648652
 10
-27.8764958064
 20
11.264393128
 10
-27.7682638766
 20
11.0882620279
 10
-27.6554448913
 20
10.9155949117
 10
-27.5380697671
 20
10.7463684325
 10
-27.4169331795
 20
10.5817283197
 10
-27.2920096044
 20
10.4217056951
 10
-27.1633245659
 20
10.2662694369
 10
-27.0317493121
 20
10.1164719095
 10
-26.8972642308
 20
9.9723513756
 10
-26.7598889343
 20
9.8338695724
 10
-26.620553507
 20
9.7019640759
 10
-26.4792446481
 20
9.5766795111
 10
-26.3359756584
 20
9.4579712531
 10
-26.1917165252
 20
9.3466430032
 10
-26.0464605295
 20
9.2427448399
 10
-25.9002143901
 20
9.1462266849
 10
-25.7539682508
 20
9.0577420036
 10
-25.6077221115
 20
8.977345309
 10
-25.4614759722
 20
8.9049820881
 10
-25.3162199765
 20
8.8411422685
 10
-25.1719608432
 20
8.7858836873
 10
-25.0286918535
 20
8.7391485072
 10
-24.8873829946
 20
8.7012531438
 10
-24.7480475673
 20
8.6722575814
 10
-24.6106722708
 20
8.6521018356
 10
-24.4761871896
 20
8.6409223687
 10
-24.3446119358
 20
8.6387800911
 10
-24.2159268973
 20
8.6456140924
 10
-24.0910033221
 20
8.6613781038
 10
-23.9698667345
 20
8.6861327216
 10
-23.8524916103
 20
8.7198173495
 10
-23.8406286502
 20
8.7242743148
  0
LWPOLYLINE
  5
23F
100
AcDbEntity
  8
ASSI
100
AcDbPolyline
 62
7
  6
CONTINUOUS
 90
49
 70
0
 10
-28.829882749
 20
14.3853821886
 10
-28.8263332242
 20
14.2137054937
 10
-28.8158970994
 20
14.0391958447
 10
-28.7985743745
 20
13.8618532416
 10
-28.7742947136
 20
13.6812637372
 10
-28.7431284526
 20
13.4978412788
 10
-28.7052865993
 20
13.3128277081
 10
-28.660723855
 20
13.1262122285
 10
-28.6094855185
 20
12.9380056366
 10
-28.5519184933
 20
12.7494821648
 10
-28.4879798348
 20
12.5606396629
 10
-28.4177124876
 20
12.371480281
 10
-28.3415921891
 20
12.1832847023
 10
-28.259579223
 20
11.9960594669
 10
-28.1717133056
 20
11.8097980346
 10
-28.0785893236
 20
11.6257614682
 10
-27.9801715973
 20
11.4439648652
 10
-27.8764958064
 20
11.264393128
 10
-27.7682638766
 20
11.0882620279
 10
-27.6554448913
 20
10.9155949117
 10
-27.5380697671
 20
10.7463684325
 10
-27.4169331795
 20
10.5817283197
 10
-27.2920096044
 20
10.4217056951
 10
-27.1633245659
 20
10.2662694369
 10
-27.0317493121
 20
10.1164719095
 10
-26.8972642308
 20
9.9723513756
 10
-26.7598889343
 20
9.8338695724
 10
-26.620553507
 20
9.7019640759
 10
-26.4792446481
 20
9.5766795111
 10
-26.3359756584
 20
9.4579712531
 10
-26.1917165252
 20
9.3466430032
 10
-26.0464605295
 20
9.2427448399
 10
-25.9002143901
 20
9.1462266849
 10
-25.7539682508
 20
9.0577420036
 10
-25.6077221115
 20
8.977345309
 10
-25.4614759722
 20
8.9049820881
 10
-25.3162199765
 20
8.8411422685
 10
-25.1719608432
 20
8.7858836873
 10
-25.0286918535
 20
8.7391485072
 10
-24.8873829946
 20
8.7012531438
 10
-24.7480475673
 20
8.6722575814
 10
-24.6106722708
 20
8.6521018356
 10
-24.4761871896
 20
8.6409223687
 10
-24.3446119358
 20
8.6387800911
 10
-24.2159268973
 20
8.6456140924
 10
-24.0910033221
 20
8.6613781038
 10
-23.9698667345
 20
8.6861327216
 10
-23.8524916103
 20
8.7198173495
 10
-23.8406286502
 20
8.7242743148
  0
LWPOLYLINE
  5
240
100
AcDbEntity
  8
SMUSSO
100
AcDbPolyline
 62
7
  6
CONTINUOUS
 90
36
 70
0
 10
-30.031964277
 20
14.0995899733
 10
-30.0283497941
 20
14.278344543
 10
-30.0177032061
 20
14.4519249465
 10
-30.0000245129
 20
14.6203311838
 10
-29.9752481242
 20
14.7838908588
 10
-29.9434396303
 20
14.9422763676
 10
-29.9047958024
 20
15.0945048988
 10
-29.859274065
 20
15.240538041
 10
-29.8069169936
 20
15.3804142055
 10
-29.7480490859
 20
15.513265815
 10
-29.6826298146
 20
15.6390491055
 10
-29.610699707
 20
15.757807841
 10
-29.5327048436
 20
15.8688057356
 10
-29.4486076917
 20
15.9719943597
 10
-29.3584457839
 20
16.0674221431
 10
-29.2627777983
 20
16.1544980889
 10
-29.16156963
 20
16.2331703773
 10
-29.0548553838
 20
16.3034908281
 10
-28.9432960528
 20
16.3650239041
 10
-28.8268614724
 20
16.4177151386
 10
-28.7055818072
 20
16.4616189983
 10
-28.5802085438
 20
16.496463346
 10
-28.4507162009
 20
16.5221919159
 10
-28.3171302597
 20
16.5388609739
 10
-28.1802786506
 20
16.5463671799
 10
-28.0401411395
 20
16.5446536124
 10
-27.8967379604
 20
16.5337771929
 10
-27.7509577463
 20
16.513805346
 10
-27.6027857657
 20
16.4846816048
 10
-27.4522367501
 20
16.4464624362
 10
-27.3002435275
 20
16.3993846649
 10
-27.1467971147
 20
16.3433932877
 10
-26.9919064949
 20
16.2785433078
 10
-26.8365314447
 20
16.2052365589
 10
-26.6806689343
 20
16.123420515
 10
-26.6028278193
 20
16.0794981211
  0
LWPOLYLINE
  5
241
100
AcDbEntity
  8
ASSI
100
AcDbPolyline
 62
7
  6
CONTINUOUS
 90
36
 70
0
 10
-30.031964277
 20
14.0995899733
 10
-30.0283497941
 20
14.278344543
 10
-30.0177032061
 20
14.4519249465
 10
-30.0000245129
 20
14.6203311838
 10
-29.9752481242
 20
14.7838908588
 10
-29.9434396303
 20
14.9422763676
 10
-29.9047958024
 20
15.0945048988
 10
-29.859274065
 20
15.240538041
 10
-29.8069169936
 20
15.3804142055
 10
-29.7480490859
 20
15.513265815
 10
-29.6826298146
 20
15.6390491055
 10
-29.610699707
 20
15.757807841
 10
-29.5327048436
 20
15.8688057356
 10
-29.4486076917
 20
15.9719943597
 10
-29.3584457839
 20
16.0674221431
 10
-29.2627777983
 20
16.1544980889
 10
-29.16156963
 20
16.2331703773
 10
-29.0548553838
 20
16.3034908281
 10
-28.9432960528
 20
16.3650239041
 10
-28.8268614724
 20
16.4177151386
 10
-28.7055818072
 20
16.4616189983
 10
-28.5802085438
 20
16.496463346
 10
-28.4507162009
 20
16.5221919159
 10
-28.3171302597
 20
16.5388609739
 10
-28.1802786506
 20
16.5463671799
 10
-28.0401411395
 20
16.5446536124
 10
-27.8967379604
 20
16.5337771929
 10
-27.7509577463
 20
16.513805346
 10
-27.6027857657
 20
16.4846816048
 10
-27.4522367501
 20
16.4464624362
 10
-27.3002435275
 20
16.3993846649
 10
-27.1467971147
 20
16.3433932877
 10
-26.9919064949
 20
16.2785433078
 10
-26.8365314447
 20
16.2052365589
 10
-26.6806689343
 20
16.123420515
 10
-26.6028278193
 20
16.0794981211
  0
LWPOLYLINE
  5
242
100
AcDbEntity
  8
SMUSSO
100
AcDbPolyline
 62
7
  6
CONTINUOUS
 90
18
 70
0
 10
-29.3248574958
 20
14.0995899733
 10
-29.3213740573
 20
14.2665599547
 10
-29.3109314459
 20
14.429131307
 10
-29.2935530359
 20
14.586935616
 10
-29.2692778536
 20
14.7396155685
 10
-29.2381606415
 20
14.8868247565
 10
-29.2002718845
 20
15.0282285856
 10
-29.1556973018
 20
15.1635065372
 10
-29.1045377112
 20
15.292352127
 10
-29.0469091596
 20
15.4144727831
 10
-28.9829421998
 20
15.5295917434
 10
-28.9127816623
 20
15.6374482655
 10
-28.8365866591
 20
15.7377977115
 10
-28.7545299187
 20
15.8304126541
 10
-28.6667972423
 20
15.9150834388
 10
-28.5735872668
 20
15.9916183604
 10
-28.4751111392
 20
16.0598440232
 10
-28.4240480943
 20
16.0907453193
  0
LWPOLYLINE
  5
243
100
AcDbEntity
  8
ASSI
100
AcDbPolyline
 62
7
  6
CONTINUOUS
 90
18
 70
0
 10
-29.3248574958
 20
14.0995899733
 10
-29.3213740573
 20
14.2665599547
 10
-29.3109314459
 20
14.429131307
 10
-29.2935530359
 20
14.586935616
 10
-29.2692778536
 20
14.7396155685
 10
-29.2381606415
 20
14.8868247565
 10
-29.2002718845
 20
15.0282285856
 10
-29.1556973018
 20
15.1635065372
 10
-29.1045377112
 20
15.292352127
 10
-29.0469091596
 20
15.4144727831
 10
-28.9829421998
 20
15.5295917434
 10
-28.9127816623
 20
15.6374482655
 10
-28.8365866591
 20
15.7377977115
 10
-28.7545299187
 20
15.8304126541
 10
-28.6667972423
 20
15.9150834388
 10
-28.5735872668
 20
15.9916183604
 10
-28.4751111392
 20
16.0598440232
 10
-28.4240480943
 20
16.0907453193
  0
LWPOLYLINE
  5
244
100
AcDbEntity
  8
0
100
AcDbPolyline
 62
7
  6
CONTINUOUS
 90
13
 70
0
 10
-28.3415921891
 20
16.0236139758
 10
-28.4177124876
 20
15.9233202098
 10
-28.4879798348
 20
15.8153037992
 10
-28.5519184933
 20
15.7002960574
 10
-28.6094855185
 20
15.5782495434
 10
-28.660723855
 20
15.4492116982
 10
-28.7052865993
 20
15.3140561585
 10
-28.7431284526
 20
15.1727414115
 10
-28.7742947136
 20
15.0253089701
 10
-28.7985743745
 20
14.8727570096
 10
-28.8158970994
 20
14.715418255
 10
-28.8263332242
 20
14.5529599814
 10
-28.829882749
 20
14.3853821886
  0
LWPOLYLINE
  5
245
100
AcDbEntity
  8
ASSI
100
AcDbPolyline
 62
7
  6
CONTINUOUS
 90
13
 70
0
 10
-28.3415921891
 20
16.0236139758
 10
-28.4177124876
 20
15.9233202098
 10
-28.4879798348
 20
15.8153037992
 10
-28.5519184933
 20
15.7002960574
 10
-28.6094855185
 20
15.5782495434
 10
-28.660723855
 20
15.4492116982
 10
-28.7052865993
 20
15.3140561585
 10
-28.7431284526
 20
15.1727414115
 10
-28.7742947136
 20
15.0253089701
 10
-28.7985743745
 20
14.8727570096
 10
-28.8158970994
 20
14.715418255
 10
-28.8263332242
 20
14.5529599814
 10
-28.829882749
 20
14.3853821886
  0
LWPOLYLINE
  5
246
100
AcDbEntity
  8
0
100
AcDbPolyline
 62
7
  6
CONTINUOUS
 90
4
 70
0
 10
-28.1621433309
 20
16.2087902931
 10
-28.1717133056
 20
16.200928767
 10
-28.259579223
 20
16.1161326937
 10
-28.3415921891
 20
16.0236139758
  0
LWPOLYLINE
  5
247
100
AcDbEntity
  8
ASSI
100
AcDbPolyline
 62
7
  6
CONTINUOUS
 90
4
 70
0
 10
-28.1621433309
 20
16.2087902931
 10
-28.1717133056
 20
16.200928767
 10
-28.259579223
 20
16.1161326937
 10
-28.3415921891
 20
16.0236139758
  0
LWPOLYLINE
  5
248
100
AcDbEntity
  8
SMUSSO
100
AcDbPolyline
 62
7
  6
CONTINUOUS
 90
16
 70
0
 10
-28.4240480943
 20
16.0907453193
 10
-28.3715919268
 20
16.1196058617
 10
-28.2632639747
 20
16.1707685434
 10
-28.150372583
 20
16.2132161394
 10
-28.0331735315
 20
16.2468524032
 10
-27.911932359
 20
16.2716010727
 10
-27.7869236892
 20
16.2874060452
 10
-27.6584307135
 20
16.2942314732
 10
-27.5267446238
 20
16.2920618609
 10
-27.3921637678
 20
16.2809021118
 10
-27.2549929885
 20
16.2607774923
 10
-27.1155430549
 20
16.2317335839
 10
-26.97412988
 20
16.1938361745
 10
-26.8310738134
 20
16.1471711057
 10
-26.6866989417
 20
16.0918440866
 10
-26.5413323193
 20
16.0279804415
  0
LWPOLYLINE
  5
249
100
AcDbEntity
  8
ASSI
100
AcDbPolyline
 62
7
  6
CONTINUOUS
 90
16
 70
0
 10
-28.4240480943
 20
16.0907453193
 10
-28.3715919268
 20
16.1196058617
 10
-28.2632639747
 20
16.1707685434
 10
-28.150372583
 20
16.2132161394
 10
-28.0331735315
 20
16.2468524032
 10
-27.911932359
 20
16.2716010727
 10
-27.7869236892
 20
16.2874060452
 10
-27.6584307135
 20
16.2942314732
 10
-27.5267446238
 20
16.2920618609
 10
-27.3921637678
 20
16.2809021118
 10
-27.2549929885
 20
16.2607774923
 10
-27.1155430549
 20
16.2317335839
 10
-26.97412988
 20
16.1938361745
 10
-26.8310738134
 20
16.1471711057
 10
-26.6866989417
 20
16.0918440866
 10
-26.5413323193
 20
16.0279804415
  0
LINE
  5
24A
100
AcDbEntity
  8
ASSI
100
AcDbLine
 62
7
  6
CONTINUOUS
 10
47.2030024326
 20
-66.2328519066
 11
48.21253915
 21
-66.8442264913
  0
LWPOLYLINE
  5
24B
100
AcDbEntity
  8
SMUSSO
100
AcDbPolyline
 62
7
  6
CONTINUOUS
 90
70
 70
0
 10
-23.1730284995
 20
10.139326418
 10
-23.1766429824
 20
9.9605718483
 10
-23.1872895704
 20
9.7869914448
 10
-23.2049682636
 20
9.6185852075
 10
-23.2297446523
 20
9.4550255325
 10
-23.2615531462
 20
9.2966400237
 10
-23.3001969741
 20
9.1444114926
 10
-23.3457187115
 20
8.9983783504
 10
-23.3980757829
 20
8.8585021858
 10
-23.4569436906
 20
8.7256505763
 10
-23.5223629619
 20
8.5998672858
 10
-23.5942930695
 20
8.4811085504
 10
-23.6722879329
 20
8.3701106557
 10
-23.7563850848
 20
8.2669220316
 10
-23.8465469926
 20
8.1714942482
 10
-23.9422149782
 20
8.0844183024
 10
-24.0434231465
 20
8.0057460141
 10
-24.1501373927
 20
7.9354255632
 10
-24.2616967237
 20
7.8738924872
 10
-24.3781313041
 20
7.8212012527
 10
-24.4994109693
 20
7.777297393
 10
-24.6247842327
 20
7.7424530454
 10
-24.7542765756
 20
7.7167244754
 10
-24.8878625168
 20
7.7000554174
 10
-25.0247141259
 20
7.6925492114
 10
-25.164851637
 20
7.6942627789
 10
-25.3082548161
 20
7.7051391984
 10
-25.4540350302
 20
7.7251110454
 10
-25.6022070108
 20
7.7542347865
 10
-25.7527560264
 20
7.7924539551
 10
-25.904749249
 20
7.8395317264
 10
-26.0581956618
 20
7.8955231036
 10
-26.2130862816
 20
7.9603730835
 10
-26.3684613318
 20
8.0336798324
 10
-26.5243238422
 20
8.1154958763
 10
-26.6806707829
 20
8.2057686892
 10
-26.8365332875
 20
8.3039388588
 10
-26.991908324
 20
8.4100554106
 10
-27.1467989243
 20
8.5240693192
 10
-27.3002453172
 20
8.6452740959
 10
-27.4522385217
 20
8.7737143718
 10
-27.6027875189
 20
8.9093455159
 10
-27.7509594797
 20
9.0513271466
 10
-27.8967396754
 20
9.1996987231
 10
-28.0401428349
 20
9.3544207862
 10
-28.1802803158
 20
9.5145345773
 10
-28.3171318808
 20
9.6800736497
 10
-28.4507177672
 20
9.8510044502
 10
-28.5802100448
 20
10.0262675595
 10
-28.7055832255
 20
10.2058898059
 10
-28.8268627975
 20
10.3898443612
 10
-28.9432972944
 20
10.5769913215
 10
-29.0548565575
 20
10.7673503242
 10
-29.1615707454
 20
10.9609017319
 10
-29.2627788682
 20
11.1564467287
 10
-29.3584468313
 20
11.3539977772
 10
-29.4486087292
 20
11.5535424148
 10
-29.5327058553
 20
11.7538444369
 10
-29.6107006677
 20
11.9549089238
 10
-29.6826307082
 20
12.1567307953
 10
-29.7480498957
 20
12.3580586056
 10
-29.8069176961
 20
12.5588893067
 10
-29.8592746435
 20
12.7592259467
 10
-29.9047962586
 20
12.9578262242
 10
-29.9434399644
 20
13.1546793612
 10
-29.9752483378
 20
13.3497961358
 10
-30.0000246306
 20
13.541966581
 10
-30.01770326
 20
13.7307873744
 10
-30.0283498088
 20
13.9166618386
 10
-30.031964277
 20
14.0995899733
  0
LWPOLYLINE
  5
24C
100
AcDbEntity
  8
ASSI
100
AcDbPolyline
 62
7
  6
CONTINUOUS
 90
70
 70
0
 10
-23.1730284995
 20
10.139326418
 10
-23.1766429824
 20
9.9605718483
 10
-23.1872895704
 20
9.7869914448
 10
-23.2049682636
 20
9.6185852075
 10
-23.2297446523
 20
9.4550255325
 10
-23.2615531462
 20
9.2966400237
 10
-23.3001969741
 20
9.1444114926
 10
-23.3457187115
 20
8.9983783504
 10
-23.3980757829
 20
8.8585021858
 10
-23.4569436906
 20
8.7256505763
 10
-23.5223629619
 20
8.5998672858
 10
-23.5942930695
 20
8.4811085504
 10
-23.6722879329
 20
8.3701106557
 10
-23.7563850848
 20
8.2669220316
 10
-23.8465469926
 20
8.1714942482
 10
-23.9422149782
 20
8.0844183024
 10
-24.0434231465
 20
8.0057460141
 10
-24.1501373927
 20
7.9354255632
 10
-24.2616967237
 20
7.8738924872
 10
-24.3781313041
 20
7.8212012527
 10
-24.4994109693
 20
7.777297393
 10
-24.6247842327
 20
7.7424530454
 10
-24.7542765756
 20
7.7167244754
 10
-24.8878625168
 20
7.7000554174
 10
-25.0247141259
 20
7.6925492114
 10
-25.164851637
 20
7.6942627789
 10
-25.3082548161
 20
7.7051391984
 10
-25.4540350302
 20
7.7251110454
 10
-25.6022070108
 20
7.7542347865
 10
-25.7527560264
 20
7.7924539551
 10
-25.904749249
 20
7.8395317264
 10
-26.0581956618
 20
7.8955231036
 10
-26.2130862816
 20
7.9603730835
 10
-26.3684613318
 20
8.0336798324
 10
-26.5243238422
 20
8.1154958763
 10
-26.6806707829
 20
8.2057686892
 10
-26.8365332875
 20
8.3039388588
 10
-26.991908324
 20
8.4100554106
 10
-27.1467989243
 20
8.5240693192
 10
-27.3002453172
 20
8.6452740959
 10
-27.4522385217
 20
8.7737143718
 10
-27.6027875189
 20
8.9093455159
 10
-27.7509594797
 20
9.0513271466
 10
-27.8967396754
 20
9.1996987231
 10
-28.0401428349
 20
9.3544207862
 10
-28.1802803158
 20
9.5145345773
 10
-28.3171318808
 20
9.6800736497
 10
-28.4507177672
 20
9.8510044502
 10
-28.5802100448
 20
10.0262675595
 10
-28.7055832255
 20
10.2058898059
 10
-28.8268627975
 20
10.3898443612
 10
-28.9432972944
 20
10.5769913215
 10
-29.0548565575
 20
10.7673503242
 10
-29.1615707454
 20
10.9609017319
 10
-29.2627788682
 20
11.1564467287
 10
-29.3584468313
 20
11.3539977772
 10
-29.4486087292
 20
11.5535424148
 10
-29.5327058553
 20
11.7538444369
 10
-29.6107006677
 20
11.9549089238
 10
-29.6826307082
 20
12.1567307953
 10
-29.7480498957
 20
12.3580586056
 10
-29.8069176961
 20
12.5588893067
 10
-29.8592746435
 20
12.7592259467
 10
-29.9047962586
 20
12.9578262242
 10
-29.9434399644
 20
13.1546793612
 10
-29.9752483378
 20
13.3497961358
 10
-30.0000246306
 20
13.541966581
 10
-30.01770326
 20
13.7307873744
 10
-30.0283498088
 20
13.9166618386
 10
-30.031964277
 20
14.0995899733
  0
LINE
  5
24D
100
AcDbEntity
  8
SMUSSO
100
AcDbLine
 62
7
  6
CONTINUOUS
 10
-23.1783487554
 20
10.3520353192
 11
-23.1869545494
 21
10.2180596776
  0
LINE
  5
24E
100
AcDbEntity
  8
ASSI
100
AcDbLine
 62
7
  6
CONTINUOUS
 10
-23.1783487554
 20
10.3520353192
 11
-23.1869545494
 21
10.2180596776
  0
LWPOLYLINE
  5
24F
100
AcDbEntity
  8
SMUSSO
100
AcDbPolyline
 62
7
  6
CONTINUOUS
 90
16
 70
0
 10
-23.1869545494
 20
10.2180596776
 10
-23.2043329594
 20
10.0602553686
 10
-23.2286081417
 20
9.9075754162
 10
-23.2597253538
 20
9.7603662282
 10
-23.2976141108
 20
9.618962399
 10
-23.3421886935
 20
9.4836844474
 10
-23.3933482841
 20
9.3548388577
 10
-23.4509768358
 20
9.2327182015
 10
-23.5149437955
 20
9.1175992412
 10
-23.585104333
 20
9.0097427192
 10
-23.6612993362
 20
8.9093932731
 10
-23.7433560766
 20
8.8167783306
 10
-23.8310887531
 20
8.7321075459
 10
-23.9242987286
 20
8.6555726243
 10
-24.0227748561
 20
8.5873469614
 10
-24.073837901
 20
8.5564456654
  0
LWPOLYLINE
  5
250
100
AcDbEntity
  8
ASSI
100
AcDbPolyline
 62
7
  6
CONTINUOUS
 90
16
 70
0
 10
-23.1869545494
 20
10.2180596776
 10
-23.2043329594
 20
10.0602553686
 10
-23.2286081417
 20
9.9075754162
 10
-23.2597253538
 20
9.7603662282
 10
-23.2976141108
 20
9.618962399
 10
-23.3421886935
 20
9.4836844474
 10
-23.3933482841
 20
9.3548388577
 10
-23.4509768358
 20
9.2327182015
 10
-23.5149437955
 20
9.1175992412
 10
-23.585104333
 20
9.0097427192
 10
-23.6612993362
 20
8.9093932731
 10
-23.7433560766
 20
8.8167783306
 10
-23.8310887531
 20
8.7321075459
 10
-23.9242987286
 20
8.6555726243
 10
-24.0227748561
 20
8.5873469614
 10
-24.073837901
 20
8.5564456654
  0
LWPOLYLINE
  5
251
100
AcDbEntity
  8
SMUSSO
100
AcDbPolyline
 62
7
  6
CONTINUOUS
 90
51
 70
0
 10
-24.073837901
 20
8.5564456654
 10
-24.1262940685
 20
8.5275851229
 10
-24.2346220206
 20
8.4764224412
 10
-24.3475134123
 20
8.4339748452
 10
-24.4647124638
 20
8.4003385815
 10
-24.5859536363
 20
8.3755899119
 10
-24.7109623061
 20
8.3597849395
 10
-24.8394552818
 20
8.3529595115
 10
-24.9711413715
 20
8.3551291238
 10
-25.1057222275
 20
8.3662888729
 10
-25.2428930068
 20
8.3864134924
 10
-25.3823429405
 20
8.4154574007
 10
-25.5237561153
 20
8.4533548102
 10
-25.6668121819
 20
8.500019879
 10
-25.8111870536
 20
8.5553468981
 10
-25.9565536761
 20
8.6192105431
 10
-26.1025827242
 20
8.6914661409
 10
-26.2489433384
 20
8.771949985
 10
-26.3953039523
 20
8.8604797468
 10
-26.5413329999
 20
8.9568548707
 10
-26.6866996217
 20
9.060856995
 10
-26.8310744924
 20
9.1722504965
 10
-26.9741305578
 20
9.2907830257
 10
-27.115543732
 20
9.4161860453
 10
-27.2549936669
 20
9.5481754671
 10
-27.3921644475
 20
9.6864522691
 10
-27.5267453017
 20
9.8307031613
 10
-27.6584313854
 20
9.9806013836
 10
-27.7869243521
 20
10.1358073158
 10
-27.9119330093
 20
10.2959692002
 10
-28.0331741636
 20
10.4607241633
 10
-28.1503731937
 20
10.6296989766
 10
-28.2632645674
 20
10.8025107499
 10
-28.371592504
 20
10.978767869
 10
-28.4751117031
 20
11.1580711388
 10
-28.5735878235
 20
11.3400146203
 10
-28.6667978013
 20
11.5241861656
 10
-28.7545304826
 20
11.7101685423
 10
-28.8365872202
 20
11.8975406438
 10
-28.9127822145
 20
12.0858782607
 10
-28.9829427353
 20
12.2747544982
 10
-29.0469096606
 20
12.463740948
 10
-29.104538162
 20
12.6524096154
 10
-29.155697692
 20
12.8403329846
 10
-29.2002722042
 20
13.0270844619
 10
-29.2381608852
 20
13.2122411361
 10
-29.2692780227
 20
13.3953835112
 10
-29.2935531384
 20
13.5760956068
 10
-29.3109314947
 20
13.7539678049
 10
-29.3213740704
 20
13.9285977277
 10
-29.3248574958
 20
14.0995899733
  0
LWPOLYLINE
  5
252
100
AcDbEntity
  8
ASSI
100
AcDbPolyline
 62
7
  6
CONTINUOUS
 90
51
 70
0
 10
-24.073837901
 20
8.5564456654
 10
-24.1262940685
 20
8.5275851229
 10
-24.2346220206
 20
8.4764224412
 10
-24.3475134123
 20
8.4339748452
 10
-24.4647124638
 20
8.4003385815
 10
-24.5859536363
 20
8.3755899119
 10
-24.7109623061
 20
8.3597849395
 10
-24.8394552818
 20
8.3529595115
 10
-24.9711413715
 20
8.3551291238
 10
-25.1057222275
 20
8.3662888729
 10
-25.2428930068
 20
8.3864134924
 10
-25.3823429405
 20
8.4154574007
 10
-25.5237561153
 20
8.4533548102
 10
-25.6668121819
 20
8.500019879
 10
-25.8111870536
 20
8.5553468981
 10
-25.9565536761
 20
8.6192105431
 10
-26.1025827242
 20
8.6914661409
 10
-26.2489433384
 20
8.771949985
 10
-26.3953039523
 20
8.8604797468
 10
-26.5413329999
 20
8.9568548707
 10
-26.6866996217
 20
9.060856995
 10
-26.8310744924
 20
9.1722504965
 10
-26.9741305578
 20
9.2907830257
 10
-27.115543732
 20
9.4161860453
 10
-27.2549936669
 20
9.5481754671
 10
-27.3921644475
 20
9.6864522691
 10
-27.5267453017
 20
9.8307031613
 10
-27.6584313854
 20
9.9806013836
 10
-27.7869243521
 20
10.1358073158
 10
-27.9119330093
 20
10.2959692002
 10
-28.0331741636
 20
10.4607241633
 10
-28.1503731937
 20
10.6296989766
 10
-28.2632645674
 20
10.8025107499
 10
-28.371592504
 20
10.978767869
 10
-28.4751117031
 20
11.1580711388
 10
-28.5735878235
 20
11.3400146203
 10
-28.6667978013
 20
11.5241861656
 10
-28.7545304826
 20
11.7101685423
 10
-28.8365872202
 20
11.8975406438
 10
-28.9127822145
 20
12.0858782607
 10
-28.9829427353
 20
12.2747544982
 10
-29.0469096606
 20
12.463740948
 10
-29.104538162
 20
12.6524096154
 10
-29.155697692
 20
12.8403329846
 10
-29.2002722042
 20
13.0270844619
 10
-29.2381608852
 20
13.2122411361
 10
-29.2692780227
 20
13.3953835112
 10
-29.2935531384
 20
13.5760956068
 10
-29.3109314947
 20
13.7539678049
 10
-29.3213740704
 20
13.9285977277
 10
-29.3248574958
 20
14.0995899733
  0
LWPOLYLINE
  5
253
100
AcDbEntity
  8
0
100
AcDbPolyline
 62
7
  6
CONTINUOUS
 90
49
 70
0
 10
-12.9199801723
 20
5.1992038388
 10
-12.9164306475
 20
5.0275271438
 10
-12.9059945227
 20
4.8530174948
 10
-12.8886717978
 20
4.6756748917
 10
-12.8643921369
 20
4.4950853873
 10
-12.8332258759
 20
4.3116629289
 10
-12.7953840226
 20
4.1266493583
 10
-12.7508212783
 20
3.9400338786
 10
-12.6995829418
 20
3.7518272867
 10
-12.6420159166
 20
3.5633038149
 10
-12.5780772581
 20
3.374461313
 10
-12.5078099109
 20
3.1853019311
 10
-12.4316896124
 20
2.9971063524
 10
-12.3496766463
 20
2.809881117
 10
-12.2618107289
 20
2.6236196847
 10
-12.1686867469
 20
2.4395831184
 10
-12.0702690206
 20
2.2577865153
 10
-11.9665932297
 20
2.0782147782
 10
-11.8583612999
 20
1.902083678
 10
-11.7455423146
 20
1.7294165619
 10
-11.6281671904
 20
1.5601900827
 10
-11.5070306028
 20
1.3955499699
 10
-11.3821070277
 20
1.2355273453
 10
-11.2534219892
 20
1.0800910871
 10
-11.1218467354
 20
0.9302935596
 10
-10.9873616541
 20
0.7861730257
 10
-10.8499863576
 20
0.6476912225
 10
-10.7106509303
 20
0.515785726
 10
-10.5693420714
 20
0.3905011612
 10
-10.4260730818
 20
0.2717929032
 10
-10.2818139485
 20
0.1604646533
 10
-10.1365579528
 20
0.0565664901
 10
-9.9903118134
 20
-0.039951665
 10
-9.8440656741
 20
-0.1284363463
 10
-9.6978195348
 20
-0.2088330409
 10
-9.5515733955
 20
-0.2811962617
 10
-9.4063173998
 20
-0.3450360814
 10
-9.2620582665
 20
-0.4002946626
 10
-9.1187892768
 20
-0.4470298427
 10
-8.9774804179
 20
-0.4849252061
 10
-8.8381449907
 20
-0.5139207685
 10
-8.7007696941
 20
-0.5340765143
 10
-8.5662846129
 20
-0.5452559812
 10
-8.4347093591
 20
-0.5473982588
 10
-8.3060243206
 20
-0.5405642575
 10
-8.1811007454
 20
-0.5248002461
 10
-8.0599641578
 20
-0.5000456283
 10
-7.9425890336
 20
-0.4663610004
 10
-7.9307260735
 20
-0.4619040351
  0
LWPOLYLINE
  5
254
100
AcDbEntity
  8
ASSI
100
AcDbPolyline
 62
7
  6
CONTINUOUS
 90
49
 70
0
 10
-12.9199801723
 20
5.1992038388
 10
-12.9164306475
 20
5.0275271438
 10
-12.9059945227
 20
4.8530174948
 10
-12.8886717978
 20
4.6756748917
 10
-12.8643921369
 20
4.4950853873
 10
-12.8332258759
 20
4.3116629289
 10
-12.7953840226
 20
4.1266493583
 10
-12.7508212783
 20
3.9400338786
 10
-12.6995829418
 20
3.7518272867
 10
-12.6420159166
 20
3.5633038149
 10
-12.5780772581
 20
3.374461313
 10
-12.5078099109
 20
3.1853019311
 10
-12.4316896124
 20
2.9971063524
 10
-12.3496766463
 20
2.809881117
 10
-12.2618107289
 20
2.6236196847
 10
-12.1686867469
 20
2.4395831184
 10
-12.0702690206
 20
2.2577865153
 10
-11.9665932297
 20
2.0782147782
 10
-11.8583612999
 20
1.902083678
 10
-11.7455423146
 20
1.7294165619
 10
-11.6281671904
 20
1.5601900827
 10
-11.5070306028
 20
1.3955499699
 10
-11.3821070277
 20
1.2355273453
 10
-11.2534219892
 20
1.0800910871
 10
-11.1218467354
 20
0.9302935596
 10
-10.9873616541
 20
0.7861730257
 10
-10.8499863576
 20
0.6476912225
 10
-10.7106509303
 20
0.515785726
 10
-10.5693420714
 20
0.3905011612
 10
-10.4260730818
 20
0.2717929032
 10
-10.2818139485
 20
0.1604646533
 10
-10.1365579528
 20
0.0565664901
 10
-9.9903118134
 20
-0.039951665
 10
-9.8440656741
 20
-0.1284363463
 10
-9.6978195348
 20
-0.2088330409
 10
-9.5515733955
 20
-0.2811962617
 10
-9.4063173998
 20
-0.3450360814
 10
-9.2620582665
 20
-0.4002946626
 10
-9.1187892768
 20
-0.4470298427
 10
-8.9774804179
 20
-0.4849252061
 10
-8.8381449907
 20
-0.5139207685
 10
-8.7007696941
 20
-0.5340765143
 10
-8.5662846129
 20
-0.5452559812
 10
-8.4347093591
 20
-0.5473982588
 10
-8.3060243206
 20
-0.5405642575
 10
-8.1811007454
 20
-0.5248002461
 10
-8.0599641578
 20
-0.5000456283
 10
-7.9425890336
 20
-0.4663610004
 10
-7.9307260735
 20
-0.4619040351
  0
LWPOLYLINE
  5
255
100
AcDbEntity
  8
SMUSSO
100
AcDbPolyline
 62
7
  6
CONTINUOUS
 90
36
 70
0
 10
-14.1220617003
 20
4.9134116234
 10
-14.1184472174
 20
5.0921661931
 10
-14.1078006294
 20
5.2657465966
 10
-14.0901219362
 20
5.4341528339
 10
-14.0653455475
 20
5.5977125089
 10
-14.0335370536
 20
5.7560980177
 10
-13.9948932257
 20
5.9083265489
 10
-13.9493714883
 20
6.0543596911
 10
-13.8970144169
 20
6.1942358557
 10
-13.8381465092
 20
6.3270874652
 10
-13.7727272379
 20
6.4528707557
 10
-13.7007971303
 20
6.5716294911
 10
-13.6228022669
 20
6.6826273857
 10
-13.538705115
 20
6.7858160099
 10
-13.4485432072
 20
6.8812437932
 10
-13.3528752216
 20
6.968319739
 10
-13.2516670533
 20
7.0469920274
 10
-13.1449528071
 20
7.1173124782
 10
-13.0333934761
 20
7.1788455542
 10
-12.9169588957
 20
7.2315367887
 10
-12.7956792305
 20
7.2754406484
 10
-12.6703059671
 20
7.3102849961
 10
-12.5408136242
 20
7.3360135661
 10
-12.407227683
 20
7.352682624
 10
-12.2703760739
 20
7.36018883
 10
-12.1302385628
 20
7.3584752625
 10
-11.9868353837
 20
7.347598843
 10
-11.8410551696
 20
7.3276269961
 10
-11.692883189
 20
7.298503255
 10
-11.5423341734
 20
7.2602840864
 10
-11.3903409508
 20
7.213206315
 10
-11.236894538
 20
7.1572149379
 10
-11.0820039182
 20
7.0923649579
 10
-10.926628868
 20
7.0190582091
 10
-10.7707663576
 20
6.9372421651
 10
-10.6929252426
 20
6.8933197712
  0
LWPOLYLINE
  5
256
100
AcDbEntity
  8
ASSI
100
AcDbPolyline
 62
7
  6
CONTINUOUS
 90
36
 70
0
 10
-14.1220617003
 20
4.9134116234
 10
-14.1184472174
 20
5.0921661931
 10
-14.1078006294
 20
5.2657465966
 10
-14.0901219362
 20
5.4341528339
 10
-14.0653455475
 20
5.5977125089
 10
-14.0335370536
 20
5.7560980177
 10
-13.9948932257
 20
5.9083265489
 10
-13.9493714883
 20
6.0543596911
 10
-13.8970144169
 20
6.1942358557
 10
-13.8381465092
 20
6.3270874652
 10
-13.7727272379
 20
6.4528707557
 10
-13.7007971303
 20
6.5716294911
 10
-13.6228022669
 20
6.6826273857
 10
-13.538705115
 20
6.7858160099
 10
-13.4485432072
 20
6.8812437932
 10
-13.3528752216
 20
6.968319739
 10
-13.2516670533
 20
7.0469920274
 10
-13.1449528071
 20
7.1173124782
 10
-13.0333934761
 20
7.1788455542
 10
-12.9169588957
 20
7.2315367887
 10
-12.7956792305
 20
7.2754406484
 10
-12.6703059671
 20
7.3102849961
 10
-12.5408136242
 20
7.3360135661
 10
-12.407227683
 20
7.352682624
 10
-12.2703760739
 20
7.36018883
 10
-12.1302385628
 20
7.3584752625
 10
-11.9868353837
 20
7.347598843
 10
-11.8410551696
 20
7.3276269961
 10
-11.692883189
 20
7.298503255
 10
-11.5423341734
 20
7.2602840864
 10
-11.3903409508
 20
7.213206315
 10
-11.236894538
 20
7.1572149379
 10
-11.0820039182
 20
7.0923649579
 10
-10.926628868
 20
7.0190582091
 10
-10.7707663576
 20
6.9372421651
 10
-10.6929252426
 20
6.8933197712
  0
LWPOLYLINE
  5
257
100
AcDbEntity
  8
SMUSSO
100
AcDbPolyline
 62
7
  6
CONTINUOUS
 90
18
 70
0
 10
-13.4149549191
 20
4.9134116234
 10
-13.4114714806
 20
5.0803816049
 10
-13.4010288692
 20
5.2429529571
 10
-13.3836504592
 20
5.4007572661
 10
-13.3593752769
 20
5.5534372186
 10
-13.3282580648
 20
5.7006464066
 10
-13.2903693078
 20
5.8420502357
 10
-13.2457947251
 20
5.9773281874
 10
-13.1946351345
 20
6.1061737771
 10
-13.1370065829
 20
6.2282944333
 10
-13.0730396231
 20
6.3434133936
 10
-13.0028790856
 20
6.4512699156
 10
-12.9266840824
 20
6.5516193616
 10
-12.844627342
 20
6.6442343042
 10
-12.7568946656
 20
6.7289050889
 10
-12.6636846901
 20
6.8054400105
 10
-12.5652085625
 20
6.8736656733
 10
-12.5141455176
 20
6.9045669694
  0
LWPOLYLINE
  5
258
100
AcDbEntity
  8
ASSI
100
AcDbPolyline
 62
7
  6
CONTINUOUS
 90
18
 70
0
 10
-13.4149549191
 20
4.9134116234
 10
-13.4114714806
 20
5.0803816049
 10
-13.4010288692
 20
5.2429529571
 10
-13.3836504592
 20
5.4007572661
 10
-13.3593752769
 20
5.5534372186
 10
-13.3282580648
 20
5.7006464066
 10
-13.2903693078
 20
5.8420502357
 10
-13.2457947251
 20
5.9773281874
 10
-13.1946351345
 20
6.1061737771
 10
-13.1370065829
 20
6.2282944333
 10
-13.0730396231
 20
6.3434133936
 10
-13.0028790856
 20
6.4512699156
 10
-12.9266840824
 20
6.5516193616
 10
-12.844627342
 20
6.6442343042
 10
-12.7568946656
 20
6.7289050889
 10
-12.6636846901
 20
6.8054400105
 10
-12.5652085625
 20
6.8736656733
 10
-12.5141455176
 20
6.9045669694
  0
LWPOLYLINE
  5
259
100
AcDbEntity
  8
0
100
AcDbPolyline
 62
7
  6
CONTINUOUS
 90
13
 70
0
 10
-12.4316896124
 20
6.8374356259
 10
-12.5078099109
 20
6.7371418599
 10
-12.5780772581
 20
6.6291254493
 10
-12.6420159166
 20
6.5141177076
 10
-12.6995829418
 20
6.3920711935
 10
-12.7508212783
 20
6.2630333483
 10
-12.7953840226
 20
6.1278778086
 10
-12.8332258759
 20
5.9865630617
 10
-12.8643921369
 20
5.8391306202
 10
-12.8886717978
 20
5.6865786597
 10
-12.9059945227
 20
5.5292399051
 10
-12.9164306475
 20
5.3667816315
 10
-12.9199801723
 20
5.1992038388
  0
LWPOLYLINE
  5
25A
100
AcDbEntity
  8
ASSI
100
AcDbPolyline
 62
7
  6
CONTINUOUS
 90
13
 70
0
 10
-12.4316896124
 20
6.8374356259
 10
-12.5078099109
 20
6.7371418599
 10
-12.5780772581
 20
6.6291254493
 10
-12.6420159166
 20
6.5141177076
 10
-12.6995829418
 20
6.3920711935
 10
-12.7508212783
 20
6.2630333483
 10
-12.7953840226
 20
6.1278778086
 10
-12.8332258759
 20
5.9865630617
 10
-12.8643921369
 20
5.8391306202
 10
-12.8886717978
 20
5.6865786597
 10
-12.9059945227
 20
5.5292399051
 10
-12.9164306475
 20
5.3667816315
 10
-12.9199801723
 20
5.1992038388
  0
LWPOLYLINE
  5
25B
100
AcDbEntity
  8
0
100
AcDbPolyline
 62
7
  6
CONTINUOUS
 90
4
 70
0
 10
-12.2522407542
 20
7.0226119432
 10
-12.2618107289
 20
7.0147504171
 10
-12.3496766463
 20
6.9299543438
 10
-12.4316896124
 20
6.8374356259
  0
LWPOLYLINE
  5
25C
100
AcDbEntity
  8
ASSI
100
AcDbPolyline
 62
7
  6
CONTINUOUS
 90
4
 70
0
 10
-12.2522407542
 20
7.0226119432
 10
-12.2618107289
 20
7.0147504171
 10
-12.3496766463
 20
6.9299543438
 10
-12.4316896124
 20
6.8374356259
  0
LWPOLYLINE
  5
25D
100
AcDbEntity
  8
SMUSSO
100
AcDbPolyline
 62
7
  6
CONTINUOUS
 90
16
 70
0
 10
-12.5141455176
 20
6.9045669694
 10
-12.4616893501
 20
6.9334275119
 10
-12.3533613981
 20
6.9845901936
 10
-12.2404700063
 20
7.0270377895
 10
-12.1232709548
 20
7.0606740533
 10
-12.0020297823
 20
7.0854227228
 10
-11.8770211125
 20
7.1012276953
 10
-11.7485281368
 20
7.1080531233
 10
-11.6168420471
 20
7.105883511
 10
-11.4822611911
 20
7.0947237619
 10
-11.3450904118
 20
7.0745991424
 10
-11.2056404782
 20
7.0455552341
 10
-11.0642273033
 20
7.0076578246
 10
-10.9211712367
 20
6.9609927558
 10
-10.776796365
 20
6.9056657367
 10
-10.6314297426
 20
6.8418020917
  0
LWPOLYLINE
  5
25E
100
AcDbEntity
  8
ASSI
100
AcDbPolyline
 62
7
  6
CONTINUOUS
 90
16
 70
0
 10
-12.5141455176
 20
6.9045669694
 10
-12.4616893501
 20
6.9334275119
 10
-12.3533613981
 20
6.9845901936
 10
-12.2404700063
 20
7.0270377895
 10
-12.1232709548
 20
7.0606740533
 10
-12.0020297823
 20
7.0854227228
 10
-11.8770211125
 20
7.1012276953
 10
-11.7485281368
 20
7.1080531233
 10
-11.6168420471
 20
7.105883511
 10
-11.4822611911
 20
7.0947237619
 10
-11.3450904118
 20
7.0745991424
 10
-11.2056404782
 20
7.0455552341
 10
-11.0642273033
 20
7.0076578246
 10
-10.9211712367
 20
6.9609927558
 10
-10.776796365
 20
6.9056657367
 10
-10.6314297426
 20
6.8418020917
  0
LINE
  5
25F
100
AcDbEntity
  8
ASSI
100
AcDbLine
 62
7
  6
CONTINUOUS
 10
-52.9823718343
 20
63.9328568438
 11
-52.9819965268
 21
63.9322204822
  0
LWPOLYLINE
  5
260
100
AcDbEntity
  8
SMUSSO
100
AcDbPolyline
 62
7
  6
CONTINUOUS
 90
70
 70
0
 10
-7.2631259228
 20
0.9531480681
 10
-7.2667404057
 20
0.7743934985
 10
-7.2773869937
 20
0.600813095
 10
-7.2950656869
 20
0.4324068576
 10
-7.3198420756
 20
0.2688471827
 10
-7.3516505695
 20
0.1104616739
 10
-7.3902943974
 20
-0.0417668573
 10
-7.4358161348
 20
-0.1877999995
 10
-7.4881732062
 20
-0.3276761641
 10
-7.5470411139
 20
-0.4605277736
 10
-7.6124603852
 20
-0.5863110641
 10
-7.6843904928
 20
-0.7050697995
 10
-7.7623853562
 20
-0.8160676941
 10
-7.8464825081
 20
-0.9192563183
 10
-7.9366444159
 20
-1.0146841016
 10
-8.0323124015
 20
-1.1017600474
 10
-8.1335205699
 20
-1.1804323358
 10
-8.240234816
 20
-1.2507527866
 10
-8.351794147
 20
-1.3122858626
 10
-8.4682287274
 20
-1.3649770971
 10
-8.5895083926
 20
-1.4088809568
 10
-8.714881656
 20
-1.4437253045
 10
-8.8443739989
 20
-1.4694538745
 10
-8.9779599401
 20
-1.4861229325
 10
-9.1148115492
 20
-1.4936291384
 10
-9.2549490603
 20
-1.4919155709
 10
-9.3983522394
 20
-1.4810391515
 10
-9.5441324535
 20
-1.4610673045
 10
-9.6923044341
 20
-1.4319435634
 10
-9.8428534497
 20
-1.3937243948
 10
-9.9948466723
 20
-1.3466466234
 10
-10.1482930851
 20
-1.2906552463
 10
-10.3031837049
 20
-1.2258052664
 10
-10.4585587551
 20
-1.1524985175
 10
-10.6144212655
 20
-1.0706824736
 10
-10.7707682062
 20
-0.9804096607
 10
-10.9266307108
 20
-0.8822394911
 10
-11.0820057473
 20
-0.7761229392
 10
-11.2368963476
 20
-0.6621090307
 10
-11.3903427405
 20
-0.5409042539
 10
-11.5423359451
 20
-0.412463978
 10
-11.6928849422
 20
-0.276832834
 10
-11.841056903
 20
-0.1348512033
 10
-11.9868370987
 20
0.0135203732
 10
-12.1302402582
 20
0.1682424363
 10
-12.2703777391
 20
0.3283562274
 10
-12.4072293041
 20
0.4938952999
 10
-12.5408151905
 20
0.6648261003
 10
-12.6703074681
 20
0.8400892096
 10
-12.7956806488
 20
1.019711456
 10
-12.9169602208
 20
1.2036660113
 10
-13.0333947177
 20
1.3908129716
 10
-13.1449539808
 20
1.5811719743
 10
-13.2516681687
 20
1.7747233821
 10
-13.3528762915
 20
1.9702683788
 10
-13.4485442546
 20
2.1678194274
 10
-13.5387061525
 20
2.3673640649
 10
-13.6228032786
 20
2.567666087
 10
-13.700798091
 20
2.768730574
 10
-13.7727281315
 20
2.9705524454
 10
-13.838147319
 20
3.1718802558
 10
-13.8970151194
 20
3.3727109569
 10
-13.9493720668
 20
3.5730475968
 10
-13.9948936819
 20
3.7716478743
 10
-14.0335373877
 20
3.9685010113
 10
-14.0653457611
 20
4.1636177859
 10
-14.0901220539
 20
4.3557882311
 10
-14.1078006833
 20
4.5446090246
 10
-14.1184472321
 20
4.7304834887
 10
-14.1220617003
 20
4.9134116234
  0
LWPOLYLINE
  5
261
100
AcDbEntity
  8
ASSI
100
AcDbPolyline
 62
7
  6
CONTINUOUS
 90
70
 70
0
 10
-7.2631259228
 20
0.9531480681
 10
-7.2667404057
 20
0.7743934985
 10
-7.2773869937
 20
0.600813095
 10
-7.2950656869
 20
0.4324068576
 10
-7.3198420756
 20
0.2688471827
 10
-7.3516505695
 20
0.1104616739
 10
-7.3902943974
 20
-0.0417668573
 10
-7.4358161348
 20
-0.1877999995
 10
-7.4881732062
 20
-0.3276761641
 10
-7.5470411139
 20
-0.4605277736
 10
-7.6124603852
 20
-0.5863110641
 10
-7.6843904928
 20
-0.7050697995
 10
-7.7623853562
 20
-0.8160676941
 10
-7.8464825081
 20
-0.9192563183
 10
-7.9366444159
 20
-1.0146841016
 10
-8.0323124015
 20
-1.1017600474
 10
-8.1335205699
 20
-1.1804323358
 10
-8.240234816
 20
-1.2507527866
 10
-8.351794147
 20
-1.3122858626
 10
-8.4682287274
 20
-1.3649770971
 10
-8.5895083926
 20
-1.4088809568
 10
-8.714881656
 20
-1.4437253045
 10
-8.8443739989
 20
-1.4694538745
 10
-8.9779599401
 20
-1.4861229325
 10
-9.1148115492
 20
-1.4936291384
 10
-9.2549490603
 20
-1.4919155709
 10
-9.3983522394
 20
-1.4810391515
 10
-9.5441324535
 20
-1.4610673045
 10
-9.6923044341
 20
-1.4319435634
 10
-9.8428534497
 20
-1.3937243948
 10
-9.9948466723
 20
-1.3466466234
 10
-10.1482930851
 20
-1.2906552463
 10
-10.3031837049
 20
-1.2258052664
 10
-10.4585587551
 20
-1.1524985175
 10
-10.6144212655
 20
-1.0706824736
 10
-10.7707682062
 20
-0.9804096607
 10
-10.9266307108
 20
-0.8822394911
 10
-11.0820057473
 20
-0.7761229392
 10
-11.2368963476
 20
-0.6621090307
 10
-11.3903427405
 20
-0.5409042539
 10
-11.5423359451
 20
-0.412463978
 10
-11.6928849422
 20
-0.276832834
 10
-11.841056903
 20
-0.1348512033
 10
-11.9868370987
 20
0.0135203732
 10
-12.1302402582
 20
0.1682424363
 10
-12.2703777391
 20
0.3283562274
 10
-12.4072293041
 20
0.4938952999
 10
-12.5408151905
 20
0.6648261003
 10
-12.6703074681
 20
0.8400892096
 10
-12.7956806488
 20
1.019711456
 10
-12.9169602208
 20
1.2036660113
 10
-13.0333947177
 20
1.3908129716
 10
-13.1449539808
 20
1.5811719743
 10
-13.2516681687
 20
1.7747233821
 10
-13.3528762915
 20
1.9702683788
 10
-13.4485442546
 20
2.1678194274
 10
-13.5387061525
 20
2.3673640649
 10
-13.6228032786
 20
2.567666087
 10
-13.700798091
 20
2.768730574
 10
-13.7727281315
 20
2.9705524454
 10
-13.838147319
 20
3.1718802558
 10
-13.8970151194
 20
3.3727109569
 10
-13.9493720668
 20
3.5730475968
 10
-13.9948936819
 20
3.7716478743
 10
-14.0335373877
 20
3.9685010113
 10
-14.0653457611
 20
4.1636177859
 10
-14.0901220539
 20
4.3557882311
 10
-14.1078006833
 20
4.5446090246
 10
-14.1184472321
 20
4.7304834887
 10
-14.1220617003
 20
4.9134116234
  0
LINE
  5
262
100
AcDbEntity
  8
SMUSSO
100
AcDbLine
 62
7
  6
CONTINUOUS
 10
-7.2684461787
 20
1.1658569694
 11
-7.2770519727
 21
1.0318813278
  0
LINE
  5
263
100
AcDbEntity
  8
ASSI
100
AcDbLine
 62
7
  6
CONTINUOUS
 10
-7.2684461787
 20
1.1658569694
 11
-7.2770519727
 21
1.0318813278
  0
LWPOLYLINE
  5
264
100
AcDbEntity
  8
SMUSSO
100
AcDbPolyline
 62
7
  6
CONTINUOUS
 90
16
 70
0
 10
-7.2770519727
 20
1.0318813278
 10
-7.2944303827
 20
0.8740770188
 10
-7.318705565
 20
0.7213970663
 10
-7.3498227771
 20
0.5741878783
 10
-7.3877115341
 20
0.4327840492
 10
-7.4322861168
 20
0.2975060975
 10
-7.4834457074
 20
0.1686605078
 10
-7.5410742591
 20
0.0465398516
 10
-7.6050412188
 20
-0.0685791087
 10
-7.6752017563
 20
-0.1764356307
 10
-7.7513967595
 20
-0.2767850767
 10
-7.8334534999
 20
-0.3694000193
 10
-7.9211861764
 20
-0.454070804
 10
-8.0143961519
 20
-0.5306057256
 10
-8.1128722794
 20
-0.5988313884
 10
-8.1639353244
 20
-0.6297326845
  0
LWPOLYLINE
  5
265
100
AcDbEntity
  8
ASSI
100
AcDbPolyline
 62
7
  6
CONTINUOUS
 90
16
 70
0
 10
-7.2770519727
 20
1.0318813278
 10
-7.2944303827
 20
0.8740770188
 10
-7.318705565
 20
0.7213970663
 10
-7.3498227771
 20
0.5741878783
 10
-7.3877115341
 20
0.4327840492
 10
-7.4322861168
 20
0.2975060975
 10
-7.4834457074
 20
0.1686605078
 10
-7.5410742591
 20
0.0465398516
 10
-7.6050412188
 20
-0.0685791087
 10
-7.6752017563
 20
-0.1764356307
 10
-7.7513967595
 20
-0.2767850767
 10
-7.8334534999
 20
-0.3694000193
 10
-7.9211861764
 20
-0.454070804
 10
-8.0143961519
 20
-0.5306057256
 10
-8.1128722794
 20
-0.5988313884
 10
-8.1639353244
 20
-0.6297326845
  0
LINE
  5
266
100
AcDbEntity
  8
ASSI
100
AcDbLine
 62
7
  6
CONTINUOUS
 10
47.4819783668
 20
4.7598277683
 11
48.8989374977
 21
5.1074460445
  0
LWPOLYLINE
  5
267
100
AcDbEntity
  8
SMUSSO
100
AcDbPolyline
 62
7
  6
CONTINUOUS
 90
51
 70
0
 10
-8.1639353244
 20
-0.6297326845
 10
-8.2163914918
 20
-0.658593227
 10
-8.3247194439
 20
-0.7097559087
 10
-8.4376108356
 20
-0.7522035046
 10
-8.5548098871
 20
-0.7858397684
 10
-8.6760510596
 20
-0.8105884379
 10
-8.8010597294
 20
-0.8263934104
 10
-8.9295527051
 20
-0.8332188384
 10
-9.0612387948
 20
-0.8310492261
 10
-9.1958196508
 20
-0.819889477
 10
-9.3329904301
 20
-0.7997648575
 10
-9.4724403638
 20
-0.7707209492
 10
-9.6138535386
 20
-0.7328235397
 10
-9.7569096052
 20
-0.6861584709
 10
-9.9012844769
 20
-0.6308314518
 10
-10.0466510994
 20
-0.5669678068
 10
-10.1926801475
 20
-0.4947122089
 10
-10.3390407617
 20
-0.4142283649
 10
-10.4854013756
 20
-0.325698603
 10
-10.6314304232
 20
-0.2293234791
 10
-10.776797045
 20
-0.1253213548
 10
-10.9211719157
 20
-0.0139278534
 10
-11.0642279811
 20
0.1046046758
 10
-11.2056411553
 20
0.2300076954
 10
-11.3450910902
 20
0.3619971172
 10
-11.4822618708
 20
0.5002739192
 10
-11.616842725
 20
0.6445248115
 10
-11.7485288087
 20
0.7944230338
 10
-11.8770217754
 20
0.949628966
 10
-12.0020304326
 20
1.1097908503
 10
-12.1232715869
 20
1.2745458134
 10
-12.240470617
 20
1.4435206267
 10
-12.3533619907
 20
1.6163324
 10
-12.4616899273
 20
1.7925895191
 10
-12.5652091264
 20
1.971892789
 10
-12.6636852468
 20
2.1538362704
 10
-12.7568952246
 20
2.3380078157
 10
-12.8446279059
 20
2.5239901924
 10
-12.9266846435
 20
2.711362294
 10
-13.0028796378
 20
2.8996999108
 10
-13.0730401586
 20
3.0885761484
 10
-13.1370070839
 20
3.2775625981
 10
-13.1946355853
 20
3.4662312656
 10
-13.2457951153
 20
3.6541546347
 10
-13.2903696275
 20
3.840906112
 10
-13.3282583085
 20
4.0260627862
 10
-13.359375446
 20
4.2092051613
 10
-13.3836505617
 20
4.389917257
 10
-13.401028918
 20
4.5677894551
 10
-13.4114714937
 20
4.7424193779
 10
-13.4149549191
 20
4.9134116234
  0
LWPOLYLINE
  5
268
100
AcDbEntity
  8
ASSI
100
AcDbPolyline
 62
7
  6
CONTINUOUS
 90
51
 70
0
 10
-8.1639353244
 20
-0.6297326845
 10
-8.2163914918
 20
-0.658593227
 10
-8.3247194439
 20
-0.7097559087
 10
-8.4376108356
 20
-0.7522035046
 10
-8.5548098871
 20
-0.7858397684
 10
-8.6760510596
 20
-0.8105884379
 10
-8.8010597294
 20
-0.8263934104
 10
-8.9295527051
 20
-0.8332188384
 10
-9.0612387948
 20
-0.8310492261
 10
-9.1958196508
 20
-0.819889477
 10
-9.3329904301
 20
-0.7997648575
 10
-9.4724403638
 20
-0.7707209492
 10
-9.6138535386
 20
-0.7328235397
 10
-9.7569096052
 20
-0.6861584709
 10
-9.9012844769
 20
-0.6308314518
 10
-10.0466510994
 20
-0.5669678068
 10
-10.1926801475
 20
-0.4947122089
 10
-10.3390407617
 20
-0.4142283649
 10
-10.4854013756
 20
-0.325698603
 10
-10.6314304232
 20
-0.2293234791
 10
-10.776797045
 20
-0.1253213548
 10
-10.9211719157
 20
-0.0139278534
 10
-11.0642279811
 20
0.1046046758
 10
-11.2056411553
 20
0.2300076954
 10
-11.3450910902
 20
0.3619971172
 10
-11.4822618708
 20
0.5002739192
 10
-11.616842725
 20
0.6445248115
 10
-11.7485288087
 20
0.7944230338
 10
-11.8770217754
 20
0.949628966
 10
-12.0020304326
 20
1.1097908503
 10
-12.1232715869
 20
1.2745458134
 10
-12.240470617
 20
1.4435206267
 10
-12.3533619907
 20
1.6163324
 10
-12.4616899273
 20
1.7925895191
 10
-12.5652091264
 20
1.971892789
 10
-12.6636852468
 20
2.1538362704
 10
-12.7568952246
 20
2.3380078157
 10
-12.8446279059
 20
2.5239901924
 10
-12.9266846435
 20
2.711362294
 10
-13.0028796378
 20
2.8996999108
 10
-13.0730401586
 20
3.0885761484
 10
-13.1370070839
 20
3.2775625981
 10
-13.1946355853
 20
3.4662312656
 10
-13.2457951153
 20
3.6541546347
 10
-13.2903696275
 20
3.840906112
 10
-13.3282583085
 20
4.0260627862
 10
-13.359375446
 20
4.2092051613
 10
-13.3836505617
 20
4.389917257
 10
-13.401028918
 20
4.5677894551
 10
-13.4114714937
 20
4.7424193779
 10
-13.4149549191
 20
4.9134116234
  0
LINE
  5
269
100
AcDbEntity
  8
SMUSSO
100
AcDbLine
 62
7
  6
CONTINUOUS
 10
21.1883754108
 20
-11.5305546081
 11
21.3059721961
 21
-11.5887418395
  0
LINE
  5
26A
100
AcDbEntity
  8
ASSI
100
AcDbLine
 62
7
  6
CONTINUOUS
 10
21.1883754108
 20
-11.5305546081
 11
21.3059721961
 21
-11.5887418395
  0
LINE
  5
26B
100
AcDbEntity
  8
SMUSSO
100
AcDbLine
 62
7
  6
CONTINUOUS
 10
5.2784728341
 20
-2.3443762582
 11
5.3960696194
 21
-2.4025634897
  0
LINE
  5
26C
100
AcDbEntity
  8
ASSI
100
AcDbLine
 62
7
  6
CONTINUOUS
 10
5.2784728341
 20
-2.3443762582
 11
5.3960696194
 21
-2.4025634897
  0
LWPOLYLINE
  5
26D
100
AcDbEntity
  8
SMUSSO
100
AcDbPolyline
 62
7
  6
CONTINUOUS
 90
36
 70
0
 10
-26.6028278193
 20
16.0794981211
 10
-26.5243219936
 20
16.0331477021
 10
-26.368459489
 20
15.9349775325
 10
-26.2130844525
 20
15.8288609807
 10
-26.0581938522
 20
15.7148470721
 10
-25.9047474593
 20
15.5936422954
 10
-25.7527542547
 20
15.4652020195
 10
-25.6022052576
 20
15.3295708754
 10
-25.4540332968
 20
15.1875892447
 10
-25.3082531011
 20
15.0392176683
 10
-25.1648499416
 20
14.8844956051
 10
-25.0247124607
 20
14.7243818141
 10
-24.8878608957
 20
14.5588427416
 10
-24.7542750093
 20
14.3879119412
 10
-24.6247827317
 20
14.2126488319
 10
-24.499409551
 20
14.0330265854
 10
-24.378129979
 20
13.8490720301
 10
-24.2616954821
 20
13.6619250698
 10
-24.150136219
 20
13.4715660671
 10
-24.0434220311
 20
13.2780146594
 10
-23.9422139083
 20
13.0824696626
 10
-23.8465459452
 20
12.8849186141
 10
-23.7563840473
 20
12.6853739765
 10
-23.6722869212
 20
12.4850719545
 10
-23.5942921088
 20
12.2840074675
 10
-23.5223620683
 20
12.082185596
 10
-23.4569428808
 20
11.8808577857
 10
-23.3980750804
 20
11.6800270846
 10
-23.345718133
 20
11.4796904446
 10
-23.3001965179
 20
11.2810901671
 10
-23.2615528121
 20
11.0842370301
 10
-23.2297444387
 20
10.8891202556
 10
-23.2049681459
 20
10.6969498104
 10
-23.1872895165
 20
10.5081290169
 10
-23.1766429677
 20
10.3222545528
 10
-23.1730284995
 20
10.139326418
  0
LWPOLYLINE
  5
26E
100
AcDbEntity
  8
ASSI
100
AcDbPolyline
 62
7
  6
CONTINUOUS
 90
36
 70
0
 10
-26.6028278193
 20
16.0794981211
 10
-26.5243219936
 20
16.0331477021
 10
-26.368459489
 20
15.9349775325
 10
-26.2130844525
 20
15.8288609807
 10
-26.0581938522
 20
15.7148470721
 10
-25.9047474593
 20
15.5936422954
 10
-25.7527542547
 20
15.4652020195
 10
-25.6022052576
 20
15.3295708754
 10
-25.4540332968
 20
15.1875892447
 10
-25.3082531011
 20
15.0392176683
 10
-25.1648499416
 20
14.8844956051
 10
-25.0247124607
 20
14.7243818141
 10
-24.8878608957
 20
14.5588427416
 10
-24.7542750093
 20
14.3879119412
 10
-24.6247827317
 20
14.2126488319
 10
-24.499409551
 20
14.0330265854
 10
-24.378129979
 20
13.8490720301
 10
-24.2616954821
 20
13.6619250698
 10
-24.150136219
 20
13.4715660671
 10
-24.0434220311
 20
13.2780146594
 10
-23.9422139083
 20
13.0824696626
 10
-23.8465459452
 20
12.8849186141
 10
-23.7563840473
 20
12.6853739765
 10
-23.6722869212
 20
12.4850719545
 10
-23.5942921088
 20
12.2840074675
 10
-23.5223620683
 20
12.082185596
 10
-23.4569428808
 20
11.8808577857
 10
-23.3980750804
 20
11.6800270846
 10
-23.345718133
 20
11.4796904446
 10
-23.3001965179
 20
11.2810901671
 10
-23.2615528121
 20
11.0842370301
 10
-23.2297444387
 20
10.8891202556
 10
-23.2049681459
 20
10.6969498104
 10
-23.1872895165
 20
10.5081290169
 10
-23.1766429677
 20
10.3222545528
 10
-23.1730284995
 20
10.139326418
  0
LWPOLYLINE
  5
26F
100
AcDbEntity
  8
SMUSSO
100
AcDbPolyline
 62
7
  6
CONTINUOUS
 90
36
 70
0
 10
-10.6929252426
 20
6.8933197712
 10
-10.6144194169
 20
6.8469693523
 10
-10.4585569123
 20
6.7487991826
 10
-10.3031818758
 20
6.6426826308
 10
-10.1482912755
 20
6.5286687222
 10
-9.9948448826
 20
6.4074639455
 10
-9.8428516781
 20
6.2790236696
 10
-9.692302681
 20
6.1433925256
 10
-9.5441307201
 20
6.0014108948
 10
-9.3983505244
 20
5.8530393184
 10
-9.2549473649
 20
5.6983172553
 10
-9.114809884
 20
5.5382034642
 10
-8.977958319
 20
5.3726643917
 10
-8.8443724326
 20
5.2017335913
 10
-8.7148801551
 20
5.026470482
 10
-8.5895069743
 20
4.8468482356
 10
-8.4682274023
 20
4.6628936803
 10
-8.3517929054
 20
4.47574672
 10
-8.2402336423
 20
4.2853877172
 10
-8.1335194544
 20
4.0918363095
 10
-8.0323113316
 20
3.8962913128
 10
-7.9366433685
 20
3.6987402642
 10
-7.8464814706
 20
3.4991956266
 10
-7.7623843445
 20
3.2988936046
 10
-7.6843895321
 20
3.0978291176
 10
-7.6124594916
 20
2.8960072461
 10
-7.5470403041
 20
2.6946794358
 10
-7.4881725037
 20
2.4938487347
 10
-7.4358155563
 20
2.2935120948
 10
-7.3902939412
 20
2.0949118172
 10
-7.3516502354
 20
1.8980586802
 10
-7.319841862
 20
1.7029419057
 10
-7.2950655692
 20
1.5107714605
 10
-7.2773869398
 20
1.321950667
 10
-7.266740391
 20
1.1360762029
 10
-7.2631259228
 20
0.9531480681
  0
LWPOLYLINE
  5
270
100
AcDbEntity
  8
ASSI
100
AcDbPolyline
 62
7
  6
CONTINUOUS
 90
36
 70
0
 10
-10.6929252426
 20
6.8933197712
 10
-10.6144194169
 20
6.8469693523
 10
-10.4585569123
 20
6.7487991826
 10
-10.3031818758
 20
6.6426826308
 10
-10.1482912755
 20
6.5286687222
 10
-9.9948448826
 20
6.4074639455
 10
-9.8428516781
 20
6.2790236696
 10
-9.692302681
 20
6.1433925256
 10
-9.5441307201
 20
6.0014108948
 10
-9.3983505244
 20
5.8530393184
 10
-9.2549473649
 20
5.6983172553
 10
-9.114809884
 20
5.5382034642
 10
-8.977958319
 20
5.3726643917
 10
-8.8443724326
 20
5.2017335913
 10
-8.7148801551
 20
5.026470482
 10
-8.5895069743
 20
4.8468482356
 10
-8.4682274023
 20
4.6628936803
 10
-8.3517929054
 20
4.47574672
 10
-8.2402336423
 20
4.2853877172
 10
-8.1335194544
 20
4.0918363095
 10
-8.0323113316
 20
3.8962913128
 10
-7.9366433685
 20
3.6987402642
 10
-7.8464814706
 20
3.4991956266
 10
-7.7623843445
 20
3.2988936046
 10
-7.6843895321
 20
3.0978291176
 10
-7.6124594916
 20
2.8960072461
 10
-7.5470403041
 20
2.6946794358
 10
-7.4881725037
 20
2.4938487347
 10
-7.4358155563
 20
2.2935120948
 10
-7.3902939412
 20
2.0949118172
 10
-7.3516502354
 20
1.8980586802
 10
-7.319841862
 20
1.7029419057
 10
-7.2950655692
 20
1.5107714605
 10
-7.2773869398
 20
1.321950667
 10
-7.266740391
 20
1.1360762029
 10
-7.2631259228
 20
0.9531480681
  0
LWPOLYLINE
  5
271
100
AcDbEntity
  8
SMUSSO
100
AcDbPolyline
 62
7
  6
CONTINUOUS
 90
36
 70
0
 10
5.2169773341
 20
-2.2928585787
 10
5.2954831598
 20
-2.3392089976
 10
5.4513456644
 20
-2.4373791672
 10
5.6067207009
 20
-2.5434957191
 10
5.7616113012
 20
-2.6575096276
 10
5.9150576941
 20
-2.7787144044
 10
6.0670508986
 20
-2.9071546803
 10
6.2175998957
 20
-3.0427858243
 10
6.3657718566
 20
-3.184767455
 10
6.5115520523
 20
-3.3331390315
 10
6.6549552118
 20
-3.4878610946
 10
6.7950926927
 20
-3.6479748857
 10
6.9319442577
 20
-3.8135139582
 10
7.0655301441
 20
-3.9844447586
 10
7.1950224216
 20
-4.1597078679
 10
7.3203956024
 20
-4.3393301143
 10
7.4416751744
 20
-4.5232846696
 10
7.5581096713
 20
-4.7104316299
 10
7.6696689344
 20
-4.9007906326
 10
7.7763831223
 20
-5.0943420404
 10
7.8775912451
 20
-5.2898870371
 10
7.9732592082
 20
-5.4874380857
 10
8.0634211061
 20
-5.6869827232
 10
8.1475182322
 20
-5.8872847453
 10
8.2255130446
 20
-6.0883492323
 10
8.2974430851
 20
-6.2901711037
 10
8.3628622726
 20
-6.4914989141
 10
8.421730073
 20
-6.6923296152
 10
8.4740870204
 20
-6.8926662551
 10
8.5196086355
 20
-7.0912665327
 10
8.5582523413
 20
-7.2881196696
 10
8.5900607147
 20
-7.4832364442
 10
8.6148370075
 20
-7.6754068894
 10
8.6325156369
 20
-7.8642276829
 10
8.6431621857
 20
-8.050102147
 10
8.6467766539
 20
-8.2330302817
  0
LWPOLYLINE
  5
272
100
AcDbEntity
  8
ASSI
100
AcDbPolyline
 62
7
  6
CONTINUOUS
 90
36
 70
0
 10
5.2169773341
 20
-2.2928585787
 10
5.2954831598
 20
-2.3392089976
 10
5.4513456644
 20
-2.4373791672
 10
5.6067207009
 20
-2.5434957191
 10
5.7616113012
 20
-2.6575096276
 10
5.9150576941
 20
-2.7787144044
 10
6.0670508986
 20
-2.9071546803
 10
6.2175998957
 20
-3.0427858243
 10
6.3657718566
 20
-3.184767455
 10
6.5115520523
 20
-3.3331390315
 10
6.6549552118
 20
-3.4878610946
 10
6.7950926927
 20
-3.6479748857
 10
6.9319442577
 20
-3.8135139582
 10
7.0655301441
 20
-3.9844447586
 10
7.1950224216
 20
-4.1597078679
 10
7.3203956024
 20
-4.3393301143
 10
7.4416751744
 20
-4.5232846696
 10
7.5581096713
 20
-4.7104316299
 10
7.6696689344
 20
-4.9007906326
 10
7.7763831223
 20
-5.0943420404
 10
7.8775912451
 20
-5.2898870371
 10
7.9732592082
 20
-5.4874380857
 10
8.0634211061
 20
-5.6869827232
 10
8.1475182322
 20
-5.8872847453
 10
8.2255130446
 20
-6.0883492323
 10
8.2974430851
 20
-6.2901711037
 10
8.3628622726
 20
-6.4914989141
 10
8.421730073
 20
-6.6923296152
 10
8.4740870204
 20
-6.8926662551
 10
8.5196086355
 20
-7.0912665327
 10
8.5582523413
 20
-7.2881196696
 10
8.5900607147
 20
-7.4832364442
 10
8.6148370075
 20
-7.6754068894
 10
8.6325156369
 20
-7.8642276829
 10
8.6431621857
 20
-8.050102147
 10
8.6467766539
 20
-8.2330302817
  0
LWPOLYLINE
  5
273
100
AcDbEntity
  8
0
100
AcDbPolyline
 62
7
  6
CONTINUOUS
 90
49
 70
0
 10
2.9899224044
 20
-3.9869745111
 10
2.9934719292
 20
-4.1586512061
 10
3.003908054
 20
-4.3331608551
 10
3.0212307789
 20
-4.5105034581
 10
3.0455104398
 20
-4.6910929625
 10
3.0766767008
 20
-4.874515421
 10
3.1145185541
 20
-5.0595289916
 10
3.1590812984
 20
-5.2461444713
 10
3.2103196349
 20
-5.4343510632
 10
3.2678866601
 20
-5.622874535
 10
3.3318253186
 20
-5.8117170369
 10
3.4020926658
 20
-6.0008764187
 10
3.4782129643
 20
-6.1890719974
 10
3.5602259304
 20
-6.3762972329
 10
3.6480918478
 20
-6.5625586652
 10
3.7412158298
 20
-6.7465952315
 10
3.8396335561
 20
-6.9283918346
 10
3.943309347
 20
-7.1079635717
 10
4.0515412768
 20
-7.2840946719
 10
4.1643602621
 20
-7.456761788
 10
4.2817353863
 20
-7.6259882672
 10
4.4028719739
 20
-7.79062838
 10
4.527795549
 20
-7.9506510046
 10
4.6564805875
 20
-8.1060872628
 10
4.7880558413
 20
-8.2558847903
 10
4.9225409226
 20
-8.4000053242
 10
5.0599162191
 20
-8.5384871274
 10
5.1992516464
 20
-8.6703926238
 10
5.3405605053
 20
-8.7956771886
 10
5.4838294949
 20
-8.9143854467
 10
5.6280886282
 20
-9.0257136966
 10
5.7733446239
 20
-9.1296118598
 10
5.9195907632
 20
-9.2261300149
 10
6.0658369026
 20
-9.3146146961
 10
6.2120830419
 20
-9.3950113908
 10
6.3583291812
 20
-9.4673746116
 10
6.5035851769
 20
-9.5312144313
 10
6.6478443102
 20
-9.5864730125
 10
6.7911132999
 20
-9.6332081925
 10
6.9324221588
 20
-9.671103556
 10
7.071757586
 20
-9.7000991184
 10
7.2091328826
 20
-9.7202548642
 10
7.3436179638
 20
-9.7314343311
 10
7.4751932176
 20
-9.7335766087
 10
7.6038782561
 20
-9.7267426073
 10
7.7288018313
 20
-9.710978596
 10
7.8499384189
 20
-9.6862239782
 10
7.9673135431
 20
-9.6525393503
 10
7.9791765032
 20
-9.6480823849
  0
LWPOLYLINE
  5
274
100
AcDbEntity
  8
ASSI
100
AcDbPolyline
 62
7
  6
CONTINUOUS
 90
49
 70
0
 10
2.9899224044
 20
-3.9869745111
 10
2.9934719292
 20
-4.1586512061
 10
3.003908054
 20
-4.3331608551
 10
3.0212307789
 20
-4.5105034581
 10
3.0455104398
 20
-4.6910929625
 10
3.0766767008
 20
-4.874515421
 10
3.1145185541
 20
-5.0595289916
 10
3.1590812984
 20
-5.2461444713
 10
3.2103196349
 20
-5.4343510632
 10
3.2678866601
 20
-5.622874535
 10
3.3318253186
 20
-5.8117170369
 10
3.4020926658
 20
-6.0008764187
 10
3.4782129643
 20
-6.1890719974
 10
3.5602259304
 20
-6.3762972329
 10
3.6480918478
 20
-6.5625586652
 10
3.7412158298
 20
-6.7465952315
 10
3.8396335561
 20
-6.9283918346
 10
3.943309347
 20
-7.1079635717
 10
4.0515412768
 20
-7.2840946719
 10
4.1643602621
 20
-7.456761788
 10
4.2817353863
 20
-7.6259882672
 10
4.4028719739
 20
-7.79062838
 10
4.527795549
 20
-7.9506510046
 10
4.6564805875
 20
-8.1060872628
 10
4.7880558413
 20
-8.2558847903
 10
4.9225409226
 20
-8.4000053242
 10
5.0599162191
 20
-8.5384871274
 10
5.1992516464
 20
-8.6703926238
 10
5.3405605053
 20
-8.7956771886
 10
5.4838294949
 20
-8.9143854467
 10
5.6280886282
 20
-9.0257136966
 10
5.7733446239
 20
-9.1296118598
 10
5.9195907632
 20
-9.2261300149
 10
6.0658369026
 20
-9.3146146961
 10
6.2120830419
 20
-9.3950113908
 10
6.3583291812
 20
-9.4673746116
 10
6.5035851769
 20
-9.5312144313
 10
6.6478443102
 20
-9.5864730125
 10
6.7911132999
 20
-9.6332081925
 10
6.9324221588
 20
-9.671103556
 10
7.071757586
 20
-9.7000991184
 10
7.2091328826
 20
-9.7202548642
 10
7.3436179638
 20
-9.7314343311
 10
7.4751932176
 20
-9.7335766087
 10
7.6038782561
 20
-9.7267426073
 10
7.7288018313
 20
-9.710978596
 10
7.8499384189
 20
-9.6862239782
 10
7.9673135431
 20
-9.6525393503
 10
7.9791765032
 20
-9.6480823849
  0
LWPOLYLINE
  5
275
100
AcDbEntity
  8
SMUSSO
100
AcDbPolyline
 62
7
  6
CONTINUOUS
 90
36
 70
0
 10
1.7878408764
 20
-4.2727667264
 10
1.7914553593
 20
-4.0940121568
 10
1.8021019473
 20
-3.9204317533
 10
1.8197806405
 20
-3.7520255159
 10
1.8445570292
 20
-3.588465841
 10
1.8763655231
 20
-3.4300803322
 10
1.9150093509
 20
-3.277851801
 10
1.9605310884
 20
-3.1318186588
 10
2.0128881598
 20
-2.9919424942
 10
2.0717560675
 20
-2.8590908847
 10
2.1371753388
 20
-2.7333075942
 10
2.2091054464
 20
-2.6145488588
 10
2.2871003098
 20
-2.5035509642
 10
2.3711974617
 20
-2.40036234
 10
2.4613593695
 20
-2.3049345567
 10
2.5570273551
 20
-2.2178586109
 10
2.6582355234
 20
-2.1391863225
 10
2.7649497696
 20
-2.0688658717
 10
2.8765091006
 20
-2.0073327957
 10
2.992943681
 20
-1.9546415612
 10
3.1142233462
 20
-1.9107377015
 10
3.2395966096
 20
-1.8758933538
 10
3.3690889525
 20
-1.8501647838
 10
3.5026748937
 20
-1.8334957259
 10
3.6395265028
 20
-1.8259895199
 10
3.7796640139
 20
-1.8277030874
 10
3.923067193
 20
-1.8385795069
 10
4.0688474071
 20
-1.8585513538
 10
4.2170193877
 20
-1.8876750949
 10
4.3675684033
 20
-1.9258942635
 10
4.5195616259
 20
-1.9729720349
 10
4.6730080387
 20
-2.028963412
 10
4.8278986585
 20
-2.0938133919
 10
4.9832737087
 20
-2.1671201408
 10
5.1391362191
 20
-2.2489361847
 10
5.2169773341
 20
-2.2928585787
  0
LWPOLYLINE
  5
276
100
AcDbEntity
  8
ASSI
100
AcDbPolyline
 62
7
  6
CONTINUOUS
 90
36
 70
0
 10
1.7878408764
 20
-4.2727667264
 10
1.7914553593
 20
-4.0940121568
 10
1.8021019473
 20
-3.9204317533
 10
1.8197806405
 20
-3.7520255159
 10
1.8445570292
 20
-3.588465841
 10
1.8763655231
 20
-3.4300803322
 10
1.9150093509
 20
-3.277851801
 10
1.9605310884
 20
-3.1318186588
 10
2.0128881598
 20
-2.9919424942
 10
2.0717560675
 20
-2.8590908847
 10
2.1371753388
 20
-2.7333075942
 10
2.2091054464
 20
-2.6145488588
 10
2.2871003098
 20
-2.5035509642
 10
2.3711974617
 20
-2.40036234
 10
2.4613593695
 20
-2.3049345567
 10
2.5570273551
 20
-2.2178586109
 10
2.6582355234
 20
-2.1391863225
 10
2.7649497696
 20
-2.0688658717
 10
2.8765091006
 20
-2.0073327957
 10
2.992943681
 20
-1.9546415612
 10
3.1142233462
 20
-1.9107377015
 10
3.2395966096
 20
-1.8758933538
 10
3.3690889525
 20
-1.8501647838
 10
3.5026748937
 20
-1.8334957259
 10
3.6395265028
 20
-1.8259895199
 10
3.7796640139
 20
-1.8277030874
 10
3.923067193
 20
-1.8385795069
 10
4.0688474071
 20
-1.8585513538
 10
4.2170193877
 20
-1.8876750949
 10
4.3675684033
 20
-1.9258942635
 10
4.5195616259
 20
-1.9729720349
 10
4.6730080387
 20
-2.028963412
 10
4.8278986585
 20
-2.0938133919
 10
4.9832737087
 20
-2.1671201408
 10
5.1391362191
 20
-2.2489361847
 10
5.2169773341
 20
-2.2928585787
  0
LWPOLYLINE
  5
277
100
AcDbEntity
  8
SMUSSO
100
AcDbPolyline
 62
7
  6
CONTINUOUS
 90
18
 70
0
 10
2.4949476576
 20
-4.2727667264
 10
2.498431096
 20
-4.105796745
 10
2.5088737075
 20
-3.9432253928
 10
2.5262521175
 20
-3.7854210837
 10
2.5505272998
 20
-3.6327411313
 10
2.5816445119
 20
-3.4855319433
 10
2.6195332689
 20
-3.3441281141
 10
2.6641078516
 20
-3.2088501625
 10
2.7152674422
 20
-3.0800045728
 10
2.7728959938
 20
-2.9578839166
 10
2.8368629536
 20
-2.8427649563
 10
2.9070234911
 20
-2.7349084343
 10
2.9832184943
 20
-2.6345589882
 10
3.0652752347
 20
-2.5419440457
 10
3.1530079111
 20
-2.457273261
 10
3.2462178866
 20
-2.3807383394
 10
3.3446940142
 20
-2.3125126765
 10
3.3957570591
 20
-2.2816113805
  0
LWPOLYLINE
  5
278
100
AcDbEntity
  8
ASSI
100
AcDbPolyline
 62
7
  6
CONTINUOUS
 90
18
 70
0
 10
2.4949476576
 20
-4.2727667264
 10
2.498431096
 20
-4.105796745
 10
2.5088737075
 20
-3.9432253928
 10
2.5262521175
 20
-3.7854210837
 10
2.5505272998
 20
-3.6327411313
 10
2.5816445119
 20
-3.4855319433
 10
2.6195332689
 20
-3.3441281141
 10
2.6641078516
 20
-3.2088501625
 10
2.7152674422
 20
-3.0800045728
 10
2.7728959938
 20
-2.9578839166
 10
2.8368629536
 20
-2.8427649563
 10
2.9070234911
 20
-2.7349084343
 10
2.9832184943
 20
-2.6345589882
 10
3.0652752347
 20
-2.5419440457
 10
3.1530079111
 20
-2.457273261
 10
3.2462178866
 20
-2.3807383394
 10
3.3446940142
 20
-2.3125126765
 10
3.3957570591
 20
-2.2816113805
  0
LWPOLYLINE
  5
279
100
AcDbEntity
  8
0
100
AcDbPolyline
 62
7
  6
CONTINUOUS
 90
13
 70
0
 10
3.4782129643
 20
-2.3487427239
 10
3.4020926658
 20
-2.44903649
 10
3.3318253186
 20
-2.5570529005
 10
3.2678866601
 20
-2.6720606423
 10
3.2103196349
 20
-2.7941071563
 10
3.1590812984
 20
-2.9231450016
 10
3.1145185541
 20
-3.0583005412
 10
3.0766767008
 20
-3.1996152882
 10
3.0455104398
 20
-3.3470477296
 10
3.0212307789
 20
-3.4995996902
 10
3.003908054
 20
-3.6569384447
 10
2.9934719292
 20
-3.8193967184
 10
2.9899224044
 20
-3.9869745111
  0
LWPOLYLINE
  5
27A
100
AcDbEntity
  8
ASSI
100
AcDbPolyline
 62
7
  6
CONTINUOUS
 90
13
 70
0
 10
3.4782129643
 20
-2.3487427239
 10
3.4020926658
 20
-2.44903649
 10
3.3318253186
 20
-2.5570529005
 10
3.2678866601
 20
-2.6720606423
 10
3.2103196349
 20
-2.7941071563
 10
3.1590812984
 20
-2.9231450016
 10
3.1145185541
 20
-3.0583005412
 10
3.0766767008
 20
-3.1996152882
 10
3.0455104398
 20
-3.3470477296
 10
3.0212307789
 20
-3.4995996902
 10
3.003908054
 20
-3.6569384447
 10
2.9934719292
 20
-3.8193967184
 10
2.9899224044
 20
-3.9869745111
  0
LWPOLYLINE
  5
27B
100
AcDbEntity
  8
0
100
AcDbPolyline
 62
7
  6
CONTINUOUS
 90
4
 70
0
 10
3.6576618225
 20
-2.1635664067
 10
3.6480918478
 20
-2.1714279327
 10
3.5602259304
 20
-2.2562240061
 10
3.4782129643
 20
-2.3487427239
  0
LWPOLYLINE
  5
27C
100
AcDbEntity
  8
ASSI
100
AcDbPolyline
 62
7
  6
CONTINUOUS
 90
4
 70
0
 10
3.6576618225
 20
-2.1635664067
 10
3.6480918478
 20
-2.1714279327
 10
3.5602259304
 20
-2.2562240061
 10
3.4782129643
 20
-2.3487427239
  0
LWPOLYLINE
  5
27D
100
AcDbEntity
  8
SMUSSO
100
AcDbPolyline
 62
7
  6
CONTINUOUS
 90
16
 70
0
 10
3.3957570591
 20
-2.2816113805
 10
3.4482132266
 20
-2.252750838
 10
3.5565411786
 20
-2.2015881563
 10
3.6694325704
 20
-2.1591405603
 10
3.7866316219
 20
-2.1255042966
 10
3.9078727944
 20
-2.100755627
 10
4.0328814642
 20
-2.0849506546
 10
4.1613744399
 20
-2.0781252266
 10
4.2930605296
 20
-2.0802948389
 10
4.4276413856
 20
-2.091454588
 10
4.5648121649
 20
-2.1115792075
 10
4.7042620985
 20
-2.1406231158
 10
4.8456752734
 20
-2.1785205253
 10
4.98873134
 20
-2.2251855941
 10
5.1331062117
 20
-2.2805126132
 10
5.2784728341
 20
-2.3443762582
  0
LWPOLYLINE
  5
27E
100
AcDbEntity
  8
ASSI
100
AcDbPolyline
 62
7
  6
CONTINUOUS
 90
16
 70
0
 10
3.3957570591
 20
-2.2816113805
 10
3.4482132266
 20
-2.252750838
 10
3.5565411786
 20
-2.2015881563
 10
3.6694325704
 20
-2.1591405603
 10
3.7866316219
 20
-2.1255042966
 10
3.9078727944
 20
-2.100755627
 10
4.0328814642
 20
-2.0849506546
 10
4.1613744399
 20
-2.0781252266
 10
4.2930605296
 20
-2.0802948389
 10
4.4276413856
 20
-2.091454588
 10
4.5648121649
 20
-2.1115792075
 10
4.7042620985
 20
-2.1406231158
 10
4.8456752734
 20
-2.1785205253
 10
4.98873134
 20
-2.2251855941
 10
5.1331062117
 20
-2.2805126132
 10
5.2784728341
 20
-2.3443762582
  0
LINE
  5
27F
100
AcDbEntity
  8
SMUSSO
100
AcDbLine
 62
7
  6
CONTINUOUS
 10
-10.6314297426
 20
6.8418020917
 11
-10.5138329573
 21
6.7836148602
  0
LINE
  5
280
100
AcDbEntity
  8
ASSI
100
AcDbLine
 62
7
  6
CONTINUOUS
 10
-10.6314297426
 20
6.8418020917
 11
-10.5138329573
 21
6.7836148602
  0
LINE
  5
281
100
AcDbEntity
  8
SMUSSO
100
AcDbLine
 62
7
  6
CONTINUOUS
 10
-26.5413323193
 20
16.0279804415
 11
-26.4237355339
 21
15.9697932101
  0
LINE
  5
282
100
AcDbEntity
  8
ASSI
100
AcDbLine
 62
7
  6
CONTINUOUS
 10
-26.5413323193
 20
16.0279804415
 11
-26.4237355339
 21
15.9697932101
  0
LWPOLYLINE
  5
283
100
AcDbEntity
  8
SMUSSO
100
AcDbPolyline
 62
7
  6
CONTINUOUS
 90
36
 70
0
 10
21.1268799108
 20
-11.4790369286
 10
21.2053857365
 20
-11.5253873475
 10
21.3612482411
 20
-11.6235575171
 10
21.5166232776
 20
-11.7296740689
 10
21.6715138779
 20
-11.8436879775
 10
21.8249602708
 20
-11.9648927542
 10
21.9769534753
 20
-12.0933330301
 10
22.1275024724
 20
-12.2289641742
 10
22.2756744333
 20
-12.3709458049
 10
22.421454629
 20
-12.5193173814
 10
22.5648577885
 20
-12.6740394445
 10
22.7049952694
 20
-12.8341532356
 10
22.8418468344
 20
-12.999692308
 10
22.9754327208
 20
-13.1706231085
 10
23.1049249983
 20
-13.3458862178
 10
23.2302981791
 20
-13.5255084642
 10
23.3515777511
 20
-13.7094630195
 10
23.468012248
 20
-13.8966099798
 10
23.5795715111
 20
-14.0869689825
 10
23.686285699
 20
-14.2805203903
 10
23.7874938218
 20
-14.476065387
 10
23.8831617849
 20
-14.6736164355
 10
23.9733236828
 20
-14.8731610731
 10
24.0574208089
 20
-15.0734630952
 10
24.1354156213
 20
-15.2745275821
 10
24.2073456618
 20
-15.4763494536
 10
24.2727648493
 20
-15.6776772639
 10
24.3316326497
 20
-15.878507965
 10
24.3839895971
 20
-16.078844605
 10
24.4295112122
 20
-16.2774448825
 10
24.4681549179
 20
-16.4742980195
 10
24.4999632914
 20
-16.6694147941
 10
24.5247395842
 20
-16.8615852393
 10
24.5424182136
 20
-17.0504060327
 10
24.5530647624
 20
-17.2362804969
 10
24.5566792306
 20
-17.4192086316
  0
LWPOLYLINE
  5
284
100
AcDbEntity
  8
ASSI
100
AcDbPolyline
 62
7
  6
CONTINUOUS
 90
36
 70
0
 10
21.1268799108
 20
-11.4790369286
 10
21.2053857365
 20
-11.5253873475
 10
21.3612482411
 20
-11.6235575171
 10
21.5166232776
 20
-11.7296740689
 10
21.6715138779
 20
-11.8436879775
 10
21.8249602708
 20
-11.9648927542
 10
21.9769534753
 20
-12.0933330301
 10
22.1275024724
 20
-12.2289641742
 10
22.2756744333
 20
-12.3709458049
 10
22.421454629
 20
-12.5193173814
 10
22.5648577885
 20
-12.6740394445
 10
22.7049952694
 20
-12.8341532356
 10
22.8418468344
 20
-12.999692308
 10
22.9754327208
 20
-13.1706231085
 10
23.1049249983
 20
-13.3458862178
 10
23.2302981791
 20
-13.5255084642
 10
23.3515777511
 20
-13.7094630195
 10
23.468012248
 20
-13.8966099798
 10
23.5795715111
 20
-14.0869689825
 10
23.686285699
 20
-14.2805203903
 10
23.7874938218
 20
-14.476065387
 10
23.8831617849
 20
-14.6736164355
 10
23.9733236828
 20
-14.8731610731
 10
24.0574208089
 20
-15.0734630952
 10
24.1354156213
 20
-15.2745275821
 10
24.2073456618
 20
-15.4763494536
 10
24.2727648493
 20
-15.6776772639
 10
24.3316326497
 20
-15.878507965
 10
24.3839895971
 20
-16.078844605
 10
24.4295112122
 20
-16.2774448825
 10
24.4681549179
 20
-16.4742980195
 10
24.4999632914
 20
-16.6694147941
 10
24.5247395842
 20
-16.8615852393
 10
24.5424182136
 20
-17.0504060327
 10
24.5530647624
 20
-17.2362804969
 10
24.5566792306
 20
-17.4192086316
  0
LWPOLYLINE
  5
285
100
AcDbEntity
  8
SMUSSO
100
AcDbPolyline
 62
7
  6
CONTINUOUS
 90
70
 70
0
 10
8.6467766539
 20
-8.2330302817
 10
8.643162171
 20
-8.4117848514
 10
8.632515583
 20
-8.5853652549
 10
8.6148368898
 20
-8.7537714922
 10
8.5900605011
 20
-8.9173311672
 10
8.5582520072
 20
-9.075716676
 10
8.5196081793
 20
-9.2279452072
 10
8.4740864419
 20
-9.3739783494
 10
8.4217293705
 20
-9.513854514
 10
8.3628614628
 20
-9.6467061235
 10
8.2974421915
 20
-9.772489414
 10
8.2255120839
 20
-9.8912481494
 10
8.1475172205
 20
-10.002246044
 10
8.0634200686
 20
-10.1054346682
 10
7.9732581608
 20
-10.2008624515
 10
7.8775901752
 20
-10.2879383973
 10
7.7763820068
 20
-10.3666106857
 10
7.6696677607
 20
-10.4369311365
 10
7.5581084297
 20
-10.4984642125
 10
7.4416738493
 20
-10.551155447
 10
7.3203941841
 20
-10.5950593067
 10
7.1950209207
 20
-10.6299036544
 10
7.0655285778
 20
-10.6556322244
 10
6.9319426366
 20
-10.6723012823
 10
6.7950910275
 20
-10.6798074883
 10
6.6549535164
 20
-10.6780939208
 10
6.5115503373
 20
-10.6672175013
 10
6.3657701232
 20
-10.6472456544
 10
6.2175981426
 20
-10.6181219133
 10
6.067049127
 20
-10.5799027447
 10
5.9150559044
 20
-10.5328249733
 10
5.7616094916
 20
-10.4768335962
 10
5.6067188718
 20
-10.4119836162
 10
5.4513438216
 20
-10.3386768674
 10
5.2954813112
 20
-10.2568608234
 10
5.1391343705
 20
-10.1665880106
 10
4.9832718659
 20
-10.0684178409
 10
4.8278968294
 20
-9.9623012891
 10
4.6730062291
 20
-9.8482873805
 10
4.5195598362
 20
-9.7270826038
 10
4.3675666316
 20
-9.5986423279
 10
4.2170176345
 20
-9.4630111839
 10
4.0688456737
 20
-9.3210295531
 10
3.923065478
 20
-9.1726579767
 10
3.7796623185
 20
-9.0179359136
 10
3.6395248376
 20
-8.8578221225
 10
3.5026732726
 20
-8.69228305
 10
3.3690873862
 20
-8.5213522496
 10
3.2395951086
 20
-8.3460891403
 10
3.1142219278
 20
-8.1664668939
 10
2.9929423559
 20
-7.9825123386
 10
2.876507859
 20
-7.7953653783
 10
2.7649485959
 20
-7.6050063755
 10
2.658234408
 20
-7.4114549678
 10
2.5570262852
 20
-7.2159099711
 10
2.4613583221
 20
-7.0183589225
 10
2.3711964242
 20
-6.8188142849
 10
2.2870992981
 20
-6.6185122629
 10
2.2091044857
 20
-6.4174477759
 10
2.1371744452
 20
-6.2156259044
 10
2.0717552577
 20
-6.0142980941
 10
2.0128874573
 20
-5.813467393
 10
1.9605305099
 20
-5.6131307531
 10
1.9150088948
 20
-5.4145304755
 10
1.876365189
 20
-5.2176773385
 10
1.8445568156
 20
-5.022560564
 10
1.8197805228
 20
-4.8303901188
 10
1.8021018934
 20
-4.6415693253
 10
1.7914553446
 20
-4.4556948612
 10
1.7878408764
 20
-4.2727667264
  0
LWPOLYLINE
  5
286
100
AcDbEntity
  8
ASSI
100
AcDbPolyline
 62
7
  6
CONTINUOUS
 90
70
 70
0
 10
8.6467766539
 20
-8.2330302817
 10
8.643162171
 20
-8.4117848514
 10
8.632515583
 20
-8.5853652549
 10
8.6148368898
 20
-8.7537714922
 10
8.5900605011
 20
-8.9173311672
 10
8.5582520072
 20
-9.075716676
 10
8.5196081793
 20
-9.2279452072
 10
8.4740864419
 20
-9.3739783494
 10
8.4217293705
 20
-9.513854514
 10
8.3628614628
 20
-9.6467061235
 10
8.2974421915
 20
-9.772489414
 10
8.2255120839
 20
-9.8912481494
 10
8.1475172205
 20
-10.002246044
 10
8.0634200686
 20
-10.1054346682
 10
7.9732581608
 20
-10.2008624515
 10
7.8775901752
 20
-10.2879383973
 10
7.7763820068
 20
-10.3666106857
 10
7.6696677607
 20
-10.4369311365
 10
7.5581084297
 20
-10.4984642125
 10
7.4416738493
 20
-10.551155447
 10
7.3203941841
 20
-10.5950593067
 10
7.1950209207
 20
-10.6299036544
 10
7.0655285778
 20
-10.6556322244
 10
6.9319426366
 20
-10.6723012823
 10
6.7950910275
 20
-10.6798074883
 10
6.6549535164
 20
-10.6780939208
 10
6.5115503373
 20
-10.6672175013
 10
6.3657701232
 20
-10.6472456544
 10
6.2175981426
 20
-10.6181219133
 10
6.067049127
 20
-10.5799027447
 10
5.9150559044
 20
-10.5328249733
 10
5.7616094916
 20
-10.4768335962
 10
5.6067188718
 20
-10.4119836162
 10
5.4513438216
 20
-10.3386768674
 10
5.2954813112
 20
-10.2568608234
 10
5.1391343705
 20
-10.1665880106
 10
4.9832718659
 20
-10.0684178409
 10
4.8278968294
 20
-9.9623012891
 10
4.6730062291
 20
-9.8482873805
 10
4.5195598362
 20
-9.7270826038
 10
4.3675666316
 20
-9.5986423279
 10
4.2170176345
 20
-9.4630111839
 10
4.0688456737
 20
-9.3210295531
 10
3.923065478
 20
-9.1726579767
 10
3.7796623185
 20
-9.0179359136
 10
3.6395248376
 20
-8.8578221225
 10
3.5026732726
 20
-8.69228305
 10
3.3690873862
 20
-8.5213522496
 10
3.2395951086
 20
-8.3460891403
 10
3.1142219278
 20
-8.1664668939
 10
2.9929423559
 20
-7.9825123386
 10
2.876507859
 20
-7.7953653783
 10
2.7649485959
 20
-7.6050063755
 10
2.658234408
 20
-7.4114549678
 10
2.5570262852
 20
-7.2159099711
 10
2.4613583221
 20
-7.0183589225
 10
2.3711964242
 20
-6.8188142849
 10
2.2870992981
 20
-6.6185122629
 10
2.2091044857
 20
-6.4174477759
 10
2.1371744452
 20
-6.2156259044
 10
2.0717552577
 20
-6.0142980941
 10
2.0128874573
 20
-5.813467393
 10
1.9605305099
 20
-5.6131307531
 10
1.9150088948
 20
-5.4145304755
 10
1.876365189
 20
-5.2176773385
 10
1.8445568156
 20
-5.022560564
 10
1.8197805228
 20
-4.8303901188
 10
1.8021018934
 20
-4.6415693253
 10
1.7914553446
 20
-4.4556948612
 10
1.7878408764
 20
-4.2727667264
  0
LINE
  5
287
100
AcDbEntity
  8
SMUSSO
100
AcDbLine
 62
7
  6
CONTINUOUS
 10
8.641456398
 20
-8.0203213805
 11
8.632850604
 21
-8.1542970221
  0
LINE
  5
288
100
AcDbEntity
  8
ASSI
100
AcDbLine
 62
7
  6
CONTINUOUS
 10
8.641456398
 20
-8.0203213805
 11
8.632850604
 21
-8.1542970221
  0
LWPOLYLINE
  5
289
100
AcDbEntity
  8
SMUSSO
100
AcDbPolyline
 62
7
  6
CONTINUOUS
 90
16
 70
0
 10
8.632850604
 20
-8.1542970221
 10
8.615472194
 20
-8.3121013311
 10
8.5911970117
 20
-8.4647812836
 10
8.5600797996
 20
-8.6119904716
 10
8.5221910425
 20
-8.7533943007
 10
8.4776164599
 20
-8.8886722523
 10
8.4264568693
 20
-9.0175178421
 10
8.3688283176
 20
-9.1396384982
 10
8.3048613579
 20
-9.2547574585
 10
8.2347008204
 20
-9.3626139806
 10
8.1585058172
 20
-9.4629634266
 10
8.0764490768
 20
-9.5555783692
 10
7.9887164003
 20
-9.6402491539
 10
7.8955064248
 20
-9.7167840755
 10
7.7970302973
 20
-9.7850097383
 10
7.7459672523
 20
-9.8159110344
  0
LWPOLYLINE
  5
28A
100
AcDbEntity
  8
ASSI
100
AcDbPolyline
 62
7
  6
CONTINUOUS
 90
16
 70
0
 10
8.632850604
 20
-8.1542970221
 10
8.615472194
 20
-8.3121013311
 10
8.5911970117
 20
-8.4647812836
 10
8.5600797996
 20
-8.6119904716
 10
8.5221910425
 20
-8.7533943007
 10
8.4776164599
 20
-8.8886722523
 10
8.4264568693
 20
-9.0175178421
 10
8.3688283176
 20
-9.1396384982
 10
8.3048613579
 20
-9.2547574585
 10
8.2347008204
 20
-9.3626139806
 10
8.1585058172
 20
-9.4629634266
 10
8.0764490768
 20
-9.5555783692
 10
7.9887164003
 20
-9.6402491539
 10
7.8955064248
 20
-9.7167840755
 10
7.7970302973
 20
-9.7850097383
 10
7.7459672523
 20
-9.8159110344
  0
LINE
  5
28B
100
AcDbEntity
  8
ASSI
100
AcDbLine
 62
7
  6
CONTINUOUS
 10
48.21253915
 20
-66.8442264913
 11
48.2129015803
 21
-66.844867929
  0
LWPOLYLINE
  5
28C
100
AcDbEntity
  8
SMUSSO
100
AcDbPolyline
 62
7
  6
CONTINUOUS
 90
51
 70
0
 10
7.7459672523
 20
-9.8159110344
 10
7.6935110849
 20
-9.8447715768
 10
7.5851831328
 20
-9.8959342585
 10
7.4722917411
 20
-9.9383818545
 10
7.3550926896
 20
-9.9720181183
 10
7.2338515171
 20
-9.9967667878
 10
7.1088428473
 20
-10.0125717603
 10
6.9803498716
 20
-10.0193971883
 10
6.8486637819
 20
-10.017227576
 10
6.7140829259
 20
-10.0060678269
 10
6.5769121466
 20
-9.9859432074
 10
6.4374622129
 20
-9.956899299
 10
6.2960490381
 20
-9.9190018896
 10
6.1529929715
 20
-9.8723368208
 10
6.0086180998
 20
-9.8170098017
 10
5.8632514773
 20
-9.7531461566
 10
5.7172224292
 20
-9.6808905588
 10
5.570861815
 20
-9.6004067147
 10
5.4245012011
 20
-9.5118769529
 10
5.2784721535
 20
-9.415501829
 10
5.1331055317
 20
-9.3114997047
 10
4.988730661
 20
-9.2001062033
 10
4.8456745956
 20
-9.081573674
 10
4.7042614214
 20
-8.9561706545
 10
4.5648114865
 20
-8.8241812327
 10
4.4276407059
 20
-8.6859044306
 10
4.2930598517
 20
-8.5416535384
 10
4.161373768
 20
-8.3917553161
 10
4.0328808013
 20
-8.2365493839
 10
3.9078721441
 20
-8.0763874996
 10
3.7866309898
 20
-7.9116325365
 10
3.6694319597
 20
-7.7426577232
 10
3.556540586
 20
-7.5698459498
 10
3.4482126494
 20
-7.3935888308
 10
3.3446934503
 20
-7.2142855609
 10
3.2462173299
 20
-7.0323420795
 10
3.1530073521
 20
-6.8481705342
 10
3.0652746708
 20
-6.6621881575
 10
2.9832179332
 20
-6.4748160559
 10
2.9070229389
 20
-6.286478439
 10
2.8368624181
 20
-6.0976022015
 10
2.7728954928
 20
-5.9086157517
 10
2.7152669914
 20
-5.7199470843
 10
2.6641074614
 20
-5.5320237152
 10
2.6195329492
 20
-5.3452722379
 10
2.5816442682
 20
-5.1601155636
 10
2.5505271307
 20
-4.9769731885
 10
2.526252015
 20
-4.7962610929
 10
2.5088736587
 20
-4.6183888948
 10
2.498431083
 20
-4.443758972
 10
2.4949476576
 20
-4.2727667264
  0
LWPOLYLINE
  5
28D
100
AcDbEntity
  8
ASSI
100
AcDbPolyline
 62
7
  6
CONTINUOUS
 90
51
 70
0
 10
7.7459672523
 20
-9.8159110344
 10
7.6935110849
 20
-9.8447715768
 10
7.5851831328
 20
-9.8959342585
 10
7.4722917411
 20
-9.9383818545
 10
7.3550926896
 20
-9.9720181183
 10
7.2338515171
 20
-9.9967667878
 10
7.1088428473
 20
-10.0125717603
 10
6.9803498716
 20
-10.0193971883
 10
6.8486637819
 20
-10.017227576
 10
6.7140829259
 20
-10.0060678269
 10
6.5769121466
 20
-9.9859432074
 10
6.4374622129
 20
-9.956899299
 10
6.2960490381
 20
-9.9190018896
 10
6.1529929715
 20
-9.8723368208
 10
6.0086180998
 20
-9.8170098017
 10
5.8632514773
 20
-9.7531461566
 10
5.7172224292
 20
-9.6808905588
 10
5.570861815
 20
-9.6004067147
 10
5.4245012011
 20
-9.5118769529
 10
5.2784721535
 20
-9.415501829
 10
5.1331055317
 20
-9.3114997047
 10
4.988730661
 20
-9.2001062033
 10
4.8456745956
 20
-9.081573674
 10
4.7042614214
 20
-8.9561706545
 10
4.5648114865
 20
-8.8241812327
 10
4.4276407059
 20
-8.6859044306
 10
4.2930598517
 20
-8.5416535384
 10
4.161373768
 20
-8.3917553161
 10
4.0328808013
 20
-8.2365493839
 10
3.9078721441
 20
-8.0763874996
 10
3.7866309898
 20
-7.9116325365
 10
3.6694319597
 20
-7.7426577232
 10
3.556540586
 20
-7.5698459498
 10
3.4482126494
 20
-7.3935888308
 10
3.3446934503
 20
-7.2142855609
 10
3.2462173299
 20
-7.0323420795
 10
3.1530073521
 20
-6.8481705342
 10
3.0652746708
 20
-6.6621881575
 10
2.9832179332
 20
-6.4748160559
 10
2.9070229389
 20
-6.286478439
 10
2.8368624181
 20
-6.0976022015
 10
2.7728954928
 20
-5.9086157517
 10
2.7152669914
 20
-5.7199470843
 10
2.6641074614
 20
-5.5320237152
 10
2.6195329492
 20
-5.3452722379
 10
2.5816442682
 20
-5.1601155636
 10
2.5505271307
 20
-4.9769731885
 10
2.526252015
 20
-4.7962610929
 10
2.5088736587
 20
-4.6183888948
 10
2.498431083
 20
-4.443758972
 10
2.4949476576
 20
-4.2727667264
  0
LWPOLYLINE
  5
28E
100
AcDbEntity
  8
0
100
AcDbPolyline
 62
7
  6
CONTINUOUS
 90
49
 70
0
 10
18.8998249811
 20
-13.173152861
 10
18.9033745059
 20
-13.3448295559
 10
18.9138106307
 20
-13.519339205
 10
18.9311333556
 20
-13.696681808
 10
18.9554130165
 20
-13.8772713124
 10
18.9865792775
 20
-14.0606937708
 10
19.0244211308
 20
-14.2457073415
 10
19.0689838751
 20
-14.4323228212
 10
19.1202222116
 20
-14.620529413
 10
19.1777892368
 20
-14.8090528848
 10
19.2417278953
 20
-14.9978953868
 10
19.3119952425
 20
-15.1870547686
 10
19.388115541
 20
-15.3752503473
 10
19.4701285071
 20
-15.5624755828
 10
19.5579944245
 20
-15.7487370151
 10
19.6511184065
 20
-15.9327735814
 10
19.7495361328
 20
-16.1145701845
 10
19.8532119237
 20
-16.2941419216
 10
19.9614438534
 20
-16.4702730218
 10
20.0742628388
 20
-16.6429401379
 10
20.191637963
 20
-16.8121666171
 10
20.3127745506
 20
-16.9768067299
 10
20.4376981257
 20
-17.1368293545
 10
20.5663831642
 20
-17.2922656127
 10
20.697958418
 20
-17.4420631401
 10
20.8324434993
 20
-17.5861836741
 10
20.9698187958
 20
-17.7246654773
 10
21.1091542231
 20
-17.8565709737
 10
21.250463082
 20
-17.9818555385
 10
21.3937320716
 20
-18.1005637966
 10
21.5379912049
 20
-18.2118920465
 10
21.6832472006
 20
-18.3157902097
 10
21.8294933399
 20
-18.4123083648
 10
21.9757394793
 20
-18.500793046
 10
22.1219856186
 20
-18.5811897407
 10
22.2682317579
 20
-18.6535529615
 10
22.4134877536
 20
-18.7173927811
 10
22.5577468869
 20
-18.7726513623
 10
22.7010158766
 20
-18.8193865424
 10
22.8423247355
 20
-18.8572819058
 10
22.9816601627
 20
-18.8862774683
 10
23.1190354593
 20
-18.9064332141
 10
23.2535205405
 20
-18.9176126809
 10
23.3850957943
 20
-18.9197549585
 10
23.5137808328
 20
-18.9129209572
 10
23.638704408
 20
-18.8971569459
 10
23.7598409956
 20
-18.872402328
 10
23.8772161198
 20
-18.8387177002
 10
23.8890790799
 20
-18.8342607348
  0
LWPOLYLINE
  5
28F
100
AcDbEntity
  8
ASSI
100
AcDbPolyline
 62
7
  6
CONTINUOUS
 90
49
 70
0
 10
18.8998249811
 20
-13.173152861
 10
18.9033745059
 20
-13.3448295559
 10
18.9138106307
 20
-13.519339205
 10
18.9311333556
 20
-13.696681808
 10
18.9554130165
 20
-13.8772713124
 10
18.9865792775
 20
-14.0606937708
 10
19.0244211308
 20
-14.2457073415
 10
19.0689838751
 20
-14.4323228212
 10
19.1202222116
 20
-14.620529413
 10
19.1777892368
 20
-14.8090528848
 10
19.2417278953
 20
-14.9978953868
 10
19.3119952425
 20
-15.1870547686
 10
19.388115541
 20
-15.3752503473
 10
19.4701285071
 20
-15.5624755828
 10
19.5579944245
 20
-15.7487370151
 10
19.6511184065
 20
-15.9327735814
 10
19.7495361328
 20
-16.1145701845
 10
19.8532119237
 20
-16.2941419216
 10
19.9614438534
 20
-16.4702730218
 10
20.0742628388
 20
-16.6429401379
 10
20.191637963
 20
-16.8121666171
 10
20.3127745506
 20
-16.9768067299
 10
20.4376981257
 20
-17.1368293545
 10
20.5663831642
 20
-17.2922656127
 10
20.697958418
 20
-17.4420631401
 10
20.8324434993
 20
-17.5861836741
 10
20.9698187958
 20
-17.7246654773
 10
21.1091542231
 20
-17.8565709737
 10
21.250463082
 20
-17.9818555385
 10
21.3937320716
 20
-18.1005637966
 10
21.5379912049
 20
-18.2118920465
 10
21.6832472006
 20
-18.3157902097
 10
21.8294933399
 20
-18.4123083648
 10
21.9757394793
 20
-18.500793046
 10
22.1219856186
 20
-18.5811897407
 10
22.2682317579
 20
-18.6535529615
 10
22.4134877536
 20
-18.7173927811
 10
22.5577468869
 20
-18.7726513623
 10
22.7010158766
 20
-18.8193865424
 10
22.8423247355
 20
-18.8572819058
 10
22.9816601627
 20
-18.8862774683
 10
23.1190354593
 20
-18.9064332141
 10
23.2535205405
 20
-18.9176126809
 10
23.3850957943
 20
-18.9197549585
 10
23.5137808328
 20
-18.9129209572
 10
23.638704408
 20
-18.8971569459
 10
23.7598409956
 20
-18.872402328
 10
23.8772161198
 20
-18.8387177002
 10
23.8890790799
 20
-18.8342607348
  0
LWPOLYLINE
  5
290
100
AcDbEntity
  8
SMUSSO
100
AcDbPolyline
 62
7
  6
CONTINUOUS
 90
36
 70
0
 10
17.6977434531
 20
-13.4589450763
 10
17.701357936
 20
-13.2801905066
 10
17.712004524
 20
-13.1066101031
 10
17.7296832172
 20
-12.9382038658
 10
17.7544596059
 20
-12.7746441908
 10
17.7862680998
 20
-12.616258682
 10
17.8249119276
 20
-12.4640301509
 10
17.8704336651
 20
-12.3179970087
 10
17.9227907365
 20
-12.1781208441
 10
17.9816586442
 20
-12.0452692346
 10
18.0470779155
 20
-11.9194859441
 10
18.1190080231
 20
-11.8007272087
 10
18.1970028865
 20
-11.689729314
 10
18.2811000384
 20
-11.5865406899
 10
18.3712619462
 20
-11.4911129065
 10
18.4669299318
 20
-11.4040369607
 10
18.5681381001
 20
-11.3253646724
 10
18.6748523463
 20
-11.2550442215
 10
18.7864116773
 20
-11.1935111455
 10
18.9028462577
 20
-11.140819911
 10
19.0241259229
 20
-11.0969160513
 10
19.1494991863
 20
-11.0620717037
 10
19.2789915292
 20
-11.0363431337
 10
19.4125774704
 20
-11.0196740757
 10
19.5494290795
 20
-11.0121678697
 10
19.6895665906
 20
-11.0138814372
 10
19.8329697697
 20
-11.0247578567
 10
19.9787499838
 20
-11.0447297037
 10
20.1269219644
 20
-11.0738534448
 10
20.27747098
 20
-11.1120726134
 10
20.4294642026
 20
-11.1591503847
 10
20.5829106154
 20
-11.2151417619
 10
20.7378012352
 20
-11.2799917418
 10
20.8931762854
 20
-11.3532984907
 10
21.0490387958
 20
-11.4351145346
 10
21.1268799108
 20
-11.4790369286
  0
LWPOLYLINE
  5
291
100
AcDbEntity
  8
ASSI
100
AcDbPolyline
 62
7
  6
CONTINUOUS
 90
36
 70
0
 10
17.6977434531
 20
-13.4589450763
 10
17.701357936
 20
-13.2801905066
 10
17.712004524
 20
-13.1066101031
 10
17.7296832172
 20
-12.9382038658
 10
17.7544596059
 20
-12.7746441908
 10
17.7862680998
 20
-12.616258682
 10
17.8249119276
 20
-12.4640301509
 10
17.8704336651
 20
-12.3179970087
 10
17.9227907365
 20
-12.1781208441
 10
17.9816586442
 20
-12.0452692346
 10
18.0470779155
 20
-11.9194859441
 10
18.1190080231
 20
-11.8007272087
 10
18.1970028865
 20
-11.689729314
 10
18.2811000384
 20
-11.5865406899
 10
18.3712619462
 20
-11.4911129065
 10
18.4669299318
 20
-11.4040369607
 10
18.5681381001
 20
-11.3253646724
 10
18.6748523463
 20
-11.2550442215
 10
18.7864116773
 20
-11.1935111455
 10
18.9028462577
 20
-11.140819911
 10
19.0241259229
 20
-11.0969160513
 10
19.1494991863
 20
-11.0620717037
 10
19.2789915292
 20
-11.0363431337
 10
19.4125774704
 20
-11.0196740757
 10
19.5494290795
 20
-11.0121678697
 10
19.6895665906
 20
-11.0138814372
 10
19.8329697697
 20
-11.0247578567
 10
19.9787499838
 20
-11.0447297037
 10
20.1269219644
 20
-11.0738534448
 10
20.27747098
 20
-11.1120726134
 10
20.4294642026
 20
-11.1591503847
 10
20.5829106154
 20
-11.2151417619
 10
20.7378012352
 20
-11.2799917418
 10
20.8931762854
 20
-11.3532984907
 10
21.0490387958
 20
-11.4351145346
 10
21.1268799108
 20
-11.4790369286
  0
LWPOLYLINE
  5
292
100
AcDbEntity
  8
SMUSSO
100
AcDbPolyline
 62
7
  6
CONTINUOUS
 90
18
 70
0
 10
18.4048502343
 20
-13.4589450763
 10
18.4083336727
 20
-13.2919750949
 10
18.4187762842
 20
-13.1294037426
 10
18.4361546942
 20
-12.9715994336
 10
18.4604298765
 20
-12.8189194811
 10
18.4915470885
 20
-12.6717102931
 10
18.5294358456
 20
-12.530306464
 10
18.5740104283
 20
-12.3950285124
 10
18.6251700189
 20
-12.2661829227
 10
18.6827985705
 20
-12.1440622665
 10
18.7467655303
 20
-12.0289433062
 10
18.8169260677
 20
-11.9210867842
 10
18.893121071
 20
-11.8207373381
 10
18.9751778114
 20
-11.7281223955
 10
19.0629104878
 20
-11.6434516109
 10
19.1561204633
 20
-11.5669166892
 10
19.2545965909
 20
-11.4986910264
 10
19.3056596358
 20
-11.4677897303
  0
LWPOLYLINE
  5
293
100
AcDbEntity
  8
ASSI
100
AcDbPolyline
 62
7
  6
CONTINUOUS
 90
18
 70
0
 10
18.4048502343
 20
-13.4589450763
 10
18.4083336727
 20
-13.2919750949
 10
18.4187762842
 20
-13.1294037426
 10
18.4361546942
 20
-12.9715994336
 10
18.4604298765
 20
-12.8189194811
 10
18.4915470885
 20
-12.6717102931
 10
18.5294358456
 20
-12.530306464
 10
18.5740104283
 20
-12.3950285124
 10
18.6251700189
 20
-12.2661829227
 10
18.6827985705
 20
-12.1440622665
 10
18.7467655303
 20
-12.0289433062
 10
18.8169260677
 20
-11.9210867842
 10
18.893121071
 20
-11.8207373381
 10
18.9751778114
 20
-11.7281223955
 10
19.0629104878
 20
-11.6434516109
 10
19.1561204633
 20
-11.5669166892
 10
19.2545965909
 20
-11.4986910264
 10
19.3056596358
 20
-11.4677897303
  0
LWPOLYLINE
  5
294
100
AcDbEntity
  8
0
100
AcDbPolyline
 62
7
  6
CONTINUOUS
 90
13
 70
0
 10
19.388115541
 20
-11.5349210738
 10
19.3119952425
 20
-11.6352148398
 10
19.2417278953
 20
-11.7432312504
 10
19.1777892368
 20
-11.8582389922
 10
19.1202222116
 20
-11.9802855062
 10
19.0689838751
 20
-12.1093233514
 10
19.0244211308
 20
-12.2444788911
 10
18.9865792775
 20
-12.3857936381
 10
18.9554130165
 20
-12.5332260795
 10
18.9311333556
 20
-12.6857780401
 10
18.9138106307
 20
-12.8431167946
 10
18.9033745059
 20
-13.0055750682
 10
18.8998249811
 20
-13.173152861
  0
LWPOLYLINE
  5
295
100
AcDbEntity
  8
ASSI
100
AcDbPolyline
 62
7
  6
CONTINUOUS
 90
13
 70
0
 10
19.388115541
 20
-11.5349210738
 10
19.3119952425
 20
-11.6352148398
 10
19.2417278953
 20
-11.7432312504
 10
19.1777892368
 20
-11.8582389922
 10
19.1202222116
 20
-11.9802855062
 10
19.0689838751
 20
-12.1093233514
 10
19.0244211308
 20
-12.2444788911
 10
18.9865792775
 20
-12.3857936381
 10
18.9554130165
 20
-12.5332260795
 10
18.9311333556
 20
-12.6857780401
 10
18.9138106307
 20
-12.8431167946
 10
18.9033745059
 20
-13.0055750682
 10
18.8998249811
 20
-13.173152861
  0
LWPOLYLINE
  5
296
100
AcDbEntity
  8
0
100
AcDbPolyline
 62
7
  6
CONTINUOUS
 90
4
 70
0
 10
19.5675643992
 20
-11.3497447566
 10
19.5579944245
 20
-11.3576062826
 10
19.4701285071
 20
-11.4424023559
 10
19.388115541
 20
-11.5349210738
  0
LWPOLYLINE
  5
297
100
AcDbEntity
  8
ASSI
100
AcDbPolyline
 62
7
  6
CONTINUOUS
 90
4
 70
0
 10
19.5675643992
 20
-11.3497447566
 10
19.5579944245
 20
-11.3576062826
 10
19.4701285071
 20
-11.4424023559
 10
19.388115541
 20
-11.5349210738
  0
LINE
  5
298
100
AcDbEntity
  8
ASSI
100
AcDbLine
 62
7
  6
CONTINUOUS
 10
48.2129015803
 20
6.3209415945
 11
52.274834565
 21
8.6662354967
  0
LINE
  5
299
100
AcDbEntity
  8
ASSI
100
AcDbLine
 62
7
  6
CONTINUOUS
 10
48.9204388496
 20
5.0954510971
 11
52.9823718343
 21
7.4407449993
  0
LWPOLYLINE
  5
29A
100
AcDbEntity
  8
SMUSSO
100
AcDbPolyline
 62
7
  6
CONTINUOUS
 90
16
 70
0
 10
19.3056596358
 20
-11.4677897303
 10
19.3581158033
 20
-11.4389291879
 10
19.4664437553
 20
-11.3877665062
 10
19.5793351471
 20
-11.3453189102
 10
19.6965341986
 20
-11.3116826465
 10
19.8177753711
 20
-11.2869339769
 10
19.9427840409
 20
-11.2711290044
 10
20.0712770166
 20
-11.2643035764
 10
20.2029631063
 20
-11.2664731887
 10
20.3375439623
 20
-11.2776329379
 10
20.4747147416
 20
-11.2977575573
 10
20.6141646752
 20
-11.3268014657
 10
20.7555778501
 20
-11.3646988752
 10
20.8986339167
 20
-11.411363944
 10
21.0430087884
 20
-11.466690963
 10
21.1883754108
 20
-11.5305546081
  0
LWPOLYLINE
  5
29B
100
AcDbEntity
  8
ASSI
100
AcDbPolyline
 62
7
  6
CONTINUOUS
 90
16
 70
0
 10
19.3056596358
 20
-11.4677897303
 10
19.3581158033
 20
-11.4389291879
 10
19.4664437553
 20
-11.3877665062
 10
19.5793351471
 20
-11.3453189102
 10
19.6965341986
 20
-11.3116826465
 10
19.8177753711
 20
-11.2869339769
 10
19.9427840409
 20
-11.2711290044
 10
20.0712770166
 20
-11.2643035764
 10
20.2029631063
 20
-11.2664731887
 10
20.3375439623
 20
-11.2776329379
 10
20.4747147416
 20
-11.2977575573
 10
20.6141646752
 20
-11.3268014657
 10
20.7555778501
 20
-11.3646988752
 10
20.8986339167
 20
-11.411363944
 10
21.0430087884
 20
-11.466690963
 10
21.1883754108
 20
-11.5305546081
  0
LWPOLYLINE
  5
29C
100
AcDbEntity
  8
SMUSSO
100
AcDbPolyline
 62
7
  6
CONTINUOUS
 90
70
 70
0
 10
24.5566792306
 20
-17.4192086316
 10
24.5530647477
 20
-17.5979632013
 10
24.5424181596
 20
-17.7715436048
 10
24.5247394665
 20
-17.9399498421
 10
24.4999630778
 20
-18.1035095171
 10
24.4681545839
 20
-18.2618950259
 10
24.429510756
 20
-18.4141235571
 10
24.3839890186
 20
-18.5601566993
 10
24.3316319472
 20
-18.7000328638
 10
24.2727640395
 20
-18.8328844733
 10
24.2073447682
 20
-18.9586677638
 10
24.1354146606
 20
-19.0774264993
 10
24.0574197972
 20
-19.1884243939
 10
23.9733226453
 20
-19.291613018
 10
23.8831607375
 20
-19.3870408014
 10
23.7874927519
 20
-19.4741167472
 10
23.6862845835
 20
-19.5527890356
 10
23.5795703374
 20
-19.6231094864
 10
23.4680110064
 20
-19.6846425624
 10
23.351576426
 20
-19.7373337969
 10
23.2302967608
 20
-19.7812376566
 10
23.1049234974
 20
-19.8160820043
 10
22.9754311545
 20
-19.8418105742
 10
22.8418452133
 20
-19.8584796322
 10
22.7049936042
 20
-19.8659858382
 10
22.564856093
 20
-19.8642722707
 10
22.421452914
 20
-19.8533958512
 10
22.2756726999
 20
-19.8334240043
 10
22.1275007193
 20
-19.8043002631
 10
21.9769517037
 20
-19.7660810945
 10
21.8249584811
 20
-19.7190033232
 10
21.6715120683
 20
-19.663011946
 10
21.5166214485
 20
-19.5981619661
 10
21.3612463983
 20
-19.5248552172
 10
21.2053838879
 20
-19.4430391733
 10
21.0490369472
 20
-19.3527663604
 10
20.8931744426
 20
-19.2545961908
 10
20.7377994061
 20
-19.148479639
 10
20.5829088058
 20
-19.0344657304
 10
20.4294624129
 20
-18.9132609537
 10
20.2774692083
 20
-18.7848206778
 10
20.1269202112
 20
-18.6491895337
 10
19.9787482504
 20
-18.507207903
 10
19.8329680547
 20
-18.3588363266
 10
19.6895648952
 20
-18.2041142634
 10
19.5494274143
 20
-18.0440004724
 10
19.4125758493
 20
-17.8784613999
 10
19.2789899629
 20
-17.7075305995
 10
19.1494976853
 20
-17.5322674902
 10
19.0241245045
 20
-17.3526452437
 10
18.9028449326
 20
-17.1686906884
 10
18.7864104357
 20
-16.9815437281
 10
18.6748511726
 20
-16.7911847254
 10
18.5681369847
 20
-16.5976333177
 10
18.4669288619
 20
-16.4020883209
 10
18.3712608988
 20
-16.2045372724
 10
18.2810990009
 20
-16.0049926348
 10
18.1970018748
 20
-15.8046906128
 10
18.1190070624
 20
-15.6036261258
 10
18.0470770219
 20
-15.4018042543
 10
17.9816578344
 20
-15.200476444
 10
17.922790034
 20
-14.9996457429
 10
17.8704330866
 20
-14.7993091029
 10
17.8249114715
 20
-14.6007088254
 10
17.7862677657
 20
-14.4038556884
 10
17.7544593923
 20
-14.2087389139
 10
17.7296830995
 20
-14.0165684687
 10
17.7120044701
 20
-13.8277476752
 10
17.7013579213
 20
-13.6418732111
 10
17.6977434531
 20
-13.4589450763
  0
LWPOLYLINE
  5
29D
100
AcDbEntity
  8
ASSI
100
AcDbPolyline
 62
7
  6
CONTINUOUS
 90
70
 70
0
 10
24.5566792306
 20
-17.4192086316
 10
24.5530647477
 20
-17.5979632013
 10
24.5424181596
 20
-17.7715436048
 10
24.5247394665
 20
-17.9399498421
 10
24.4999630778
 20
-18.1035095171
 10
24.4681545839
 20
-18.2618950259
 10
24.429510756
 20
-18.4141235571
 10
24.3839890186
 20
-18.5601566993
 10
24.3316319472
 20
-18.7000328638
 10
24.2727640395
 20
-18.8328844733
 10
24.2073447682
 20
-18.9586677638
 10
24.1354146606
 20
-19.0774264993
 10
24.0574197972
 20
-19.1884243939
 10
23.9733226453
 20
-19.291613018
 10
23.8831607375
 20
-19.3870408014
 10
23.7874927519
 20
-19.4741167472
 10
23.6862845835
 20
-19.5527890356
 10
23.5795703374
 20
-19.6231094864
 10
23.4680110064
 20
-19.6846425624
 10
23.351576426
 20
-19.7373337969
 10
23.2302967608
 20
-19.7812376566
 10
23.1049234974
 20
-19.8160820043
 10
22.9754311545
 20
-19.8418105742
 10
22.8418452133
 20
-19.8584796322
 10
22.7049936042
 20
-19.8659858382
 10
22.564856093
 20
-19.8642722707
 10
22.421452914
 20
-19.8533958512
 10
22.2756726999
 20
-19.8334240043
 10
22.1275007193
 20
-19.8043002631
 10
21.9769517037
 20
-19.7660810945
 10
21.8249584811
 20
-19.7190033232
 10
21.6715120683
 20
-19.663011946
 10
21.5166214485
 20
-19.5981619661
 10
21.3612463983
 20
-19.5248552172
 10
21.2053838879
 20
-19.4430391733
 10
21.0490369472
 20
-19.3527663604
 10
20.8931744426
 20
-19.2545961908
 10
20.7377994061
 20
-19.148479639
 10
20.5829088058
 20
-19.0344657304
 10
20.4294624129
 20
-18.9132609537
 10
20.2774692083
 20
-18.7848206778
 10
20.1269202112
 20
-18.6491895337
 10
19.9787482504
 20
-18.507207903
 10
19.8329680547
 20
-18.3588363266
 10
19.6895648952
 20
-18.2041142634
 10
19.5494274143
 20
-18.0440004724
 10
19.4125758493
 20
-17.8784613999
 10
19.2789899629
 20
-17.7075305995
 10
19.1494976853
 20
-17.5322674902
 10
19.0241245045
 20
-17.3526452437
 10
18.9028449326
 20
-17.1686906884
 10
18.7864104357
 20
-16.9815437281
 10
18.6748511726
 20
-16.7911847254
 10
18.5681369847
 20
-16.5976333177
 10
18.4669288619
 20
-16.4020883209
 10
18.3712608988
 20
-16.2045372724
 10
18.2810990009
 20
-16.0049926348
 10
18.1970018748
 20
-15.8046906128
 10
18.1190070624
 20
-15.6036261258
 10
18.0470770219
 20
-15.4018042543
 10
17.9816578344
 20
-15.200476444
 10
17.922790034
 20
-14.9996457429
 10
17.8704330866
 20
-14.7993091029
 10
17.8249114715
 20
-14.6007088254
 10
17.7862677657
 20
-14.4038556884
 10
17.7544593923
 20
-14.2087389139
 10
17.7296830995
 20
-14.0165684687
 10
17.7120044701
 20
-13.8277476752
 10
17.7013579213
 20
-13.6418732111
 10
17.6977434531
 20
-13.4589450763
  0
LINE
  5
29E
100
AcDbEntity
  8
SMUSSO
100
AcDbLine
 62
7
  6
CONTINUOUS
 10
24.5513589747
 20
-17.2064997304
 11
24.5427531807
 21
-17.340475372
  0
LINE
  5
29F
100
AcDbEntity
  8
ASSI
100
AcDbLine
 62
7
  6
CONTINUOUS
 10
24.5513589747
 20
-17.2064997304
 11
24.5427531807
 21
-17.340475372
  0
LWPOLYLINE
  5
2A0
100
AcDbEntity
  8
SMUSSO
100
AcDbPolyline
 62
7
  6
CONTINUOUS
 90
16
 70
0
 10
24.5427531807
 20
-17.340475372
 10
24.5253747707
 20
-17.498279681
 10
24.5010995884
 20
-17.6509596335
 10
24.4699823763
 20
-17.7981688215
 10
24.4320936192
 20
-17.9395726506
 10
24.3875190366
 20
-18.0748506022
 10
24.336359446
 20
-18.2036961919
 10
24.2787308943
 20
-18.3258168481
 10
24.2147639346
 20
-18.4409358084
 10
24.1446033971
 20
-18.5487923304
 10
24.0684083939
 20
-18.6491417765
 10
23.9863516535
 20
-18.7417567191
 10
23.898618977
 20
-18.8264275037
 10
23.8054090015
 20
-18.9029624254
 10
23.706932874
 20
-18.9711880882
 10
23.655869829
 20
-19.0020893843
  0
LWPOLYLINE
  5
2A1
100
AcDbEntity
  8
ASSI
100
AcDbPolyline
 62
7
  6
CONTINUOUS
 90
16
 70
0
 10
24.5427531807
 20
-17.340475372
 10
24.5253747707
 20
-17.498279681
 10
24.5010995884
 20
-17.6509596335
 10
24.4699823763
 20
-17.7981688215
 10
24.4320936192
 20
-17.9395726506
 10
24.3875190366
 20
-18.0748506022
 10
24.336359446
 20
-18.2036961919
 10
24.2787308943
 20
-18.3258168481
 10
24.2147639346
 20
-18.4409358084
 10
24.1446033971
 20
-18.5487923304
 10
24.0684083939
 20
-18.6491417765
 10
23.9863516535
 20
-18.7417567191
 10
23.898618977
 20
-18.8264275037
 10
23.8054090015
 20
-18.9029624254
 10
23.706932874
 20
-18.9711880882
 10
23.655869829
 20
-19.0020893843
  0
LWPOLYLINE
  5
2A2
100
AcDbEntity
  8
SMUSSO
100
AcDbPolyline
 62
7
  6
CONTINUOUS
 90
51
 70
0
 10
23.655869829
 20
-19.0020893843
 10
23.6034136615
 20
-19.0309499267
 10
23.4950857095
 20
-19.0821126084
 10
23.3821943178
 20
-19.1245602044
 10
23.2649952663
 20
-19.1581964681
 10
23.1437540938
 20
-19.1829451377
 10
23.018745424
 20
-19.1987501102
 10
22.8902524483
 20
-19.2055755381
 10
22.7585663586
 20
-19.2034059259
 10
22.6239855026
 20
-19.1922461767
 10
22.4868147233
 20
-19.1721215573
 10
22.3473647896
 20
-19.1430776489
 10
22.2059516148
 20
-19.1051802394
 10
22.0628955482
 20
-19.0585151706
 10
21.9185206765
 20
-19.0031881516
 10
21.773154054
 20
-18.9393245065
 10
21.6271250059
 20
-18.8670689087
 10
21.4807643917
 20
-18.7865850646
 10
21.3344037778
 20
-18.6980553028
 10
21.1883747302
 20
-18.6016801789
 10
21.0430081084
 20
-18.4976780546
 10
20.8986332377
 20
-18.3862845531
 10
20.7555771723
 20
-18.2677520239
 10
20.614163998
 20
-18.1423490044
 10
20.4747140632
 20
-18.0103595826
 10
20.3375432825
 20
-17.8720827805
 10
20.2029624284
 20
-17.7278318883
 10
20.0712763447
 20
-17.577933666
 10
19.942783378
 20
-17.4227277338
 10
19.8177747208
 20
-17.2625658494
 10
19.6965335665
 20
-17.0978108863
 10
19.5793345364
 20
-16.928836073
 10
19.4664431627
 20
-16.7560242997
 10
19.3581152261
 20
-16.5797671806
 10
19.254596027
 20
-16.4004639108
 10
19.1561199066
 20
-16.2185204293
 10
19.0629099288
 20
-16.0343488841
 10
18.9751772475
 20
-15.8483665074
 10
18.8931205099
 20
-15.6609944058
 10
18.8169255156
 20
-15.4726567889
 10
18.7467649948
 20
-15.2837805514
 10
18.6827980695
 20
-15.0947941016
 10
18.6251695681
 20
-14.9061254342
 10
18.5740100381
 20
-14.718202065
 10
18.5294355259
 20
-14.5314505878
 10
18.4915468449
 20
-14.3462939135
 10
18.4604297074
 20
-14.1631515384
 10
18.4361545917
 20
-13.9824394428
 10
18.4187762354
 20
-13.8045672447
 10
18.4083336597
 20
-13.6299373219
 10
18.4048502343
 20
-13.4589450763
  0
LWPOLYLINE
  5
2A3
100
AcDbEntity
  8
ASSI
100
AcDbPolyline
 62
7
  6
CONTINUOUS
 90
51
 70
0
 10
23.655869829
 20
-19.0020893843
 10
23.6034136615
 20
-19.0309499267
 10
23.4950857095
 20
-19.0821126084
 10
23.3821943178
 20
-19.1245602044
 10
23.2649952663
 20
-19.1581964681
 10
23.1437540938
 20
-19.1829451377
 10
23.018745424
 20
-19.1987501102
 10
22.8902524483
 20
-19.2055755381
 10
22.7585663586
 20
-19.2034059259
 10
22.6239855026
 20
-19.1922461767
 10
22.4868147233
 20
-19.1721215573
 10
22.3473647896
 20
-19.1430776489
 10
22.2059516148
 20
-19.1051802394
 10
22.0628955482
 20
-19.0585151706
 10
21.9185206765
 20
-19.0031881516
 10
21.773154054
 20
-18.9393245065
 10
21.6271250059
 20
-18.8670689087
 10
21.4807643917
 20
-18.7865850646
 10
21.3344037778
 20
-18.6980553028
 10
21.1883747302
 20
-18.6016801789
 10
21.0430081084
 20
-18.4976780546
 10
20.8986332377
 20
-18.3862845531
 10
20.7555771723
 20
-18.2677520239
 10
20.614163998
 20
-18.1423490044
 10
20.4747140632
 20
-18.0103595826
 10
20.3375432825
 20
-17.8720827805
 10
20.2029624284
 20
-17.7278318883
 10
20.0712763447
 20
-17.577933666
 10
19.942783378
 20
-17.4227277338
 10
19.8177747208
 20
-17.2625658494
 10
19.6965335665
 20
-17.0978108863
 10
19.5793345364
 20
-16.928836073
 10
19.4664431627
 20
-16.7560242997
 10
19.3581152261
 20
-16.5797671806
 10
19.254596027
 20
-16.4004639108
 10
19.1561199066
 20
-16.2185204293
 10
19.0629099288
 20
-16.0343488841
 10
18.9751772475
 20
-15.8483665074
 10
18.8931205099
 20
-15.6609944058
 10
18.8169255156
 20
-15.4726567889
 10
18.7467649948
 20
-15.2837805514
 10
18.6827980695
 20
-15.0947941016
 10
18.6251695681
 20
-14.9061254342
 10
18.5740100381
 20
-14.718202065
 10
18.5294355259
 20
-14.5314505878
 10
18.4915468449
 20
-14.3462939135
 10
18.4604297074
 20
-14.1631515384
 10
18.4361545917
 20
-13.9824394428
 10
18.4187762354
 20
-13.8045672447
 10
18.4083336597
 20
-13.6299373219
 10
18.4048502343
 20
-13.4589450763
  0
LINE
  5
2A4
100
AcDbEntity
  8
ASSI
100
AcDbLine
 62
7
  6
CONTINUOUS
 10
48.8989374977
 20
5.1074460445
 11
48.9204388496
 21
5.0954510971
  0
LINE
  5
2A5
100
AcDbEntity
  8
ASSI
100
AcDbLine
 62
7
  6
CONTINUOUS
 10
47.2030024326
 20
5.2430282598
 11
-52.678287479
 21
62.9132332483
  0
LINE
  5
2A6
100
AcDbEntity
  8
ASSI
100
AcDbLine
 62
7
  6
CONTINUOUS
 10
47.2030024326
 20
5.2430282598
 11
48.21253915
 21
6.2963228556
  0
LINE
  5
2A7
100
AcDbEntity
  8
ASSI
100
AcDbLine
 62
7
  6
CONTINUOUS
 10
48.2129015803
 20
6.3209415945
 11
-52.274834565
 21
64.3413010376
  0
LINE
  5
2A8
100
AcDbEntity
  8
ASSI
100
AcDbLine
 62
7
  6
CONTINUOUS
 10
52.274834565
 20
8.6662354967
 11
-48.4870207779
 21
66.844867929
  0
LINE
  5
2A9
100
AcDbEntity
  8
ASSI
100
AcDbLine
 62
7
  6
CONTINUOUS
 10
47.4819783668
 20
4.7598277683
 11
47.2030024326
 21
5.2430282598
  0
LINE
  5
2AA
100
AcDbEntity
  8
ASSI
100
AcDbLine
 62
7
  6
CONTINUOUS
 10
48.8989374977
 20
5.1074460445
 11
48.21253915
 21
6.2963228556
  0
LWPOLYLINE
  5
2AB
100
AcDbEntity
  8
CURVE
100
AcDbPolyline
 62
250
  6
CONTINUOUS
 90
73
 70
0
 10
50.9971011041
 20
-53.4643714226
 10
50.9959581259
 20
-53.4580353646
 10
50.9942061051
 20
-53.4522315656
 10
50.9919126468
 20
-53.4469065454
 10
50.9891453565
 20
-53.4420068241
 10
50.9859718393
 20
-53.4374789216
 10
50.9824597004
 20
-53.4332693577
 10
50.9786765452
 20
-53.4293246524
 10
50.9746899789
 20
-53.4255913257
 10
50.9705676066
 20
-53.4220158973
 10
50.9663770338
 20
-53.4185448873
 10
50.9557838719
 20
-53.4100598435
 10
50.9451328878
 20
-53.4019453118
 10
50.9343700351
 20
-53.3942487606
 10
50.9234412675
 20
-53.3870176585
 10
50.9122925384
 20
-53.3802994741
 10
50.9008698016
 20
-53.374141676
 10
50.8891190106
 20
-53.3685917328
 10
50.8769861191
 20
-53.3636971129
 10
50.8634082319
 20
-53.3591897964
 10
50.8493588644
 20
-53.3554912694
 10
50.8348752896
 20
-53.3525905345
 10
50.8199947803
 20
-53.3504765944
 10
50.8047546092
 20
-53.3491384516
 10
50.7891920493
 20
-53.3485651089
 10
50.7733443733
 20
-53.3487455689
 10
50.757248854
 20
-53.3496688343
 10
50.7409427643
 20
-53.3513239075
 10
50.7244633769
 20
-53.3536997914
 10
50.7078584161
 20
-53.3567819949
 10
50.6911272571
 20
-53.3605594151
 10
50.6742794812
 20
-53.3650187366
 10
50.6573246695
 20
-53.370146644
 10
50.6402724032
 20
-53.3759298218
 10
50.6231322634
 20
-53.3823549544
 10
50.6034441619
 20
-53.3904683381
 10
50.5836787396
 20
-53.3993765984
 10
50.5638609956
 20
-53.409053046
 10
50.544015929
 20
-53.419470991
 10
50.5241685389
 20
-53.430603744
 10
50.5043438243
 20
-53.4424246152
 10
50.4850593015
 20
-53.4545938052
 10
50.4658435264
 20
-53.4674033276
 10
50.4467199209
 20
-53.4808646676
 10
50.4277119064
 20
-53.4949893105
 10
50.4088429046
 20
-53.5097887418
 10
50.3920199783
 20
-53.5236749721
 10
50.3753487484
 20
-53.5381093828
 10
50.3588496591
 20
-53.5530856235
 10
50.3425431545
 20
-53.5685973436
 10
50.3264496791
 20
-53.5846381926
 10
50.3091965569
 20
-53.6026903305
 10
50.2922488226
 20
-53.6213280073
 10
50.2756351783
 20
-53.6405172246
 10
50.2593843261
 20
-53.6602239842
 10
50.2435249682
 20
-53.6804142877
 10
50.2280858065
 20
-53.7010541368
 10
50.2130955431
 20
-53.7221095332
 10
50.1985828802
 20
-53.7435464787
 10
50.1853381876
 20
-53.764113511
 10
50.1725555275
 20
-53.7849661056
 10
50.1602452957
 20
-53.806079799
 10
50.148417888
 20
-53.8274301281
 10
50.1370836999
 20
-53.8489926295
 10
50.1262531275
 20
-53.8707428399
 10
50.1159365662
 20
-53.8926562961
 10
50.108752508
 20
-53.9087161115
 10
50.1018864384
 20
-53.9248291448
 10
50.0953777275
 20
-53.9409748784
 10
50.0892657456
 20
-53.957132795
 10
50.0835898628
 20
-53.973282377
 10
50.0783894495
 20
-53.989403107
 10
50.0737038756
 20
-54.0054744675
  0
LWPOLYLINE
  5
2AC
100
AcDbEntity
  8
CURVE
100
AcDbPolyline
 62
250
  6
CONTINUOUS
 90
22
 70
0
 10
50.3445469555
 20
-54.5008316242
 10
50.342319287
 20
-54.4871553963
 10
50.340192507
 20
-54.4734067584
 10
50.338183658
 20
-54.4595739507
 10
50.3363097825
 20
-54.4456452131
 10
50.3345879231
 20
-54.4316087856
 10
50.3330351221
 20
-54.4174529084
 10
50.3315649337
 20
-54.4020299732
 10
50.3303116089
 20
-54.3864592095
 10
50.3292752182
 20
-54.3707456378
 10
50.3284558321
 20
-54.3548942787
 10
50.3278535212
 20
-54.3389101526
 10
50.3274683561
 20
-54.3227982802
 10
50.3273004074
 20
-54.3065636819
 10
50.3273497454
 20
-54.2902113784
 10
50.3276164409
 20
-54.2737463902
 10
50.3281005643
 20
-54.2571737377
 10
50.3288021862
 20
-54.2404984416
 10
50.3297213771
 20
-54.2237255224
 10
50.3308582076
 20
-54.2068600007
 10
50.3322127483
 20
-54.1899068969
 10
50.3337850696
 20
-54.1728712316
  0
LINE
  5
2AD
100
AcDbEntity
  8
ASSI
100
AcDbLine
 62
7
  6
CONTINUOUS
 10
47.4819783668
 20
-66.071805831
 11
47.4819783668
 21
4.7598277683
  0
LINE
  5
2AE
100
AcDbEntity
  8
ASSI
100
AcDbLine
 62
7
  6
CONTINUOUS
 10
48.9204388496
 20
-66.4364237351
 11
48.9204388496
 21
5.0954510971
  0
LINE
  5
2AF
100
AcDbEntity
  8
CURVE
100
AcDbLine
 62
250
  6
CONTINUOUS
 10
50.0329872357
 20
-59.2485245151
 11
50.0329872357
 21
-59.6745529902
  0
LINE
  5
2B0
100
AcDbEntity
  8
CURVE
100
AcDbLine
 62
250
  6
CONTINUOUS
 10
50.0330962074
 20
-61.5111025651
 11
50.0330962074
 21
-61.048304351
  0
LINE
  5
2B1
100
AcDbEntity
  8
CURVE
100
AcDbLine
 62
250
  6
CONTINUOUS
 10
50.0330962074
 20
-60.2583318006
 11
50.0330962074
 21
-59.8325948053
  0
LINE
  5
2B2
100
AcDbEntity
  8
CURVE
100
AcDbLine
 62
250
  6
CONTINUOUS
 10
50.0330962074
 20
-58.8348346518
 11
50.0330962074
 21
-58.4091588918
  0
LINE
  5
2B3
100
AcDbEntity
  8
CURVE
100
AcDbLine
 62
250
  6
CONTINUOUS
 10
50.0330962074
 20
-57.5616015093
 11
50.0330962074
 21
-57.1400881147
  0
LINE
  5
2B4
100
AcDbEntity
  8
CURVE
100
AcDbLine
 62
250
  6
CONTINUOUS
 10
50.0330962074
 20
-56.2421626808
 11
50.0330962074
 21
-55.8300313462
  0
LINE
  5
2B5
100
AcDbEntity
  8
CURVE
100
AcDbLine
 62
250
  6
CONTINUOUS
 10
50.8464209922
 20
-53.9871403477
 11
50.8464209922
 21
-54.2306113389
  0
LINE
  5
2B6
100
AcDbEntity
  8
CURVE
100
AcDbLine
 62
250
  6
CONTINUOUS
 10
51.14583448
 20
-54.0552739132
 11
51.14583448
 21
-53.8268476784
  0
LINE
  5
2B7
100
AcDbEntity
  8
CURVE
100
AcDbLine
 62
250
  6
CONTINUOUS
 10
51.2139018636
 20
-55.620455653
 11
51.2139018636
 21
-55.2125634321
  0
LINE
  5
2B8
100
AcDbEntity
  8
CURVE
100
AcDbLine
 62
250
  6
CONTINUOUS
 10
51.4963155582
 20
-54.9753640175
 11
51.4963155582
 21
-55.5555437138
  0
LINE
  5
2B9
100
AcDbEntity
  8
CURVE
100
AcDbLine
 62
250
  6
CONTINUOUS
 10
51.861287384
 20
-58.6901550105
 11
51.861287384
 21
-58.2641265353
  0
LINE
  5
2BA
100
AcDbEntity
  8
CURVE
100
AcDbLine
 62
250
  6
CONTINUOUS
 10
51.8612873961
 20
-54.0943721151
 11
51.8612873961
 21
-53.6700579487
  0
LINE
  5
2BB
100
AcDbEntity
  8
CURVE
100
AcDbLine
 62
250
  6
CONTINUOUS
 10
51.8612873961
 20
-53.0176542561
 11
51.8612873961
 21
-52.607864478
  0
LINE
  5
2BC
100
AcDbEntity
  8
CURVE
100
AcDbLine
 62
250
  6
CONTINUOUS
 10
51.861287384
 20
-54.2194748499
 11
51.861287384
 21
-54.6684910457
  0
LINE
  5
2BD
100
AcDbEntity
  8
CURVE
100
AcDbLine
 62
250
  6
CONTINUOUS
 10
51.861287384
 20
-55.4765925022
 11
51.861287384
 21
-55.8979981226
  0
LINE
  5
2BE
100
AcDbEntity
  8
CURVE
100
AcDbLine
 62
250
  6
CONTINUOUS
 10
51.861287384
 20
-55.9648964312
 11
51.861287384
 21
-56.3816653169
  0
LINE
  5
2BF
100
AcDbEntity
  8
CURVE
100
AcDbLine
 62
250
  6
CONTINUOUS
 10
51.861287384
 20
-56.9757413374
 11
51.861287384
 21
-57.0354922652
  0
LINE
  5
2C0
100
AcDbEntity
  8
CURVE
100
AcDbLine
 62
250
  6
CONTINUOUS
 10
51.861287384
 20
-57.6272119524
 11
51.861287384
 21
-58.034782484
  0
LINE
  5
2C1
100
AcDbEntity
  8
CURVE
100
AcDbLine
 62
250
  6
CONTINUOUS
 10
51.861287384
 20
-59.5043016129
 11
51.861287384
 21
-59.8797391402
  0
LWPOLYLINE
  5
2C2
100
AcDbEntity
  8
CURVE
100
AcDbPolyline
 62
250
  6
CONTINUOUS
 90
48
 70
0
 10
51.14583448
 20
-53.8268476784
 10
51.1459090817
 20
-53.8202479141
 10
51.1461337004
 20
-53.8135557305
 10
51.1465095569
 20
-53.8067772216
 10
51.1470378716
 20
-53.7999184814
 10
51.1477198653
 20
-53.7929856039
 10
51.1485567585
 20
-53.7859846831
 10
51.1495497718
 20
-53.778921813
 10
51.1507001258
 20
-53.7718030876
 10
51.1520090413
 20
-53.7646346008
 10
51.1534777387
 20
-53.7574224467
 10
51.1551074387
 20
-53.7501727193
 10
51.1568993619
 20
-53.7428915126
 10
51.1588547289
 20
-53.7355849204
 10
51.1609747603
 20
-53.728259037
 10
51.1632606767
 20
-53.7209199562
 10
51.1657136988
 20
-53.713573772
 10
51.1683350472
 20
-53.7062265785
 10
51.1711981317
 20
-53.6986971684
 10
51.1742339804
 20
-53.6911775012
 10
51.1774370613
 20
-53.6836719729
 10
51.1808018423
 20
-53.6761849793
 10
51.1843227915
 20
-53.6687209164
 10
51.1879943768
 20
-53.6612841801
 10
51.1918110662
 20
-53.6538791663
 10
51.1957673277
 20
-53.6465102709
 10
51.1998576293
 20
-53.6391818899
 10
51.2040764391
 20
-53.6318984191
 10
51.2084182248
 20
-53.6246642544
 10
51.2128774547
 20
-53.6174837919
 10
51.2174485966
 20
-53.6103614273
 10
51.2221261185
 20
-53.6033015567
 10
51.2269044885
 20
-53.5963085759
 10
51.2317781744
 20
-53.5893868808
 10
51.2367416444
 20
-53.5825408674
 10
51.2417893664
 20
-53.5757749315
 10
51.2469158083
 20
-53.5690934692
 10
51.2521154382
 20
-53.5625008762
 10
51.2573827241
 20
-53.5560015485
 10
51.2627121339
 20
-53.5495998821
 10
51.2680981357
 20
-53.5433002728
 10
51.2735351974
 20
-53.5371071166
 10
51.279017787
 20
-53.5310248093
 10
51.2845403725
 20
-53.525057747
 10
51.2900974218
 20
-53.5192103254
 10
51.2956834031
 20
-53.5134869405
 10
51.3012927842
 20
-53.5078919883
 10
51.3069200332
 20
-53.5024298646
  0
LINE
  5
2C3
100
AcDbEntity
  8
ASSI
100
AcDbLine
 62
7
  6
CONTINUOUS
 10
48.2129015803
 20
6.3209415945
 11
48.21253915
 21
6.2963228556
  0
LINE
  5
2C4
100
AcDbEntity
  8
ASSI
100
AcDbLine
 62
7
  6
CONTINUOUS
 10
52.274834565
 20
8.6662354967
 11
52.9823718343
 21
7.4407449993
  0
LINE
  5
2C5
100
AcDbEntity
  8
ASSI
100
AcDbLine
 62
7
  6
CONTINUOUS
 10
52.9823718343
 20
-64.4076452208
 11
52.9823718343
 21
7.4407449993
  0
LWPOLYLINE
  5
2C6
100
AcDbEntity
  8
CURVE
100
AcDbPolyline
 62
250
  6
CONTINUOUS
 90
49
 70
0
 10
50.3337850696
 20
-54.1728712316
 10
50.3346914582
 20
-54.1645751612
 10
50.3357869023
 20
-54.1561767666
 10
50.3370708704
 20
-54.1476849342
 10
50.3385428312
 20
-54.1391085502
 10
50.340202253
 20
-54.1304565008
 10
50.3420486045
 20
-54.1217376724
 10
50.3440813541
 20
-54.1129609512
 10
50.3462999703
 20
-54.1041352234
 10
50.3487039218
 20
-54.0952693753
 10
50.3512926769
 20
-54.0863722932
 10
50.3540657043
 20
-54.0774528633
 10
50.3570224724
 20
-54.0685199718
 10
50.3601624498
 20
-54.059582505
 10
50.363485105
 20
-54.0506493492
 10
50.3669899064
 20
-54.0417293907
 10
50.3706763227
 20
-54.0328315156
 10
50.3745438224
 20
-54.0239646103
 10
50.3785918738
 20
-54.015137561
 10
50.3828199457
 20
-54.0063592539
 10
50.3872275065
 20
-53.9976385753
 10
50.3918140247
 20
-53.9889844115
 10
50.3965789688
 20
-53.9804056487
 10
50.4015218074
 20
-53.9719111732
 10
50.4066420089
 20
-53.9635098713
 10
50.4119087303
 20
-53.9552547652
 10
50.4173421198
 20
-53.9471075412
 10
50.4229339154
 20
-53.9390751184
 10
50.4286758547
 20
-53.9311644164
 10
50.4345596754
 20
-53.9233823543
 10
50.4405771153
 20
-53.9157358516
 10
50.446719912
 20
-53.9082318276
 10
50.4529798034
 20
-53.9008772016
 10
50.4593485271
 20
-53.893678893
 10
50.4658178208
 20
-53.8866438211
 10
50.4723794223
 20
-53.8797789053
 10
50.4790250693
 20
-53.8730910649
 10
50.4857464996
 20
-53.8665872193
 10
50.4925354508
 20
-53.8602742877
 10
50.4993836606
 20
-53.8541591896
 10
50.5062828669
 20
-53.8482488443
 10
50.5132248072
 20
-53.8425501711
 10
50.5202012195
 20
-53.8370700894
 10
50.5272038412
 20
-53.8318155185
 10
50.5342244103
 20
-53.8267933778
 10
50.5412546644
 20
-53.8220105866
 10
50.5482863412
 20
-53.8174740642
 10
50.5553111785
 20
-53.81319073
 10
50.562320914
 20
-53.8091675034
  0
LWPOLYLINE
  5
2C7
100
AcDbEntity
  8
CURVE
100
AcDbPolyline
 62
250
  6
CONTINUOUS
 90
32
 70
0
 10
50.0737038756
 20
-54.0054744675
 10
50.0661011624
 20
-54.0342290719
 10
50.059152135
 20
-54.0628684835
 10
50.0528250831
 20
-54.0913888646
 10
50.0470882964
 20
-54.1197863777
 10
50.0419100647
 20
-54.148057185
 10
50.0372586777
 20
-54.1761974489
 10
50.0331024253
 20
-54.2042033318
 10
50.0294095971
 20
-54.2320709959
 10
50.0261484829
 20
-54.2597966036
 10
50.0232873724
 20
-54.2873763174
 10
50.0207945554
 20
-54.3148062994
 10
50.0186383216
 20
-54.3420827121
 10
50.0159727782
 20
-54.3828126863
 10
50.0139692603
 20
-54.4231972578
 10
50.0126001687
 20
-54.4632470792
 10
50.0118379045
 20
-54.5029728035
 10
50.0116548686
 20
-54.5423850833
 10
50.0120234619
 20
-54.5814945716
 10
50.0129160854
 20
-54.6203119211
 10
50.0143051401
 20
-54.6588477846
 10
50.0161630268
 20
-54.6971128149
 10
50.0184621465
 20
-54.7351176647
 10
50.0211749002
 20
-54.772872987
 10
50.0242736888
 20
-54.8103894345
 10
50.0277309132
 20
-54.84767766
 10
50.0315189744
 20
-54.8847483162
 10
50.0356102734
 20
-54.9216120561
 10
50.0399772111
 20
-54.9582795323
 10
50.0445921884
 20
-54.9947613977
 10
50.0494276063
 20
-55.0310683052
 10
50.0544558657
 20
-55.0672109074
  0
LINE
  5
2C8
100
AcDbEntity
  8
CURVE
100
AcDbLine
 62
7
  6
CONTINUOUS
 10
50.2496509128
 20
-53.6731801261
 11
50.4258812726
 21
-53.4969497662
  0
LINE
  5
2C9
100
AcDbEntity
  8
CURVE
100
AcDbLine
 62
7
  6
CONTINUOUS
 10
50.0564759709
 20
-54.0763657819
 11
50.7837157942
 21
-53.3491259587
  0
LINE
  5
2CA
100
AcDbEntity
  8
CURVE
100
AcDbLine
 62
7
  6
CONTINUOUS
 10
50.0204329604
 20
-54.3224195064
 11
50.942565975
 21
-53.4002864919
  0
LINE
  5
2CB
100
AcDbEntity
  8
CURVE
100
AcDbLine
 62
7
  6
CONTINUOUS
 10
50.0123367037
 20
-54.5405264771
 11
50.3297720722
 21
-54.2230911087
  0
LINE
  5
2CC
100
AcDbEntity
  8
CURVE
100
AcDbLine
 62
7
  6
CONTINUOUS
 10
50.771407348
 20
-53.7814558328
 11
51.8612873961
 21
-52.6915757848
  0
LINE
  5
2CD
100
AcDbEntity
  8
CURVE
100
AcDbLine
 62
7
  6
CONTINUOUS
 10
50.0193890696
 20
-54.7434848252
 11
50.334384173
 21
-54.4284897218
  0
LINE
  5
2CE
100
AcDbEntity
  8
CURVE
100
AcDbLine
 62
7
  6
CONTINUOUS
 10
50.8415095615
 20
-53.9213643333
 11
51.8612873961
 21
-52.9015864988
  0
LINE
  5
2CF
100
AcDbEntity
  8
CURVE
100
AcDbLine
 62
7
  6
CONTINUOUS
 10
50.0374170368
 20
-54.9354675721
 11
50.6207866675
 21
-54.3520979414
  0
LINE
  5
2D0
100
AcDbEntity
  8
CURVE
100
AcDbLine
 62
7
  6
CONTINUOUS
 10
50.8464209922
 20
-54.1264636167
 11
51.14583448
 21
-53.8270501289
  0
LINE
  5
2D1
100
AcDbEntity
  8
CURVE
100
AcDbLine
 62
7
  6
CONTINUOUS
 10
50.1871065104
 20
-54.9957888125
 11
51.14583448
 21
-54.0370608429
  0
LINE
  5
2D2
100
AcDbEntity
  8
CURVE
100
AcDbLine
 62
7
  6
CONTINUOUS
 10
50.6420912632
 20
-54.7508147737
 11
51.5613609159
 21
-53.831545121
  0
LINE
  5
2D3
100
AcDbEntity
  8
CURVE
100
AcDbLine
 62
7
  6
CONTINUOUS
 10
51.097076016
 20
-54.5058407349
 11
51.8612873961
 21
-53.7416293548
  0
LWPOLYLINE
  5
2D4
100
AcDbEntity
  8
CURVE
100
AcDbPolyline
 62
250
  6
CONTINUOUS
 90
7
 70
0
 10
51.3069200332
 20
-53.5024298646
 10
51.332219699
 20
-53.4784527216
 10
51.3576496543
 20
-53.4548275258
 10
51.3831954997
 20
-53.4315161348
 10
51.4088428356
 20
-53.408480406
 10
51.4345772625
 20
-53.385682197
 10
51.460384381
 20
-53.3630833651
  0
LINE
  5
2D5
100
AcDbEntity
  8
CURVE
100
AcDbLine
 62
250
  6
CONTINUOUS
 10
51.460384381
 20
-53.3630833651
 11
51.5121590948
 21
-53.3183312629
  0
LINE
  5
2D6
100
AcDbEntity
  8
CURVE
100
AcDbLine
 62
250
  6
CONTINUOUS
 10
51.6159472439
 20
-53.2295413134
 11
51.8612873961
 21
-53.0176542561
  0
LWPOLYLINE
  5
2D7
100
AcDbEntity
  8
CURVE
100
AcDbPolyline
 62
250
  6
CONTINUOUS
 90
44
 70
0
 10
51.3098626951
 20
-53.067655609
 10
51.295693531
 20
-53.0798297247
 10
51.2814589555
 20
-53.0922544429
 10
51.2671295452
 20
-53.1050067656
 10
51.2592546752
 20
-53.1121352316
 10
51.2513506816
 20
-53.1193819817
 10
51.2434255083
 20
-53.1267446017
 10
51.2354870993
 20
-53.1342206775
 10
51.2275433984
 20
-53.1418077948
 10
51.2196023495
 20
-53.1495035395
 10
51.2116718966
 20
-53.1573054974
 10
51.2037599835
 20
-53.1652112543
 10
51.1958745542
 20
-53.173218396
 10
51.1880235525
 20
-53.1813245083
 10
51.1802149224
 20
-53.189527177
 10
51.1724566078
 20
-53.197823988
 10
51.1647565524
 20
-53.206212527
 10
51.1571227004
 20
-53.2146903799
 10
51.1495629955
 20
-53.2232551324
 10
51.1420853817
 20
-53.2319043705
 10
51.1346978029
 20
-53.2406356798
 10
51.1274082029
 20
-53.2494466462
 10
51.1202245257
 20
-53.2583348556
 10
51.1131547152
 20
-53.2672978936
 10
51.1062067153
 20
-53.2763333462
 10
51.0993884698
 20
-53.2854387992
 10
51.0927079228
 20
-53.2946118383
 10
51.086173018
 20
-53.3038500494
 10
51.0797916995
 20
-53.3131510183
 10
51.073571911
 20
-53.3225123307
 10
51.0675215965
 20
-53.3319315726
 10
51.0616487
 20
-53.3414063297
 10
51.0559611652
 20
-53.3509341878
 10
51.0504669361
 20
-53.3605127327
 10
51.0451739567
 20
-53.3701395503
 10
51.0400901708
 20
-53.3798122263
 10
51.0352235223
 20
-53.3895283467
 10
51.0305819551
 20
-53.3992854971
 10
51.0261734131
 20
-53.4090812633
 10
51.0220058403
 20
-53.4189132313
 10
51.0180871805
 20
-53.4287789868
 10
51.0144253776
 20
-53.4386761157
 10
51.0110283756
 20
-53.4486022036
 10
51.0079041183
 20
-53.4585548365
  0
LINE
  5
2D8
100
AcDbEntity
  8
CURVE
100
AcDbLine
 62
250
  6
CONTINUOUS
 10
51.5121590948
 20
-53.3183312629
 11
51.6159472439
 21
-53.2295413134
  0
LINE
  5
2D9
100
AcDbEntity
  8
CURVE
100
AcDbLine
 62
250
  6
CONTINUOUS
 10
51.3381224826
 20
-53.0437511762
 11
51.3098626951
 21
-53.067655609
  0
LINE
  5
2DA
100
AcDbEntity
  8
CURVE
100
AcDbLine
 62
250
  6
CONTINUOUS
 10
51.4986148948
 20
-52.9092750044
 11
51.3381224826
 21
-53.0437511762
  0
LINE
  5
2DB
100
AcDbEntity
  8
CURVE
100
AcDbLine
 62
250
  6
CONTINUOUS
 10
51.8612873961
 20
-52.607864478
 11
51.7960176674
 21
-52.6624444509
  0
LINE
  5
2DC
100
AcDbEntity
  8
CURVE
100
AcDbLine
 62
250
  6
CONTINUOUS
 10
51.7960176674
 20
-52.6624444509
 11
51.4986148948
 21
-52.9092750044
  0
LWPOLYLINE
  5
2DD
100
AcDbEntity
  8
CURVE
100
AcDbPolyline
 62
250
  6
CONTINUOUS
 90
59
 70
0
 10
50.562320914
 20
-53.8091675034
 10
50.5702586307
 20
-53.8048702386
 10
50.5782577293
 20
-53.8007654411
 10
50.5863072543
 20
-53.7968591094
 10
50.5943962502
 20
-53.7931572421
 10
50.6025137613
 20
-53.7896658376
 10
50.6106488322
 20
-53.7863908945
 10
50.6187905072
 20
-53.7833384114
 10
50.6269278307
 20
-53.7805143867
 10
50.6350498473
 20
-53.777924819
 10
50.6431456012
 20
-53.7755757068
 10
50.651204137
 20
-53.7734730486
 10
50.659214499
 20
-53.7716228431
 10
50.6671657318
 20
-53.7700310886
 10
50.6750468796
 20
-53.7687037838
 10
50.682846987
 20
-53.7676469272
 10
50.6905550984
 20
-53.7668665172
 10
50.6981602582
 20
-53.7663685525
 10
50.7056515109
 20
-53.7661590315
 10
50.7130179008
 20
-53.7662439528
 10
50.7202484723
 20
-53.766629315
 10
50.72733227
 20
-53.7673211165
 10
50.7342583383
 20
-53.7683253559
 10
50.7410157215
 20
-53.7696480316
 10
50.7475934641
 20
-53.7712951424
 10
50.7539806105
 20
-53.7732726866
 10
50.7601662052
 20
-53.7755866627
 10
50.7661392926
 20
-53.7782430695
 10
50.7718889171
 20
-53.7812479052
 10
50.7774041231
 20
-53.7846071686
 10
50.7826739551
 20
-53.7883268581
 10
50.787624433
 20
-53.792352391
 10
50.7923307479
 20
-53.7967212301
 10
50.7967982196
 20
-53.8014200448
 10
50.8010321676
 20
-53.8064355044
 10
50.8050379118
 20
-53.8117542783
 10
50.8088207717
 20
-53.8173630359
 10
50.8123860669
 20
-53.8232484464
 10
50.8157391173
 20
-53.8293971794
 10
50.8188852425
 20
-53.835795904
 10
50.8218297621
 20
-53.8424312898
 10
50.8245779958
 20
-53.8492900059
 10
50.8271352632
 20
-53.8563587219
 10
50.8295068842
 20
-53.8636241071
 10
50.8316981783
 20
-53.8710728307
 10
50.8337144652
 20
-53.8786915623
 10
50.8355610645
 20
-53.8864669711
 10
50.8372432961
 20
-53.8943857264
 10
50.8387664794
 20
-53.9024344978
 10
50.8401359343
 20
-53.9105999544
 10
50.8413569804
 20
-53.9188687657
 10
50.8424349373
 20
-53.9272276011
 10
50.8433751247
 20
-53.9356631298
 10
50.8441828624
 20
-53.9441620213
 10
50.8448634699
 20
-53.9527109449
 10
50.8454222669
 20
-53.96129657
 10
50.8458645732
 20
-53.9699055659
 10
50.8461957084
 20
-53.978524602
 10
50.8464209922
 20
-53.9871403477
  0
LINE
  5
2DE
100
AcDbEntity
  8
CURVE
100
AcDbLine
 62
250
  6
CONTINUOUS
 10
51.0079041183
 20
-53.4585548365
 11
50.9971011041
 21
-53.4643714226
  0
LINE
  5
2DF
100
AcDbEntity
  8
CURVE
100
AcDbLine
 62
250
  6
CONTINUOUS
 10
51.8612873961
 20
-53.6700579487
 11
51.14583448
 21
-54.0552739132
  0
LINE
  5
2E0
100
AcDbEntity
  8
CURVE
100
AcDbLine
 62
250
  6
CONTINUOUS
 10
50.8464209922
 20
-54.2306113389
 11
50.3445469555
 21
-54.5008316242
  0
LINE
  5
2E1
100
AcDbEntity
  8
CURVE
100
AcDbLine
 62
250
  6
CONTINUOUS
 10
50.0544558657
 20
-55.0672109074
 11
51.8612873961
 21
-54.0943721151
  0
LINE
  5
2E2
100
AcDbEntity
  8
CURVE
100
AcDbLine
 62
250
  6
CONTINUOUS
 10
50.667513364
 20
-58.1780297703
 11
51.861287384
 21
-57.6272119524
  0
LINE
  5
2E3
100
AcDbEntity
  8
CURVE
100
AcDbLine
 62
250
  6
CONTINUOUS
 10
51.861287384
 20
-58.034782484
 11
50.0330962074
 21
-58.8348346518
  0
LINE
  5
2E4
100
AcDbEntity
  8
CURVE
100
AcDbLine
 62
7
  6
CONTINUOUS
 10
51.5520607688
 20
-54.2608666961
 11
51.8612873961
 21
-53.9516400688
  0
LINE
  5
2E5
100
AcDbEntity
  8
CURVE
100
AcDbLine
 62
7
  6
CONTINUOUS
 10
50.0330962074
 20
-55.9898419716
 11
51.375549417
 21
-54.647388762
  0
LINE
  5
2E6
100
AcDbEntity
  8
CURVE
100
AcDbLine
 62
7
  6
CONTINUOUS
 10
50.0330962074
 20
-56.1998526856
 11
51.861287384
 21
-54.3716615089
  0
LINE
  5
2E7
100
AcDbEntity
  8
CURVE
100
AcDbLine
 62
7
  6
CONTINUOUS
 10
50.2396888457
 20
-56.2032707613
 11
50.7083724307
 21
-55.7345871763
  0
LINE
  5
2E8
100
AcDbEntity
  8
CURVE
100
AcDbLine
 62
7
  6
CONTINUOUS
 10
51.2139018636
 20
-55.2290577434
 11
51.861287384
 21
-54.5816722229
  0
LINE
  5
2E9
100
AcDbEntity
  8
CURVE
100
AcDbLine
 62
7
  6
CONTINUOUS
 10
50.4984037027
 20
-56.1545666183
 11
50.9796222114
 21
-55.6733481095
  0
LINE
  5
2EA
100
AcDbEntity
  8
CURVE
100
AcDbLine
 62
7
  6
CONTINUOUS
 10
51.2139018636
 20
-55.4390684574
 11
51.4963155582
 21
-55.1566547628
  0
LINE
  5
2EB
100
AcDbEntity
  8
CURVE
100
AcDbLine
 62
7
  6
CONTINUOUS
 10
50.7571185597
 20
-56.1058624753
 11
51.4963155582
 21
-55.3666654768
  0
LINE
  5
2EC
100
AcDbEntity
  8
CURVE
100
AcDbLine
 62
7
  6
CONTINUOUS
 10
51.0158334166
 20
-56.0571583324
 11
51.5232813024
 21
-55.5497104466
  0
LINE
  5
2ED
100
AcDbEntity
  8
CURVE
100
AcDbLine
 62
7
  6
CONTINUOUS
 10
50.0330962074
 20
-57.2499062557
 11
50.3405521217
 21
-56.9424503413
  0
LINE
  5
2EE
100
AcDbEntity
  8
CURVE
100
AcDbLine
 62
7
  6
CONTINUOUS
 10
51.2745482736
 20
-56.0084541894
 11
51.7912619651
 21
-55.4917404979
  0
LINE
  5
2EF
100
AcDbEntity
  8
CURVE
100
AcDbLine
 62
7
  6
CONTINUOUS
 10
50.0330962074
 20
-57.4599169697
 11
50.9285154179
 21
-56.5644977592
  0
LINE
  5
2F0
100
AcDbEntity
  8
CURVE
100
AcDbLine
 62
7
  6
CONTINUOUS
 10
51.5332631306
 20
-55.9597500464
 11
51.861287384
 21
-55.631725793
  0
LINE
  5
2F1
100
AcDbEntity
  8
CURVE
100
AcDbLine
 62
7
  6
CONTINUOUS
 10
50.1560121588
 20
-57.5470117323
 11
51.516478714
 21
-56.186545177
  0
LINE
  5
2F2
100
AcDbEntity
  8
CURVE
100
AcDbLine
 62
7
  6
CONTINUOUS
 10
51.7919779876
 20
-55.9110459035
 11
51.861287384
 21
-55.841736507
  0
LINE
  5
2F3
100
AcDbEntity
  8
CURVE
100
AcDbLine
 62
7
  6
CONTINUOUS
 10
50.3943079063
 20
-57.5187266987
 11
50.8203757629
 21
-57.0926588421
  0
LINE
  5
2F4
100
AcDbEntity
  8
CURVE
100
AcDbLine
 62
7
  6
CONTINUOUS
 10
51.0108721496
 20
-56.9021624555
 11
51.861287384
 21
-56.051747221
  0
LINE
  5
2F5
100
AcDbEntity
  8
CURVE
100
AcDbLine
 62
7
  6
CONTINUOUS
 10
50.6326036539
 20
-57.4904416652
 11
51.056960162
 21
-57.0660851571
  0
LINE
  5
2F6
100
AcDbEntity
  8
CURVE
100
AcDbLine
 62
7
  6
CONTINUOUS
 10
51.552207447
 20
-56.570837872
 11
51.861287384
 21
-56.261757935
  0
LINE
  5
2F7
100
AcDbEntity
  8
CURVE
100
AcDbLine
 62
7
  6
CONTINUOUS
 10
50.8708994014
 20
-57.4621566316
 11
51.2935445611
 21
-57.039511472
  0
LINE
  5
2F8
100
AcDbEntity
  8
CURVE
100
AcDbLine
 62
7
  6
CONTINUOUS
 10
50.0330962074
 20
-58.5099705397
 11
51.5301289602
 21
-57.0129377869
  0
LINE
  5
2F9
100
AcDbEntity
  8
CURVE
100
AcDbLine
 62
7
  6
CONTINUOUS
 10
50.0330962074
 20
-58.7199812537
 11
51.7667133592
 21
-56.9863641019
  0
LINE
  5
2FA
100
AcDbEntity
  8
CURVE
100
AcDbLine
 62
7
  6
CONTINUOUS
 10
50.2023007253
 20
-58.7607874498
 11
50.8857587366
 21
-58.0773294385
  0
LINE
  5
2FB
100
AcDbEntity
  8
CURVE
100
AcDbLine
 62
7
  6
CONTINUOUS
 10
50.5757324608
 20
-58.5973664284
 11
51.2756847277
 21
-57.8974141615
  0
LINE
  5
2FC
100
AcDbEntity
  8
CURVE
100
AcDbLine
 62
7
  6
CONTINUOUS
 10
50.0329872357
 20
-59.3501223675
 11
50.2530973094
 21
-59.1300122937
  0
LINE
  5
2FD
100
AcDbEntity
  8
CURVE
100
AcDbLine
 62
7
  6
CONTINUOUS
 10
50.9491641962
 20
-58.4339454069
 11
51.6656107187
 21
-57.7174988845
  0
LINE
  5
2FE
100
AcDbEntity
  8
CURVE
100
AcDbLine
 62
7
  6
CONTINUOUS
 10
50.0329872357
 20
-59.5601330815
 11
50.7080820622
 21
-58.8850382549
  0
LINE
  5
2FF
100
AcDbEntity
  8
CURVE
100
AcDbLine
 62
7
  6
CONTINUOUS
 10
51.3225959317
 20
-58.2705243855
 11
51.861287384
 21
-57.7318329331
  0
LINE
  5
300
100
AcDbEntity
  8
CURVE
100
AcDbLine
 62
7
  6
CONTINUOUS
 10
50.2400831408
 20
-59.5630478904
 11
51.1630668151
 21
-58.6400642161
  0
LINE
  5
301
100
AcDbEntity
  8
CURVE
100
AcDbLine
 62
7
  6
CONTINUOUS
 10
51.6960276671
 20
-58.107103364
 11
51.861287384
 21
-57.9418436471
  0
LINE
  5
302
100
AcDbEntity
  8
CURVE
100
AcDbLine
 62
7
  6
CONTINUOUS
 10
50.0330962074
 20
-59.9800455378
 11
50.2128205159
 21
-59.8003212293
  0
LINE
  5
303
100
AcDbEntity
  8
CURVE
100
AcDbLine
 62
7
  6
CONTINUOUS
 10
50.6950678936
 20
-59.3180738516
 11
51.6180515679
 21
-58.3950901773
  0
LINE
  5
304
100
AcDbEntity
  8
CURVE
100
AcDbLine
 62
7
  6
CONTINUOUS
 10
50.0330962074
 20
-60.1900562518
 11
50.468797748
 21
-59.7543547112
  0
LINE
  5
305
100
AcDbEntity
  8
CURVE
100
AcDbLine
 62
7
  6
CONTINUOUS
 10
51.1500526464
 20
-59.0730998128
 11
51.861287384
 21
-58.3618650752
  0
LINE
  5
306
100
AcDbEntity
  8
CURVE
100
AcDbLine
 62
7
  6
CONTINUOUS
 10
50.2147662432
 20
-60.21839693
 11
50.72477498
 21
-59.7083881932
  0
LINE
  5
307
100
AcDbEntity
  8
CURVE
100
AcDbLine
 62
7
  6
CONTINUOUS
 10
51.6050373992
 20
-58.828125774
 11
51.861287384
 21
-58.5718757892
  0
LINE
  5
308
100
AcDbEntity
  8
CURVE
100
AcDbLine
 62
7
  6
CONTINUOUS
 10
50.4839489396
 20
-60.1592249476
 11
50.9807522121
 21
-59.6624216751
  0
LINE
  5
309
100
AcDbEntity
  8
CURVE
100
AcDbLine
 62
7
  6
CONTINUOUS
 10
50.7531316359
 20
-60.1000529653
 11
51.2367294441
 21
-59.6164551571
  0
LINE
  5
30A
100
AcDbEntity
  8
CURVE
100
AcDbLine
 62
7
  6
CONTINUOUS
 10
51.0223143323
 20
-60.0408809829
 11
51.4927066762
 21
-59.570488639
  0
LINE
  5
30B
100
AcDbEntity
  8
CURVE
100
AcDbLine
 62
7
  6
CONTINUOUS
 10
50.0330962074
 20
-61.2401098219
 11
51.7486839083
 21
-59.524522121
  0
LINE
  5
30C
100
AcDbEntity
  8
CURVE
100
AcDbLine
 62
7
  6
CONTINUOUS
 10
50.0330962074
 20
-61.4501205359
 11
51.861287384
 21
-59.6219293592
  0
LINE
  5
30D
100
AcDbEntity
  8
CURVE
100
AcDbLine
 62
7
  6
CONTINUOUS
 10
51.4173162889
 20
-60.2759111684
 11
51.861287384
 21
-59.8319400732
  0
LINE
  5
30E
100
AcDbEntity
  8
CURVE
100
AcDbLine
 62
250
  6
CONTINUOUS
 10
51.861287384
 20
-57.0354922652
 11
50.667513364
 21
-58.1780297703
  0
LINE
  5
30F
100
AcDbEntity
  8
CURVE
100
AcDbLine
 62
250
  6
CONTINUOUS
 10
50.0330962074
 20
-58.4091588918
 11
51.048113487
 21
-57.4411218192
  0
LINE
  5
310
100
AcDbEntity
  8
CURVE
100
AcDbLine
 62
250
  6
CONTINUOUS
 10
51.861287384
 20
-59.8797391402
 11
50.0330962074
 21
-61.5111025651
  0
LINE
  5
311
100
AcDbEntity
  8
CURVE
100
AcDbLine
 62
250
  6
CONTINUOUS
 10
50.0330962074
 20
-55.8300313462
 11
51.861287384
 21
-54.2194748499
  0
LINE
  5
312
100
AcDbEntity
  8
CURVE
100
AcDbLine
 62
250
  6
CONTINUOUS
 10
50.0330962074
 20
-61.048304351
 11
51.2914970286
 21
-59.9817090006
  0
LINE
  5
313
100
AcDbEntity
  8
CURVE
100
AcDbLine
 62
250
  6
CONTINUOUS
 10
51.861287384
 20
-54.6684910457
 11
51.4963155582
 21
-54.9753640175
  0
LINE
  5
314
100
AcDbEntity
  8
CURVE
100
AcDbLine
 62
250
  6
CONTINUOUS
 10
51.2139018636
 20
-55.2125634321
 11
50.5354367363
 21
-55.7736302328
  0
LINE
  5
315
100
AcDbEntity
  8
CURVE
100
AcDbLine
 62
250
  6
CONTINUOUS
 10
50.0330962074
 20
-57.1400881147
 11
51.861287384
 21
-55.9648964312
  0
LINE
  5
316
100
AcDbEntity
  8
CURVE
100
AcDbLine
 62
250
  6
CONTINUOUS
 10
51.861287384
 20
-56.3816653169
 11
50.6724894945
 21
-57.1092697562
  0
LINE
  5
317
100
AcDbEntity
  8
ASSI
100
AcDbLine
 62
7
  6
CONTINUOUS
 10
47.2030024326
 20
-66.2328519066
 11
47.4819783668
 21
-66.071805831
  0
LINE
  5
318
100
AcDbEntity
  8
ASSI
100
AcDbLine
 62
7
  6
CONTINUOUS
 10
48.21253915
 20
-66.8442264913
 11
48.8989374977
 21
-66.4479852869
  0
LINE
  5
319
100
AcDbEntity
  8
ASSI
100
AcDbLine
 62
7
  6
CONTINUOUS
 10
52.9823718343
 20
-64.4076452208
 11
52.274834565
 21
-64.8160894147
  0
LINE
  5
31A
100
AcDbEntity
  8
CURVE
100
AcDbLine
 62
250
  6
CONTINUOUS
 10
51.861287384
 20
-58.2641265353
 11
50.0329872357
 21
-59.2485245151
  0
LINE
  5
31B
100
AcDbEntity
  8
CURVE
100
AcDbLine
 62
250
  6
CONTINUOUS
 10
50.0329872357
 20
-59.6745529902
 11
51.861287384
 21
-58.6901550105
  0
LINE
  5
31C
100
AcDbEntity
  8
ASSI
100
AcDbLine
 62
7
  6
CONTINUOUS
 10
48.9204388496
 20
-66.4364237351
 11
48.8989374977
 21
-66.4479852869
  0
LINE
  5
31D
100
AcDbEntity
  8
ASSI
100
AcDbLine
 62
7
  6
CONTINUOUS
 10
48.9204388496
 20
-66.4364237351
 11
52.9823718343
 21
-64.4076452208
  0
LINE
  5
31E
100
AcDbEntity
  8
ASSI
100
AcDbLine
 62
7
  6
CONTINUOUS
 10
48.2129015803
 20
-66.844867929
 11
52.274834565
 21
-64.8160894147
  0
ENDSEC
  0
SECTION
  2
OBJECTS
  0
DICTIONARY
  5
C
100
AcDbDictionary
280
0
281
1
  3
ACAD_GROUP
350
D
  3
ACAD_MLINESTYLE
350
17
  3
ACAD_LAYOUT
350
1A
  3
ACAD_PLOTSETTINGS
350
19
  3
ACAD_PLOTSTYLENAME
350
E
  0
DICTIONARY
  5
D
102
{ACAD_REACTORS
330
C
102
}
100
AcDbDictionary
280
0
281
1
  0
ACDBDICTIONARYWDFLT
  5
E
102
{ACAD_REACTORS
330
C
102
}
100
AcDbDictionary
281
1
  3
Normal
350
F
100
AcDbDictionaryWithDefault
340
F
  0
DICTIONARY
  5
17
102
{ACAD_REACTORS
330
C
102
}
100
AcDbDictionary
280
0
281
1
  3
Standard
350
18
  0
DICTIONARY
  5
19
102
{ACAD_REACTORS
330
C
102
}
100
AcDbDictionary
281
1
  0
DICTIONARY
  5
1A
102
{ACAD_REACTORS
330
C
102
}
100
AcDbDictionary
281
1
  3
Model
350
31F
  3
Layout1
350
320
  0
ACDBPLACEHOLDER
  5
F
102
{ACAD_REACTORS
330
E
102
}
  0
MLINESTYLE
  5
18
102
{ACAD_REACTORS
330
17
102
}
100
AcDbMlineStyle
  2
STANDARD
 70
0
  3

 62
256
 51
90.0
 52
90.0
 71
2
 49
0.5
 62
256
  6
BYLAYER
 49
-0.5
 62
256
  6
BYLAYER
  0
LAYOUT
  5
31F
102
{ACAD_REACTORS
330
1A
102
}
100
AcDbPlotSettings
  1

  2
none_device
  4
ISO_A4_(297.00_x_210.00_MM)
  6

 40
0.0
 41
0.0
 42
0.0
 43
0.0
 44
297.0
 45
210.0
 46
0.0
 47
0.0
 48
0.0
 49
0.0
140
0.0
141
0.0
142
1.0
143
1.0
 70
1024
 72
1
 73
0
 74
0
  7

 75
0
147
1.0
148
0.0
149
0.0
100
AcDbLayout
  1
Model
 70
0
 71
0
 10
0.0
 20
0.0
 11
297.0
 21
210.0
 12
0.0
 22
0.0
 32
0.0
 14
0.0
 24
0.0
 34
0.0
 15
0.0
 25
0.0
 35
0.0
146
0.0
 13
0.0
 23
0.0
 33
0.0
 16
1.0
 26
0.0
 36
0.0
 17
0.0
 27
1.0
 37
0.0
 76
0
330
21E
345
0
346
0
  0
LAYOUT
  5
320
102
{ACAD_REACTORS
330
1A
102
}
100
AcDbPlotSettings
  1

  2
none_device
  4
ISO_A4_(297.00_x_210.00_MM)
  6

 40
0.0
 41
0.0
 42
0.0
 43
0.0
 44
297.0
 45
210.0
 46
0.0
 47
0.0
 48
0.0
 49
0.0
140
0.0
141
0.0
142
1.0
143
1.0
 70
0
 72
1
 73
0
 74
0
  7

 75
0
147
1.0
148
0.0
149
0.0
100
AcDbLayout
  1
Layout1
 70
0
 71
1
 10
0.0
 20
0.0
 11
297.0
 21
210.0
 12
0.0
 22
0.0
 32
0.0
 14
0.0
 24
0.0
 34
0.0
 15
0.0
 25
0.0
 35
0.0
146
0.0
 13
0.0
 23
0.0
 33
0.0
 16
1.0
 26
0.0
 36
0.0
 17
0.0
 27
1.0
 37
0.0
 76
0
330
21F
345
0
346
0
  0
ENDSEC
  0
EOF
