  0
SECTION
  2
HEADER
  9
$ACADVER
  1
AC1024
  9
$DWGCODEPAGE
  3
ANSI_1252
  9
$EXTMAX
 10
297.0
 20
210.0
 30
0.0
  9
$EXTMIN
 10
0.0
 20
0.0
 30
0.0
  9
$LIMMIN
 10
0.0
 20
0.0
  9
$LIMMAX
 10
297.0
 20
210.0
  9
$VIEWCTR
 10
148.5
 20
105.0
  9
$VIEWSIZE
 40
210.0
  9
$CLAYER
  8
0
  9
$LTSCALE
 40
16.335
  9
$CELTYPE
  6
BYLAYER
  9
$DIMSCALE
 40
1.0
  9
$DIMASZ
 40
3.0
  9
$DIMEXO
 40
0.5
  9
$DIMDLI
 40
11.286
  9
$DIMEXE
 40
1.5
  9
$DIMCEN
 40
2.673
  9
$DIMLFAC
 40
1.0
  9
$DIMBLK
  1
_FILLED
  9
$DIMALT
 70
0
  9
$DIMALTF
 40
0.0393700787
  9
$DIMTXT
 40
3.0
  9
$DIMTOL
 70
1
  9
$DIMLIM
 70
0
  9
$DIMTFAC
 40
1.0
  9
$DIMTP
 40
0.01
  9
$DIMTM
 40
0.01
  9
$DIMGAP
 40
0.625
  9
$DIMDSEP
 70
44
  9
$AUNITS
 70
0
  9
$PDMODE
 70
3
  9
$PDSIZE
 40
3.0
  9
$HANDSEED
  5
44C
  9
$TILEMODE
 70
1
  9
$MEASUREMENT
 70
1
  9
$INSUNITS
 70
4
  0
ENDSEC
  0
SECTION
  2
CLASSES
  0
CLASS
  1
ACDBDICTIONARYWDFLT
  2
AcDbDictionaryWithDefault
  3
AutoCAD 2000
 90
0
 91
1
280
0
281
0
  0
CLASS
  1
ACDBPLACEHOLDER
  2
AcDbPlaceHolder
  3
AutoCAD 2000
 90
0
 91
1
280
0
281
0
  0
CLASS
  1
LAYOUT
  2
AcDbLayout
  3
AutoCAD 2000
 90
0
 91
0
280
0
281
0
  0
ENDSEC
  0
SECTION
  2
TABLES
  0
TABLE
  2
VPORT
  5
8
100
AcDbSymbolTable
 70
2
  0
VPORT
  5
1F4
100
AcDbSymbolTableRecord
100
AcDbViewportTableRecord
  2
*ACTIVE
 70
0
 10
0.0
 20
0.0
 11
1.0
 21
1.0
 12
148.5
 22
105.0
 13
0.0
 23
0.0
 14
1.0
 24
1.0
 15
0.0
 25
0.0
 16
0.0
 26
0.0
 36
1.0
 17
0.0
 27
0.0
 37
0.0
 40
210.0
 41
1.4142857143
 42
50.0
 43
0.0
 44
0.0
 50
0.0
 51
0.0
 71
0
 72
100
 73
1
 74
1
 75
0
 76
0
 77
0
 78
0
  0
ENDTAB
  0
TABLE
  2
LTYPE
  5
5
100
AcDbSymbolTable
 70
6
  0
LTYPE
  5
14
100
AcDbSymbolTableRecord
100
AcDbLinetypeTableRecord
  2
BYBLOCK
 70
0
  3

 72
65
 73
0
 40
0.0
  0
LTYPE
  5
15
100
AcDbSymbolTableRecord
100
AcDbLinetypeTableRecord
  2
BYLAYER
 70
0
  3

 72
65
 73
0
 40
0.0
  0
LTYPE
  5
16
100
AcDbSymbolTableRecord
100
AcDbLinetypeTableRecord
  2
CONTINUOUS
 70
64
  3
Solid line
 72
65
 73
0
 40
0.0
  0
LTYPE
  5
1F5
100
AcDbSymbolTableRecord
100
AcDbLinetypeTableRecord
  2
CENTER
 70
64
  3
____ _ ____ _ ____ _ ____ _ ____ _ ____ _ ____
 72
65
 73
4
 40
0.6
 49
0.375
 74
0
 49
-0.075
 74
0
 49
0.075
 74
0
 49
-0.075
 74
0
  0
LTYPE
  5
1F6
100
AcDbSymbolTableRecord
100
AcDbLinetypeTableRecord
  2
HIDDEN
 70
64
  3
- - - - - - - - - - - - - - - - - - - -
 72
65
 73
2
 40
0.2
 49
0.1
 74
0
 49
-0.1
 74
0
  0
LTYPE
  5
1F7
100
AcDbSymbolTableRecord
100
AcDbLinetypeTableRecord
  2
PHANTOM
 70
64
  3
_____ _ _ _____ _ _ _____ _ _ _____
 72
65
 73
6
 40
0.8
 49
0.45
 74
0
 49
-0.05
 74
0
 49
0.1
 74
0
 49
-0.05
 74
0
 49
0.1
 74
0
 49
-0.05
 74
0
  0
LTYPE
  5
1F8
100
AcDbSymbolTableRecord
100
AcDbLinetypeTableRecord
  2
DOT
 70
64
  3
. . . . . . . . . . . . . . . . . . . .
 72
65
 73
2
 40
0.2
 49
0.1
 74
0
 49
-0.1
 74
0
  0
LTYPE
  5
1F9
100
AcDbSymbolTableRecord
100
AcDbLinetypeTableRecord
  2
DASHED
 70
64
  3
- - - - - - - - - - - - - - - - - - - -
 72
65
 73
2
 40
0.2
 49
0.1
 74
0
 49
-0.1
 74
0
  0
ENDTAB
  0
TABLE
  2
LAYER
  5
2
100
AcDbSymbolTable
 70
36
  0
LAYER
  5
10
100
AcDbSymbolTableRecord
100
AcDbLayerTableRecord
  2
0
 70
0
 62
7
  6
CONTINUOUS
370
-3
390
F
  0
LAYER
  5
1FA
100
AcDbSymbolTableRecord
100
AcDbLayerTableRecord
  2
DEFAULT_1
 70
0
 62
7
  6
CENTER
370
-3
390
F
  0
LAYER
  5
1FB
100
AcDbSymbolTableRecord
100
AcDbLayerTableRecord
  2
DEFAULT_2
 70
0
 62
7
  6
HIDDEN
370
-3
390
F
  0
LAYER
  5
1FC
100
AcDbSymbolTableRecord
100
AcDbLayerTableRecord
  2
DEFAULT_3
 70
0
 62
7
  6
PHANTOM
370
-3
390
F
  0
LAYER
  5
1FD
100
AcDbSymbolTableRecord
100
AcDbLayerTableRecord
  2
ASSI
 70
0
 62
7
  6
CONTINUOUS
370
-3
390
F
  0
LAYER
  5
1FE
100
AcDbSymbolTableRecord
100
AcDbLayerTableRecord
  2
COORDINATE
 70
0
 62
7
  6
CONTINUOUS
370
-3
390
F
  0
LAYER
  5
1FF
100
AcDbSymbolTableRecord
100
AcDbLayerTableRecord
  2
COORD_ORIGINE
 70
0
 62
7
  6
CONTINUOUS
370
-3
390
F
  0
LAYER
  5
200
100
AcDbSymbolTableRecord
100
AcDbLayerTableRecord
  2
COPY_PUBLISH
 70
0
 62
7
  6
CONTINUOUS
370
-3
390
F
  0
LAYER
  5
201
100
AcDbSymbolTableRecord
100
AcDbLayerTableRecord
  2
COSMETIC
 70
0
 62
7
  6
CONTINUOUS
370
-3
390
F
  0
LAYER
  5
202
100
AcDbSymbolTableRecord
100
AcDbLayerTableRecord
  2
COSMETICI
 70
0
 62
7
  6
CONTINUOUS
370
-3
390
F
  0
LAYER
  5
203
100
AcDbSymbolTableRecord
100
AcDbLayerTableRecord
  2
CURVA_TASSELLO
 70
0
 62
7
  6
CONTINUOUS
370
-3
390
F
  0
LAYER
  5
204
100
AcDbSymbolTableRecord
100
AcDbLayerTableRecord
  2
CURVE
 70
0
 62
7
  6
CONTINUOUS
370
-3
390
F
  0
LAYER
  5
205
100
AcDbSymbolTableRecord
100
AcDbLayerTableRecord
  2
DRAFT
 70
0
 62
7
  6
CONTINUOUS
370
-3
390
F
  0
LAYER
  5
206
100
AcDbSymbolTableRecord
100
AcDbLayerTableRecord
  2
IMPORT_IGES
 70
0
 62
7
  6
CONTINUOUS
370
-3
390
F
  0
LAYER
  5
207
100
AcDbSymbolTableRecord
100
AcDbLayerTableRecord
  2
INTFCLR_2
 70
0
 62
7
  6
CONTINUOUS
370
-3
390
F
  0
LAYER
  5
208
100
AcDbSymbolTableRecord
100
AcDbLayerTableRecord
  2
INTF_1
 70
0
 62
7
  6
CONTINUOUS
370
-3
390
F
  0
LAYER
  5
209
100
AcDbSymbolTableRecord
100
AcDbLayerTableRecord
  2
INTF_6
 70
0
 62
7
  6
CONTINUOUS
370
-3
390
F
  0
LAYER
  5
20A
100
AcDbSymbolTableRecord
100
AcDbLayerTableRecord
  2
INTF_7
 70
0
 62
7
  6
CONTINUOUS
370
-3
390
F
  0
LAYER
  5
20B
100
AcDbSymbolTableRecord
100
AcDbLayerTableRecord
  2
LINEA_CHIUSURA
 70
0
 62
7
  6
CONTINUOUS
370
-3
390
F
  0
LAYER
  5
20C
100
AcDbSymbolTableRecord
100
AcDbLayerTableRecord
  2
LIVELLO_1
 70
0
 62
7
  6
CONTINUOUS
370
-3
390
F
  0
LAYER
  5
20D
100
AcDbSymbolTableRecord
100
AcDbLayerTableRecord
  2
NOTE
 70
0
 62
7
  6
CONTINUOUS
370
-3
390
F
  0
LAYER
  5
20E
100
AcDbSymbolTableRecord
100
AcDbLayerTableRecord
  2
PIANI
 70
0
 62
7
  6
CONTINUOUS
370
-3
390
F
  0
LAYER
  5
20F
100
AcDbSymbolTableRecord
100
AcDbLayerTableRecord
  2
PIANI_ORIGINE
 70
0
 62
7
  6
CONTINUOUS
370
-3
390
F
  0
LAYER
  5
210
100
AcDbSymbolTableRecord
100
AcDbLayerTableRecord
  2
PIANI_RIFERIMENTO
 70
0
 62
7
  6
CONTINUOUS
370
-3
390
F
  0
LAYER
  5
211
100
AcDbSymbolTableRecord
100
AcDbLayerTableRecord
  2
PUNTI
 70
0
 62
7
  6
CONTINUOUS
370
-3
390
F
  0
LAYER
  5
212
100
AcDbSymbolTableRecord
100
AcDbLayerTableRecord
  2
RACCORDO
 70
0
 62
7
  6
CONTINUOUS
370
-3
390
F
  0
LAYER
  5
213
100
AcDbSymbolTableRecord
100
AcDbLayerTableRecord
  2
RGB__255__255__255__
 70
0
 62
7
  6
CONTINUOUS
370
-3
390
F
  0
LAYER
  5
214
100
AcDbSymbolTableRecord
100
AcDbLayerTableRecord
  2
RGB____0____0____0__
 70
0
 62
7
  6
CONTINUOUS
370
-3
390
F
  0
LAYER
  5
215
100
AcDbSymbolTableRecord
100
AcDbLayerTableRecord
  2
SIMBOLI
 70
0
 62
7
  6
CONTINUOUS
370
-3
390
F
  0
LAYER
  5
216
100
AcDbSymbolTableRecord
100
AcDbLayerTableRecord
  2
SMUSSO
 70
0
 62
7
  6
CONTINUOUS
370
-3
390
F
  0
LAYER
  5
217
100
AcDbSymbolTableRecord
100
AcDbLayerTableRecord
  2
SNAPLINE
 70
0
 62
7
  6
CONTINUOUS
370
-3
390
F
  0
LAYER
  5
218
100
AcDbSymbolTableRecord
100
AcDbLayerTableRecord
  2
SUPERFICI
 70
0
 62
7
  6
CONTINUOUS
370
-3
390
F
  0
LAYER
  5
219
100
AcDbSymbolTableRecord
100
AcDbLayerTableRecord
  2
TRASH
 70
0
 62
7
  6
CONTINUOUS
370
-3
390
F
  0
LAYER
  5
21A
100
AcDbSymbolTableRecord
100
AcDbLayerTableRecord
  2
WHITE
 70
0
 62
7
  6
CONTINUOUS
370
-3
390
F
  0
LAYER
  5
21B
100
AcDbSymbolTableRecord
100
AcDbLayerTableRecord
  2
XSEC_DATUMS
 70
0
 62
7
  6
CONTINUOUS
370
-3
390
F
  0
ENDTAB
  0
TABLE
  2
STYLE
  5
3
100
AcDbSymbolTable
 70
1
  0
STYLE
  5
11
100
AcDbSymbolTableRecord
100
AcDbTextStyleTableRecord
  2
STANDARD
 70
0
 40
0.0
 41
0.8
 50
0.0
 71
0
 42
0.2
  3
txt
  4

  0
STYLE
  5
21C
100
AcDbSymbolTableRecord
100
AcDbTextStyleTableRecord
  2
TEXTSTYLE_1
 70
0
 40
0.0
 41
0.8
 50
0.0
 71
0
 42
0.2
  3
gdt
  4

  0
ENDTAB
  0
TABLE
  2
VIEW
  5
6
100
AcDbSymbolTable
 70
0
  0
ENDTAB
  0
TABLE
  2
UCS
  5
7
100
AcDbSymbolTable
 70
0
  0
ENDTAB
  0
TABLE
  2
APPID
  5
9
100
AcDbSymbolTable
 70
1
  0
APPID
  5
21D
100
AcDbSymbolTableRecord
100
AcDbRegAppTableRecord
  2
ACAD
 70
0
  0
ENDTAB
  0
TABLE
  2
BLOCK_RECORD
  5
1
100
AcDbSymbolTable
 70
0
  0
BLOCK_RECORD
  5
21E
100
AcDbSymbolTableRecord
100
AcDbBlockTableRecord
  2
*Model_Space
  0
BLOCK_RECORD
  5
21F
100
AcDbSymbolTableRecord
100
AcDbBlockTableRecord
  2
*Paper_Space
  0
BLOCK_RECORD
  5
220
100
AcDbSymbolTableRecord
100
AcDbBlockTableRecord
  2
_FILLED
  0
ENDTAB
  0
TABLE
  2
DIMSTYLE
  5
A
100
AcDbSymbolTable
 70
1
100
AcDbDimStyleTable
 71
0
  0
DIMSTYLE
105
221
100
AcDbSymbolTableRecord
100
AcDbDimStyleTableRecord
  2
STANDARD
 70
0
  3

  4

 40
1.0
 41
3.0
 42
0.5
 43
0.38
 44
1.5
 45
0.0
 46
0.0
 47
0.01
 48
0.01
140
3.0
141
0.09
142
0.0
143
25.4
144
1.0
145
0.0
146
1.0
147
0.625
 71
1
 72
0
 73
0
 74
0
 75
0
 76
0
 77
1
 78
8
 79
2
170
0
171
1
172
0
173
0
174
0
175
0
176
0
177
0
178
0
270
2
179
2
271
2
272
2
273
2
274
2
275
0
280
0
281
0
282
0
283
1
284
8
285
0
286
0
287
3
288
0
340
11
278
44
341
220
342
220
343
220
344
220
  0
ENDTAB
  0
ENDSEC
  0
SECTION
  2
BLOCKS
  0
BLOCK
  5
20
100
AcDbEntity
  8
0
100
AcDbBlockBegin
  2
*Model_Space
 70
0
 10
0.0
 20
0.0
 30
0.0
  3
*Model_Space
  1

  0
ENDBLK
  5
21
100
AcDbEntity
  8
0
100
AcDbBlockEnd
  0
BLOCK
  5
1C
100
AcDbEntity
  8
0
100
AcDbBlockBegin
  2
*Paper_Space
 70
0
 10
0.0
 20
0.0
 30
0.0
  3
*Paper_Space
  1

  0
ENDBLK
  5
1D
100
AcDbEntity
  8
0
100
AcDbBlockEnd
  0
BLOCK
  5
222
100
AcDbEntity
  8
0
100
AcDbBlockBegin
  2
_FILLED
 70
64
 10
0.0
 20
0.0
  3
_FILLED
  1

  0
SOLID
  5
223
100
AcDbEntity
  8
0
  6
BYBLOCK
 62
0
100
AcDbTrace
 10
0.0
 20
0.0
 11
-1.0
 21
0.3166666667
 12
-1.0
 22
-0.3166666667
 13
-1.0
 23
-0.3166666667
  0
ENDBLK
  5
224
100
AcDbEntity
  8
0
  6
BYBLOCK
 62
0
100
AcDbBlockEnd
  0
ENDSEC
  0
SECTION
  2
ENTITIES
  0
LINE
  5
225
100
AcDbEntity
  8
0
100
AcDbLine
 62
7
  6
CONTINUOUS
 10
-52.9823718343
 20
63.9328568438
 11
-49.1945580472
 21
66.4364237351
  0
LINE
  5
226
100
AcDbEntity
  8
ASSI
100
AcDbLine
 62
7
  6
CONTINUOUS
 10
-52.9823718343
 20
63.9328568438
 11
-49.1945580472
 21
66.4364237351
  0
LINE
  5
227
100
AcDbEntity
  8
0
100
AcDbLine
 62
7
  6
CONTINUOUS
 10
-52.274834565
 20
64.3413010376
 11
-48.4870207779
 21
66.844867929
  0
LINE
  5
228
100
AcDbEntity
  8
ASSI
100
AcDbLine
 62
7
  6
CONTINUOUS
 10
-52.274834565
 20
64.3413010376
 11
-48.4870207779
 21
66.844867929
  0
LINE
  5
229
100
AcDbEntity
  8
0
100
AcDbLine
 62
7
  6
CONTINUOUS
 10
-52.2955981792
 20
64.3284616867
 11
-52.274834565
 21
64.3413010376
  0
LINE
  5
22A
100
AcDbEntity
  8
ASSI
100
AcDbLine
 62
7
  6
CONTINUOUS
 10
-52.2955981792
 20
64.3284616867
 11
-52.274834565
 21
64.3413010376
  0
LINE
  5
22B
100
AcDbEntity
  8
0
100
AcDbLine
 62
7
  6
CONTINUOUS
 10
-49.1945580472
 20
66.4364237351
 11
-48.4870207779
 21
66.844867929
  0
LINE
  5
22C
100
AcDbEntity
  8
ASSI
100
AcDbLine
 62
7
  6
CONTINUOUS
 10
-49.1945580472
 20
66.4364237351
 11
-48.4870207779
 21
66.844867929
  0
LINE
  5
22D
100
AcDbEntity
  8
0
100
AcDbLine
 62
7
  6
CONTINUOUS
 10
-52.2955981792
 20
64.3284616867
 11
-52.9819965268
 21
63.9322204822
  0
LINE
  5
22E
100
AcDbEntity
  8
ASSI
100
AcDbLine
 62
7
  6
CONTINUOUS
 10
-52.2955981792
 20
64.3284616867
 11
-52.9819965268
 21
63.9322204822
  0
LINE
  5
22F
100
AcDbEntity
  8
0
100
AcDbLine
 62
7
  6
CONTINUOUS
 10
-52.678287479
 20
62.9132332483
 11
-52.9572634132
 21
62.7521871727
  0
LINE
  5
230
100
AcDbEntity
  8
ASSI
100
AcDbLine
 62
7
  6
CONTINUOUS
 10
-52.678287479
 20
62.9132332483
 11
-52.9572634132
 21
62.7521871727
  0
LINE
  5
231
100
AcDbEntity
  8
CURVE
100
AcDbLine
 62
250
  6
CONTINUOUS
 10
51.309792016
 20
-59.9718585674
 11
50.0513911947
 21
-60.2484813673
  0
LINE
  5
232
100
AcDbEntity
  8
CURVE
100
AcDbLine
 62
250
  6
CONTINUOUS
 10
50.0513911947
 20
-59.8227443721
 11
51.8795823714
 21
-59.4944511796
  0
LINE
  5
233
100
AcDbEntity
  8
0
100
AcDbLine
 62
7
  6
CONTINUOUS
 10
-52.678287479
 20
62.9132332483
 11
-52.2955981792
 21
64.3284616867
  0
LINE
  5
234
100
AcDbEntity
  8
ASSI
100
AcDbLine
 62
7
  6
CONTINUOUS
 10
-52.678287479
 20
62.9132332483
 11
-52.2955981792
 21
64.3284616867
  0
LINE
  5
235
100
AcDbEntity
  8
CURVE
100
AcDbLine
 62
250
  6
CONTINUOUS
 10
50.5537317236
 20
-55.7637797996
 11
51.232196851
 21
-55.6106052197
  0
LINE
  5
236
100
AcDbEntity
  8
CURVE
100
AcDbLine
 62
250
  6
CONTINUOUS
 10
51.5146105455
 20
-55.5456932806
 11
51.8795823714
 21
-55.4667420689
  0
LINE
  5
237
100
AcDbEntity
  8
CURVE
100
AcDbLine
 62
250
  6
CONTINUOUS
 10
51.8795823714
 20
-55.8881476894
 11
50.0513911947
 21
-56.2323122475
  0
LINE
  5
238
100
AcDbEntity
  8
CURVE
100
AcDbLine
 62
250
  6
CONTINUOUS
 10
51.0664084744
 20
-57.4312713859
 11
50.0513911947
 21
-57.551751076
  0
LINE
  5
239
100
AcDbEntity
  8
CURVE
100
AcDbLine
 62
250
  6
CONTINUOUS
 10
50.6907844819
 20
-57.0994193229
 11
51.8795823714
 21
-56.9658909041
  0
LINE
  5
23A
100
AcDbEntity
  8
0
100
AcDbLine
 62
7
  6
CONTINUOUS
 10
-52.9572634132
 20
-8.0794464266
 11
-52.9819965268
 21
-7.6232108491
  0
LINE
  5
23B
100
AcDbEntity
  8
ASSI
100
AcDbLine
 62
7
  6
CONTINUOUS
 10
-52.9572634132
 20
-8.0794464266
 11
-52.9819965268
 21
-7.6232108491
  0
LINE
  5
23C
100
AcDbEntity
  8
0
100
AcDbLine
 62
7
  6
CONTINUOUS
 10
-52.9572634132
 20
62.7521871727
 11
-52.9819965268
 21
63.9322204822
  0
LINE
  5
23D
100
AcDbEntity
  8
ASSI
100
AcDbLine
 62
7
  6
CONTINUOUS
 10
-52.9572634132
 20
62.7521871727
 11
-52.9819965268
 21
63.9322204822
  0
LINE
  5
23E
100
AcDbEntity
  8
0
100
AcDbLine
 62
7
  6
CONTINUOUS
 10
-52.9819965268
 20
-7.6232108491
 11
-52.9823718343
 21
-7.5990179884
  0
LINE
  5
23F
100
AcDbEntity
  8
ASSI
100
AcDbLine
 62
7
  6
CONTINUOUS
 10
-52.9819965268
 20
-7.6232108491
 11
-52.9823718343
 21
-7.5990179884
  0
LINE
  5
240
100
AcDbEntity
  8
0
100
AcDbLine
 62
7
  6
CONTINUOUS
 10
-52.9823718343
 20
63.9328568438
 11
-52.9823718343
 21
-7.5990179884
  0
LINE
  5
241
100
AcDbEntity
  8
ASSI
100
AcDbLine
 62
7
  6
CONTINUOUS
 10
-52.9823718343
 20
63.9328568438
 11
-52.9823718343
 21
-7.5990179884
  0
LINE
  5
242
100
AcDbEntity
  8
0
100
AcDbLine
 62
7
  6
CONTINUOUS
 10
-52.9572634132
 20
62.7521871727
 11
-52.9572634132
 21
-8.0794464266
  0
LINE
  5
243
100
AcDbEntity
  8
ASSI
100
AcDbLine
 62
7
  6
CONTINUOUS
 10
-52.9572634132
 20
62.7521871727
 11
-52.9572634132
 21
-8.0794464266
  0
LINE
  5
244
100
AcDbEntity
  8
0
100
AcDbLine
 62
7
  6
CONTINUOUS
 10
47.4819783668
 20
-66.071805831
 11
48.8989374977
 21
-66.4479852869
  0
LINE
  5
245
100
AcDbEntity
  8
ASSI
100
AcDbLine
 62
7
  6
CONTINUOUS
 10
47.4819783668
 20
-66.071805831
 11
48.8989374977
 21
-66.4479852869
  0
LINE
  5
246
100
AcDbEntity
  8
0
100
AcDbLine
 62
7
  6
CONTINUOUS
 10
-52.9572634132
 20
-8.0794464266
 11
-52.678287479
 21
-8.5626469181
  0
LINE
  5
247
100
AcDbEntity
  8
ASSI
100
AcDbLine
 62
7
  6
CONTINUOUS
 10
-52.9572634132
 20
-8.0794464266
 11
-52.678287479
 21
-8.5626469181
  0
LINE
  5
248
100
AcDbEntity
  8
0
100
AcDbLine
 62
250
  6
CONTINUOUS
 10
-31.4543134661
 20
21.6167351181
 11
-31.6936652128
 21
21.1009705528
  0
LINE
  5
249
100
AcDbEntity
  8
ASSI
100
AcDbLine
 62
250
  6
CONTINUOUS
 10
-31.4543134661
 20
21.6167351181
 11
-31.6936652128
 21
21.1009705528
  0
LINE
  5
24A
100
AcDbEntity
  8
0
100
AcDbLine
 62
250
  6
CONTINUOUS
 10
-31.1007579652
 20
21.5660487108
 11
-31.3350350239
 21
21.4307796088
  0
LINE
  5
24B
100
AcDbEntity
  8
0
100
AcDbLine
 62
250
  6
CONTINUOUS
 10
-31.835086569
 20
21.0193156341
 11
-31.6936652128
 21
21.1009705528
  0
LINE
  5
24C
100
AcDbEntity
  8
ASSI
100
AcDbLine
 62
250
  6
CONTINUOUS
 10
-31.835086569
 20
21.0193156341
 11
-31.6936652128
 21
21.1009705528
  0
LINE
  5
24D
100
AcDbEntity
  8
0
100
AcDbLine
 62
250
  6
CONTINUOUS
 10
-30.6687859494
 20
21.3256331508
 11
-31.3350350239
 21
20.9409479644
  0
LINE
  5
24E
100
AcDbEntity
  8
0
100
AcDbLine
 62
7
  6
CONTINUOUS
 10
-52.274834565
 20
-8.8245084858
 11
48.2129015803
 21
-66.844867929
  0
LINE
  5
24F
100
AcDbEntity
  8
ASSI
100
AcDbLine
 62
7
  6
CONTINUOUS
 10
-52.274834565
 20
-8.8245084858
 11
48.2129015803
 21
-66.844867929
  0
LINE
  5
250
100
AcDbEntity
  8
0
100
AcDbLine
 62
7
  6
CONTINUOUS
 10
-52.678287479
 20
-8.5626469181
 11
47.2030024326
 21
-66.2328519066
  0
LINE
  5
251
100
AcDbEntity
  8
ASSI
100
AcDbLine
 62
7
  6
CONTINUOUS
 10
-52.678287479
 20
-8.5626469181
 11
47.2030024326
 21
-66.2328519066
  0
LINE
  5
252
100
AcDbEntity
  8
0
100
AcDbLine
 62
7
  6
CONTINUOUS
 10
-52.274834565
 20
-8.8245084858
 11
-52.2955981792
 21
-8.8120876602
  0
LINE
  5
253
100
AcDbEntity
  8
ASSI
100
AcDbLine
 62
7
  6
CONTINUOUS
 10
-52.274834565
 20
-8.8245084858
 11
-52.2955981792
 21
-8.8120876602
  0
LINE
  5
254
100
AcDbEntity
  8
0
100
AcDbLine
 62
7
  6
CONTINUOUS
 10
-52.678287479
 20
-8.5626469181
 11
-52.2955981792
 21
-8.8120876602
  0
LINE
  5
255
100
AcDbEntity
  8
ASSI
100
AcDbLine
 62
7
  6
CONTINUOUS
 10
-52.678287479
 20
-8.5626469181
 11
-52.2955981792
 21
-8.8120876602
  0
LINE
  5
256
100
AcDbEntity
  8
0
100
AcDbLine
 62
7
  6
CONTINUOUS
 10
-32.5421933502
 20
10.0786139251
 11
-32.5421933502
 21
21.0193156341
  0
LINE
  5
257
100
AcDbEntity
  8
ASSI
100
AcDbLine
 62
7
  6
CONTINUOUS
 10
-32.5421933502
 20
10.0786139251
 11
-32.5421933502
 21
21.0193156341
  0
LINE
  5
258
100
AcDbEntity
  8
0
100
AcDbLine
 62
7
  6
CONTINUOUS
 10
-31.835086569
 20
10.0786139251
 11
-31.835086569
 21
21.0193156341
  0
LINE
  5
259
100
AcDbEntity
  8
ASSI
100
AcDbLine
 62
7
  6
CONTINUOUS
 10
-31.835086569
 20
10.0786139251
 11
-31.835086569
 21
21.0193156341
  0
LINE
  5
25A
100
AcDbEntity
  8
0
100
AcDbLine
 62
7
  6
CONTINUOUS
 10
-31.6936652128
 20
21.1009705528
 11
-31.6936652128
 21
10.1602688438
  0
LINE
  5
25B
100
AcDbEntity
  8
ASSI
100
AcDbLine
 62
7
  6
CONTINUOUS
 10
-31.6936652128
 20
21.1009705528
 11
-31.6936652128
 21
10.1602688438
  0
LINE
  5
25C
100
AcDbEntity
  8
0
100
AcDbLine
 62
7
  6
CONTINUOUS
 10
-31.3350350239
 20
21.6233462408
 11
-31.3350350239
 21
10.9330592914
  0
LINE
  5
25D
100
AcDbEntity
  8
ASSI
100
AcDbLine
 62
7
  6
CONTINUOUS
 10
-31.3350350239
 20
21.6233462408
 11
-31.3350350239
 21
10.9330592914
  0
LINE
  5
25E
100
AcDbEntity
  8
0
100
AcDbLine
 62
250
  6
CONTINUOUS
 10
-29.7303149708
 20
20.7837717695
 11
-29.7303149708
 21
17.5868953959
  0
LINE
  5
25F
100
AcDbEntity
  8
0
100
AcDbLine
 62
7
  6
CONTINUOUS
 10
-29.6461169109
 20
20.735156865
 11
-29.6461169109
 21
17.707221507
  0
LINE
  5
260
100
AcDbEntity
  8
0
100
AcDbLine
 62
250
  6
CONTINUOUS
 10
-31.3350350239
 20
10.9330592914
 11
-31.6936652128
 21
10.1602688438
  0
LINE
  5
261
100
AcDbEntity
  8
ASSI
100
AcDbLine
 62
250
  6
CONTINUOUS
 10
-31.3350350239
 20
10.9330592914
 11
-31.6936652128
 21
10.1602688438
  0
LINE
  5
262
100
AcDbEntity
  8
0
100
AcDbLine
 62
250
  6
CONTINUOUS
 10
-31.3401118222
 20
7.9965476459
 11
-30.9865584316
 21
8.608920081
  0
LINE
  5
263
100
AcDbEntity
  8
ASSI
100
AcDbLine
 62
250
  6
CONTINUOUS
 10
-31.3401118222
 20
7.9965476459
 11
-30.9865584316
 21
8.608920081
  0
LINE
  5
264
100
AcDbEntity
  8
0
100
AcDbLine
 62
250
  6
CONTINUOUS
 10
-29.7303149708
 20
17.5868953959
 11
-31.3350350239
 21
16.5945124437
  0
LINE
  5
265
100
AcDbEntity
  8
0
100
AcDbLine
 62
7
  6
CONTINUOUS
 10
-29.7883272373
 20
17.4520697504
 11
-31.3350350239
 21
16.495562454
  0
LINE
  5
266
100
AcDbEntity
  8
0
100
AcDbLine
 62
7
  6
CONTINUOUS
 10
47.2030024326
 20
-66.2328519066
 11
48.21253915
 21
-66.8442264913
  0
LINE
  5
267
100
AcDbEntity
  8
ASSI
100
AcDbLine
 62
7
  6
CONTINUOUS
 10
47.2030024326
 20
-66.2328519066
 11
48.21253915
 21
-66.8442264913
  0
LINE
  5
268
100
AcDbEntity
  8
0
100
AcDbLine
 62
250
  6
CONTINUOUS
 10
-31.835086569
 20
10.0786139251
 11
-31.6936652128
 21
10.1602688438
  0
LINE
  5
269
100
AcDbEntity
  8
ASSI
100
AcDbLine
 62
250
  6
CONTINUOUS
 10
-31.835086569
 20
10.0786139251
 11
-31.6936652128
 21
10.1602688438
  0
LINE
  5
26A
100
AcDbEntity
  8
0
100
AcDbLine
 62
250
  6
CONTINUOUS
 10
-30.9865584316
 20
8.608920081
 11
-30.8451370754
 21
8.6905749996
  0
LINE
  5
26B
100
AcDbEntity
  8
ASSI
100
AcDbLine
 62
250
  6
CONTINUOUS
 10
-30.9865584316
 20
8.608920081
 11
-30.8451370754
 21
8.6905749996
  0
LINE
  5
26C
100
AcDbEntity
  8
0
100
AcDbLine
 62
7
  6
CONTINUOUS
 10
-20.6627994263
 20
14.1603024662
 11
-20.6627994263
 21
3.2196007572
  0
LINE
  5
26D
100
AcDbEntity
  8
ASSI
100
AcDbLine
 62
7
  6
CONTINUOUS
 10
-20.6627994263
 20
14.1603024662
 11
-20.6627994263
 21
3.2196007572
  0
LINE
  5
26E
100
AcDbEntity
  8
0
100
AcDbLine
 62
7
  6
CONTINUOUS
 10
-16.6322907735
 20
0.8924355752
 11
-16.6322907735
 21
11.8331372842
  0
LINE
  5
26F
100
AcDbEntity
  8
ASSI
100
AcDbLine
 62
7
  6
CONTINUOUS
 10
-16.6322907735
 20
0.8924355752
 11
-16.6322907735
 21
11.8331372842
  0
LINE
  5
270
100
AcDbEntity
  8
0
100
AcDbLine
 62
250
  6
CONTINUOUS
 10
-15.5444108894
 20
12.4305567682
 11
-15.7837626361
 21
11.9147922029
  0
LINE
  5
271
100
AcDbEntity
  8
ASSI
100
AcDbLine
 62
250
  6
CONTINUOUS
 10
-15.5444108894
 20
12.4305567682
 11
-15.7837626361
 21
11.9147922029
  0
LINE
  5
272
100
AcDbEntity
  8
0
100
AcDbLine
 62
250
  6
CONTINUOUS
 10
-21.8648809543
 20
2.5256680953
 11
-21.5113275637
 21
3.1380405304
  0
LINE
  5
273
100
AcDbEntity
  8
ASSI
100
AcDbLine
 62
250
  6
CONTINUOUS
 10
-21.8648809543
 20
2.5256680953
 11
-21.5113275637
 21
3.1380405304
  0
LINE
  5
274
100
AcDbEntity
  8
0
100
AcDbLine
 62
250
  6
CONTINUOUS
 10
-15.9251839923
 20
11.8331372842
 11
-15.7837626361
 21
11.9147922029
  0
LINE
  5
275
100
AcDbEntity
  8
ASSI
100
AcDbLine
 62
250
  6
CONTINUOUS
 10
-15.9251839923
 20
11.8331372842
 11
-15.7837626361
 21
11.9147922029
  0
LINE
  5
276
100
AcDbEntity
  8
0
100
AcDbLine
 62
250
  6
CONTINUOUS
 10
15.1875143799
 20
-17.4799211245
 11
15.8946211611
 21
-17.4799211245
  0
LINE
  5
277
100
AcDbEntity
  8
ASSI
100
AcDbLine
 62
250
  6
CONTINUOUS
 10
15.1875143799
 20
-17.4799211245
 11
15.8946211611
 21
-17.4799211245
  0
LINE
  5
278
100
AcDbEntity
  8
0
100
AcDbLine
 62
250
  6
CONTINUOUS
 10
26.9262643503
 20
-24.3894007824
 11
26.3598015226
 21
-24.3388396006
  0
LINE
  5
279
100
AcDbEntity
  8
ASSI
100
AcDbLine
 62
250
  6
CONTINUOUS
 10
26.9262643503
 20
-24.3894007824
 11
26.3598015226
 21
-24.3388396006
  0
LINE
  5
27A
100
AcDbEntity
  8
0
100
AcDbLine
 62
250
  6
CONTINUOUS
 10
17.7330987921
 20
-18.9436977389
 11
16.8845706547
 21
-18.86796005
  0
LINE
  5
27B
100
AcDbEntity
  8
ASSI
100
AcDbLine
 62
250
  6
CONTINUOUS
 10
17.7330987921
 20
-18.9436977389
 11
16.8845706547
 21
-18.86796005
  0
LINE
  5
27C
100
AcDbEntity
  8
0
100
AcDbLine
 62
7
  6
CONTINUOUS
 10
-15.9251839923
 20
0.8924355752
 11
-15.9251839923
 21
11.8331372842
  0
LINE
  5
27D
100
AcDbEntity
  8
ASSI
100
AcDbLine
 62
7
  6
CONTINUOUS
 10
-15.9251839923
 20
0.8924355752
 11
-15.9251839923
 21
11.8331372842
  0
LINE
  5
27E
100
AcDbEntity
  8
0
100
AcDbLine
 62
7
  6
CONTINUOUS
 10
-15.7837626361
 20
11.9147922029
 11
-15.7837626361
 21
0.9740904939
  0
LINE
  5
27F
100
AcDbEntity
  8
ASSI
100
AcDbLine
 62
7
  6
CONTINUOUS
 10
-15.7837626361
 20
11.9147922029
 11
-15.7837626361
 21
0.9740904939
  0
LINE
  5
280
100
AcDbEntity
  8
0
100
AcDbLine
 62
7
  6
CONTINUOUS
 10
-15.4251324472
 20
12.4371678909
 11
-15.4251324472
 21
1.7468809415
  0
LINE
  5
281
100
AcDbEntity
  8
ASSI
100
AcDbLine
 62
7
  6
CONTINUOUS
 10
-15.4251324472
 20
12.4371678909
 11
-15.4251324472
 21
1.7468809415
  0
LINE
  5
282
100
AcDbEntity
  8
0
100
AcDbLine
 62
250
  6
CONTINUOUS
 10
-15.4251324472
 20
1.7468809415
 11
-15.7837626361
 21
0.9740904939
  0
LINE
  5
283
100
AcDbEntity
  8
ASSI
100
AcDbLine
 62
250
  6
CONTINUOUS
 10
-15.4251324472
 20
1.7468809415
 11
-15.7837626361
 21
0.9740904939
  0
LINE
  5
284
100
AcDbEntity
  8
0
100
AcDbLine
 62
250
  6
CONTINUOUS
 10
-15.4302092455
 20
-1.189630704
 11
-15.0766558549
 21
-0.5772582689
  0
LINE
  5
285
100
AcDbEntity
  8
ASSI
100
AcDbLine
 62
250
  6
CONTINUOUS
 10
-15.4302092455
 20
-1.189630704
 11
-15.0766558549
 21
-0.5772582689
  0
LINE
  5
286
100
AcDbEntity
  8
0
100
AcDbLine
 62
250
  6
CONTINUOUS
 10
-21.5113275637
 20
3.1380405304
 11
-21.3699062075
 21
3.219695449
  0
LINE
  5
287
100
AcDbEntity
  8
ASSI
100
AcDbLine
 62
250
  6
CONTINUOUS
 10
-21.5113275637
 20
3.1380405304
 11
-21.3699062075
 21
3.219695449
  0
LINE
  5
288
100
AcDbEntity
  8
0
100
AcDbLine
 62
250
  6
CONTINUOUS
 10
11.0163617736
 20
-15.2032224325
 11
10.4498989459
 21
-15.1526612507
  0
LINE
  5
289
100
AcDbEntity
  8
ASSI
100
AcDbLine
 62
250
  6
CONTINUOUS
 10
11.0163617736
 20
-15.2032224325
 11
10.4498989459
 21
-15.1526612507
  0
LINE
  5
28A
100
AcDbEntity
  8
0
100
AcDbLine
 62
7
  6
CONTINUOUS
 10
-52.9823718343
 20
63.9328568438
 11
-52.9819965268
 21
63.9322204822
  0
LINE
  5
28B
100
AcDbEntity
  8
ASSI
100
AcDbLine
 62
7
  6
CONTINUOUS
 10
-52.9823718343
 20
63.9328568438
 11
-52.9819965268
 21
63.9322204822
  0
LINE
  5
28C
100
AcDbEntity
  8
0
100
AcDbLine
 62
250
  6
CONTINUOUS
 10
-15.9251839923
 20
0.8924355752
 11
-15.7837626361
 21
0.9740904939
  0
LINE
  5
28D
100
AcDbEntity
  8
ASSI
100
AcDbLine
 62
250
  6
CONTINUOUS
 10
-15.9251839923
 20
0.8924355752
 11
-15.7837626361
 21
0.9740904939
  0
LINE
  5
28E
100
AcDbEntity
  8
0
100
AcDbLine
 62
250
  6
CONTINUOUS
 10
-15.0766558549
 20
-0.5772582689
 11
-14.9352344987
 21
-0.4956033503
  0
LINE
  5
28F
100
AcDbEntity
  8
ASSI
100
AcDbLine
 62
250
  6
CONTINUOUS
 10
-15.0766558549
 20
-0.5772582689
 11
-14.9352344987
 21
-0.4956033503
  0
LINE
  5
290
100
AcDbEntity
  8
0
100
AcDbLine
 62
7
  6
CONTINUOUS
 10
47.4819783668
 20
4.7598277683
 11
48.8989374977
 21
5.1074460445
  0
LINE
  5
291
100
AcDbEntity
  8
ASSI
100
AcDbLine
 62
7
  6
CONTINUOUS
 10
47.4819783668
 20
4.7598277683
 11
48.8989374977
 21
5.1074460445
  0
LINE
  5
292
100
AcDbEntity
  8
0
100
AcDbLine
 62
250
  6
CONTINUOUS
 10
-0.7223881968
 20
-8.2937427746
 11
-0.0152814156
 21
-8.2937427746
  0
LINE
  5
293
100
AcDbEntity
  8
ASSI
100
AcDbLine
 62
250
  6
CONTINUOUS
 10
-0.7223881968
 20
-8.2937427746
 11
-0.0152814156
 21
-8.2937427746
  0
LINE
  5
294
100
AcDbEntity
  8
0
100
AcDbLine
 62
250
  6
CONTINUOUS
 10
15.1875143799
 20
-6.5392194155
 11
15.8946211611
 21
-6.5392194155
  0
LINE
  5
295
100
AcDbEntity
  8
ASSI
100
AcDbLine
 62
250
  6
CONTINUOUS
 10
15.1875143799
 20
-6.5392194155
 11
15.8946211611
 21
-6.5392194155
  0
LINE
  5
296
100
AcDbEntity
  8
0
100
AcDbLine
 62
250
  6
CONTINUOUS
 10
1.8231962154
 20
-9.757519389
 11
0.974668078
 21
-9.6817817001
  0
LINE
  5
297
100
AcDbEntity
  8
ASSI
100
AcDbLine
 62
250
  6
CONTINUOUS
 10
1.8231962154
 20
-9.757519389
 11
0.974668078
 21
-9.6817817001
  0
LINE
  5
298
100
AcDbEntity
  8
0
100
AcDbLine
 62
250
  6
CONTINUOUS
 10
-4.8935408031
 20
-6.0170440826
 11
-5.4600036308
 21
-5.9664829008
  0
LINE
  5
299
100
AcDbEntity
  8
ASSI
100
AcDbLine
 62
250
  6
CONTINUOUS
 10
-4.8935408031
 20
-6.0170440826
 11
-5.4600036308
 21
-5.9664829008
  0
LINE
  5
29A
100
AcDbEntity
  8
0
100
AcDbLine
 62
7
  6
CONTINUOUS
 10
25.8648267758
 20
-25.0328669543
 11
16.3895959079
 21
-19.5619874037
  0
LINE
  5
29B
100
AcDbEntity
  8
ASSI
100
AcDbLine
 62
7
  6
CONTINUOUS
 10
25.8648267758
 20
-25.0328669543
 11
16.3895959079
 21
-19.5619874037
  0
LINE
  5
29C
100
AcDbEntity
  8
0
100
AcDbLine
 62
7
  6
CONTINUOUS
 10
9.9549241991
 20
-15.8466886044
 11
0.4796933312
 21
-10.3758090539
  0
LINE
  5
29D
100
AcDbEntity
  8
ASSI
100
AcDbLine
 62
7
  6
CONTINUOUS
 10
9.9549241991
 20
-15.8466886044
 11
0.4796933312
 21
-10.3758090539
  0
LINE
  5
29E
100
AcDbEntity
  8
0
100
AcDbLine
 62
7
  6
CONTINUOUS
 10
-5.9549783776
 20
-6.6605102546
 11
-15.4302092455
 21
-1.189630704
  0
LINE
  5
29F
100
AcDbEntity
  8
ASSI
100
AcDbLine
 62
7
  6
CONTINUOUS
 10
-5.9549783776
 20
-6.6605102546
 11
-15.4302092455
 21
-1.189630704
  0
LINE
  5
2A0
100
AcDbEntity
  8
0
100
AcDbLine
 62
7
  6
CONTINUOUS
 10
-21.8648809543
 20
2.5256680953
 11
-31.3401118222
 21
7.9965476459
  0
LINE
  5
2A1
100
AcDbEntity
  8
ASSI
100
AcDbLine
 62
7
  6
CONTINUOUS
 10
-21.8648809543
 20
2.5256680953
 11
-31.3401118222
 21
7.9965476459
  0
LINE
  5
2A2
100
AcDbEntity
  8
0
100
AcDbLine
 62
7
  6
CONTINUOUS
 10
26.2183801664
 20
-24.4204945193
 11
16.7431492985
 21
-18.9496149687
  0
LINE
  5
2A3
100
AcDbEntity
  8
ASSI
100
AcDbLine
 62
7
  6
CONTINUOUS
 10
26.2183801664
 20
-24.4204945193
 11
16.7431492985
 21
-18.9496149687
  0
LINE
  5
2A4
100
AcDbEntity
  8
0
100
AcDbLine
 62
7
  6
CONTINUOUS
 10
10.3084775897
 20
-15.2343161694
 11
0.8332467218
 21
-9.7634366188
  0
LINE
  5
2A5
100
AcDbEntity
  8
ASSI
100
AcDbLine
 62
7
  6
CONTINUOUS
 10
10.3084775897
 20
-15.2343161694
 11
0.8332467218
 21
-9.7634366188
  0
LINE
  5
2A6
100
AcDbEntity
  8
0
100
AcDbLine
 62
7
  6
CONTINUOUS
 10
-5.601424987
 20
-6.0481378195
 11
-15.0766558549
 21
-0.5772582689
  0
LINE
  5
2A7
100
AcDbEntity
  8
ASSI
100
AcDbLine
 62
7
  6
CONTINUOUS
 10
-5.601424987
 20
-6.0481378195
 11
-15.0766558549
 21
-0.5772582689
  0
LINE
  5
2A8
100
AcDbEntity
  8
0
100
AcDbLine
 62
7
  6
CONTINUOUS
 10
-21.5113275637
 20
3.1380405304
 11
-30.9865584316
 21
8.608920081
  0
LINE
  5
2A9
100
AcDbEntity
  8
ASSI
100
AcDbLine
 62
7
  6
CONTINUOUS
 10
-21.5113275637
 20
3.1380405304
 11
-30.9865584316
 21
8.608920081
  0
LINE
  5
2AA
100
AcDbEntity
  8
0
100
AcDbLine
 62
7
  6
CONTINUOUS
 10
-30.8451370754
 20
8.6905749996
 11
-21.3699062075
 21
3.219695449
  0
LINE
  5
2AB
100
AcDbEntity
  8
ASSI
100
AcDbLine
 62
7
  6
CONTINUOUS
 10
-30.8451370754
 20
8.6905749996
 11
-21.3699062075
 21
3.219695449
  0
LINE
  5
2AC
100
AcDbEntity
  8
0
100
AcDbLine
 62
7
  6
CONTINUOUS
 10
-14.9352344987
 20
-0.4956033503
 11
-5.4600036308
 21
-5.9664829008
  0
LINE
  5
2AD
100
AcDbEntity
  8
ASSI
100
AcDbLine
 62
7
  6
CONTINUOUS
 10
-14.9352344987
 20
-0.4956033503
 11
-5.4600036308
 21
-5.9664829008
  0
LINE
  5
2AE
100
AcDbEntity
  8
0
100
AcDbLine
 62
7
  6
CONTINUOUS
 10
0.974668078
 20
-9.6817817001
 11
10.4498989459
 21
-15.1526612507
  0
LINE
  5
2AF
100
AcDbEntity
  8
ASSI
100
AcDbLine
 62
7
  6
CONTINUOUS
 10
0.974668078
 20
-9.6817817001
 11
10.4498989459
 21
-15.1526612507
  0
LINE
  5
2B0
100
AcDbEntity
  8
0
100
AcDbLine
 62
7
  6
CONTINUOUS
 10
16.8845706547
 20
-18.86796005
 11
26.3598015226
 21
-24.3388396006
  0
LINE
  5
2B1
100
AcDbEntity
  8
ASSI
100
AcDbLine
 62
7
  6
CONTINUOUS
 10
16.8845706547
 20
-18.86796005
 11
26.3598015226
 21
-24.3388396006
  0
LINE
  5
2B2
100
AcDbEntity
  8
0
100
AcDbLine
 62
7
  6
CONTINUOUS
 10
-29.9966089379
 20
8.6148373107
 11
-20.7381115748
 21
3.2690969695
  0
LINE
  5
2B3
100
AcDbEntity
  8
ASSI
100
AcDbLine
 62
7
  6
CONTINUOUS
 10
-29.9966089379
 20
8.6148373107
 11
-20.7381115748
 21
3.2690969695
  0
LINE
  5
2B4
100
AcDbEntity
  8
0
100
AcDbLine
 62
7
  6
CONTINUOUS
 10
-14.0867063612
 20
-0.5713410392
 11
-4.8282089981
 21
-5.9170813804
  0
LINE
  5
2B5
100
AcDbEntity
  8
ASSI
100
AcDbLine
 62
7
  6
CONTINUOUS
 10
-14.0867063612
 20
-0.5713410392
 11
-4.8282089981
 21
-5.9170813804
  0
LINE
  5
2B6
100
AcDbEntity
  8
0
100
AcDbLine
 62
7
  6
CONTINUOUS
 10
1.8231962154
 20
-9.757519389
 11
11.0816935785
 21
-15.1032597303
  0
LINE
  5
2B7
100
AcDbEntity
  8
ASSI
100
AcDbLine
 62
7
  6
CONTINUOUS
 10
1.8231962154
 20
-9.757519389
 11
11.0816935785
 21
-15.1032597303
  0
LINE
  5
2B8
100
AcDbEntity
  8
0
100
AcDbLine
 62
7
  6
CONTINUOUS
 10
17.7330987921
 20
-18.9436977389
 11
26.9915961552
 21
-24.2894380801
  0
LINE
  5
2B9
100
AcDbEntity
  8
ASSI
100
AcDbLine
 62
7
  6
CONTINUOUS
 10
17.7330987921
 20
-18.9436977389
 11
26.9915961552
 21
-24.2894380801
  0
LINE
  5
2BA
100
AcDbEntity
  8
0
100
AcDbLine
 62
7
  6
CONTINUOUS
 10
-4.7528968496
 20
4.9741241163
 11
-4.7528968496
 21
-5.9665775927
  0
LINE
  5
2BB
100
AcDbEntity
  8
ASSI
100
AcDbLine
 62
7
  6
CONTINUOUS
 10
-4.7528968496
 20
4.9741241163
 11
-4.7528968496
 21
-5.9665775927
  0
LINE
  5
2BC
100
AcDbEntity
  8
0
100
AcDbLine
 62
7
  6
CONTINUOUS
 10
-0.7223881968
 20
-8.2937427746
 11
-0.7223881968
 21
2.6469589344
  0
LINE
  5
2BD
100
AcDbEntity
  8
ASSI
100
AcDbLine
 62
7
  6
CONTINUOUS
 10
-0.7223881968
 20
-8.2937427746
 11
-0.7223881968
 21
2.6469589344
  0
LINE
  5
2BE
100
AcDbEntity
  8
0
100
AcDbLine
 62
7
  6
CONTINUOUS
 10
-0.0152814156
 20
-8.2937427746
 11
-0.0152814156
 21
2.6469589344
  0
LINE
  5
2BF
100
AcDbEntity
  8
ASSI
100
AcDbLine
 62
7
  6
CONTINUOUS
 10
-0.0152814156
 20
-8.2937427746
 11
-0.0152814156
 21
2.6469589344
  0
LINE
  5
2C0
100
AcDbEntity
  8
0
100
AcDbLine
 62
7
  6
CONTINUOUS
 10
0.1261399406
 20
2.728613853
 11
0.1261399406
 21
-8.212087856
  0
LINE
  5
2C1
100
AcDbEntity
  8
ASSI
100
AcDbLine
 62
7
  6
CONTINUOUS
 10
0.1261399406
 20
2.728613853
 11
0.1261399406
 21
-8.212087856
  0
LINE
  5
2C2
100
AcDbEntity
  8
0
100
AcDbLine
 62
7
  6
CONTINUOUS
 10
0.4847701295
 20
3.250989541
 11
0.4847701295
 21
-7.4392974084
  0
LINE
  5
2C3
100
AcDbEntity
  8
ASSI
100
AcDbLine
 62
7
  6
CONTINUOUS
 10
0.4847701295
 20
3.250989541
 11
0.4847701295
 21
-7.4392974084
  0
LINE
  5
2C4
100
AcDbEntity
  8
0
100
AcDbLine
 62
250
  6
CONTINUOUS
 10
0.3654916873
 20
3.2443784184
 11
0.1261399406
 21
2.728613853
  0
LINE
  5
2C5
100
AcDbEntity
  8
ASSI
100
AcDbLine
 62
250
  6
CONTINUOUS
 10
0.3654916873
 20
3.2443784184
 11
0.1261399406
 21
2.728613853
  0
LINE
  5
2C6
100
AcDbEntity
  8
0
100
AcDbLine
 62
250
  6
CONTINUOUS
 10
-5.9549783776
 20
-6.6605102546
 11
-5.601424987
 21
-6.0481378195
  0
LINE
  5
2C7
100
AcDbEntity
  8
ASSI
100
AcDbLine
 62
250
  6
CONTINUOUS
 10
-5.9549783776
 20
-6.6605102546
 11
-5.601424987
 21
-6.0481378195
  0
LINE
  5
2C8
100
AcDbEntity
  8
0
100
AcDbLine
 62
250
  6
CONTINUOUS
 10
-0.0152814156
 20
2.6469589344
 11
0.1261399406
 21
2.728613853
  0
LINE
  5
2C9
100
AcDbEntity
  8
ASSI
100
AcDbLine
 62
250
  6
CONTINUOUS
 10
-0.0152814156
 20
2.6469589344
 11
0.1261399406
 21
2.728613853
  0
LINE
  5
2CA
100
AcDbEntity
  8
0
100
AcDbLine
 62
250
  6
CONTINUOUS
 10
-14.0867063612
 20
-0.5713410392
 11
-14.9352344987
 21
-0.4956033503
  0
LINE
  5
2CB
100
AcDbEntity
  8
ASSI
100
AcDbLine
 62
250
  6
CONTINUOUS
 10
-14.0867063612
 20
-0.5713410392
 11
-14.9352344987
 21
-0.4956033503
  0
LINE
  5
2CC
100
AcDbEntity
  8
0
100
AcDbLine
 62
250
  6
CONTINUOUS
 10
0.4847701295
 20
-7.4392974084
 11
0.1261399406
 21
-8.212087856
  0
LINE
  5
2CD
100
AcDbEntity
  8
ASSI
100
AcDbLine
 62
250
  6
CONTINUOUS
 10
0.4847701295
 20
-7.4392974084
 11
0.1261399406
 21
-8.212087856
  0
LINE
  5
2CE
100
AcDbEntity
  8
0
100
AcDbLine
 62
250
  6
CONTINUOUS
 10
0.4796933312
 20
-10.3758090539
 11
0.8332467218
 21
-9.7634366188
  0
LINE
  5
2CF
100
AcDbEntity
  8
ASSI
100
AcDbLine
 62
250
  6
CONTINUOUS
 10
0.4796933312
 20
-10.3758090539
 11
0.8332467218
 21
-9.7634366188
  0
LINE
  5
2D0
100
AcDbEntity
  8
0
100
AcDbLine
 62
250
  6
CONTINUOUS
 10
-5.601424987
 20
-6.0481378195
 11
-5.4600036308
 21
-5.9664829008
  0
LINE
  5
2D1
100
AcDbEntity
  8
ASSI
100
AcDbLine
 62
250
  6
CONTINUOUS
 10
-5.601424987
 20
-6.0481378195
 11
-5.4600036308
 21
-5.9664829008
  0
LINE
  5
2D2
100
AcDbEntity
  8
0
100
AcDbLine
 62
250
  6
CONTINUOUS
 10
-16.6322907735
 20
0.8924355752
 11
-15.9251839923
 21
0.8924355752
  0
LINE
  5
2D3
100
AcDbEntity
  8
ASSI
100
AcDbLine
 62
250
  6
CONTINUOUS
 10
-16.6322907735
 20
0.8924355752
 11
-15.9251839923
 21
0.8924355752
  0
LINE
  5
2D4
100
AcDbEntity
  8
0
100
AcDbLine
 62
250
  6
CONTINUOUS
 10
-0.7223881968
 20
2.6469589344
 11
-0.0152814156
 21
2.6469589344
  0
LINE
  5
2D5
100
AcDbEntity
  8
ASSI
100
AcDbLine
 62
250
  6
CONTINUOUS
 10
-0.7223881968
 20
2.6469589344
 11
-0.0152814156
 21
2.6469589344
  0
LINE
  5
2D6
100
AcDbEntity
  8
0
100
AcDbLine
 62
250
  6
CONTINUOUS
 10
-20.8034433798
 20
3.1691342672
 11
-21.3699062075
 21
3.219695449
  0
LINE
  5
2D7
100
AcDbEntity
  8
ASSI
100
AcDbLine
 62
250
  6
CONTINUOUS
 10
-20.8034433798
 20
3.1691342672
 11
-21.3699062075
 21
3.219695449
  0
LINE
  5
2D8
100
AcDbEntity
  8
0
100
AcDbLine
 62
250
  6
CONTINUOUS
 10
-29.9966089379
 20
8.6148373107
 11
-30.8451370754
 21
8.6905749996
  0
LINE
  5
2D9
100
AcDbEntity
  8
ASSI
100
AcDbLine
 62
250
  6
CONTINUOUS
 10
-29.9966089379
 20
8.6148373107
 11
-30.8451370754
 21
8.6905749996
  0
LINE
  5
2DA
100
AcDbEntity
  8
0
100
AcDbLine
 62
7
  6
CONTINUOUS
 10
-31.3401118222
 20
21.713248296
 11
-21.8648809543
 21
16.2423687454
  0
LINE
  5
2DB
100
AcDbEntity
  8
ASSI
100
AcDbLine
 62
7
  6
CONTINUOUS
 10
-31.3401118222
 20
21.713248296
 11
-21.8648809543
 21
16.2423687454
  0
LINE
  5
2DC
100
AcDbEntity
  8
0
100
AcDbLine
 62
7
  6
CONTINUOUS
 10
-15.4302092455
 20
12.5270699461
 11
-5.9549783776
 21
7.0561903955
  0
LINE
  5
2DD
100
AcDbEntity
  8
ASSI
100
AcDbLine
 62
7
  6
CONTINUOUS
 10
-15.4302092455
 20
12.5270699461
 11
-5.9549783776
 21
7.0561903955
  0
LINE
  5
2DE
100
AcDbEntity
  8
0
100
AcDbLine
 62
7
  6
CONTINUOUS
 10
0.4796933312
 20
3.3408915963
 11
9.9549241991
 21
-2.1299879543
  0
LINE
  5
2DF
100
AcDbEntity
  8
ASSI
100
AcDbLine
 62
7
  6
CONTINUOUS
 10
0.4796933312
 20
3.3408915963
 11
9.9549241991
 21
-2.1299879543
  0
LINE
  5
2E0
100
AcDbEntity
  8
0
100
AcDbLine
 62
7
  6
CONTINUOUS
 10
16.3895959079
 20
-5.8452867536
 11
25.8648267758
 21
-11.3161663042
  0
LINE
  5
2E1
100
AcDbEntity
  8
ASSI
100
AcDbLine
 62
7
  6
CONTINUOUS
 10
16.3895959079
 20
-5.8452867536
 11
25.8648267758
 21
-11.3161663042
  0
LINE
  5
2E2
100
AcDbEntity
  8
0
100
AcDbLine
 62
7
  6
CONTINUOUS
 10
11.1570057271
 20
-4.2120542335
 11
11.1570057271
 21
-15.1527559426
  0
LINE
  5
2E3
100
AcDbEntity
  8
ASSI
100
AcDbLine
 62
7
  6
CONTINUOUS
 10
11.1570057271
 20
-4.2120542335
 11
11.1570057271
 21
-15.1527559426
  0
LINE
  5
2E4
100
AcDbEntity
  8
0
100
AcDbLine
 62
250
  6
CONTINUOUS
 10
-0.0152814156
 20
-8.2937427746
 11
0.1261399406
 21
-8.212087856
  0
LINE
  5
2E5
100
AcDbEntity
  8
ASSI
100
AcDbLine
 62
250
  6
CONTINUOUS
 10
-0.0152814156
 20
-8.2937427746
 11
0.1261399406
 21
-8.212087856
  0
LINE
  5
2E6
100
AcDbEntity
  8
0
100
AcDbLine
 62
250
  6
CONTINUOUS
 10
0.8332467218
 20
-9.7634366188
 11
0.974668078
 21
-9.6817817001
  0
LINE
  5
2E7
100
AcDbEntity
  8
ASSI
100
AcDbLine
 62
250
  6
CONTINUOUS
 10
0.8332467218
 20
-9.7634366188
 11
0.974668078
 21
-9.6817817001
  0
LINE
  5
2E8
100
AcDbEntity
  8
0
100
AcDbLine
 62
250
  6
CONTINUOUS
 10
-32.5421933502
 20
10.0786139251
 11
-31.835086569
 21
10.0786139251
  0
LINE
  5
2E9
100
AcDbEntity
  8
ASSI
100
AcDbLine
 62
250
  6
CONTINUOUS
 10
-32.5421933502
 20
10.0786139251
 11
-31.835086569
 21
10.0786139251
  0
LINE
  5
2EA
100
AcDbEntity
  8
0
100
AcDbLine
 62
250
  6
CONTINUOUS
 10
-16.6322907735
 20
11.8331372842
 11
-15.9251839923
 21
11.8331372842
  0
LINE
  5
2EB
100
AcDbEntity
  8
ASSI
100
AcDbLine
 62
250
  6
CONTINUOUS
 10
-16.6322907735
 20
11.8331372842
 11
-15.9251839923
 21
11.8331372842
  0
LINE
  5
2EC
100
AcDbEntity
  8
0
100
AcDbLine
 62
7
  6
CONTINUOUS
 10
48.21253915
 20
-66.8442264913
 11
48.2129015803
 21
-66.844867929
  0
LINE
  5
2ED
100
AcDbEntity
  8
ASSI
100
AcDbLine
 62
7
  6
CONTINUOUS
 10
48.21253915
 20
-66.8442264913
 11
48.2129015803
 21
-66.844867929
  0
LINE
  5
2EE
100
AcDbEntity
  8
0
100
AcDbLine
 62
7
  6
CONTINUOUS
 10
15.1875143799
 20
-17.4799211245
 11
15.1875143799
 21
-6.5392194155
  0
LINE
  5
2EF
100
AcDbEntity
  8
ASSI
100
AcDbLine
 62
7
  6
CONTINUOUS
 10
15.1875143799
 20
-17.4799211245
 11
15.1875143799
 21
-6.5392194155
  0
LINE
  5
2F0
100
AcDbEntity
  8
0
100
AcDbLine
 62
7
  6
CONTINUOUS
 10
15.8946211611
 20
-17.4799211245
 11
15.8946211611
 21
-6.5392194155
  0
LINE
  5
2F1
100
AcDbEntity
  8
ASSI
100
AcDbLine
 62
7
  6
CONTINUOUS
 10
15.8946211611
 20
-17.4799211245
 11
15.8946211611
 21
-6.5392194155
  0
LINE
  5
2F2
100
AcDbEntity
  8
0
100
AcDbLine
 62
7
  6
CONTINUOUS
 10
16.0360425173
 20
-6.4575644968
 11
16.0360425173
 21
-17.3982662059
  0
LINE
  5
2F3
100
AcDbEntity
  8
ASSI
100
AcDbLine
 62
7
  6
CONTINUOUS
 10
16.0360425173
 20
-6.4575644968
 11
16.0360425173
 21
-17.3982662059
  0
LINE
  5
2F4
100
AcDbEntity
  8
0
100
AcDbLine
 62
7
  6
CONTINUOUS
 10
16.3946727062
 20
-5.9351888088
 11
16.3946727062
 21
-16.6254757582
  0
LINE
  5
2F5
100
AcDbEntity
  8
ASSI
100
AcDbLine
 62
7
  6
CONTINUOUS
 10
16.3946727062
 20
-5.9351888088
 11
16.3946727062
 21
-16.6254757582
  0
LINE
  5
2F6
100
AcDbEntity
  8
0
100
AcDbLine
 62
250
  6
CONTINUOUS
 10
16.275394264
 20
-5.9417999315
 11
16.0360425173
 21
-6.4575644968
  0
LINE
  5
2F7
100
AcDbEntity
  8
ASSI
100
AcDbLine
 62
250
  6
CONTINUOUS
 10
16.275394264
 20
-5.9417999315
 11
16.0360425173
 21
-6.4575644968
  0
LINE
  5
2F8
100
AcDbEntity
  8
0
100
AcDbLine
 62
250
  6
CONTINUOUS
 10
9.9549241991
 20
-15.8466886044
 11
10.3084775897
 21
-15.2343161694
  0
LINE
  5
2F9
100
AcDbEntity
  8
ASSI
100
AcDbLine
 62
250
  6
CONTINUOUS
 10
9.9549241991
 20
-15.8466886044
 11
10.3084775897
 21
-15.2343161694
  0
LINE
  5
2FA
100
AcDbEntity
  8
0
100
AcDbLine
 62
250
  6
CONTINUOUS
 10
15.8946211611
 20
-6.5392194155
 11
16.0360425173
 21
-6.4575644968
  0
LINE
  5
2FB
100
AcDbEntity
  8
ASSI
100
AcDbLine
 62
250
  6
CONTINUOUS
 10
15.8946211611
 20
-6.5392194155
 11
16.0360425173
 21
-6.4575644968
  0
LINE
  5
2FC
100
AcDbEntity
  8
0
100
AcDbLine
 62
250
  6
CONTINUOUS
 10
16.3946727062
 20
-16.6254757582
 11
16.0360425173
 21
-17.3982662059
  0
LINE
  5
2FD
100
AcDbEntity
  8
ASSI
100
AcDbLine
 62
250
  6
CONTINUOUS
 10
16.3946727062
 20
-16.6254757582
 11
16.0360425173
 21
-17.3982662059
  0
LINE
  5
2FE
100
AcDbEntity
  8
0
100
AcDbLine
 62
250
  6
CONTINUOUS
 10
10.3084775897
 20
-15.2343161694
 11
10.4498989459
 21
-15.1526612507
  0
LINE
  5
2FF
100
AcDbEntity
  8
ASSI
100
AcDbLine
 62
250
  6
CONTINUOUS
 10
10.3084775897
 20
-15.2343161694
 11
10.4498989459
 21
-15.1526612507
  0
LINE
  5
300
100
AcDbEntity
  8
0
100
AcDbLine
 62
7
  6
CONTINUOUS
 10
48.2129015803
 20
6.3209415945
 11
52.274834565
 21
8.6662354967
  0
LINE
  5
301
100
AcDbEntity
  8
ASSI
100
AcDbLine
 62
7
  6
CONTINUOUS
 10
48.2129015803
 20
6.3209415945
 11
52.274834565
 21
8.6662354967
  0
LINE
  5
302
100
AcDbEntity
  8
0
100
AcDbLine
 62
7
  6
CONTINUOUS
 10
48.9204388496
 20
5.0954510971
 11
52.9823718343
 21
7.4407449993
  0
LINE
  5
303
100
AcDbEntity
  8
ASSI
100
AcDbLine
 62
7
  6
CONTINUOUS
 10
48.9204388496
 20
5.0954510971
 11
52.9823718343
 21
7.4407449993
  0
LINE
  5
304
100
AcDbEntity
  8
0
100
AcDbLine
 62
250
  6
CONTINUOUS
 10
15.8946211611
 20
-17.4799211245
 11
16.0360425173
 21
-17.3982662059
  0
LINE
  5
305
100
AcDbEntity
  8
ASSI
100
AcDbLine
 62
250
  6
CONTINUOUS
 10
15.8946211611
 20
-17.4799211245
 11
16.0360425173
 21
-17.3982662059
  0
LINE
  5
306
100
AcDbEntity
  8
0
100
AcDbLine
 62
250
  6
CONTINUOUS
 10
-32.5421933502
 20
21.0193156341
 11
-31.835086569
 21
21.0193156341
  0
LINE
  5
307
100
AcDbEntity
  8
ASSI
100
AcDbLine
 62
250
  6
CONTINUOUS
 10
-32.5421933502
 20
21.0193156341
 11
-31.835086569
 21
21.0193156341
  0
LINE
  5
308
100
AcDbEntity
  8
0
100
AcDbLine
 62
7
  6
CONTINUOUS
 10
27.0669083038
 20
-13.3982325834
 11
27.0669083038
 21
-24.3389342924
  0
LINE
  5
309
100
AcDbEntity
  8
ASSI
100
AcDbLine
 62
7
  6
CONTINUOUS
 10
27.0669083038
 20
-13.3982325834
 11
27.0669083038
 21
-24.3389342924
  0
LINE
  5
30A
100
AcDbEntity
  8
0
100
AcDbLine
 62
250
  6
CONTINUOUS
 10
16.3895959079
 20
-19.5619874037
 11
16.7431492985
 21
-18.9496149687
  0
LINE
  5
30B
100
AcDbEntity
  8
ASSI
100
AcDbLine
 62
250
  6
CONTINUOUS
 10
16.3895959079
 20
-19.5619874037
 11
16.7431492985
 21
-18.9496149687
  0
LINE
  5
30C
100
AcDbEntity
  8
0
100
AcDbLine
 62
250
  6
CONTINUOUS
 10
16.7431492985
 20
-18.9496149687
 11
16.8845706547
 21
-18.86796005
  0
LINE
  5
30D
100
AcDbEntity
  8
ASSI
100
AcDbLine
 62
250
  6
CONTINUOUS
 10
16.7431492985
 20
-18.9496149687
 11
16.8845706547
 21
-18.86796005
  0
LINE
  5
30E
100
AcDbEntity
  8
0
100
AcDbLine
 62
7
  6
CONTINUOUS
 10
48.8989374977
 20
5.1074460445
 11
48.9204388496
 21
5.0954510971
  0
LINE
  5
30F
100
AcDbEntity
  8
ASSI
100
AcDbLine
 62
7
  6
CONTINUOUS
 10
48.8989374977
 20
5.1074460445
 11
48.9204388496
 21
5.0954510971
  0
LINE
  5
310
100
AcDbEntity
  8
0
100
AcDbLine
 62
7
  6
CONTINUOUS
 10
47.2030024326
 20
5.2430282598
 11
-52.678287479
 21
62.9132332483
  0
LINE
  5
311
100
AcDbEntity
  8
ASSI
100
AcDbLine
 62
7
  6
CONTINUOUS
 10
47.2030024326
 20
5.2430282598
 11
-52.678287479
 21
62.9132332483
  0
LINE
  5
312
100
AcDbEntity
  8
0
100
AcDbLine
 62
7
  6
CONTINUOUS
 10
47.2030024326
 20
5.2430282598
 11
48.21253915
 21
6.2963228556
  0
LINE
  5
313
100
AcDbEntity
  8
ASSI
100
AcDbLine
 62
7
  6
CONTINUOUS
 10
47.2030024326
 20
5.2430282598
 11
48.21253915
 21
6.2963228556
  0
LINE
  5
314
100
AcDbEntity
  8
0
100
AcDbLine
 62
250
  6
CONTINUOUS
 10
26.2183801664
 20
-24.4204945193
 11
26.3598015226
 21
-24.3388396006
  0
LINE
  5
315
100
AcDbEntity
  8
ASSI
100
AcDbLine
 62
250
  6
CONTINUOUS
 10
26.2183801664
 20
-24.4204945193
 11
26.3598015226
 21
-24.3388396006
  0
LINE
  5
316
100
AcDbEntity
  8
0
100
AcDbLine
 62
7
  6
CONTINUOUS
 10
48.2129015803
 20
6.3209415945
 11
-52.274834565
 21
64.3413010376
  0
LINE
  5
317
100
AcDbEntity
  8
ASSI
100
AcDbLine
 62
7
  6
CONTINUOUS
 10
48.2129015803
 20
6.3209415945
 11
-52.274834565
 21
64.3413010376
  0
LINE
  5
318
100
AcDbEntity
  8
0
100
AcDbLine
 62
7
  6
CONTINUOUS
 10
52.274834565
 20
8.6662354967
 11
-48.4870207779
 21
66.844867929
  0
LINE
  5
319
100
AcDbEntity
  8
ASSI
100
AcDbLine
 62
7
  6
CONTINUOUS
 10
52.274834565
 20
8.6662354967
 11
-48.4870207779
 21
66.844867929
  0
LINE
  5
31A
100
AcDbEntity
  8
0
100
AcDbLine
 62
250
  6
CONTINUOUS
 10
25.8648267758
 20
-25.0328669543
 11
26.2183801664
 21
-24.4204945193
  0
LINE
  5
31B
100
AcDbEntity
  8
ASSI
100
AcDbLine
 62
250
  6
CONTINUOUS
 10
25.8648267758
 20
-25.0328669543
 11
26.2183801664
 21
-24.4204945193
  0
LINE
  5
31C
100
AcDbEntity
  8
0
100
AcDbLine
 62
7
  6
CONTINUOUS
 10
47.4819783668
 20
4.7598277683
 11
47.2030024326
 21
5.2430282598
  0
LINE
  5
31D
100
AcDbEntity
  8
ASSI
100
AcDbLine
 62
7
  6
CONTINUOUS
 10
47.4819783668
 20
4.7598277683
 11
47.2030024326
 21
5.2430282598
  0
LINE
  5
31E
100
AcDbEntity
  8
0
100
AcDbLine
 62
7
  6
CONTINUOUS
 10
48.8989374977
 20
5.1074460445
 11
48.21253915
 21
6.2963228556
  0
LINE
  5
31F
100
AcDbEntity
  8
ASSI
100
AcDbLine
 62
7
  6
CONTINUOUS
 10
48.8989374977
 20
5.1074460445
 11
48.21253915
 21
6.2963228556
  0
LINE
  5
320
100
AcDbEntity
  8
0
100
AcDbLine
 62
7
  6
CONTINUOUS
 10
47.4819783668
 20
-66.071805831
 11
47.4819783668
 21
4.7598277683
  0
LINE
  5
321
100
AcDbEntity
  8
ASSI
100
AcDbLine
 62
7
  6
CONTINUOUS
 10
47.4819783668
 20
-66.071805831
 11
47.4819783668
 21
4.7598277683
  0
LINE
  5
322
100
AcDbEntity
  8
0
100
AcDbLine
 62
7
  6
CONTINUOUS
 10
48.9204388496
 20
-66.4364237351
 11
48.9204388496
 21
5.0954510971
  0
LINE
  5
323
100
AcDbEntity
  8
ASSI
100
AcDbLine
 62
7
  6
CONTINUOUS
 10
48.9204388496
 20
-66.4364237351
 11
48.9204388496
 21
5.0954510971
  0
LINE
  5
324
100
AcDbEntity
  8
CURVE
100
AcDbLine
 62
250
  6
CONTINUOUS
 10
50.051282223
 20
-59.2386740818
 11
50.051282223
 21
-59.664702557
  0
LINE
  5
325
100
AcDbEntity
  8
CURVE
100
AcDbLine
 62
250
  6
CONTINUOUS
 10
50.0513911947
 20
-61.5012521318
 11
50.0513911947
 21
-61.0384539178
  0
LINE
  5
326
100
AcDbEntity
  8
CURVE
100
AcDbLine
 62
250
  6
CONTINUOUS
 10
50.0513911947
 20
-60.2484813673
 11
50.0513911947
 21
-59.8227443721
  0
LINE
  5
327
100
AcDbEntity
  8
CURVE
100
AcDbLine
 62
250
  6
CONTINUOUS
 10
50.0513911947
 20
-58.8249842186
 11
50.0513911947
 21
-58.3993084586
  0
LINE
  5
328
100
AcDbEntity
  8
CURVE
100
AcDbLine
 62
250
  6
CONTINUOUS
 10
50.0513911947
 20
-57.551751076
 11
50.0513911947
 21
-57.1302376815
  0
LINE
  5
329
100
AcDbEntity
  8
CURVE
100
AcDbLine
 62
250
  6
CONTINUOUS
 10
50.0513911947
 20
-56.2323122475
 11
50.0513911947
 21
-55.820180913
  0
LINE
  5
32A
100
AcDbEntity
  8
CURVE
100
AcDbLine
 62
250
  6
CONTINUOUS
 10
50.8647159796
 20
-53.9772899144
 11
50.8647159796
 21
-54.2207609056
  0
LINE
  5
32B
100
AcDbEntity
  8
CURVE
100
AcDbLine
 62
250
  6
CONTINUOUS
 10
51.1641294674
 20
-54.04542348
 11
51.1641294674
 21
-53.8169972452
  0
LINE
  5
32C
100
AcDbEntity
  8
CURVE
100
AcDbLine
 62
250
  6
CONTINUOUS
 10
51.232196851
 20
-55.6106052197
 11
51.232196851
 21
-55.2027129988
  0
LINE
  5
32D
100
AcDbEntity
  8
CURVE
100
AcDbLine
 62
250
  6
CONTINUOUS
 10
51.5146105455
 20
-54.9655135842
 11
51.5146105455
 21
-55.5456932806
  0
LINE
  5
32E
100
AcDbEntity
  8
CURVE
100
AcDbLine
 62
250
  6
CONTINUOUS
 10
51.8795823714
 20
-58.6803045772
 11
51.8795823714
 21
-58.2542761021
  0
LINE
  5
32F
100
AcDbEntity
  8
CURVE
100
AcDbLine
 62
250
  6
CONTINUOUS
 10
51.8795823834
 20
-54.0845216818
 11
51.8795823834
 21
-53.6602075154
  0
LINE
  5
330
100
AcDbEntity
  8
CURVE
100
AcDbLine
 62
250
  6
CONTINUOUS
 10
51.8795823834
 20
-53.0078038228
 11
51.8795823834
 21
-52.5980140448
  0
LINE
  5
331
100
AcDbEntity
  8
CURVE
100
AcDbLine
 62
250
  6
CONTINUOUS
 10
51.8795823714
 20
-54.2096244167
 11
51.8795823714
 21
-54.6586406125
  0
LINE
  5
332
100
AcDbEntity
  8
CURVE
100
AcDbLine
 62
250
  6
CONTINUOUS
 10
51.8795823714
 20
-55.4667420689
 11
51.8795823714
 21
-55.8881476894
  0
LINE
  5
333
100
AcDbEntity
  8
CURVE
100
AcDbLine
 62
250
  6
CONTINUOUS
 10
51.8795823714
 20
-55.955045998
 11
51.8795823714
 21
-56.3718148837
  0
LINE
  5
334
100
AcDbEntity
  8
CURVE
100
AcDbLine
 62
250
  6
CONTINUOUS
 10
51.8795823714
 20
-56.9658909041
 11
51.8795823714
 21
-57.0256418319
  0
LINE
  5
335
100
AcDbEntity
  8
CURVE
100
AcDbLine
 62
250
  6
CONTINUOUS
 10
51.8795823714
 20
-57.6173615192
 11
51.8795823714
 21
-58.0249320507
  0
LINE
  5
336
100
AcDbEntity
  8
CURVE
100
AcDbLine
 62
250
  6
CONTINUOUS
 10
51.8795823714
 20
-59.4944511796
 11
51.8795823714
 21
-59.869888707
  0
LINE
  5
337
100
AcDbEntity
  8
0
100
AcDbLine
 62
7
  6
CONTINUOUS
 10
48.2129015803
 20
6.3209415945
 11
48.21253915
 21
6.2963228556
  0
LINE
  5
338
100
AcDbEntity
  8
ASSI
100
AcDbLine
 62
7
  6
CONTINUOUS
 10
48.2129015803
 20
6.3209415945
 11
48.21253915
 21
6.2963228556
  0
LINE
  5
339
100
AcDbEntity
  8
0
100
AcDbLine
 62
7
  6
CONTINUOUS
 10
52.274834565
 20
8.6662354967
 11
52.9823718343
 21
7.4407449993
  0
LINE
  5
33A
100
AcDbEntity
  8
ASSI
100
AcDbLine
 62
7
  6
CONTINUOUS
 10
52.274834565
 20
8.6662354967
 11
52.9823718343
 21
7.4407449993
  0
LINE
  5
33B
100
AcDbEntity
  8
0
100
AcDbLine
 62
7
  6
CONTINUOUS
 10
52.9823718343
 20
-64.4076452208
 11
52.9823718343
 21
7.4407449993
  0
LINE
  5
33C
100
AcDbEntity
  8
ASSI
100
AcDbLine
 62
7
  6
CONTINUOUS
 10
52.9823718343
 20
-64.4076452208
 11
52.9823718343
 21
7.4407449993
  0
LINE
  5
33D
100
AcDbEntity
  8
CURVE
100
AcDbLine
 62
7
  6
CONTINUOUS
 10
50.1294439022
 20
-53.8942146583
 11
50.6561413431
 21
-53.3675172174
  0
LINE
  5
33E
100
AcDbEntity
  8
CURVE
100
AcDbLine
 62
7
  6
CONTINUOUS
 10
50.0537499232
 20
-54.1799193513
 11
50.8832058949
 21
-53.3504633797
  0
LINE
  5
33F
100
AcDbEntity
  8
CURVE
100
AcDbLine
 62
7
  6
CONTINUOUS
 10
50.0331300449
 20
-54.4105499437
 11
50.3709426416
 21
-54.072737347
  0
LINE
  5
340
100
AcDbEntity
  8
CURVE
100
AcDbLine
 62
7
  6
CONTINUOUS
 10
50.6827971767
 20
-53.7608828119
 11
51.008659517
 21
-53.4350204716
  0
LINE
  5
341
100
AcDbEntity
  8
CURVE
100
AcDbLine
 62
7
  6
CONTINUOUS
 10
51.0449823543
 20
-53.3986976343
 11
51.6779585948
 21
-52.7657213938
  0
LINE
  5
342
100
AcDbEntity
  8
CURVE
100
AcDbLine
 62
7
  6
CONTINUOUS
 10
50.0320778784
 20
-54.6216128242
 11
50.3457785459
 21
-54.3079121567
  0
LINE
  5
343
100
AcDbEntity
  8
CURVE
100
AcDbLine
 62
7
  6
CONTINUOUS
 10
50.8338078233
 20
-53.8198828793
 11
51.8795823834
 21
-52.7741083192
  0
LINE
  5
344
100
AcDbEntity
  8
CURVE
100
AcDbLine
 62
7
  6
CONTINUOUS
 10
50.04436147
 20
-54.8193399466
 11
50.3842430798
 21
-54.4794583368
  0
LINE
  5
345
100
AcDbEntity
  8
CURVE
100
AcDbLine
 62
7
  6
CONTINUOUS
 10
50.8647159796
 20
-53.998985437
 11
51.2009544264
 21
-53.6627469902
  0
LINE
  5
346
100
AcDbEntity
  8
CURVE
100
AcDbLine
 62
7
  6
CONTINUOUS
 10
51.7056169467
 20
-53.1580844699
 11
51.8795823834
 21
-52.9841190332
  0
LINE
  5
347
100
AcDbEntity
  8
CURVE
100
AcDbLine
 62
7
  6
CONTINUOUS
 10
50.0661587535
 20
-55.0075533772
 11
50.8392278326
 21
-54.234484298
  0
LINE
  5
348
100
AcDbEntity
  8
CURVE
100
AcDbLine
 62
7
  6
CONTINUOUS
 10
50.8647159796
 20
-54.2089961511
 11
51.1641294674
 21
-53.9095826633
  0
LINE
  5
349
100
AcDbEntity
  8
CURVE
100
AcDbLine
 62
7
  6
CONTINUOUS
 10
50.4055476755
 20
-54.8781751691
 11
51.3248173282
 21
-53.9589055164
  0
LINE
  5
34A
100
AcDbEntity
  8
CURVE
100
AcDbLine
 62
7
  6
CONTINUOUS
 10
50.8605324283
 20
-54.6332011303
 11
51.779802081
 21
-53.7139314776
  0
LINE
  5
34B
100
AcDbEntity
  8
CURVE
100
AcDbLine
 62
250
  6
CONTINUOUS
 10
51.0261991056
 20
-53.4487044033
 11
51.0153960915
 21
-53.4545209894
  0
LINE
  5
34C
100
AcDbEntity
  8
CURVE
100
AcDbLine
 62
250
  6
CONTINUOUS
 10
51.8795823834
 20
-53.6602075154
 11
51.1641294674
 21
-54.04542348
  0
LINE
  5
34D
100
AcDbEntity
  8
CURVE
100
AcDbLine
 62
250
  6
CONTINUOUS
 10
50.8647159796
 20
-54.2207609056
 11
50.3628419429
 21
-54.490981191
  0
LINE
  5
34E
100
AcDbEntity
  8
CURVE
100
AcDbLine
 62
250
  6
CONTINUOUS
 10
50.0727508531
 20
-55.0573604741
 11
51.8795823834
 21
-54.0845216818
  0
LINE
  5
34F
100
AcDbEntity
  8
CURVE
100
AcDbLine
 62
250
  6
CONTINUOUS
 10
50.6858083513
 20
-58.168179337
 11
51.8795823714
 21
-57.6173615192
  0
LINE
  5
350
100
AcDbEntity
  8
CURVE
100
AcDbLine
 62
250
  6
CONTINUOUS
 10
51.8795823714
 20
-58.0249320507
 11
50.0513911947
 21
-58.8249842186
  0
LINE
  5
351
100
AcDbEntity
  8
CURVE
100
AcDbLine
 62
7
  6
CONTINUOUS
 10
51.3155171811
 20
-54.3882270915
 11
51.8795823834
 21
-53.8241618892
  0
LINE
  5
352
100
AcDbEntity
  8
CURVE
100
AcDbLine
 62
7
  6
CONTINUOUS
 10
50.0513911947
 20
-55.862363792
 11
50.4057389808
 21
-55.5080160059
  0
LINE
  5
353
100
AcDbEntity
  8
CURVE
100
AcDbLine
 62
7
  6
CONTINUOUS
 10
51.770501934
 20
-54.1432530527
 11
51.8795823834
 21
-54.0341726032
  0
LINE
  5
354
100
AcDbEntity
  8
CURVE
100
AcDbLine
 62
7
  6
CONTINUOUS
 10
50.0513911947
 20
-56.072374506
 11
51.8795823714
 21
-54.2441833293
  0
LINE
  5
355
100
AcDbEntity
  8
CURVE
100
AcDbLine
 62
7
  6
CONTINUOUS
 10
50.1130767233
 20
-56.2206996914
 11
50.574739453
 21
-55.7590369617
  0
LINE
  5
356
100
AcDbEntity
  8
CURVE
100
AcDbLine
 62
7
  6
CONTINUOUS
 10
50.6477293299
 20
-55.6860470848
 11
51.8795823714
 21
-54.4541940433
  0
LINE
  5
357
100
AcDbEntity
  8
CURVE
100
AcDbLine
 62
7
  6
CONTINUOUS
 10
50.3717915803
 20
-56.1719955484
 11
50.8459892338
 21
-55.6977978949
  0
LINE
  5
358
100
AcDbEntity
  8
CURVE
100
AcDbLine
 62
7
  6
CONTINUOUS
 10
51.232196851
 20
-55.3115902778
 11
51.5146105455
 21
-55.0291765832
  0
LINE
  5
359
100
AcDbEntity
  8
CURVE
100
AcDbLine
 62
7
  6
CONTINUOUS
 10
50.6305064373
 20
-56.1232914054
 11
51.1172390145
 21
-55.6365588282
  0
LINE
  5
35A
100
AcDbEntity
  8
CURVE
100
AcDbLine
 62
7
  6
CONTINUOUS
 10
51.232196851
 20
-55.5216009918
 11
51.5146105455
 21
-55.2391872972
  0
LINE
  5
35B
100
AcDbEntity
  8
CURVE
100
AcDbLine
 62
7
  6
CONTINUOUS
 10
50.8892212943
 20
-56.0745872625
 11
51.5146105455
 21
-55.4491980112
  0
LINE
  5
35C
100
AcDbEntity
  8
CURVE
100
AcDbLine
 62
7
  6
CONTINUOUS
 10
51.1479361513
 20
-56.0258831195
 11
51.659460032
 21
-55.5143592387
  0
LINE
  5
35D
100
AcDbEntity
  8
CURVE
100
AcDbLine
 62
7
  6
CONTINUOUS
 10
50.0513911947
 20
-57.33243879
 11
50.6174900761
 21
-56.7663399087
  0
LINE
  5
35E
100
AcDbEntity
  8
CURVE
100
AcDbLine
 62
7
  6
CONTINUOUS
 10
51.4066510082
 20
-55.9771789765
 11
51.8795823714
 21
-55.5042476134
  0
LINE
  5
35F
100
AcDbEntity
  8
CURVE
100
AcDbLine
 62
7
  6
CONTINUOUS
 10
50.0513911947
 20
-57.5424495041
 11
51.2054533722
 21
-56.3883873266
  0
LINE
  5
360
100
AcDbEntity
  8
CURVE
100
AcDbLine
 62
7
  6
CONTINUOUS
 10
51.6653658652
 20
-55.9284748335
 11
51.8795823714
 21
-55.7142583274
  0
LINE
  5
361
100
AcDbEntity
  8
CURVE
100
AcDbLine
 62
7
  6
CONTINUOUS
 10
50.2791325996
 20
-57.5247188132
 11
50.7061589886
 21
-57.0976924242
  0
LINE
  5
362
100
AcDbEntity
  8
CURVE
100
AcDbLine
 62
7
  6
CONTINUOUS
 10
50.7259633153
 20
-57.0778880975
 11
51.7934166683
 21
-56.0104347444
  0
LINE
  5
363
100
AcDbEntity
  8
CURVE
100
AcDbLine
 62
7
  6
CONTINUOUS
 10
50.5174283472
 20
-57.4964337796
 11
50.9427433877
 21
-57.0711187391
  0
LINE
  5
364
100
AcDbEntity
  8
CURVE
100
AcDbLine
 62
7
  6
CONTINUOUS
 10
51.2672986128
 20
-56.746563514
 11
51.8795823714
 21
-56.1342797554
  0
LINE
  5
365
100
AcDbEntity
  8
CURVE
100
AcDbLine
 62
7
  6
CONTINUOUS
 10
50.7557240947
 20
-57.4681487461
 11
51.1793277868
 21
-57.0445450541
  0
LINE
  5
366
100
AcDbEntity
  8
CURVE
100
AcDbLine
 62
7
  6
CONTINUOUS
 10
51.8086339103
 20
-56.4152389306
 11
51.8795823714
 21
-56.3442904694
  0
LINE
  5
367
100
AcDbEntity
  8
CURVE
100
AcDbLine
 62
7
  6
CONTINUOUS
 10
50.9940198423
 20
-57.4398637125
 11
51.4159121858
 21
-57.017971369
  0
LINE
  5
368
100
AcDbEntity
  8
CURVE
100
AcDbLine
 62
7
  6
CONTINUOUS
 10
50.0513911947
 20
-58.5925030741
 11
51.6524965849
 21
-56.9913976839
  0
LINE
  5
369
100
AcDbEntity
  8
CURVE
100
AcDbLine
 62
7
  6
CONTINUOUS
 10
50.0513911947
 20
-58.8025137881
 11
51.8795823714
 21
-56.9743226115
  0
LINE
  5
36A
100
AcDbEntity
  8
CURVE
100
AcDbLine
 62
7
  6
CONTINUOUS
 10
50.3848670076
 20
-58.6790486893
 11
51.0755807834
 21
-57.9883349135
  0
LINE
  5
36B
100
AcDbEntity
  8
CURVE
100
AcDbLine
 62
7
  6
CONTINUOUS
 10
50.758298743
 20
-58.5156276678
 11
51.4655067744
 21
-57.8084196365
  0
LINE
  5
36C
100
AcDbEntity
  8
CURVE
100
AcDbLine
 62
7
  6
CONTINUOUS
 10
50.051282223
 20
-59.4326549019
 11
50.4715384746
 21
-59.0123986503
  0
LINE
  5
36D
100
AcDbEntity
  8
CURVE
100
AcDbLine
 62
7
  6
CONTINUOUS
 10
51.1317304785
 20
-58.3522066464
 11
51.8554327654
 21
-57.6285043594
  0
LINE
  5
36E
100
AcDbEntity
  8
CURVE
100
AcDbLine
 62
7
  6
CONTINUOUS
 10
50.051282223
 20
-59.6426656159
 11
50.9265232274
 21
-58.7674246115
  0
LINE
  5
36F
100
AcDbEntity
  8
CURVE
100
AcDbLine
 62
7
  6
CONTINUOUS
 10
51.5051622139
 20
-58.188785625
 11
51.8795823714
 21
-57.8143654675
  0
LINE
  5
370
100
AcDbEntity
  8
CURVE
100
AcDbLine
 62
7
  6
CONTINUOUS
 10
50.0513911947
 20
-59.8525673582
 11
50.087741747
 21
-59.8162168059
  0
LINE
  5
371
100
AcDbEntity
  8
CURVE
100
AcDbLine
 62
7
  6
CONTINUOUS
 10
50.4585243059
 20
-59.445434247
 11
51.3815079802
 21
-58.5224505727
  0
LINE
  5
372
100
AcDbEntity
  8
CURVE
100
AcDbLine
 62
7
  6
CONTINUOUS
 10
51.8785939494
 20
-58.0253646035
 11
51.8795823714
 21
-58.0243761815
  0
LINE
  5
373
100
AcDbEntity
  8
CURVE
100
AcDbLine
 62
7
  6
CONTINUOUS
 10
50.0513911947
 20
-60.0625780722
 11
50.343718979
 21
-59.7702502879
  0
LINE
  5
374
100
AcDbEntity
  8
CURVE
100
AcDbLine
 62
7
  6
CONTINUOUS
 10
50.9135090587
 20
-59.2004602082
 11
51.836492733
 21
-58.2774765339
  0
LINE
  5
375
100
AcDbEntity
  8
CURVE
100
AcDbLine
 62
7
  6
CONTINUOUS
 10
50.0822910469
 20
-60.241688934
 11
50.5996962111
 21
-59.7242837698
  0
LINE
  5
376
100
AcDbEntity
  8
CURVE
100
AcDbLine
 62
7
  6
CONTINUOUS
 10
51.3684938116
 20
-58.9554861694
 11
51.8795823714
 21
-58.4443976095
  0
LINE
  5
377
100
AcDbEntity
  8
CURVE
100
AcDbLine
 62
7
  6
CONTINUOUS
 10
50.3514737432
 20
-60.1825169517
 11
50.8556734432
 21
-59.6783172518
  0
LINE
  5
378
100
AcDbEntity
  8
CURVE
100
AcDbLine
 62
7
  6
CONTINUOUS
 10
51.8234785644
 20
-58.7105121306
 11
51.8795823714
 21
-58.6544083236
  0
LINE
  5
379
100
AcDbEntity
  8
CURVE
100
AcDbLine
 62
7
  6
CONTINUOUS
 10
50.6206564396
 20
-60.1233449694
 11
51.1116506752
 21
-59.6323507337
  0
LINE
  5
37A
100
AcDbEntity
  8
CURVE
100
AcDbLine
 62
7
  6
CONTINUOUS
 10
50.8898391359
 20
-60.064172987
 11
51.3676279073
 21
-59.5863842157
  0
LINE
  5
37B
100
AcDbEntity
  8
CURVE
100
AcDbLine
 62
7
  6
CONTINUOUS
 10
50.0513911947
 20
-61.1126316423
 11
50.5380577586
 21
-60.6259650784
  0
LINE
  5
37C
100
AcDbEntity
  8
CURVE
100
AcDbLine
 62
7
  6
CONTINUOUS
 10
51.1590218323
 20
-60.0050010047
 11
51.6236051393
 21
-59.5404176977
  0
LINE
  5
37D
100
AcDbEntity
  8
CURVE
100
AcDbLine
 62
7
  6
CONTINUOUS
 10
50.0513911947
 20
-61.3226423563
 11
51.8795823714
 21
-59.4944511796
  0
LINE
  5
37E
100
AcDbEntity
  8
CURVE
100
AcDbLine
 62
7
  6
CONTINUOUS
 10
50.3430518886
 20
-61.2409923764
 11
51.8795823714
 21
-59.7044618936
  0
LINE
  5
37F
100
AcDbEntity
  8
CURVE
100
AcDbLine
 62
250
  6
CONTINUOUS
 10
51.8795823714
 20
-57.0256418319
 11
50.6858083513
 21
-58.168179337
  0
LINE
  5
380
100
AcDbEntity
  8
CURVE
100
AcDbLine
 62
250
  6
CONTINUOUS
 10
50.0513911947
 20
-58.3993084586
 11
51.0664084744
 21
-57.4312713859
  0
LINE
  5
381
100
AcDbEntity
  8
CURVE
100
AcDbLine
 62
250
  6
CONTINUOUS
 10
51.8795823714
 20
-59.869888707
 11
50.0513911947
 21
-61.5012521318
  0
LINE
  5
382
100
AcDbEntity
  8
CURVE
100
AcDbLine
 62
250
  6
CONTINUOUS
 10
50.0513911947
 20
-55.820180913
 11
51.8795823714
 21
-54.2096244167
  0
LINE
  5
383
100
AcDbEntity
  8
CURVE
100
AcDbLine
 62
250
  6
CONTINUOUS
 10
50.0513911947
 20
-61.0384539178
 11
51.309792016
 21
-59.9718585674
  0
LINE
  5
384
100
AcDbEntity
  8
CURVE
100
AcDbLine
 62
250
  6
CONTINUOUS
 10
51.8795823714
 20
-54.6586406125
 11
51.5146105455
 21
-54.9655135842
  0
LINE
  5
385
100
AcDbEntity
  8
CURVE
100
AcDbLine
 62
250
  6
CONTINUOUS
 10
51.232196851
 20
-55.2027129988
 11
50.5537317236
 21
-55.7637797996
  0
LINE
  5
386
100
AcDbEntity
  8
CURVE
100
AcDbLine
 62
250
  6
CONTINUOUS
 10
50.0513911947
 20
-57.1302376815
 11
51.8795823714
 21
-55.955045998
  0
LINE
  5
387
100
AcDbEntity
  8
CURVE
100
AcDbLine
 62
250
  6
CONTINUOUS
 10
51.8795823714
 20
-56.3718148837
 11
50.6907844819
 21
-57.0994193229
  0
LINE
  5
388
100
AcDbEntity
  8
0
100
AcDbLine
 62
7
  6
CONTINUOUS
 10
47.2030024326
 20
-66.2328519066
 11
47.4819783668
 21
-66.071805831
  0
LINE
  5
389
100
AcDbEntity
  8
ASSI
100
AcDbLine
 62
7
  6
CONTINUOUS
 10
47.2030024326
 20
-66.2328519066
 11
47.4819783668
 21
-66.071805831
  0
LINE
  5
38A
100
AcDbEntity
  8
0
100
AcDbLine
 62
7
  6
CONTINUOUS
 10
48.21253915
 20
-66.8442264913
 11
48.8989374977
 21
-66.4479852869
  0
LINE
  5
38B
100
AcDbEntity
  8
ASSI
100
AcDbLine
 62
7
  6
CONTINUOUS
 10
48.21253915
 20
-66.8442264913
 11
48.8989374977
 21
-66.4479852869
  0
LINE
  5
38C
100
AcDbEntity
  8
0
100
AcDbLine
 62
7
  6
CONTINUOUS
 10
52.9823718343
 20
-64.4076452208
 11
52.274834565
 21
-64.8160894147
  0
LINE
  5
38D
100
AcDbEntity
  8
ASSI
100
AcDbLine
 62
7
  6
CONTINUOUS
 10
52.9823718343
 20
-64.4076452208
 11
52.274834565
 21
-64.8160894147
  0
LINE
  5
38E
100
AcDbEntity
  8
CURVE
100
AcDbLine
 62
250
  6
CONTINUOUS
 10
51.8795823714
 20
-58.2542761021
 11
50.051282223
 21
-59.2386740818
  0
LINE
  5
38F
100
AcDbEntity
  8
CURVE
100
AcDbLine
 62
250
  6
CONTINUOUS
 10
50.051282223
 20
-59.664702557
 11
51.8795823714
 21
-58.6803045772
  0
LINE
  5
390
100
AcDbEntity
  8
0
100
AcDbLine
 62
7
  6
CONTINUOUS
 10
48.9204388496
 20
-66.4364237351
 11
48.8989374977
 21
-66.4479852869
  0
LINE
  5
391
100
AcDbEntity
  8
ASSI
100
AcDbLine
 62
7
  6
CONTINUOUS
 10
48.9204388496
 20
-66.4364237351
 11
48.8989374977
 21
-66.4479852869
  0
LINE
  5
392
100
AcDbEntity
  8
0
100
AcDbLine
 62
7
  6
CONTINUOUS
 10
48.9204388496
 20
-66.4364237351
 11
52.9823718343
 21
-64.4076452208
  0
LINE
  5
393
100
AcDbEntity
  8
ASSI
100
AcDbLine
 62
7
  6
CONTINUOUS
 10
48.9204388496
 20
-66.4364237351
 11
52.9823718343
 21
-64.4076452208
  0
LINE
  5
394
100
AcDbEntity
  8
0
100
AcDbLine
 62
7
  6
CONTINUOUS
 10
48.2129015803
 20
-66.844867929
 11
52.274834565
 21
-64.8160894147
  0
LINE
  5
395
100
AcDbEntity
  8
ASSI
100
AcDbLine
 62
7
  6
CONTINUOUS
 10
48.2129015803
 20
-66.844867929
 11
52.274834565
 21
-64.8160894147
  0
ARC
  5
396
100
AcDbEntity
  8
0
100
AcDbCircle
 62
7
  6
CONTINUOUS
 10
10.7048542707
 20
-14.9399186988
 40
0.4082669237
100
AcDbArc
 50
287.1197927938
 51
299.9220603256
  0
ARC
  5
397
100
AcDbEntity
  8
0
100
AcDbCircle
 62
7
  6
CONTINUOUS
 10
26.6147568474
 20
-24.1260970487
 40
0.4082669237
100
AcDbArc
 50
287.1197927938
 51
299.9220603256
  0
ARC
  5
398
100
AcDbEntity
  8
0
100
AcDbCircle
 62
7
  6
CONTINUOUS
 10
-21.1149508827
 20
3.432438001
 40
0.4082669237
100
AcDbArc
 50
287.1197927938
 51
299.9220603256
  0
ARC
  5
399
100
AcDbEntity
  8
0
100
AcDbCircle
 62
7
  6
CONTINUOUS
 10
-5.205048306
 20
-5.7537403489
 40
0.4082669237
100
AcDbArc
 50
287.1197927938
 51
299.9220603256
  0
ARC
  5
39A
100
AcDbEntity
  8
ASSI
100
AcDbCircle
 62
7
  6
CONTINUOUS
 10
-21.1149508827
 20
3.432438001
 40
0.4082669237
100
AcDbArc
 50
287.1197927938
 51
299.9220603256
  0
ARC
  5
39B
100
AcDbEntity
  8
ASSI
100
AcDbCircle
 62
7
  6
CONTINUOUS
 10
-5.205048306
 20
-5.7537403489
 40
0.4082669237
100
AcDbArc
 50
287.1197927938
 51
299.9220603256
  0
ARC
  5
39C
100
AcDbEntity
  8
ASSI
100
AcDbCircle
 62
7
  6
CONTINUOUS
 10
10.7048542707
 20
-14.9399186988
 40
0.4082669237
100
AcDbArc
 50
287.1197927938
 51
299.9220603256
  0
ARC
  5
39D
100
AcDbEntity
  8
ASSI
100
AcDbCircle
 62
7
  6
CONTINUOUS
 10
26.6147568474
 20
-24.1260970487
 40
0.4082669237
100
AcDbArc
 50
287.1197927938
 51
299.9220603256
  0
ARC
  5
39E
100
AcDbEntity
  8
0
100
AcDbCircle
 62
7
  6
CONTINUOUS
 10
-31.3819599296
 20
21.2153287855
 40
0.4082558864
100
AcDbArc
 50
120.0809872757
 51
132.874078902
  0
ARC
  5
39F
100
AcDbEntity
  8
0
100
AcDbCircle
 62
7
  6
CONTINUOUS
 10
-15.4720573529
 20
12.0291504356
 40
0.4082558864
100
AcDbArc
 50
120.0809872757
 51
132.874078902
  0
ARC
  5
3A0
100
AcDbEntity
  8
0
100
AcDbCircle
 62
7
  6
CONTINUOUS
 10
0.4378452238
 20
2.8429720858
 40
0.4082558864
100
AcDbArc
 50
120.0809872757
 51
132.874078902
  0
ARC
  5
3A1
100
AcDbEntity
  8
0
100
AcDbCircle
 62
7
  6
CONTINUOUS
 10
16.3477478005
 20
-6.3432062641
 40
0.4082558864
100
AcDbArc
 50
120.0809872757
 51
132.874078902
  0
ARC
  5
3A2
100
AcDbEntity
  8
ASSI
100
AcDbCircle
 62
7
  6
CONTINUOUS
 10
16.3477478005
 20
-6.3432062641
 40
0.4082558864
100
AcDbArc
 50
120.0809872757
 51
132.874078902
  0
ARC
  5
3A3
100
AcDbEntity
  8
ASSI
100
AcDbCircle
 62
7
  6
CONTINUOUS
 10
0.4378452238
 20
2.8429720858
 40
0.4082558864
100
AcDbArc
 50
120.0809872757
 51
132.874078902
  0
ARC
  5
3A4
100
AcDbEntity
  8
ASSI
100
AcDbCircle
 62
7
  6
CONTINUOUS
 10
-31.3819599296
 20
21.2153287855
 40
0.4082558864
100
AcDbArc
 50
120.0809872757
 51
132.874078902
  0
ARC
  5
3A5
100
AcDbEntity
  8
ASSI
100
AcDbCircle
 62
7
  6
CONTINUOUS
 10
-15.4720573529
 20
12.0291504356
 40
0.4082558864
100
AcDbArc
 50
120.0809872757
 51
132.874078902
  0
ARC
  5
3A6
100
AcDbEntity
  8
0
100
AcDbCircle
 62
7
  6
CONTINUOUS
 10
-29.9461169109
 20
17.707221507
 40
0.3
100
AcDbArc
 50
301.7332683128
 51
359.9978457589
  0
SPLINE
  5
3A7
100
AcDbEntity
  8
0
100
AcDbSpline
 62
250
  6
CONTINUOUS
 70
0
 71
3
 72
11
 73
7
 74
0
 42
0.0000001
 43
0.0000001
 44
0.0000000001
 40
0.0
 40
0.0
 40
0.0
 40
0.0
 40
0.2187601249
 40
0.4523110155
 40
0.711323703
 40
1.0
 40
1.0
 40
1.0
 40
1.0
 10
-29.6461169586
 20
17.7072102274
 30
0.0
 10
-29.6461190432
 20
17.6960411869
 30
0.0
 10
-29.6501414424
 20
17.6727986161
 30
0.0
 10
-29.667391483
 20
17.6402929645
 30
0.0
 10
-29.6947272877
 20
17.6107686425
 30
0.0
 10
-29.7176649574
 20
17.5944588671
 30
0.0
 10
-29.7303149708
 20
17.5868953959
 30
0.0
  0
SPLINE
  5
3A8
100
AcDbEntity
  8
0
100
AcDbSpline
 62
250
  6
CONTINUOUS
 70
0
 71
3
 72
11
 73
7
 74
0
 42
0.0000001
 43
0.0000001
 44
0.0000000001
 40
0.0
 40
0.0
 40
0.0
 40
0.0
 40
0.288698727
 40
0.5477292811
 40
0.7812621937
 40
1.0
 40
1.0
 40
1.0
 40
1.0
 10
-29.7303149708
 20
17.5868953959
 30
0.0
 10
-29.7300942774
 20
17.5721644629
 30
0.0
 10
-29.7319011345
 20
17.5440893166
 30
0.0
 10
-29.7426265071
 20
17.5053286993
 30
0.0
 10
-29.7611901223
 20
17.4735764504
 30
0.0
 10
-29.7788346516
 20
17.4579425873
 30
0.0
 10
-29.7883273781
 20
17.4520699781
 30
0.0
  0
SPLINE
  5
3A9
100
AcDbEntity
  8
0
100
AcDbSpline
 62
7
  6
CONTINUOUS
 70
0
 71
3
 72
9
 73
5
 74
0
 42
0.0000001
 43
0.0000001
 44
0.0000000001
 40
0.0
 40
0.0
 40
0.0
 40
0.0
 40
0.5163282132
 40
1.0
 40
1.0
 40
1.0
 40
1.0
 10
-21.0670770648
 20
3.1093653383
 30
0.0
 10
-21.0303266651
 20
3.1043577494
 30
0.0
 10
-20.958029182
 20
3.1010646609
 30
0.0
 10
-20.8865459036
 20
3.1136666207
 30
0.0
 10
-20.8533478348
 20
3.1239157265
 30
0.0
  0
SPLINE
  5
3AA
100
AcDbEntity
  8
0
100
AcDbSpline
 62
7
  6
CONTINUOUS
 70
0
 71
3
 72
9
 73
5
 74
0
 42
0.0000001
 43
0.0000001
 44
0.0000000001
 40
0.0
 40
0.0
 40
0.0
 40
0.0
 40
0.5163282132
 40
1.0
 40
1.0
 40
1.0
 40
1.0
 10
-5.1571744881
 20
-6.0768130116
 30
0.0
 10
-5.1204240884
 20
-6.0818206005
 30
0.0
 10
-5.0481266053
 20
-6.0851136889
 30
0.0
 10
-4.9766433269
 20
-6.0725117291
 30
0.0
 10
-4.9434452581
 20
-6.0622626234
 30
0.0
  0
SPLINE
  5
3AB
100
AcDbEntity
  8
0
100
AcDbSpline
 62
7
  6
CONTINUOUS
 70
0
 71
3
 72
9
 73
5
 74
0
 42
0.0000001
 43
0.0000001
 44
0.0000000001
 40
0.0
 40
0.0
 40
0.0
 40
0.0
 40
0.2403060145
 40
1.0
 40
1.0
 40
1.0
 40
1.0
 10
25.8648267758
 20
-11.3161663042
 30
0.0
 10
25.8884468381
 20
-11.3298042322
 30
0.0
 10
25.9852768607
 20
-11.3890745995
 30
0.0
 10
26.0762775882
 20
-11.4576760187
 30
0.0
 10
26.1419443632
 20
-11.5135559371
 30
0.0
  0
SPLINE
  5
3AC
100
AcDbEntity
  8
0
100
AcDbSpline
 62
7
  6
CONTINUOUS
 70
0
 71
3
 72
11
 73
7
 74
0
 42
0.0000001
 43
0.0000001
 44
0.0000000001
 40
0.0
 40
0.0
 40
0.0
 40
0.0
 40
0.2436408454
 40
0.5000044213
 40
0.7563656951
 40
1.0
 40
1.0
 40
1.0
 40
1.0
 10
26.1419443632
 20
-11.5135559371
 30
0.0
 10
26.2542277293
 20
-11.6091047948
 30
0.0
 10
26.4652732762
 20
-11.8285866126
 30
0.0
 10
26.7253341335
 20
-12.2074139889
 30
0.0
 10
26.9233762619
 20
-12.6220433688
 30
0.0
 10
27.0079273151
 20
-12.9145505711
 30
0.0
 10
27.0345307561
 20
-13.059561703
 30
0.0
  0
SPLINE
  5
3AD
100
AcDbEntity
  8
0
100
AcDbSpline
 62
7
  6
CONTINUOUS
 70
0
 71
3
 72
9
 73
5
 74
0
 42
0.0000001
 43
0.0000001
 44
0.0000000001
 40
0.0
 40
0.0
 40
0.0
 40
0.0
 40
0.2594906421
 40
1.0
 40
1.0
 40
1.0
 40
1.0
 10
27.0345307561
 20
-13.059561703
 30
0.0
 10
27.0398448204
 20
-13.0885278234
 30
0.0
 10
27.0580437584
 20
-13.200546526
 30
0.0
 10
27.0669083038
 20
-13.3141923274
 30
0.0
 10
27.0669083038
 20
-13.3982325834
 30
0.0
  0
SPLINE
  5
3AE
100
AcDbEntity
  8
0
100
AcDbSpline
 62
7
  6
CONTINUOUS
 70
0
 71
3
 72
9
 73
5
 74
0
 42
0.0000001
 43
0.0000001
 44
0.0000000001
 40
0.0
 40
0.0
 40
0.0
 40
0.0
 40
0.2403060145
 40
1.0
 40
1.0
 40
1.0
 40
1.0
 10
9.9549241991
 20
-2.1299879543
 30
0.0
 10
9.9785442614
 20
-2.1436258823
 30
0.0
 10
10.075374284
 20
-2.2028962496
 30
0.0
 10
10.1663750116
 20
-2.2714976688
 30
0.0
 10
10.2320417865
 20
-2.3273775872
 30
0.0
  0
SPLINE
  5
3AF
100
AcDbEntity
  8
0
100
AcDbSpline
 62
7
  6
CONTINUOUS
 70
0
 71
3
 72
11
 73
7
 74
0
 42
0.0000001
 43
0.0000001
 44
0.0000000001
 40
0.0
 40
0.0
 40
0.0
 40
0.0
 40
0.2436408454
 40
0.5000044213
 40
0.7563656951
 40
1.0
 40
1.0
 40
1.0
 40
1.0
 10
10.2320417865
 20
-2.3273775872
 30
0.0
 10
10.3443251526
 20
-2.4229264449
 30
0.0
 10
10.5553706995
 20
-2.6424082627
 30
0.0
 10
10.8154315568
 20
-3.021235639
 30
0.0
 10
11.0134736852
 20
-3.4358650189
 30
0.0
 10
11.0980247384
 20
-3.7283722213
 30
0.0
 10
11.1246281794
 20
-3.8733833532
 30
0.0
  0
SPLINE
  5
3B0
100
AcDbEntity
  8
0
100
AcDbSpline
 62
7
  6
CONTINUOUS
 70
0
 71
3
 72
9
 73
5
 74
0
 42
0.0000001
 43
0.0000001
 44
0.0000000001
 40
0.0
 40
0.0
 40
0.0
 40
0.0
 40
0.2594906421
 40
1.0
 40
1.0
 40
1.0
 40
1.0
 10
11.1246281794
 20
-3.8733833532
 30
0.0
 10
11.1299422437
 20
-3.9023494736
 30
0.0
 10
11.1481411817
 20
-4.0143681761
 30
0.0
 10
11.1570057271
 20
-4.1280139775
 30
0.0
 10
11.1570057271
 20
-4.2120542335
 30
0.0
  0
SPLINE
  5
3B1
100
AcDbEntity
  8
0
100
AcDbSpline
 62
7
  6
CONTINUOUS
 70
0
 71
3
 72
9
 73
5
 74
0
 42
0.0000001
 43
0.0000001
 44
0.0000000001
 40
0.0
 40
0.0
 40
0.0
 40
0.0
 40
0.2403060145
 40
1.0
 40
1.0
 40
1.0
 40
1.0
 10
-5.9549783776
 20
7.0561903955
 30
0.0
 10
-5.9313583153
 20
7.0425524675
 30
0.0
 10
-5.8345282927
 20
6.9832821003
 30
0.0
 10
-5.7435275651
 20
6.9146806811
 30
0.0
 10
-5.6778607902
 20
6.8588007626
 30
0.0
  0
SPLINE
  5
3B2
100
AcDbEntity
  8
0
100
AcDbSpline
 62
7
  6
CONTINUOUS
 70
0
 71
3
 72
11
 73
7
 74
0
 42
0.0000001
 43
0.0000001
 44
0.0000000001
 40
0.0
 40
0.0
 40
0.0
 40
0.0
 40
0.2436408454
 40
0.5000044213
 40
0.7563656951
 40
1.0
 40
1.0
 40
1.0
 40
1.0
 10
-5.6778607902
 20
6.8588007626
 30
0.0
 10
-5.5655774241
 20
6.7632519049
 30
0.0
 10
-5.3545318772
 20
6.5437700872
 30
0.0
 10
-5.0944710199
 20
6.1649427109
 30
0.0
 10
-4.8964288915
 20
5.750313331
 30
0.0
 10
-4.8118778383
 20
5.4578061286
 30
0.0
 10
-4.7852743973
 20
5.3127949967
 30
0.0
  0
SPLINE
  5
3B3
100
AcDbEntity
  8
0
100
AcDbSpline
 62
7
  6
CONTINUOUS
 70
0
 71
3
 72
9
 73
5
 74
0
 42
0.0000001
 43
0.0000001
 44
0.0000000001
 40
0.0
 40
0.0
 40
0.0
 40
0.0
 40
0.2594906421
 40
1.0
 40
1.0
 40
1.0
 40
1.0
 10
-4.7852743973
 20
5.3127949967
 30
0.0
 10
-4.779960333
 20
5.2838288763
 30
0.0
 10
-4.761761395
 20
5.1718101738
 30
0.0
 10
-4.7528968496
 20
5.0581643724
 30
0.0
 10
-4.7528968496
 20
4.9741241163
 30
0.0
  0
SPLINE
  5
3B4
100
AcDbEntity
  8
0
100
AcDbSpline
 62
7
  6
CONTINUOUS
 70
0
 71
3
 72
9
 73
5
 74
0
 42
0.0000001
 43
0.0000001
 44
0.0000000001
 40
0.0
 40
0.0
 40
0.0
 40
0.0
 40
0.2403060145
 40
1.0
 40
1.0
 40
1.0
 40
1.0
 10
-21.8648809543
 20
16.2423687454
 30
0.0
 10
-21.841260892
 20
16.2287308174
 30
0.0
 10
-21.7444308694
 20
16.1694604501
 30
0.0
 10
-21.6534301418
 20
16.100859031
 30
0.0
 10
-21.5877633668
 20
16.0449791125
 30
0.0
  0
SPLINE
  5
3B5
100
AcDbEntity
  8
0
100
AcDbSpline
 62
7
  6
CONTINUOUS
 70
0
 71
3
 72
11
 73
7
 74
0
 42
0.0000001
 43
0.0000001
 44
0.0000000001
 40
0.0
 40
0.0
 40
0.0
 40
0.0
 40
0.2436408454
 40
0.5000044213
 40
0.7563656951
 40
1.0
 40
1.0
 40
1.0
 40
1.0
 10
-21.5877633668
 20
16.0449791125
 30
0.0
 10
-21.4754800008
 20
15.9494302548
 30
0.0
 10
-21.2644344539
 20
15.729948437
 30
0.0
 10
-21.0043735966
 20
15.3511210608
 30
0.0
 10
-20.8063314682
 20
14.9364916809
 30
0.0
 10
-20.721780415
 20
14.6439844785
 30
0.0
 10
-20.695176974
 20
14.4989733466
 30
0.0
  0
SPLINE
  5
3B6
100
AcDbEntity
  8
0
100
AcDbSpline
 62
7
  6
CONTINUOUS
 70
0
 71
3
 72
9
 73
5
 74
0
 42
0.0000001
 43
0.0000001
 44
0.0000000001
 40
0.0
 40
0.0
 40
0.0
 40
0.0
 40
0.2594906421
 40
1.0
 40
1.0
 40
1.0
 40
1.0
 10
-20.695176974
 20
14.4989733466
 30
0.0
 10
-20.6898629097
 20
14.4700072262
 30
0.0
 10
-20.6716639717
 20
14.3579885237
 30
0.0
 10
-20.6627994263
 20
14.2443427222
 30
0.0
 10
-20.6627994263
 20
14.1603024662
 30
0.0
  0
SPLINE
  5
3B7
100
AcDbEntity
  8
0
100
AcDbSpline
 62
7
  6
CONTINUOUS
 70
0
 71
3
 72
9
 73
5
 74
0
 42
0.0000001
 43
0.0000001
 44
0.0000000001
 40
0.0
 40
0.0
 40
0.0
 40
0.0
 40
0.5163282132
 40
1.0
 40
1.0
 40
1.0
 40
1.0
 10
10.7527280886
 20
-15.2629913615
 30
0.0
 10
10.7894784883
 20
-15.2679989504
 30
0.0
 10
10.8617759714
 20
-15.2712920388
 30
0.0
 10
10.9332592498
 20
-15.258690079
 30
0.0
 10
10.9664573186
 20
-15.2484409733
 30
0.0
  0
SPLINE
  5
3B8
100
AcDbEntity
  8
0
100
AcDbSpline
 62
7
  6
CONTINUOUS
 70
0
 71
3
 72
9
 73
5
 74
0
 42
0.0000001
 43
0.0000001
 44
0.0000000001
 40
0.0
 40
0.0
 40
0.0
 40
0.0
 40
0.5163282132
 40
1.0
 40
1.0
 40
1.0
 40
1.0
 10
26.6626306653
 20
-24.4491697114
 30
0.0
 10
26.699381065
 20
-24.4541773002
 30
0.0
 10
26.7716785481
 20
-24.4574703887
 30
0.0
 10
26.8431618265
 20
-24.4448684289
 30
0.0
 10
26.8763598953
 20
-24.4346193231
 30
0.0
  0
SPLINE
  5
3B9
100
AcDbEntity
  8
0
100
AcDbSpline
 62
7
  6
CONTINUOUS
 70
0
 71
3
 72
9
 73
5
 74
0
 42
0.0000001
 43
0.0000001
 44
0.0000000001
 40
0.0
 40
0.0
 40
0.0
 40
0.0
 40
0.2434727928
 40
1.0
 40
1.0
 40
1.0
 40
1.0
 10
-31.5183115244
 20
21.5961743731
 30
0.0
 10
-31.5268200371
 20
21.5882851565
 30
0.0
 10
-31.5604277362
 20
21.5544475454
 30
0.0
 10
-31.5883708778
 20
21.5151461583
 30
0.0
 10
-31.6061536464
 20
21.4837828458
 30
0.0
  0
SPLINE
  5
3BA
100
AcDbEntity
  8
0
100
AcDbSpline
 62
7
  6
CONTINUOUS
 70
0
 71
3
 72
9
 73
5
 74
0
 42
0.0000001
 43
0.0000001
 44
0.0000000001
 40
0.0
 40
0.0
 40
0.0
 40
0.0
 40
0.245444348
 40
1.0
 40
1.0
 40
1.0
 40
1.0
 10
-31.6061536464
 20
21.4837828458
 30
0.0
 10
-31.6090898668
 20
21.4786042598
 30
0.0
 10
-31.6206976786
 20
21.4573053065
 30
0.0
 10
-31.6308909963
 20
21.4352417905
 30
0.0
 10
-31.6378170267
 20
21.4183017653
 30
0.0
  0
SPLINE
  5
3BB
100
AcDbEntity
  8
0
100
AcDbSpline
 62
7
  6
CONTINUOUS
 70
0
 71
3
 72
11
 73
7
 74
0
 42
0.0000001
 43
0.0000001
 44
0.0000000001
 40
0.0
 40
0.0
 40
0.0
 40
0.0
 40
0.2177670691
 40
0.4509439475
 40
0.710195215
 40
1.0
 40
1.0
 40
1.0
 40
1.0
 10
-31.5865874238
 20
21.5685998675
 30
0.0
 10
-31.5470051052
 20
21.5914542157
 30
0.0
 10
-31.4560491453
 20
21.6244886652
 30
0.0
 10
-31.304992958
 20
21.6282684658
 30
0.0
 10
-31.14397136
 20
21.5894318783
 30
0.0
 10
-31.0392346561
 20
21.5395650461
 30
0.0
 10
-30.9865584316
 20
21.5091504543
 30
0.0
  0
SPLINE
  5
3BC
100
AcDbEntity
  8
0
100
AcDbSpline
 62
7
  6
CONTINUOUS
 70
0
 71
3
 72
9
 73
5
 74
0
 42
0.0000001
 43
0.0000001
 44
0.0000000001
 40
0.0
 40
0.0
 40
0.0
 40
0.0
 40
0.2434727928
 40
1.0
 40
1.0
 40
1.0
 40
1.0
 10
-15.6084089477
 20
12.4099960233
 30
0.0
 10
-15.6169174604
 20
12.4021068067
 30
0.0
 10
-15.6505251595
 20
12.3682691955
 30
0.0
 10
-15.6784683011
 20
12.3289678084
 30
0.0
 10
-15.6962510698
 20
12.2976044959
 30
0.0
  0
SPLINE
  5
3BD
100
AcDbEntity
  8
0
100
AcDbSpline
 62
7
  6
CONTINUOUS
 70
0
 71
3
 72
9
 73
5
 74
0
 42
0.0000001
 43
0.0000001
 44
0.0000000001
 40
0.0
 40
0.0
 40
0.0
 40
0.0
 40
0.245444348
 40
1.0
 40
1.0
 40
1.0
 40
1.0
 10
-15.6962510698
 20
12.2976044959
 30
0.0
 10
-15.6991872901
 20
12.2924259099
 30
0.0
 10
-15.7107951019
 20
12.2711269567
 30
0.0
 10
-15.7209884196
 20
12.2490634406
 30
0.0
 10
-15.72791445
 20
12.2321234154
 30
0.0
  0
SPLINE
  5
3BE
100
AcDbEntity
  8
0
100
AcDbSpline
 62
7
  6
CONTINUOUS
 70
0
 71
3
 72
11
 73
7
 74
0
 42
0.0000001
 43
0.0000001
 44
0.0000000001
 40
0.0
 40
0.0
 40
0.0
 40
0.0
 40
0.2177670691
 40
0.4509439475
 40
0.710195215
 40
1.0
 40
1.0
 40
1.0
 40
1.0
 10
-15.6766848471
 20
12.3824215176
 30
0.0
 10
-15.6371025285
 20
12.4052758658
 30
0.0
 10
-15.5461465687
 20
12.4383103153
 30
0.0
 10
-15.3950903813
 20
12.4420901159
 30
0.0
 10
-15.2340687833
 20
12.4032535284
 30
0.0
 10
-15.1293320795
 20
12.3533866962
 30
0.0
 10
-15.0766558549
 20
12.3229721044
 30
0.0
  0
SPLINE
  5
3BF
100
AcDbEntity
  8
0
100
AcDbSpline
 62
7
  6
CONTINUOUS
 70
0
 71
3
 72
9
 73
5
 74
0
 42
0.0000001
 43
0.0000001
 44
0.0000000001
 40
0.0
 40
0.0
 40
0.0
 40
0.0
 40
0.2434727928
 40
1.0
 40
1.0
 40
1.0
 40
1.0
 10
0.301493629
 20
3.2238176734
 30
0.0
 10
0.2929851163
 20
3.2159284568
 30
0.0
 10
0.2593774172
 20
3.1820908456
 30
0.0
 10
0.2314342756
 20
3.1427894585
 30
0.0
 10
0.2136515069
 20
3.111426146
 30
0.0
  0
SPLINE
  5
3C0
100
AcDbEntity
  8
0
100
AcDbSpline
 62
7
  6
CONTINUOUS
 70
0
 71
3
 72
9
 73
5
 74
0
 42
0.0000001
 43
0.0000001
 44
0.0000000001
 40
0.0
 40
0.0
 40
0.0
 40
0.0
 40
0.245444348
 40
1.0
 40
1.0
 40
1.0
 40
1.0
 10
0.2136515069
 20
3.111426146
 30
0.0
 10
0.2107152866
 20
3.10624756
 30
0.0
 10
0.1991074748
 20
3.0849486068
 30
0.0
 10
0.1889141571
 20
3.0628850908
 30
0.0
 10
0.1819881267
 20
3.0459450655
 30
0.0
  0
SPLINE
  5
3C1
100
AcDbEntity
  8
0
100
AcDbSpline
 62
7
  6
CONTINUOUS
 70
0
 71
3
 72
11
 73
7
 74
0
 42
0.0000001
 43
0.0000001
 44
0.0000000001
 40
0.0
 40
0.0
 40
0.0
 40
0.0
 40
0.2177670691
 40
0.4509439475
 40
0.710195215
 40
1.0
 40
1.0
 40
1.0
 40
1.0
 10
0.2332177296
 20
3.1962431677
 30
0.0
 10
0.2728000482
 20
3.2190975159
 30
0.0
 10
0.363756008
 20
3.2521319654
 30
0.0
 10
0.5148121954
 20
3.2559117661
 30
0.0
 10
0.6758337934
 20
3.2170751785
 30
0.0
 10
0.7805704972
 20
3.1672083464
 30
0.0
 10
0.8332467218
 20
3.1367937545
 30
0.0
  0
SPLINE
  5
3C2
100
AcDbEntity
  8
0
100
AcDbSpline
 62
7
  6
CONTINUOUS
 70
0
 71
3
 72
9
 73
5
 74
0
 42
0.0000001
 43
0.0000001
 44
0.0000000001
 40
0.0
 40
0.0
 40
0.0
 40
0.0
 40
0.2434727928
 40
1.0
 40
1.0
 40
1.0
 40
1.0
 10
16.2113962057
 20
-5.9623606765
 30
0.0
 10
16.202887693
 20
-5.9702498931
 30
0.0
 10
16.1692799939
 20
-6.0040875042
 30
0.0
 10
16.1413368523
 20
-6.0433888913
 30
0.0
 10
16.1235540836
 20
-6.0747522039
 30
0.0
  0
SPLINE
  5
3C3
100
AcDbEntity
  8
0
100
AcDbSpline
 62
7
  6
CONTINUOUS
 70
0
 71
3
 72
9
 73
5
 74
0
 42
0.0000001
 43
0.0000001
 44
0.0000000001
 40
0.0
 40
0.0
 40
0.0
 40
0.0
 40
0.245444348
 40
1.0
 40
1.0
 40
1.0
 40
1.0
 10
16.1235540836
 20
-6.0747522039
 30
0.0
 10
16.1206178633
 20
-6.0799307899
 30
0.0
 10
16.1090100515
 20
-6.1012297431
 30
0.0
 10
16.0988167338
 20
-6.1232932591
 30
0.0
 10
16.0918907034
 20
-6.1402332844
 30
0.0
  0
SPLINE
  5
3C4
100
AcDbEntity
  8
0
100
AcDbSpline
 62
7
  6
CONTINUOUS
 70
0
 71
3
 72
11
 73
7
 74
0
 42
0.0000001
 43
0.0000001
 44
0.0000000001
 40
0.0
 40
0.0
 40
0.0
 40
0.0
 40
0.2177670691
 40
0.4509439475
 40
0.710195215
 40
1.0
 40
1.0
 40
1.0
 40
1.0
 10
16.1431203063
 20
-5.9899351821
 30
0.0
 10
16.1827026249
 20
-5.967080834
 30
0.0
 10
16.2736585847
 20
-5.9340463845
 30
0.0
 10
16.4247147721
 20
-5.9302665838
 30
0.0
 10
16.5857363701
 20
-5.9691031714
 30
0.0
 10
16.6904730739
 20
-6.0189700035
 30
0.0
 10
16.7431492985
 20
-6.0493845953
 30
0.0
  0
SPLINE
  5
3C5
100
AcDbEntity
  8
0
100
AcDbSpline
 62
7
  6
CONTINUOUS
 70
0
 71
3
 72
15
 73
11
 74
0
 42
0.0000001
 43
0.0000001
 44
0.0000000001
 40
0.0
 40
0.0
 40
0.0
 40
0.0
 40
0.1141547262
 40
0.2373197603
 40
0.3669701463
 40
0.4999939469
 40
0.63301859
 40
0.7626714346
 40
0.8858403421
 40
1.0
 40
1.0
 40
1.0
 40
1.0
 10
16.3946727062
 20
-16.6254757582
 30
0.0
 10
16.3946727063
 20
-16.7312758815
 30
0.0
 10
16.4140491195
 20
-16.951432883
 30
0.0
 10
16.4913092832
 20
-17.2835656098
 30
0.0
 10
16.6150598767
 20
-17.6199935585
 30
0.0
 10
16.7806969281
 20
-17.948066169
 30
0.0
 10
16.9819989703
 20
-18.2555501913
 30
0.0
 10
17.2114823606
 20
-18.5309409657
 30
0.0
 10
17.4604932201
 20
-18.7639258192
 30
0.0
 10
17.6414707153
 20
-18.8907928354
 30
0.0
 10
17.7330987921
 20
-18.9436977389
 30
0.0
  0
SPLINE
  5
3C6
100
AcDbEntity
  8
0
100
AcDbSpline
 62
7
  6
CONTINUOUS
 70
0
 71
3
 72
15
 73
11
 74
0
 42
0.0000001
 43
0.0000001
 44
0.0000000001
 40
0.0
 40
0.0
 40
0.0
 40
0.0
 40
0.1141547262
 40
0.2373197603
 40
0.3669701463
 40
0.4999939469
 40
0.63301859
 40
0.7626714346
 40
0.8858403421
 40
1.0
 40
1.0
 40
1.0
 40
1.0
 10
0.4847701295
 20
-7.4392974084
 30
0.0
 10
0.4847701296
 20
-7.5450975316
 30
0.0
 10
0.5041465428
 20
-7.7652545332
 30
0.0
 10
0.5814067065
 20
-8.0973872599
 30
0.0
 10
0.7051573
 20
-8.4338152086
 30
0.0
 10
0.8707943514
 20
-8.7618878191
 30
0.0
 10
1.0720963936
 20
-9.0693718415
 30
0.0
 10
1.3015797839
 20
-9.3447626158
 30
0.0
 10
1.5505906434
 20
-9.5777474694
 30
0.0
 10
1.7315681386
 20
-9.7046144855
 30
0.0
 10
1.8231962154
 20
-9.757519389
 30
0.0
  0
SPLINE
  5
3C7
100
AcDbEntity
  8
0
100
AcDbSpline
 62
7
  6
CONTINUOUS
 70
0
 71
3
 72
15
 73
11
 74
0
 42
0.0000001
 43
0.0000001
 44
0.0000000001
 40
0.0
 40
0.0
 40
0.0
 40
0.0
 40
0.1141547262
 40
0.2373197603
 40
0.3669701463
 40
0.4999939469
 40
0.63301859
 40
0.7626714346
 40
0.8858403421
 40
1.0
 40
1.0
 40
1.0
 40
1.0
 10
-15.4251324472
 20
1.7468809415
 30
0.0
 10
-15.4251324471
 20
1.6410808182
 30
0.0
 10
-15.4057560339
 20
1.4209238167
 30
0.0
 10
-15.3284958702
 20
1.08879109
 30
0.0
 10
-15.2047452767
 20
0.7523631412
 30
0.0
 10
-15.0391082253
 20
0.4242905308
 30
0.0
 10
-14.8378061831
 20
0.1168065084
 30
0.0
 10
-14.6083227928
 20
-0.158584266
 30
0.0
 10
-14.3593119333
 20
-0.3915691195
 30
0.0
 10
-14.1783344381
 20
-0.5184361356
 30
0.0
 10
-14.0867063612
 20
-0.5713410392
 30
0.0
  0
SPLINE
  5
3C8
100
AcDbEntity
  8
0
100
AcDbSpline
 62
7
  6
CONTINUOUS
 70
0
 71
3
 72
15
 73
11
 74
0
 42
0.0000001
 43
0.0000001
 44
0.0000000001
 40
0.0
 40
0.0
 40
0.0
 40
0.0
 40
0.1141547262
 40
0.2373197603
 40
0.3669701463
 40
0.4999939469
 40
0.63301859
 40
0.7626714346
 40
0.8858403421
 40
1.0
 40
1.0
 40
1.0
 40
1.0
 10
-31.3350350239
 20
10.9330592914
 30
0.0
 10
-31.3350350238
 20
10.8272591681
 30
0.0
 10
-31.3156586106
 20
10.6071021666
 30
0.0
 10
-31.2383984469
 20
10.2749694398
 30
0.0
 10
-31.1146478534
 20
9.9385414911
 30
0.0
 10
-30.949010802
 20
9.6104688806
 30
0.0
 10
-30.7477087598
 20
9.3029848583
 30
0.0
 10
-30.5182253695
 20
9.0275940839
 30
0.0
 10
-30.26921451
 20
8.7946092304
 30
0.0
 10
-30.0882370148
 20
8.6677422143
 30
0.0
 10
-29.9966089379
 20
8.6148373107
 30
0.0
  0
SPLINE
  5
3C9
100
AcDbEntity
  8
0
100
AcDbSpline
 62
7
  6
CONTINUOUS
 70
0
 71
3
 72
9
 73
5
 74
0
 42
0.0000001
 43
0.0000001
 44
0.0000000001
 40
0.0
 40
0.0
 40
0.0
 40
0.0
 40
0.2715340105
 40
1.0
 40
1.0
 40
1.0
 40
1.0
 10
-20.6627994263
 20
3.6278753505
 30
0.0
 10
-20.6627994263
 20
3.5966379747
 30
0.0
 10
-20.6675370329
 20
3.4818186968
 30
0.0
 10
-20.6928397677
 20
3.3665814544
 30
0.0
 10
-20.7273888238
 20
3.2902315605
 30
0.0
  0
SPLINE
  5
3CA
100
AcDbEntity
  8
0
100
AcDbSpline
 62
7
  6
CONTINUOUS
 70
0
 71
3
 72
9
 73
5
 74
0
 42
0.0000001
 43
0.0000001
 44
0.0000000001
 40
0.0
 40
0.0
 40
0.0
 40
0.0
 40
0.5170807976
 40
1.0
 40
1.0
 40
1.0
 40
1.0
 10
-20.7273888238
 20
3.2902315605
 30
0.0
 10
-20.7475613412
 20
3.2456523522
 30
0.0
 10
-20.7976823943
 20
3.1636267352
 30
0.0
 10
-20.8717233696
 20
3.1014413563
 30
0.0
 10
-20.9112985715
 20
3.0785911172
 30
0.0
  0
SPLINE
  5
3CB
100
AcDbEntity
  8
0
100
AcDbSpline
 62
7
  6
CONTINUOUS
 70
0
 71
3
 72
9
 73
5
 74
0
 42
0.0000001
 43
0.0000001
 44
0.0000000001
 40
0.0
 40
0.0
 40
0.0
 40
0.0
 40
0.2715340105
 40
1.0
 40
1.0
 40
1.0
 40
1.0
 10
-4.7528968496
 20
-5.5583029994
 30
0.0
 10
-4.7528968497
 20
-5.5895403752
 30
0.0
 10
-4.7576344562
 20
-5.7043596531
 30
0.0
 10
-4.782937191
 20
-5.8195968955
 30
0.0
 10
-4.8174862471
 20
-5.8959467894
 30
0.0
  0
SPLINE
  5
3CC
100
AcDbEntity
  8
0
100
AcDbSpline
 62
7
  6
CONTINUOUS
 70
0
 71
3
 72
9
 73
5
 74
0
 42
0.0000001
 43
0.0000001
 44
0.0000000001
 40
0.0
 40
0.0
 40
0.0
 40
0.0
 40
0.5170807976
 40
1.0
 40
1.0
 40
1.0
 40
1.0
 10
-4.8174862471
 20
-5.8959467894
 30
0.0
 10
-4.8376587645
 20
-5.9405259977
 30
0.0
 10
-4.8877798176
 20
-6.0225516147
 30
0.0
 10
-4.9618207929
 20
-6.0847369936
 30
0.0
 10
-5.0013959948
 20
-6.1075872327
 30
0.0
  0
SPLINE
  5
3CD
100
AcDbEntity
  8
0
100
AcDbSpline
 62
7
  6
CONTINUOUS
 70
0
 71
3
 72
9
 73
5
 74
0
 42
0.0000001
 43
0.0000001
 44
0.0000000001
 40
0.0
 40
0.0
 40
0.0
 40
0.0
 40
0.2715340105
 40
1.0
 40
1.0
 40
1.0
 40
1.0
 10
11.1570057271
 20
-14.7444813492
 30
0.0
 10
11.157005727
 20
-14.7757187251
 30
0.0
 10
11.1522681205
 20
-14.890538003
 30
0.0
 10
11.1269653857
 20
-15.0057752454
 30
0.0
 10
11.0924163296
 20
-15.0821251392
 30
0.0
  0
SPLINE
  5
3CE
100
AcDbEntity
  8
0
100
AcDbSpline
 62
7
  6
CONTINUOUS
 70
0
 71
3
 72
9
 73
5
 74
0
 42
0.0000001
 43
0.0000001
 44
0.0000000001
 40
0.0
 40
0.0
 40
0.0
 40
0.0
 40
0.5170807976
 40
1.0
 40
1.0
 40
1.0
 40
1.0
 10
11.0924163296
 20
-15.0821251392
 30
0.0
 10
11.0722438121
 20
-15.1267043475
 30
0.0
 10
11.0221227591
 20
-15.2087299646
 30
0.0
 10
10.9480817838
 20
-15.2709153435
 30
0.0
 10
10.9085065819
 20
-15.2937655826
 30
0.0
  0
SPLINE
  5
3CF
100
AcDbEntity
  8
0
100
AcDbSpline
 62
7
  6
CONTINUOUS
 70
0
 71
3
 72
9
 73
5
 74
0
 42
0.0000001
 43
0.0000001
 44
0.0000000001
 40
0.0
 40
0.0
 40
0.0
 40
0.0
 40
0.2715340105
 40
1.0
 40
1.0
 40
1.0
 40
1.0
 10
27.0669083038
 20
-23.9306596991
 30
0.0
 10
27.0669083037
 20
-23.961897075
 30
0.0
 10
27.0621706972
 20
-24.0767163528
 30
0.0
 10
27.0368679624
 20
-24.1919535953
 30
0.0
 10
27.0023189063
 20
-24.2683034891
 30
0.0
  0
SPLINE
  5
3D0
100
AcDbEntity
  8
0
100
AcDbSpline
 62
7
  6
CONTINUOUS
 70
0
 71
3
 72
9
 73
5
 74
0
 42
0.0000001
 43
0.0000001
 44
0.0000000001
 40
0.0
 40
0.0
 40
0.0
 40
0.0
 40
0.5170807976
 40
1.0
 40
1.0
 40
1.0
 40
1.0
 10
27.0023189063
 20
-24.2683034891
 30
0.0
 10
26.9821463888
 20
-24.3128826974
 30
0.0
 10
26.9320253358
 20
-24.3949083144
 30
0.0
 10
26.8579843605
 20
-24.4570936934
 30
0.0
 10
26.8184091586
 20
-24.4799439325
 30
0.0
  0
SPLINE
  5
3D1
100
AcDbEntity
  8
0
100
AcDbSpline
 62
7
  6
CONTINUOUS
 70
0
 71
3
 72
13
 73
9
 74
0
 42
0.0000001
 43
0.0000001
 44
0.0000000001
 40
0.0
 40
0.0
 40
0.0
 40
0.0
 40
0.1142615865
 40
0.2375404667
 40
0.5000060664
 40
0.7624683449
 40
0.8857433485
 40
1.0
 40
1.0
 40
1.0
 40
1.0
 10
0.4796933312
 20
-10.3758090539
 30
0.0
 10
0.3973993447
 20
-10.3282935372
 30
0.0
 10
0.2348375928
 20
-10.214352662
 30
0.0
 10
-0.0694671979
 20
-9.9294910167
 30
0.0
 10
-0.3909463453
 20
-9.4904137065
 30
0.0
 10
-0.6104584976
 20
-8.9924689053
 30
0.0
 10
-0.7049977816
 20
-8.5865113167
 30
0.0
 10
-0.7223881968
 20
-8.3887651116
 30
0.0
 10
-0.7223881968
 20
-8.2937427746
 30
0.0
  0
SPLINE
  5
3D2
100
AcDbEntity
  8
0
100
AcDbSpline
 62
7
  6
CONTINUOUS
 70
0
 71
3
 72
11
 73
7
 74
0
 42
0.0000001
 43
0.0000001
 44
0.0000000001
 40
0.0
 40
0.0
 40
0.0
 40
0.0
 40
0.2191404659
 40
0.4557642665
 40
0.7154223701
 40
1.0
 40
1.0
 40
1.0
 40
1.0
 10
10.8250360034
 20
-15.3300958792
 30
0.0
 10
10.7873960379
 20
-15.341716318
 30
0.0
 10
10.7053823947
 20
-15.3547393715
 30
0.0
 10
10.5762681167
 20
-15.3434869278
 30
0.0
 10
10.4409853456
 20
-15.3032149783
 30
0.0
 10
10.3527792407
 20
-15.2598953874
 30
0.0
 10
10.3084775897
 20
-15.2343161694
 30
0.0
  0
SPLINE
  5
3D3
100
AcDbEntity
  8
0
100
AcDbSpline
 62
7
  6
CONTINUOUS
 70
0
 71
3
 72
15
 73
11
 74
0
 42
0.0000001
 43
0.0000001
 44
0.0000000001
 40
0.0
 40
0.0
 40
0.0
 40
0.0
 40
0.1449018481
 40
0.2745170406
 40
0.3911053286
 40
0.4999889043
 40
0.6088744936
 40
0.7254681391
 40
0.8550905429
 40
1.0
 40
1.0
 40
1.0
 40
1.0
 10
11.1570057271
 20
-15.1527559426
 30
0.0
 10
11.1570057269
 20
-15.2389194631
 30
0.0
 10
11.1439852698
 20
-15.4027279967
 30
0.0
 10
11.0776104748
 20
-15.6277340474
 30
0.0
 10
10.9658394963
 20
-15.8104435206
 30
0.0
 10
10.8106900276
 20
-15.9409228609
 30
0.0
 10
10.6201062101
 20
-16.0100257455
 30
0.0
 10
10.4059810422
 20
-16.0154487215
 30
0.0
 10
10.177924616
 20
-15.96041186
 30
0.0
 10
10.0295467132
 20
-15.8897747088
 30
0.0
 10
9.9549241991
 20
-15.8466886044
 30
0.0
  0
SPLINE
  5
3D4
100
AcDbEntity
  8
0
100
AcDbSpline
 62
7
  6
CONTINUOUS
 70
0
 71
3
 72
11
 73
7
 74
0
 42
0.0000001
 43
0.0000001
 44
0.0000000001
 40
0.0
 40
0.0
 40
0.0
 40
0.0
 40
0.2191404659
 40
0.4557642665
 40
0.7154223701
 40
1.0
 40
1.0
 40
1.0
 40
1.0
 10
26.7349385801
 20
-24.5162742291
 30
0.0
 10
26.6972986146
 20
-24.5278946679
 30
0.0
 10
26.6152849714
 20
-24.5409177213
 30
0.0
 10
26.4861706934
 20
-24.5296652777
 30
0.0
 10
26.3508879223
 20
-24.4893933281
 30
0.0
 10
26.2626818174
 20
-24.4460737373
 30
0.0
 10
26.2183801664
 20
-24.4204945193
 30
0.0
  0
SPLINE
  5
3D5
100
AcDbEntity
  8
0
100
AcDbSpline
 62
7
  6
CONTINUOUS
 70
0
 71
3
 72
15
 73
11
 74
0
 42
0.0000001
 43
0.0000001
 44
0.0000000001
 40
0.0
 40
0.0
 40
0.0
 40
0.0
 40
0.1449018481
 40
0.2745170406
 40
0.3911053286
 40
0.4999889043
 40
0.6088744936
 40
0.7254681391
 40
0.8550905429
 40
1.0
 40
1.0
 40
1.0
 40
1.0
 10
-16.6322907735
 20
11.8331372842
 30
0.0
 10
-16.6322907733
 20
11.9193008048
 30
0.0
 10
-16.6192703162
 20
12.0831093384
 30
0.0
 10
-16.5528955212
 20
12.3081153891
 30
0.0
 10
-16.4411245428
 20
12.4908248623
 30
0.0
 10
-16.285975074
 20
12.6213042026
 30
0.0
 10
-16.0953912565
 20
12.6904070872
 30
0.0
 10
-15.8812660886
 20
12.6958300632
 30
0.0
 10
-15.6532096624
 20
12.6407932017
 30
0.0
 10
-15.5048317596
 20
12.5701560505
 30
0.0
 10
-15.4302092455
 20
12.5270699461
 30
0.0
  0
SPLINE
  5
3D6
100
AcDbEntity
  8
0
100
AcDbSpline
 62
7
  6
CONTINUOUS
 70
0
 71
3
 72
13
 73
9
 74
0
 42
0.0000001
 43
0.0000001
 44
0.0000000001
 40
0.0
 40
0.0
 40
0.0
 40
0.0
 40
0.1142615865
 40
0.2375404667
 40
0.5000060664
 40
0.7624683449
 40
0.8857433485
 40
1.0
 40
1.0
 40
1.0
 40
1.0
 10
-15.4302092455
 20
-1.189630704
 30
0.0
 10
-15.512503232
 20
-1.1421151873
 30
0.0
 10
-15.6750649839
 20
-1.0281743122
 30
0.0
 10
-15.9793697746
 20
-0.7433126668
 30
0.0
 10
-16.300848922
 20
-0.3042353567
 30
0.0
 10
-16.5203610743
 20
0.1937094445
 30
0.0
 10
-16.6149003583
 20
0.5996670332
 30
0.0
 10
-16.6322907735
 20
0.7974132382
 30
0.0
 10
-16.6322907735
 20
0.8924355752
 30
0.0
  0
SPLINE
  5
3D7
100
AcDbEntity
  8
0
100
AcDbSpline
 62
7
  6
CONTINUOUS
 70
0
 71
3
 72
15
 73
11
 74
0
 42
0.0000001
 43
0.0000001
 44
0.0000000001
 40
0.0
 40
0.0
 40
0.0
 40
0.0
 40
0.1449018481
 40
0.2745170406
 40
0.3911053286
 40
0.4999889043
 40
0.6088744936
 40
0.7254681391
 40
0.8550905429
 40
1.0
 40
1.0
 40
1.0
 40
1.0
 10
-4.7528968496
 20
-5.9665775927
 30
0.0
 10
-4.7528968498
 20
-6.0527411133
 30
0.0
 10
-4.7659173069
 20
-6.2165496468
 30
0.0
 10
-4.8322921019
 20
-6.4415556975
 30
0.0
 10
-4.9440630804
 20
-6.6242651707
 30
0.0
 10
-5.0992125491
 20
-6.754744511
 30
0.0
 10
-5.2897963666
 20
-6.8238473956
 30
0.0
 10
-5.5039215345
 20
-6.8292703716
 30
0.0
 10
-5.7319779607
 20
-6.7742335101
 30
0.0
 10
-5.8803558635
 20
-6.703596359
 30
0.0
 10
-5.9549783776
 20
-6.6605102546
 30
0.0
  0
SPLINE
  5
3D8
100
AcDbEntity
  8
0
100
AcDbSpline
 62
7
  6
CONTINUOUS
 70
0
 71
3
 72
9
 73
5
 74
0
 42
0.0000001
 43
0.0000001
 44
0.0000000001
 40
0.0
 40
0.0
 40
0.0
 40
0.0
 40
0.2314181732
 40
1.0
 40
1.0
 40
1.0
 40
1.0
 10
-31.6378170267
 20
21.4183017653
 30
0.0
 10
-31.6472578453
 20
21.3952109474
 30
0.0
 10
-31.6819808544
 20
21.2929426198
 30
0.0
 10
-31.6936652123
 20
21.1838215538
 30
0.0
 10
-31.6936652128
 20
21.1009705528
 30
0.0
  0
SPLINE
  5
3D9
100
AcDbEntity
  8
0
100
AcDbSpline
 62
7
  6
CONTINUOUS
 70
0
 71
3
 72
15
 73
11
 74
0
 42
0.0000001
 43
0.0000001
 44
0.0000000001
 40
0.0
 40
0.0
 40
0.0
 40
0.0
 40
0.1449018481
 40
0.2745170406
 40
0.3911053286
 40
0.4999889043
 40
0.6088744936
 40
0.7254681391
 40
0.8550905429
 40
1.0
 40
1.0
 40
1.0
 40
1.0
 10
15.1875143799
 20
-6.5392194155
 30
0.0
 10
15.1875143801
 20
-6.4530558949
 30
0.0
 10
15.2005348372
 20
-6.2892473613
 30
0.0
 10
15.2669096321
 20
-6.0642413107
 30
0.0
 10
15.3786806106
 20
-5.8815318375
 30
0.0
 10
15.5338300794
 20
-5.7510524972
 30
0.0
 10
15.7244138969
 20
-5.6819496125
 30
0.0
 10
15.9385390648
 20
-5.6765266366
 30
0.0
 10
16.166595491
 20
-5.7315634981
 30
0.0
 10
16.3149733938
 20
-5.8022006492
 30
0.0
 10
16.3895959079
 20
-5.8452867536
 30
0.0
  0
SPLINE
  5
3DA
100
AcDbEntity
  8
0
100
AcDbSpline
 62
7
  6
CONTINUOUS
 70
0
 71
3
 72
15
 73
11
 74
0
 42
0.0000001
 43
0.0000001
 44
0.0000000001
 40
0.0
 40
0.0
 40
0.0
 40
0.0
 40
0.1449018481
 40
0.2745170406
 40
0.3911053286
 40
0.4999889043
 40
0.6088744936
 40
0.7254681391
 40
0.8550905429
 40
1.0
 40
1.0
 40
1.0
 40
1.0
 10
-32.5421933502
 20
21.0193156341
 30
0.0
 10
-32.54219335
 20
21.1054791547
 30
0.0
 10
-32.5291728929
 20
21.2692876883
 30
0.0
 10
-32.4627980979
 20
21.4942937389
 30
0.0
 10
-32.3510271194
 20
21.6770032121
 30
0.0
 10
-32.1958776507
 20
21.8074825525
 30
0.0
 10
-32.0052938332
 20
21.8765854371
 30
0.0
 10
-31.7911686653
 20
21.8820084131
 30
0.0
 10
-31.5631122391
 20
21.8269715516
 30
0.0
 10
-31.4147343363
 20
21.7563344004
 30
0.0
 10
-31.3401118222
 20
21.713248296
 30
0.0
  0
SPLINE
  5
3DB
100
AcDbEntity
  8
0
100
AcDbSpline
 62
7
  6
CONTINUOUS
 70
0
 71
3
 72
13
 73
9
 74
0
 42
0.0000001
 43
0.0000001
 44
0.0000000001
 40
0.0
 40
0.0
 40
0.0
 40
0.0
 40
0.1142615865
 40
0.2375404667
 40
0.5000060664
 40
0.7624683449
 40
0.8857433485
 40
1.0
 40
1.0
 40
1.0
 40
1.0
 10
-31.3401118222
 20
7.9965476459
 30
0.0
 10
-31.4224058087
 20
8.0440631626
 30
0.0
 10
-31.5849675606
 20
8.1580040377
 30
0.0
 10
-31.8892723513
 20
8.4428656831
 30
0.0
 10
-32.2107514987
 20
8.8819429932
 30
0.0
 10
-32.430263651
 20
9.3798877944
 30
0.0
 10
-32.524802935
 20
9.7858453831
 30
0.0
 10
-32.5421933502
 20
9.9835915881
 30
0.0
 10
-32.5421933502
 20
10.0786139251
 30
0.0
  0
SPLINE
  5
3DC
100
AcDbEntity
  8
0
100
AcDbSpline
 62
7
  6
CONTINUOUS
 70
0
 71
3
 72
15
 73
11
 74
0
 42
0.0000001
 43
0.0000001
 44
0.0000000001
 40
0.0
 40
0.0
 40
0.0
 40
0.0
 40
0.1449018481
 40
0.2745170406
 40
0.3911053286
 40
0.4999889043
 40
0.6088744936
 40
0.7254681391
 40
0.8550905429
 40
1.0
 40
1.0
 40
1.0
 40
1.0
 10
-20.6627994263
 20
3.2196007572
 30
0.0
 10
-20.6627994265
 20
3.1334372366
 30
0.0
 10
-20.6758198836
 20
2.969628703
 30
0.0
 10
-20.7421946786
 20
2.7446226524
 30
0.0
 10
-20.8539656571
 20
2.5619131792
 30
0.0
 10
-21.0091151258
 20
2.4314338389
 30
0.0
 10
-21.1996989433
 20
2.3623309542
 30
0.0
 10
-21.4138241112
 20
2.3569079783
 30
0.0
 10
-21.6418805374
 20
2.4119448398
 30
0.0
 10
-21.7902584402
 20
2.4825819909
 30
0.0
 10
-21.8648809543
 20
2.5256680953
 30
0.0
  0
SPLINE
  5
3DD
100
AcDbEntity
  8
0
100
AcDbSpline
 62
7
  6
CONTINUOUS
 70
0
 71
3
 72
13
 73
9
 74
0
 42
0.0000001
 43
0.0000001
 44
0.0000000001
 40
0.0
 40
0.0
 40
0.0
 40
0.0
 40
0.1142615865
 40
0.2375404667
 40
0.5000060664
 40
0.7624683449
 40
0.8857433485
 40
1.0
 40
1.0
 40
1.0
 40
1.0
 10
16.3895959079
 20
-19.5619874037
 30
0.0
 10
16.3073019214
 20
-19.5144718871
 30
0.0
 10
16.1447401695
 20
-19.4005310119
 30
0.0
 10
15.8404353788
 20
-19.1156693666
 30
0.0
 10
15.5189562314
 20
-18.6765920564
 30
0.0
 10
15.299444079
 20
-18.1786472552
 30
0.0
 10
15.2049047951
 20
-17.7726896665
 30
0.0
 10
15.1875143799
 20
-17.5749434615
 30
0.0
 10
15.1875143799
 20
-17.4799211245
 30
0.0
  0
SPLINE
  5
3DE
100
AcDbEntity
  8
0
100
AcDbSpline
 62
7
  6
CONTINUOUS
 70
0
 71
3
 72
11
 73
7
 74
0
 42
0.0000001
 43
0.0000001
 44
0.0000000001
 40
0.0
 40
0.0
 40
0.0
 40
0.0
 40
0.2372223749
 40
0.5000061065
 40
0.762786514
 40
1.0
 40
1.0
 40
1.0
 40
1.0
 10
-30.9865584316
 20
8.608920081
 30
0.0
 10
-31.1070143679
 20
8.6784698286
 30
0.0
 10
-31.3349853388
 20
8.8703345883
 30
0.0
 10
-31.6010658257
 20
9.2339407698
 30
0.0
 10
-31.7829163062
 20
9.6461712439
 30
0.0
 10
-31.8350865691
 20
9.9395263623
 30
0.0
 10
-31.835086569
 20
10.0786139251
 30
0.0
  0
SPLINE
  5
3DF
100
AcDbEntity
  8
0
100
AcDbSpline
 62
7
  6
CONTINUOUS
 70
0
 71
3
 72
11
 73
7
 74
0
 42
0.0000001
 43
0.0000001
 44
0.0000000001
 40
0.0
 40
0.0
 40
0.0
 40
0.0
 40
0.2372134857
 40
0.4999938933
 40
0.7627776251
 40
1.0
 40
1.0
 40
1.0
 40
1.0
 10
-31.6936652128
 20
10.1602688438
 30
0.0
 10
-31.6936652125
 20
10.0211812811
 30
0.0
 10
-31.6414949502
 20
9.7278261628
 30
0.0
 10
-31.4596444695
 20
9.3155956889
 30
0.0
 10
-31.193563983
 20
8.9519895066
 30
0.0
 10
-30.9655930112
 20
8.7601247482
 30
0.0
 10
-30.8451370754
 20
8.6905749996
 30
0.0
  0
SPLINE
  5
3E0
100
AcDbEntity
  8
0
100
AcDbSpline
 62
7
  6
CONTINUOUS
 70
0
 71
3
 72
9
 73
5
 74
0
 42
0.0000001
 43
0.0000001
 44
0.0000000001
 40
0.0
 40
0.0
 40
0.0
 40
0.0
 40
0.2314181732
 40
1.0
 40
1.0
 40
1.0
 40
1.0
 10
-15.72791445
 20
12.2321234154
 30
0.0
 10
-15.7373552686
 20
12.2090325975
 30
0.0
 10
-15.7720782777
 20
12.1067642699
 30
0.0
 10
-15.7837626356
 20
11.9976432039
 30
0.0
 10
-15.7837626361
 20
11.9147922029
 30
0.0
  0
SPLINE
  5
3E1
100
AcDbEntity
  8
0
100
AcDbSpline
 62
7
  6
CONTINUOUS
 70
0
 71
3
 72
9
 73
5
 74
0
 42
0.0000001
 43
0.0000001
 44
0.0000000001
 40
0.0
 40
0.0
 40
0.0
 40
0.0
 40
0.2698109577
 40
1.0
 40
1.0
 40
1.0
 40
1.0
 10
-21.3699062075
 20
3.219695449
 30
0.0
 10
-21.3447202584
 20
3.2051533978
 30
0.0
 10
-21.2494438771
 20
3.1549281977
 30
0.0
 10
-21.1450628929
 20
3.1199916435
 30
0.0
 10
-21.0670770648
 20
3.1093653383
 30
0.0
  0
SPLINE
  5
3E2
100
AcDbEntity
  8
0
100
AcDbSpline
 62
7
  6
CONTINUOUS
 70
0
 71
3
 72
11
 73
7
 74
0
 42
0.0000001
 43
0.0000001
 44
0.0000000001
 40
0.0
 40
0.0
 40
0.0
 40
0.0
 40
0.2845769506
 40
0.5442334504
 40
0.7808566869
 40
1.0
 40
1.0
 40
1.0
 40
1.0
 10
-31.835086569
 20
21.0193156341
 30
0.0
 10
-31.8350865691
 20
21.0704689181
 30
0.0
 10
-31.8284963942
 20
21.1685119927
 30
0.0
 10
-31.7957260554
 20
21.3057973685
 30
0.0
 10
-31.740907534
 20
21.4232301431
 30
0.0
 10
-31.688618239
 20
21.4877365265
 30
0.0
 10
-31.6597329033
 20
21.5145194334
 30
0.0
  0
SPLINE
  5
3E3
100
AcDbEntity
  8
0
100
AcDbSpline
 62
7
  6
CONTINUOUS
 70
0
 71
3
 72
15
 73
11
 74
0
 42
0.0000001
 43
0.0000001
 44
0.0000000001
 40
0.0
 40
0.0
 40
0.0
 40
0.0
 40
0.1449018481
 40
0.2745170406
 40
0.3911053286
 40
0.4999889043
 40
0.6088744936
 40
0.7254681391
 40
0.8550905429
 40
1.0
 40
1.0
 40
1.0
 40
1.0
 10
27.0669083038
 20
-24.3389342924
 30
0.0
 10
27.0669083036
 20
-24.425097813
 30
0.0
 10
27.0538878465
 20
-24.5889063466
 30
0.0
 10
26.9875130515
 20
-24.8139123972
 30
0.0
 10
26.875742073
 20
-24.9966218704
 30
0.0
 10
26.7205926043
 20
-25.1271012108
 30
0.0
 10
26.5300087868
 20
-25.1962040954
 30
0.0
 10
26.3158836189
 20
-25.2016270714
 30
0.0
 10
26.0878271927
 20
-25.1465902099
 30
0.0
 10
25.9394492899
 20
-25.0759530587
 30
0.0
 10
25.8648267758
 20
-25.0328669543
 30
0.0
  0
SPLINE
  5
3E4
100
AcDbEntity
  8
0
100
AcDbSpline
 62
7
  6
CONTINUOUS
 70
0
 71
3
 72
11
 73
7
 74
0
 42
0.0000001
 43
0.0000001
 44
0.0000000001
 40
0.0
 40
0.0
 40
0.0
 40
0.0
 40
0.2372223749
 40
0.5000061065
 40
0.762786514
 40
1.0
 40
1.0
 40
1.0
 40
1.0
 10
-15.0766558549
 20
-0.5772582689
 30
0.0
 10
-15.1971117912
 20
-0.5077085213
 30
0.0
 10
-15.4250827621
 20
-0.3158437615
 30
0.0
 10
-15.691163249
 20
0.04776242
 30
0.0
 10
-15.8730137295
 20
0.459992894
 30
0.0
 10
-15.9251839924
 20
0.7533480124
 30
0.0
 10
-15.9251839923
 20
0.8924355752
 30
0.0
  0
SPLINE
  5
3E5
100
AcDbEntity
  8
0
100
AcDbSpline
 62
7
  6
CONTINUOUS
 70
0
 71
3
 72
11
 73
7
 74
0
 42
0.0000001
 43
0.0000001
 44
0.0000000001
 40
0.0
 40
0.0
 40
0.0
 40
0.0
 40
0.2372134857
 40
0.4999938933
 40
0.7627776251
 40
1.0
 40
1.0
 40
1.0
 40
1.0
 10
-15.7837626361
 20
0.9740904939
 30
0.0
 10
-15.7837626358
 20
0.8350029312
 30
0.0
 10
-15.7315923735
 20
0.5416478129
 30
0.0
 10
-15.5497418928
 20
0.129417339
 30
0.0
 10
-15.2836614063
 20
-0.2341888432
 30
0.0
 10
-15.0556904345
 20
-0.4260536017
 30
0.0
 10
-14.9352344987
 20
-0.4956033503
 30
0.0
  0
SPLINE
  5
3E6
100
AcDbEntity
  8
0
100
AcDbSpline
 62
7
  6
CONTINUOUS
 70
0
 71
3
 72
9
 73
5
 74
0
 42
0.0000001
 43
0.0000001
 44
0.0000000001
 40
0.0
 40
0.0
 40
0.0
 40
0.0
 40
0.2698109577
 40
1.0
 40
1.0
 40
1.0
 40
1.0
 10
-5.4600036308
 20
-5.9664829008
 30
0.0
 10
-5.4348176817
 20
-5.9810249521
 30
0.0
 10
-5.3395413004
 20
-6.0312501522
 30
0.0
 10
-5.2351603162
 20
-6.0661867064
 30
0.0
 10
-5.1571744881
 20
-6.0768130116
 30
0.0
  0
SPLINE
  5
3E7
100
AcDbEntity
  8
0
100
AcDbSpline
 62
7
  6
CONTINUOUS
 70
0
 71
3
 72
11
 73
7
 74
0
 42
0.0000001
 43
0.0000001
 44
0.0000000001
 40
0.0
 40
0.0
 40
0.0
 40
0.0
 40
0.2845769506
 40
0.5442334504
 40
0.7808566869
 40
1.0
 40
1.0
 40
1.0
 40
1.0
 10
-15.9251839923
 20
11.8331372842
 30
0.0
 10
-15.9251839924
 20
11.8842905682
 30
0.0
 10
-15.9185938175
 20
11.9823336428
 30
0.0
 10
-15.8858234787
 20
12.1196190187
 30
0.0
 10
-15.8310049573
 20
12.2370517933
 30
0.0
 10
-15.7787156623
 20
12.3015581766
 30
0.0
 10
-15.7498303266
 20
12.3283410835
 30
0.0
  0
SPLINE
  5
3E8
100
AcDbEntity
  8
0
100
AcDbSpline
 62
7
  6
CONTINUOUS
 70
0
 71
3
 72
9
 73
5
 74
0
 42
0.0000001
 43
0.0000001
 44
0.0000000001
 40
0.0
 40
0.0
 40
0.0
 40
0.0
 40
0.2314181732
 40
1.0
 40
1.0
 40
1.0
 40
1.0
 10
0.1819881267
 20
3.0459450655
 30
0.0
 10
0.172547308
 20
3.0228542476
 30
0.0
 10
0.137824299
 20
2.92058592
 30
0.0
 10
0.1261399411
 20
2.811464854
 30
0.0
 10
0.1261399406
 20
2.728613853
 30
0.0
  0
SPLINE
  5
3E9
100
AcDbEntity
  8
0
100
AcDbSpline
 62
7
  6
CONTINUOUS
 70
0
 71
3
 72
11
 73
7
 74
0
 42
0.0000001
 43
0.0000001
 44
0.0000000001
 40
0.0
 40
0.0
 40
0.0
 40
0.0
 40
0.2372223749
 40
0.5000061065
 40
0.762786514
 40
1.0
 40
1.0
 40
1.0
 40
1.0
 10
0.8332467218
 20
-9.7634366188
 30
0.0
 10
0.7127907855
 20
-9.6938868712
 30
0.0
 10
0.4848198146
 20
-9.5020221114
 30
0.0
 10
0.2187393277
 20
-9.1384159299
 30
0.0
 10
0.0368888472
 20
-8.7261854558
 30
0.0
 10
-0.0152814157
 20
-8.4328303375
 30
0.0
 10
-0.0152814156
 20
-8.2937427746
 30
0.0
  0
SPLINE
  5
3EA
100
AcDbEntity
  8
0
100
AcDbSpline
 62
7
  6
CONTINUOUS
 70
0
 71
3
 72
11
 73
7
 74
0
 42
0.0000001
 43
0.0000001
 44
0.0000000001
 40
0.0
 40
0.0
 40
0.0
 40
0.0
 40
0.2372134857
 40
0.4999938933
 40
0.7627776251
 40
1.0
 40
1.0
 40
1.0
 40
1.0
 10
0.1261399406
 20
-8.212087856
 30
0.0
 10
0.1261399409
 20
-8.3511754187
 30
0.0
 10
0.1783102032
 20
-8.6445305369
 30
0.0
 10
0.3601606839
 20
-9.0567610109
 30
0.0
 10
0.6262411704
 20
-9.4203671931
 30
0.0
 10
0.8542121422
 20
-9.6122319516
 30
0.0
 10
0.974668078
 20
-9.6817817001
 30
0.0
  0
SPLINE
  5
3EB
100
AcDbEntity
  8
0
100
AcDbSpline
 62
7
  6
CONTINUOUS
 70
0
 71
3
 72
9
 73
5
 74
0
 42
0.0000001
 43
0.0000001
 44
0.0000000001
 40
0.0
 40
0.0
 40
0.0
 40
0.0
 40
0.2698109577
 40
1.0
 40
1.0
 40
1.0
 40
1.0
 10
10.4498989459
 20
-15.1526612507
 30
0.0
 10
10.475084895
 20
-15.167203302
 30
0.0
 10
10.5703612763
 20
-15.217428502
 30
0.0
 10
10.6747422605
 20
-15.2523650562
 30
0.0
 10
10.7527280886
 20
-15.2629913615
 30
0.0
  0
SPLINE
  5
3EC
100
AcDbEntity
  8
0
100
AcDbSpline
 62
7
  6
CONTINUOUS
 70
0
 71
3
 72
11
 73
7
 74
0
 42
0.0000001
 43
0.0000001
 44
0.0000000001
 40
0.0
 40
0.0
 40
0.0
 40
0.0
 40
0.2845769506
 40
0.5442334504
 40
0.7808566869
 40
1.0
 40
1.0
 40
1.0
 40
1.0
 10
-0.0152814156
 20
2.6469589344
 30
0.0
 10
-0.0152814157
 20
2.6981122183
 30
0.0
 10
-0.0086912409
 20
2.7961552929
 30
0.0
 10
0.024079098
 20
2.9334406688
 30
0.0
 10
0.0788976194
 20
3.0508734434
 30
0.0
 10
0.1311869144
 20
3.1153798267
 30
0.0
 10
0.1600722501
 20
3.1421627337
 30
0.0
  0
SPLINE
  5
3ED
100
AcDbEntity
  8
0
100
AcDbSpline
 62
7
  6
CONTINUOUS
 70
0
 71
3
 72
9
 73
5
 74
0
 42
0.0000001
 43
0.0000001
 44
0.0000000001
 40
0.0
 40
0.0
 40
0.0
 40
0.0
 40
0.2314181732
 40
1.0
 40
1.0
 40
1.0
 40
1.0
 10
16.0918907034
 20
-6.1402332844
 30
0.0
 10
16.0824498847
 20
-6.1633241023
 30
0.0
 10
16.0477268756
 20
-6.2655924298
 30
0.0
 10
16.0360425177
 20
-6.3747134958
 30
0.0
 10
16.0360425173
 20
-6.4575644968
 30
0.0
  0
SPLINE
  5
3EE
100
AcDbEntity
  8
0
100
AcDbSpline
 62
7
  6
CONTINUOUS
 70
0
 71
3
 72
11
 73
7
 74
0
 42
0.0000001
 43
0.0000001
 44
0.0000000001
 40
0.0
 40
0.0
 40
0.0
 40
0.0
 40
0.2191404659
 40
0.4557642665
 40
0.7154223701
 40
1.0
 40
1.0
 40
1.0
 40
1.0
 10
-20.99476915
 20
3.0422608205
 30
0.0
 10
-21.0324091155
 20
3.0306403817
 30
0.0
 10
-21.1144227587
 20
3.0176173283
 30
0.0
 10
-21.2435370367
 20
3.0288697719
 30
0.0
 10
-21.3788198078
 20
3.0691417215
 30
0.0
 10
-21.4670259127
 20
3.1124613123
 30
0.0
 10
-21.5113275637
 20
3.1380405304
 30
0.0
  0
SPLINE
  5
3EF
100
AcDbEntity
  8
0
100
AcDbSpline
 62
7
  6
CONTINUOUS
 70
0
 71
3
 72
15
 73
11
 74
0
 42
0.0000001
 43
0.0000001
 44
0.0000000001
 40
0.0
 40
0.0
 40
0.0
 40
0.0
 40
0.1449018481
 40
0.2745170406
 40
0.3911053286
 40
0.4999889043
 40
0.6088744936
 40
0.7254681391
 40
0.8550905429
 40
1.0
 40
1.0
 40
1.0
 40
1.0
 10
-0.7223881968
 20
2.6469589344
 30
0.0
 10
-0.7223881966
 20
2.733122455
 30
0.0
 10
-0.7093677395
 20
2.8969309885
 30
0.0
 10
-0.6429929446
 20
3.1219370392
 30
0.0
 10
-0.5312219661
 20
3.3046465124
 30
0.0
 10
-0.3760724973
 20
3.4351258527
 30
0.0
 10
-0.1854886798
 20
3.5042287373
 30
0.0
 10
0.0286364881
 20
3.5096517133
 30
0.0
 10
0.2566929143
 20
3.4546148518
 30
0.0
 10
0.4050708171
 20
3.3839777006
 30
0.0
 10
0.4796933312
 20
3.3408915963
 30
0.0
  0
SPLINE
  5
3F0
100
AcDbEntity
  8
0
100
AcDbSpline
 62
7
  6
CONTINUOUS
 70
0
 71
3
 72
11
 73
7
 74
0
 42
0.0000001
 43
0.0000001
 44
0.0000000001
 40
0.0
 40
0.0
 40
0.0
 40
0.0
 40
0.2372223749
 40
0.5000061065
 40
0.762786514
 40
1.0
 40
1.0
 40
1.0
 40
1.0
 10
16.7431492985
 20
-18.9496149687
 30
0.0
 10
16.6226933622
 20
-18.880065221
 30
0.0
 10
16.3947223913
 20
-18.6882004613
 30
0.0
 10
16.1286419044
 20
-18.3245942798
 30
0.0
 10
15.9467914239
 20
-17.9123638057
 30
0.0
 10
15.894621161
 20
-17.6190086874
 30
0.0
 10
15.8946211611
 20
-17.4799211245
 30
0.0
  0
SPLINE
  5
3F1
100
AcDbEntity
  8
0
100
AcDbSpline
 62
7
  6
CONTINUOUS
 70
0
 71
3
 72
11
 73
7
 74
0
 42
0.0000001
 43
0.0000001
 44
0.0000000001
 40
0.0
 40
0.0
 40
0.0
 40
0.0
 40
0.2372134857
 40
0.4999938933
 40
0.7627776251
 40
1.0
 40
1.0
 40
1.0
 40
1.0
 10
16.0360425173
 20
-17.3982662059
 30
0.0
 10
16.0360425176
 20
-17.5373537685
 30
0.0
 10
16.0882127799
 20
-17.8307088868
 30
0.0
 10
16.2700632606
 20
-18.2429393607
 30
0.0
 10
16.5361437471
 20
-18.606545543
 30
0.0
 10
16.7641147189
 20
-18.7984103015
 30
0.0
 10
16.8845706547
 20
-18.86796005
 30
0.0
  0
SPLINE
  5
3F2
100
AcDbEntity
  8
0
100
AcDbSpline
 62
7
  6
CONTINUOUS
 70
0
 71
3
 72
9
 73
5
 74
0
 42
0.0000001
 43
0.0000001
 44
0.0000000001
 40
0.0
 40
0.0
 40
0.0
 40
0.0
 40
0.2698109577
 40
1.0
 40
1.0
 40
1.0
 40
1.0
 10
26.3598015226
 20
-24.3388396006
 30
0.0
 10
26.3849874716
 20
-24.3533816518
 30
0.0
 10
26.480263853
 20
-24.4036068519
 30
0.0
 10
26.5846448372
 20
-24.4385434061
 30
0.0
 10
26.6626306653
 20
-24.4491697114
 30
0.0
  0
SPLINE
  5
3F3
100
AcDbEntity
  8
0
100
AcDbSpline
 62
7
  6
CONTINUOUS
 70
0
 71
3
 72
11
 73
7
 74
0
 42
0.0000001
 43
0.0000001
 44
0.0000000001
 40
0.0
 40
0.0
 40
0.0
 40
0.0
 40
0.2845769506
 40
0.5442334504
 40
0.7808566869
 40
1.0
 40
1.0
 40
1.0
 40
1.0
 10
15.8946211611
 20
-6.5392194155
 30
0.0
 10
15.894621161
 20
-6.4880661316
 30
0.0
 10
15.9012113358
 20
-6.3900230569
 30
0.0
 10
15.9339816747
 20
-6.2527376811
 30
0.0
 10
15.9888001961
 20
-6.1353049065
 30
0.0
 10
16.0410894911
 20
-6.0707985231
 30
0.0
 10
16.0699748268
 20
-6.0440156162
 30
0.0
  0
SPLINE
  5
3F4
100
AcDbEntity
  8
0
100
AcDbSpline
 62
7
  6
CONTINUOUS
 70
0
 71
3
 72
11
 73
7
 74
0
 42
0.0000001
 43
0.0000001
 44
0.0000000001
 40
0.0
 40
0.0
 40
0.0
 40
0.0
 40
0.2191404659
 40
0.4557642665
 40
0.7154223701
 40
1.0
 40
1.0
 40
1.0
 40
1.0
 10
-5.0848665733
 20
-6.1439175294
 30
0.0
 10
-5.1225065388
 20
-6.1555379682
 30
0.0
 10
-5.204520182
 20
-6.1685610216
 30
0.0
 10
-5.33363446
 20
-6.1573085779
 30
0.0
 10
-5.4689172311
 20
-6.1170366284
 30
0.0
 10
-5.557123336
 20
-6.0737170376
 30
0.0
 10
-5.601424987
 20
-6.0481378195
 30
0.0
  0
SPLINE
  5
3F5
100
AcDbEntity
  8
ASSI
100
AcDbSpline
 62
7
  6
CONTINUOUS
 70
0
 71
3
 72
9
 73
5
 74
0
 42
0.0000001
 43
0.0000001
 44
0.0000000001
 40
0.0
 40
0.0
 40
0.0
 40
0.0
 40
0.5163282132
 40
1.0
 40
1.0
 40
1.0
 40
1.0
 10
-21.0670770648
 20
3.1093653383
 30
0.0
 10
-21.0303266651
 20
3.1043577494
 30
0.0
 10
-20.958029182
 20
3.1010646609
 30
0.0
 10
-20.8865459036
 20
3.1136666207
 30
0.0
 10
-20.8533478348
 20
3.1239157265
 30
0.0
  0
SPLINE
  5
3F6
100
AcDbEntity
  8
ASSI
100
AcDbSpline
 62
7
  6
CONTINUOUS
 70
0
 71
3
 72
9
 73
5
 74
0
 42
0.0000001
 43
0.0000001
 44
0.0000000001
 40
0.0
 40
0.0
 40
0.0
 40
0.0
 40
0.5163282132
 40
1.0
 40
1.0
 40
1.0
 40
1.0
 10
-5.1571744881
 20
-6.0768130116
 30
0.0
 10
-5.1204240884
 20
-6.0818206005
 30
0.0
 10
-5.0481266053
 20
-6.0851136889
 30
0.0
 10
-4.9766433269
 20
-6.0725117291
 30
0.0
 10
-4.9434452581
 20
-6.0622626234
 30
0.0
  0
SPLINE
  5
3F7
100
AcDbEntity
  8
ASSI
100
AcDbSpline
 62
7
  6
CONTINUOUS
 70
0
 71
3
 72
9
 73
5
 74
0
 42
0.0000001
 43
0.0000001
 44
0.0000000001
 40
0.0
 40
0.0
 40
0.0
 40
0.0
 40
0.5163282132
 40
1.0
 40
1.0
 40
1.0
 40
1.0
 10
10.7527280886
 20
-15.2629913615
 30
0.0
 10
10.7894784883
 20
-15.2679989504
 30
0.0
 10
10.8617759714
 20
-15.2712920388
 30
0.0
 10
10.9332592498
 20
-15.258690079
 30
0.0
 10
10.9664573186
 20
-15.2484409733
 30
0.0
  0
SPLINE
  5
3F8
100
AcDbEntity
  8
ASSI
100
AcDbSpline
 62
7
  6
CONTINUOUS
 70
0
 71
3
 72
9
 73
5
 74
0
 42
0.0000001
 43
0.0000001
 44
0.0000000001
 40
0.0
 40
0.0
 40
0.0
 40
0.0
 40
0.5163282132
 40
1.0
 40
1.0
 40
1.0
 40
1.0
 10
26.6626306653
 20
-24.4491697114
 30
0.0
 10
26.699381065
 20
-24.4541773002
 30
0.0
 10
26.7716785481
 20
-24.4574703887
 30
0.0
 10
26.8431618265
 20
-24.4448684289
 30
0.0
 10
26.8763598953
 20
-24.4346193231
 30
0.0
  0
SPLINE
  5
3F9
100
AcDbEntity
  8
ASSI
100
AcDbSpline
 62
7
  6
CONTINUOUS
 70
0
 71
3
 72
9
 73
5
 74
0
 42
0.0000001
 43
0.0000001
 44
0.0000000001
 40
0.0
 40
0.0
 40
0.0
 40
0.0
 40
0.2434727928
 40
1.0
 40
1.0
 40
1.0
 40
1.0
 10
-31.5183115244
 20
21.5961743731
 30
0.0
 10
-31.5268200371
 20
21.5882851565
 30
0.0
 10
-31.5604277362
 20
21.5544475454
 30
0.0
 10
-31.5883708778
 20
21.5151461583
 30
0.0
 10
-31.6061536464
 20
21.4837828458
 30
0.0
  0
SPLINE
  5
3FA
100
AcDbEntity
  8
ASSI
100
AcDbSpline
 62
7
  6
CONTINUOUS
 70
0
 71
3
 72
9
 73
5
 74
0
 42
0.0000001
 43
0.0000001
 44
0.0000000001
 40
0.0
 40
0.0
 40
0.0
 40
0.0
 40
0.245444348
 40
1.0
 40
1.0
 40
1.0
 40
1.0
 10
-31.6061536464
 20
21.4837828458
 30
0.0
 10
-31.6090898668
 20
21.4786042598
 30
0.0
 10
-31.6206976786
 20
21.4573053065
 30
0.0
 10
-31.6308909963
 20
21.4352417905
 30
0.0
 10
-31.6378170267
 20
21.4183017653
 30
0.0
  0
SPLINE
  5
3FB
100
AcDbEntity
  8
ASSI
100
AcDbSpline
 62
7
  6
CONTINUOUS
 70
0
 71
3
 72
11
 73
7
 74
0
 42
0.0000001
 43
0.0000001
 44
0.0000000001
 40
0.0
 40
0.0
 40
0.0
 40
0.0
 40
0.2177670691
 40
0.4509439475
 40
0.710195215
 40
1.0
 40
1.0
 40
1.0
 40
1.0
 10
-31.5865874238
 20
21.5685998675
 30
0.0
 10
-31.5470051052
 20
21.5914542157
 30
0.0
 10
-31.4560491453
 20
21.6244886652
 30
0.0
 10
-31.304992958
 20
21.6282684658
 30
0.0
 10
-31.14397136
 20
21.5894318783
 30
0.0
 10
-31.0392346561
 20
21.5395650461
 30
0.0
 10
-30.9865584316
 20
21.5091504543
 30
0.0
  0
SPLINE
  5
3FC
100
AcDbEntity
  8
ASSI
100
AcDbSpline
 62
7
  6
CONTINUOUS
 70
0
 71
3
 72
9
 73
5
 74
0
 42
0.0000001
 43
0.0000001
 44
0.0000000001
 40
0.0
 40
0.0
 40
0.0
 40
0.0
 40
0.2434727928
 40
1.0
 40
1.0
 40
1.0
 40
1.0
 10
-15.6084089477
 20
12.4099960233
 30
0.0
 10
-15.6169174604
 20
12.4021068067
 30
0.0
 10
-15.6505251595
 20
12.3682691955
 30
0.0
 10
-15.6784683011
 20
12.3289678084
 30
0.0
 10
-15.6962510698
 20
12.2976044959
 30
0.0
  0
SPLINE
  5
3FD
100
AcDbEntity
  8
ASSI
100
AcDbSpline
 62
7
  6
CONTINUOUS
 70
0
 71
3
 72
9
 73
5
 74
0
 42
0.0000001
 43
0.0000001
 44
0.0000000001
 40
0.0
 40
0.0
 40
0.0
 40
0.0
 40
0.245444348
 40
1.0
 40
1.0
 40
1.0
 40
1.0
 10
-15.6962510698
 20
12.2976044959
 30
0.0
 10
-15.6991872901
 20
12.2924259099
 30
0.0
 10
-15.7107951019
 20
12.2711269567
 30
0.0
 10
-15.7209884196
 20
12.2490634406
 30
0.0
 10
-15.72791445
 20
12.2321234154
 30
0.0
  0
SPLINE
  5
3FE
100
AcDbEntity
  8
ASSI
100
AcDbSpline
 62
7
  6
CONTINUOUS
 70
0
 71
3
 72
11
 73
7
 74
0
 42
0.0000001
 43
0.0000001
 44
0.0000000001
 40
0.0
 40
0.0
 40
0.0
 40
0.0
 40
0.2177670691
 40
0.4509439475
 40
0.710195215
 40
1.0
 40
1.0
 40
1.0
 40
1.0
 10
-15.6766848471
 20
12.3824215176
 30
0.0
 10
-15.6371025285
 20
12.4052758658
 30
0.0
 10
-15.5461465687
 20
12.4383103153
 30
0.0
 10
-15.3950903813
 20
12.4420901159
 30
0.0
 10
-15.2340687833
 20
12.4032535284
 30
0.0
 10
-15.1293320795
 20
12.3533866962
 30
0.0
 10
-15.0766558549
 20
12.3229721044
 30
0.0
  0
SPLINE
  5
3FF
100
AcDbEntity
  8
ASSI
100
AcDbSpline
 62
7
  6
CONTINUOUS
 70
0
 71
3
 72
9
 73
5
 74
0
 42
0.0000001
 43
0.0000001
 44
0.0000000001
 40
0.0
 40
0.0
 40
0.0
 40
0.0
 40
0.2434727928
 40
1.0
 40
1.0
 40
1.0
 40
1.0
 10
0.301493629
 20
3.2238176734
 30
0.0
 10
0.2929851163
 20
3.2159284568
 30
0.0
 10
0.2593774172
 20
3.1820908456
 30
0.0
 10
0.2314342756
 20
3.1427894585
 30
0.0
 10
0.2136515069
 20
3.111426146
 30
0.0
  0
SPLINE
  5
400
100
AcDbEntity
  8
ASSI
100
AcDbSpline
 62
7
  6
CONTINUOUS
 70
0
 71
3
 72
9
 73
5
 74
0
 42
0.0000001
 43
0.0000001
 44
0.0000000001
 40
0.0
 40
0.0
 40
0.0
 40
0.0
 40
0.245444348
 40
1.0
 40
1.0
 40
1.0
 40
1.0
 10
0.2136515069
 20
3.111426146
 30
0.0
 10
0.2107152866
 20
3.10624756
 30
0.0
 10
0.1991074748
 20
3.0849486068
 30
0.0
 10
0.1889141571
 20
3.0628850908
 30
0.0
 10
0.1819881267
 20
3.0459450655
 30
0.0
  0
SPLINE
  5
401
100
AcDbEntity
  8
ASSI
100
AcDbSpline
 62
7
  6
CONTINUOUS
 70
0
 71
3
 72
11
 73
7
 74
0
 42
0.0000001
 43
0.0000001
 44
0.0000000001
 40
0.0
 40
0.0
 40
0.0
 40
0.0
 40
0.2177670691
 40
0.4509439475
 40
0.710195215
 40
1.0
 40
1.0
 40
1.0
 40
1.0
 10
0.2332177296
 20
3.1962431677
 30
0.0
 10
0.2728000482
 20
3.2190975159
 30
0.0
 10
0.363756008
 20
3.2521319654
 30
0.0
 10
0.5148121954
 20
3.2559117661
 30
0.0
 10
0.6758337934
 20
3.2170751785
 30
0.0
 10
0.7805704972
 20
3.1672083464
 30
0.0
 10
0.8332467218
 20
3.1367937545
 30
0.0
  0
SPLINE
  5
402
100
AcDbEntity
  8
ASSI
100
AcDbSpline
 62
7
  6
CONTINUOUS
 70
0
 71
3
 72
9
 73
5
 74
0
 42
0.0000001
 43
0.0000001
 44
0.0000000001
 40
0.0
 40
0.0
 40
0.0
 40
0.0
 40
0.2434727928
 40
1.0
 40
1.0
 40
1.0
 40
1.0
 10
16.2113962057
 20
-5.9623606765
 30
0.0
 10
16.202887693
 20
-5.9702498931
 30
0.0
 10
16.1692799939
 20
-6.0040875042
 30
0.0
 10
16.1413368523
 20
-6.0433888913
 30
0.0
 10
16.1235540836
 20
-6.0747522039
 30
0.0
  0
SPLINE
  5
403
100
AcDbEntity
  8
ASSI
100
AcDbSpline
 62
7
  6
CONTINUOUS
 70
0
 71
3
 72
9
 73
5
 74
0
 42
0.0000001
 43
0.0000001
 44
0.0000000001
 40
0.0
 40
0.0
 40
0.0
 40
0.0
 40
0.245444348
 40
1.0
 40
1.0
 40
1.0
 40
1.0
 10
16.1235540836
 20
-6.0747522039
 30
0.0
 10
16.1206178633
 20
-6.0799307899
 30
0.0
 10
16.1090100515
 20
-6.1012297431
 30
0.0
 10
16.0988167338
 20
-6.1232932591
 30
0.0
 10
16.0918907034
 20
-6.1402332844
 30
0.0
  0
SPLINE
  5
404
100
AcDbEntity
  8
ASSI
100
AcDbSpline
 62
7
  6
CONTINUOUS
 70
0
 71
3
 72
11
 73
7
 74
0
 42
0.0000001
 43
0.0000001
 44
0.0000000001
 40
0.0
 40
0.0
 40
0.0
 40
0.0
 40
0.2177670691
 40
0.4509439475
 40
0.710195215
 40
1.0
 40
1.0
 40
1.0
 40
1.0
 10
16.1431203063
 20
-5.9899351821
 30
0.0
 10
16.1827026249
 20
-5.967080834
 30
0.0
 10
16.2736585847
 20
-5.9340463845
 30
0.0
 10
16.4247147721
 20
-5.9302665838
 30
0.0
 10
16.5857363701
 20
-5.9691031714
 30
0.0
 10
16.6904730739
 20
-6.0189700035
 30
0.0
 10
16.7431492985
 20
-6.0493845953
 30
0.0
  0
SPLINE
  5
405
100
AcDbEntity
  8
ASSI
100
AcDbSpline
 62
7
  6
CONTINUOUS
 70
0
 71
3
 72
9
 73
5
 74
0
 42
0.0000001
 43
0.0000001
 44
0.0000000001
 40
0.0
 40
0.0
 40
0.0
 40
0.0
 40
0.2403060145
 40
1.0
 40
1.0
 40
1.0
 40
1.0
 10
25.8648267758
 20
-11.3161663042
 30
0.0
 10
25.8884468381
 20
-11.3298042322
 30
0.0
 10
25.9852768607
 20
-11.3890745995
 30
0.0
 10
26.0762775882
 20
-11.4576760187
 30
0.0
 10
26.1419443632
 20
-11.5135559371
 30
0.0
  0
SPLINE
  5
406
100
AcDbEntity
  8
ASSI
100
AcDbSpline
 62
7
  6
CONTINUOUS
 70
0
 71
3
 72
11
 73
7
 74
0
 42
0.0000001
 43
0.0000001
 44
0.0000000001
 40
0.0
 40
0.0
 40
0.0
 40
0.0
 40
0.2436408454
 40
0.5000044213
 40
0.7563656951
 40
1.0
 40
1.0
 40
1.0
 40
1.0
 10
26.1419443632
 20
-11.5135559371
 30
0.0
 10
26.2542277293
 20
-11.6091047948
 30
0.0
 10
26.4652732762
 20
-11.8285866126
 30
0.0
 10
26.7253341335
 20
-12.2074139889
 30
0.0
 10
26.9233762619
 20
-12.6220433688
 30
0.0
 10
27.0079273151
 20
-12.9145505711
 30
0.0
 10
27.0345307561
 20
-13.059561703
 30
0.0
  0
SPLINE
  5
407
100
AcDbEntity
  8
ASSI
100
AcDbSpline
 62
7
  6
CONTINUOUS
 70
0
 71
3
 72
9
 73
5
 74
0
 42
0.0000001
 43
0.0000001
 44
0.0000000001
 40
0.0
 40
0.0
 40
0.0
 40
0.0
 40
0.2594906421
 40
1.0
 40
1.0
 40
1.0
 40
1.0
 10
27.0345307561
 20
-13.059561703
 30
0.0
 10
27.0398448204
 20
-13.0885278234
 30
0.0
 10
27.0580437584
 20
-13.200546526
 30
0.0
 10
27.0669083038
 20
-13.3141923274
 30
0.0
 10
27.0669083038
 20
-13.3982325834
 30
0.0
  0
SPLINE
  5
408
100
AcDbEntity
  8
ASSI
100
AcDbSpline
 62
7
  6
CONTINUOUS
 70
0
 71
3
 72
9
 73
5
 74
0
 42
0.0000001
 43
0.0000001
 44
0.0000000001
 40
0.0
 40
0.0
 40
0.0
 40
0.0
 40
0.2403060145
 40
1.0
 40
1.0
 40
1.0
 40
1.0
 10
9.9549241991
 20
-2.1299879543
 30
0.0
 10
9.9785442614
 20
-2.1436258823
 30
0.0
 10
10.075374284
 20
-2.2028962496
 30
0.0
 10
10.1663750116
 20
-2.2714976688
 30
0.0
 10
10.2320417865
 20
-2.3273775872
 30
0.0
  0
SPLINE
  5
409
100
AcDbEntity
  8
ASSI
100
AcDbSpline
 62
7
  6
CONTINUOUS
 70
0
 71
3
 72
11
 73
7
 74
0
 42
0.0000001
 43
0.0000001
 44
0.0000000001
 40
0.0
 40
0.0
 40
0.0
 40
0.0
 40
0.2436408454
 40
0.5000044213
 40
0.7563656951
 40
1.0
 40
1.0
 40
1.0
 40
1.0
 10
10.2320417865
 20
-2.3273775872
 30
0.0
 10
10.3443251526
 20
-2.4229264449
 30
0.0
 10
10.5553706995
 20
-2.6424082627
 30
0.0
 10
10.8154315568
 20
-3.021235639
 30
0.0
 10
11.0134736852
 20
-3.4358650189
 30
0.0
 10
11.0980247384
 20
-3.7283722213
 30
0.0
 10
11.1246281794
 20
-3.8733833532
 30
0.0
  0
SPLINE
  5
40A
100
AcDbEntity
  8
ASSI
100
AcDbSpline
 62
7
  6
CONTINUOUS
 70
0
 71
3
 72
9
 73
5
 74
0
 42
0.0000001
 43
0.0000001
 44
0.0000000001
 40
0.0
 40
0.0
 40
0.0
 40
0.0
 40
0.2594906421
 40
1.0
 40
1.0
 40
1.0
 40
1.0
 10
11.1246281794
 20
-3.8733833532
 30
0.0
 10
11.1299422437
 20
-3.9023494736
 30
0.0
 10
11.1481411817
 20
-4.0143681761
 30
0.0
 10
11.1570057271
 20
-4.1280139775
 30
0.0
 10
11.1570057271
 20
-4.2120542335
 30
0.0
  0
SPLINE
  5
40B
100
AcDbEntity
  8
ASSI
100
AcDbSpline
 62
7
  6
CONTINUOUS
 70
0
 71
3
 72
9
 73
5
 74
0
 42
0.0000001
 43
0.0000001
 44
0.0000000001
 40
0.0
 40
0.0
 40
0.0
 40
0.0
 40
0.2403060145
 40
1.0
 40
1.0
 40
1.0
 40
1.0
 10
-5.9549783776
 20
7.0561903955
 30
0.0
 10
-5.9313583153
 20
7.0425524675
 30
0.0
 10
-5.8345282927
 20
6.9832821003
 30
0.0
 10
-5.7435275651
 20
6.9146806811
 30
0.0
 10
-5.6778607902
 20
6.8588007626
 30
0.0
  0
SPLINE
  5
40C
100
AcDbEntity
  8
ASSI
100
AcDbSpline
 62
7
  6
CONTINUOUS
 70
0
 71
3
 72
11
 73
7
 74
0
 42
0.0000001
 43
0.0000001
 44
0.0000000001
 40
0.0
 40
0.0
 40
0.0
 40
0.0
 40
0.2436408454
 40
0.5000044213
 40
0.7563656951
 40
1.0
 40
1.0
 40
1.0
 40
1.0
 10
-5.6778607902
 20
6.8588007626
 30
0.0
 10
-5.5655774241
 20
6.7632519049
 30
0.0
 10
-5.3545318772
 20
6.5437700872
 30
0.0
 10
-5.0944710199
 20
6.1649427109
 30
0.0
 10
-4.8964288915
 20
5.750313331
 30
0.0
 10
-4.8118778383
 20
5.4578061286
 30
0.0
 10
-4.7852743973
 20
5.3127949967
 30
0.0
  0
SPLINE
  5
40D
100
AcDbEntity
  8
ASSI
100
AcDbSpline
 62
7
  6
CONTINUOUS
 70
0
 71
3
 72
9
 73
5
 74
0
 42
0.0000001
 43
0.0000001
 44
0.0000000001
 40
0.0
 40
0.0
 40
0.0
 40
0.0
 40
0.2594906421
 40
1.0
 40
1.0
 40
1.0
 40
1.0
 10
-4.7852743973
 20
5.3127949967
 30
0.0
 10
-4.779960333
 20
5.2838288763
 30
0.0
 10
-4.761761395
 20
5.1718101738
 30
0.0
 10
-4.7528968496
 20
5.0581643724
 30
0.0
 10
-4.7528968496
 20
4.9741241163
 30
0.0
  0
SPLINE
  5
40E
100
AcDbEntity
  8
ASSI
100
AcDbSpline
 62
7
  6
CONTINUOUS
 70
0
 71
3
 72
9
 73
5
 74
0
 42
0.0000001
 43
0.0000001
 44
0.0000000001
 40
0.0
 40
0.0
 40
0.0
 40
0.0
 40
0.2403060145
 40
1.0
 40
1.0
 40
1.0
 40
1.0
 10
-21.8648809543
 20
16.2423687454
 30
0.0
 10
-21.841260892
 20
16.2287308174
 30
0.0
 10
-21.7444308694
 20
16.1694604501
 30
0.0
 10
-21.6534301418
 20
16.100859031
 30
0.0
 10
-21.5877633668
 20
16.0449791125
 30
0.0
  0
SPLINE
  5
40F
100
AcDbEntity
  8
ASSI
100
AcDbSpline
 62
7
  6
CONTINUOUS
 70
0
 71
3
 72
11
 73
7
 74
0
 42
0.0000001
 43
0.0000001
 44
0.0000000001
 40
0.0
 40
0.0
 40
0.0
 40
0.0
 40
0.2436408454
 40
0.5000044213
 40
0.7563656951
 40
1.0
 40
1.0
 40
1.0
 40
1.0
 10
-21.5877633668
 20
16.0449791125
 30
0.0
 10
-21.4754800008
 20
15.9494302548
 30
0.0
 10
-21.2644344539
 20
15.729948437
 30
0.0
 10
-21.0043735966
 20
15.3511210608
 30
0.0
 10
-20.8063314682
 20
14.9364916809
 30
0.0
 10
-20.721780415
 20
14.6439844785
 30
0.0
 10
-20.695176974
 20
14.4989733466
 30
0.0
  0
SPLINE
  5
410
100
AcDbEntity
  8
ASSI
100
AcDbSpline
 62
7
  6
CONTINUOUS
 70
0
 71
3
 72
9
 73
5
 74
0
 42
0.0000001
 43
0.0000001
 44
0.0000000001
 40
0.0
 40
0.0
 40
0.0
 40
0.0
 40
0.2594906421
 40
1.0
 40
1.0
 40
1.0
 40
1.0
 10
-20.695176974
 20
14.4989733466
 30
0.0
 10
-20.6898629097
 20
14.4700072262
 30
0.0
 10
-20.6716639717
 20
14.3579885237
 30
0.0
 10
-20.6627994263
 20
14.2443427222
 30
0.0
 10
-20.6627994263
 20
14.1603024662
 30
0.0
  0
SPLINE
  5
411
100
AcDbEntity
  8
ASSI
100
AcDbSpline
 62
7
  6
CONTINUOUS
 70
0
 71
3
 72
15
 73
11
 74
0
 42
0.0000001
 43
0.0000001
 44
0.0000000001
 40
0.0
 40
0.0
 40
0.0
 40
0.0
 40
0.1141547262
 40
0.2373197603
 40
0.3669701463
 40
0.4999939469
 40
0.63301859
 40
0.7626714346
 40
0.8858403421
 40
1.0
 40
1.0
 40
1.0
 40
1.0
 10
16.3946727062
 20
-16.6254757582
 30
0.0
 10
16.3946727063
 20
-16.7312758815
 30
0.0
 10
16.4140491195
 20
-16.951432883
 30
0.0
 10
16.4913092832
 20
-17.2835656098
 30
0.0
 10
16.6150598767
 20
-17.6199935585
 30
0.0
 10
16.7806969281
 20
-17.948066169
 30
0.0
 10
16.9819989703
 20
-18.2555501913
 30
0.0
 10
17.2114823606
 20
-18.5309409657
 30
0.0
 10
17.4604932201
 20
-18.7639258192
 30
0.0
 10
17.6414707153
 20
-18.8907928354
 30
0.0
 10
17.7330987921
 20
-18.9436977389
 30
0.0
  0
SPLINE
  5
412
100
AcDbEntity
  8
ASSI
100
AcDbSpline
 62
7
  6
CONTINUOUS
 70
0
 71
3
 72
15
 73
11
 74
0
 42
0.0000001
 43
0.0000001
 44
0.0000000001
 40
0.0
 40
0.0
 40
0.0
 40
0.0
 40
0.1141547262
 40
0.2373197603
 40
0.3669701463
 40
0.4999939469
 40
0.63301859
 40
0.7626714346
 40
0.8858403421
 40
1.0
 40
1.0
 40
1.0
 40
1.0
 10
0.4847701295
 20
-7.4392974084
 30
0.0
 10
0.4847701296
 20
-7.5450975316
 30
0.0
 10
0.5041465428
 20
-7.7652545332
 30
0.0
 10
0.5814067065
 20
-8.0973872599
 30
0.0
 10
0.7051573
 20
-8.4338152086
 30
0.0
 10
0.8707943514
 20
-8.7618878191
 30
0.0
 10
1.0720963936
 20
-9.0693718415
 30
0.0
 10
1.3015797839
 20
-9.3447626158
 30
0.0
 10
1.5505906434
 20
-9.5777474694
 30
0.0
 10
1.7315681386
 20
-9.7046144855
 30
0.0
 10
1.8231962154
 20
-9.757519389
 30
0.0
  0
SPLINE
  5
413
100
AcDbEntity
  8
ASSI
100
AcDbSpline
 62
7
  6
CONTINUOUS
 70
0
 71
3
 72
15
 73
11
 74
0
 42
0.0000001
 43
0.0000001
 44
0.0000000001
 40
0.0
 40
0.0
 40
0.0
 40
0.0
 40
0.1141547262
 40
0.2373197603
 40
0.3669701463
 40
0.4999939469
 40
0.63301859
 40
0.7626714346
 40
0.8858403421
 40
1.0
 40
1.0
 40
1.0
 40
1.0
 10
-15.4251324472
 20
1.7468809415
 30
0.0
 10
-15.4251324471
 20
1.6410808182
 30
0.0
 10
-15.4057560339
 20
1.4209238167
 30
0.0
 10
-15.3284958702
 20
1.08879109
 30
0.0
 10
-15.2047452767
 20
0.7523631412
 30
0.0
 10
-15.0391082253
 20
0.4242905308
 30
0.0
 10
-14.8378061831
 20
0.1168065084
 30
0.0
 10
-14.6083227928
 20
-0.158584266
 30
0.0
 10
-14.3593119333
 20
-0.3915691195
 30
0.0
 10
-14.1783344381
 20
-0.5184361356
 30
0.0
 10
-14.0867063612
 20
-0.5713410392
 30
0.0
  0
SPLINE
  5
414
100
AcDbEntity
  8
ASSI
100
AcDbSpline
 62
7
  6
CONTINUOUS
 70
0
 71
3
 72
15
 73
11
 74
0
 42
0.0000001
 43
0.0000001
 44
0.0000000001
 40
0.0
 40
0.0
 40
0.0
 40
0.0
 40
0.1141547262
 40
0.2373197603
 40
0.3669701463
 40
0.4999939469
 40
0.63301859
 40
0.7626714346
 40
0.8858403421
 40
1.0
 40
1.0
 40
1.0
 40
1.0
 10
-31.3350350239
 20
10.9330592914
 30
0.0
 10
-31.3350350238
 20
10.8272591681
 30
0.0
 10
-31.3156586106
 20
10.6071021666
 30
0.0
 10
-31.2383984469
 20
10.2749694398
 30
0.0
 10
-31.1146478534
 20
9.9385414911
 30
0.0
 10
-30.949010802
 20
9.6104688806
 30
0.0
 10
-30.7477087598
 20
9.3029848583
 30
0.0
 10
-30.5182253695
 20
9.0275940839
 30
0.0
 10
-30.26921451
 20
8.7946092304
 30
0.0
 10
-30.0882370148
 20
8.6677422143
 30
0.0
 10
-29.9966089379
 20
8.6148373107
 30
0.0
  0
SPLINE
  5
415
100
AcDbEntity
  8
ASSI
100
AcDbSpline
 62
7
  6
CONTINUOUS
 70
0
 71
3
 72
9
 73
5
 74
0
 42
0.0000001
 43
0.0000001
 44
0.0000000001
 40
0.0
 40
0.0
 40
0.0
 40
0.0
 40
0.2715340105
 40
1.0
 40
1.0
 40
1.0
 40
1.0
 10
27.0669083038
 20
-23.9306596991
 30
0.0
 10
27.0669083037
 20
-23.961897075
 30
0.0
 10
27.0621706972
 20
-24.0767163528
 30
0.0
 10
27.0368679624
 20
-24.1919535953
 30
0.0
 10
27.0023189063
 20
-24.2683034891
 30
0.0
  0
SPLINE
  5
416
100
AcDbEntity
  8
ASSI
100
AcDbSpline
 62
7
  6
CONTINUOUS
 70
0
 71
3
 72
9
 73
5
 74
0
 42
0.0000001
 43
0.0000001
 44
0.0000000001
 40
0.0
 40
0.0
 40
0.0
 40
0.0
 40
0.5170807976
 40
1.0
 40
1.0
 40
1.0
 40
1.0
 10
27.0023189063
 20
-24.2683034891
 30
0.0
 10
26.9821463888
 20
-24.3128826974
 30
0.0
 10
26.9320253358
 20
-24.3949083144
 30
0.0
 10
26.8579843605
 20
-24.4570936934
 30
0.0
 10
26.8184091586
 20
-24.4799439325
 30
0.0
  0
SPLINE
  5
417
100
AcDbEntity
  8
ASSI
100
AcDbSpline
 62
7
  6
CONTINUOUS
 70
0
 71
3
 72
9
 73
5
 74
0
 42
0.0000001
 43
0.0000001
 44
0.0000000001
 40
0.0
 40
0.0
 40
0.0
 40
0.0
 40
0.2715340105
 40
1.0
 40
1.0
 40
1.0
 40
1.0
 10
11.1570057271
 20
-14.7444813492
 30
0.0
 10
11.157005727
 20
-14.7757187251
 30
0.0
 10
11.1522681205
 20
-14.890538003
 30
0.0
 10
11.1269653857
 20
-15.0057752454
 30
0.0
 10
11.0924163296
 20
-15.0821251392
 30
0.0
  0
SPLINE
  5
418
100
AcDbEntity
  8
ASSI
100
AcDbSpline
 62
7
  6
CONTINUOUS
 70
0
 71
3
 72
9
 73
5
 74
0
 42
0.0000001
 43
0.0000001
 44
0.0000000001
 40
0.0
 40
0.0
 40
0.0
 40
0.0
 40
0.5170807976
 40
1.0
 40
1.0
 40
1.0
 40
1.0
 10
11.0924163296
 20
-15.0821251392
 30
0.0
 10
11.0722438121
 20
-15.1267043475
 30
0.0
 10
11.0221227591
 20
-15.2087299646
 30
0.0
 10
10.9480817838
 20
-15.2709153435
 30
0.0
 10
10.9085065819
 20
-15.2937655826
 30
0.0
  0
SPLINE
  5
419
100
AcDbEntity
  8
ASSI
100
AcDbSpline
 62
7
  6
CONTINUOUS
 70
0
 71
3
 72
9
 73
5
 74
0
 42
0.0000001
 43
0.0000001
 44
0.0000000001
 40
0.0
 40
0.0
 40
0.0
 40
0.0
 40
0.2715340105
 40
1.0
 40
1.0
 40
1.0
 40
1.0
 10
-20.6627994263
 20
3.6278753505
 30
0.0
 10
-20.6627994263
 20
3.5966379747
 30
0.0
 10
-20.6675370329
 20
3.4818186968
 30
0.0
 10
-20.6928397677
 20
3.3665814544
 30
0.0
 10
-20.7273888238
 20
3.2902315605
 30
0.0
  0
SPLINE
  5
41A
100
AcDbEntity
  8
ASSI
100
AcDbSpline
 62
7
  6
CONTINUOUS
 70
0
 71
3
 72
9
 73
5
 74
0
 42
0.0000001
 43
0.0000001
 44
0.0000000001
 40
0.0
 40
0.0
 40
0.0
 40
0.0
 40
0.5170807976
 40
1.0
 40
1.0
 40
1.0
 40
1.0
 10
-20.7273888238
 20
3.2902315605
 30
0.0
 10
-20.7475613412
 20
3.2456523522
 30
0.0
 10
-20.7976823943
 20
3.1636267352
 30
0.0
 10
-20.8717233696
 20
3.1014413563
 30
0.0
 10
-20.9112985715
 20
3.0785911172
 30
0.0
  0
SPLINE
  5
41B
100
AcDbEntity
  8
ASSI
100
AcDbSpline
 62
7
  6
CONTINUOUS
 70
0
 71
3
 72
9
 73
5
 74
0
 42
0.0000001
 43
0.0000001
 44
0.0000000001
 40
0.0
 40
0.0
 40
0.0
 40
0.0
 40
0.2715340105
 40
1.0
 40
1.0
 40
1.0
 40
1.0
 10
-4.7528968496
 20
-5.5583029994
 30
0.0
 10
-4.7528968497
 20
-5.5895403752
 30
0.0
 10
-4.7576344562
 20
-5.7043596531
 30
0.0
 10
-4.782937191
 20
-5.8195968955
 30
0.0
 10
-4.8174862471
 20
-5.8959467894
 30
0.0
  0
SPLINE
  5
41C
100
AcDbEntity
  8
ASSI
100
AcDbSpline
 62
7
  6
CONTINUOUS
 70
0
 71
3
 72
9
 73
5
 74
0
 42
0.0000001
 43
0.0000001
 44
0.0000000001
 40
0.0
 40
0.0
 40
0.0
 40
0.0
 40
0.5170807976
 40
1.0
 40
1.0
 40
1.0
 40
1.0
 10
-4.8174862471
 20
-5.8959467894
 30
0.0
 10
-4.8376587645
 20
-5.9405259977
 30
0.0
 10
-4.8877798176
 20
-6.0225516147
 30
0.0
 10
-4.9618207929
 20
-6.0847369936
 30
0.0
 10
-5.0013959948
 20
-6.1075872327
 30
0.0
  0
SPLINE
  5
41D
100
AcDbEntity
  8
ASSI
100
AcDbSpline
 62
7
  6
CONTINUOUS
 70
0
 71
3
 72
9
 73
5
 74
0
 42
0.0000001
 43
0.0000001
 44
0.0000000001
 40
0.0
 40
0.0
 40
0.0
 40
0.0
 40
0.2314181732
 40
1.0
 40
1.0
 40
1.0
 40
1.0
 10
-31.6378170267
 20
21.4183017653
 30
0.0
 10
-31.6472578453
 20
21.3952109474
 30
0.0
 10
-31.6819808544
 20
21.2929426198
 30
0.0
 10
-31.6936652123
 20
21.1838215538
 30
0.0
 10
-31.6936652128
 20
21.1009705528
 30
0.0
  0
SPLINE
  5
41E
100
AcDbEntity
  8
ASSI
100
AcDbSpline
 62
7
  6
CONTINUOUS
 70
0
 71
3
 72
9
 73
5
 74
0
 42
0.0000001
 43
0.0000001
 44
0.0000000001
 40
0.0
 40
0.0
 40
0.0
 40
0.0
 40
0.2314181732
 40
1.0
 40
1.0
 40
1.0
 40
1.0
 10
-15.72791445
 20
12.2321234154
 30
0.0
 10
-15.7373552686
 20
12.2090325975
 30
0.0
 10
-15.7720782777
 20
12.1067642699
 30
0.0
 10
-15.7837626356
 20
11.9976432039
 30
0.0
 10
-15.7837626361
 20
11.9147922029
 30
0.0
  0
SPLINE
  5
41F
100
AcDbEntity
  8
ASSI
100
AcDbSpline
 62
7
  6
CONTINUOUS
 70
0
 71
3
 72
9
 73
5
 74
0
 42
0.0000001
 43
0.0000001
 44
0.0000000001
 40
0.0
 40
0.0
 40
0.0
 40
0.0
 40
0.2314181732
 40
1.0
 40
1.0
 40
1.0
 40
1.0
 10
0.1819881267
 20
3.0459450655
 30
0.0
 10
0.172547308
 20
3.0228542476
 30
0.0
 10
0.137824299
 20
2.92058592
 30
0.0
 10
0.1261399411
 20
2.811464854
 30
0.0
 10
0.1261399406
 20
2.728613853
 30
0.0
  0
SPLINE
  5
420
100
AcDbEntity
  8
ASSI
100
AcDbSpline
 62
7
  6
CONTINUOUS
 70
0
 71
3
 72
15
 73
11
 74
0
 42
0.0000001
 43
0.0000001
 44
0.0000000001
 40
0.0
 40
0.0
 40
0.0
 40
0.0
 40
0.1449018481
 40
0.2745170406
 40
0.3911053286
 40
0.4999889043
 40
0.6088744936
 40
0.7254681391
 40
0.8550905429
 40
1.0
 40
1.0
 40
1.0
 40
1.0
 10
15.1875143799
 20
-6.5392194155
 30
0.0
 10
15.1875143801
 20
-6.4530558949
 30
0.0
 10
15.2005348372
 20
-6.2892473613
 30
0.0
 10
15.2669096321
 20
-6.0642413107
 30
0.0
 10
15.3786806106
 20
-5.8815318375
 30
0.0
 10
15.5338300794
 20
-5.7510524972
 30
0.0
 10
15.7244138969
 20
-5.6819496125
 30
0.0
 10
15.9385390648
 20
-5.6765266366
 30
0.0
 10
16.166595491
 20
-5.7315634981
 30
0.0
 10
16.3149733938
 20
-5.8022006492
 30
0.0
 10
16.3895959079
 20
-5.8452867536
 30
0.0
  0
SPLINE
  5
421
100
AcDbEntity
  8
ASSI
100
AcDbSpline
 62
7
  6
CONTINUOUS
 70
0
 71
3
 72
13
 73
9
 74
0
 42
0.0000001
 43
0.0000001
 44
0.0000000001
 40
0.0
 40
0.0
 40
0.0
 40
0.0
 40
0.1142615865
 40
0.2375404667
 40
0.5000060664
 40
0.7624683449
 40
0.8857433485
 40
1.0
 40
1.0
 40
1.0
 40
1.0
 10
16.3895959079
 20
-19.5619874037
 30
0.0
 10
16.3073019214
 20
-19.5144718871
 30
0.0
 10
16.1447401695
 20
-19.4005310119
 30
0.0
 10
15.8404353788
 20
-19.1156693666
 30
0.0
 10
15.5189562314
 20
-18.6765920564
 30
0.0
 10
15.299444079
 20
-18.1786472552
 30
0.0
 10
15.2049047951
 20
-17.7726896665
 30
0.0
 10
15.1875143799
 20
-17.5749434615
 30
0.0
 10
15.1875143799
 20
-17.4799211245
 30
0.0
  0
SPLINE
  5
422
100
AcDbEntity
  8
ASSI
100
AcDbSpline
 62
7
  6
CONTINUOUS
 70
0
 71
3
 72
15
 73
11
 74
0
 42
0.0000001
 43
0.0000001
 44
0.0000000001
 40
0.0
 40
0.0
 40
0.0
 40
0.0
 40
0.1449018481
 40
0.2745170406
 40
0.3911053286
 40
0.4999889043
 40
0.6088744936
 40
0.7254681391
 40
0.8550905429
 40
1.0
 40
1.0
 40
1.0
 40
1.0
 10
27.0669083038
 20
-24.3389342924
 30
0.0
 10
27.0669083036
 20
-24.425097813
 30
0.0
 10
27.0538878465
 20
-24.5889063466
 30
0.0
 10
26.9875130515
 20
-24.8139123972
 30
0.0
 10
26.875742073
 20
-24.9966218704
 30
0.0
 10
26.7205926043
 20
-25.1271012108
 30
0.0
 10
26.5300087868
 20
-25.1962040954
 30
0.0
 10
26.3158836189
 20
-25.2016270714
 30
0.0
 10
26.0878271927
 20
-25.1465902099
 30
0.0
 10
25.9394492899
 20
-25.0759530587
 30
0.0
 10
25.8648267758
 20
-25.0328669543
 30
0.0
  0
SPLINE
  5
423
100
AcDbEntity
  8
ASSI
100
AcDbSpline
 62
7
  6
CONTINUOUS
 70
0
 71
3
 72
9
 73
5
 74
0
 42
0.0000001
 43
0.0000001
 44
0.0000000001
 40
0.0
 40
0.0
 40
0.0
 40
0.0
 40
0.2314181732
 40
1.0
 40
1.0
 40
1.0
 40
1.0
 10
16.0918907034
 20
-6.1402332844
 30
0.0
 10
16.0824498847
 20
-6.1633241023
 30
0.0
 10
16.0477268756
 20
-6.2655924298
 30
0.0
 10
16.0360425177
 20
-6.3747134958
 30
0.0
 10
16.0360425173
 20
-6.4575644968
 30
0.0
  0
SPLINE
  5
424
100
AcDbEntity
  8
ASSI
100
AcDbSpline
 62
7
  6
CONTINUOUS
 70
0
 71
3
 72
15
 73
11
 74
0
 42
0.0000001
 43
0.0000001
 44
0.0000000001
 40
0.0
 40
0.0
 40
0.0
 40
0.0
 40
0.1449018481
 40
0.2745170406
 40
0.3911053286
 40
0.4999889043
 40
0.6088744936
 40
0.7254681391
 40
0.8550905429
 40
1.0
 40
1.0
 40
1.0
 40
1.0
 10
-0.7223881968
 20
2.6469589344
 30
0.0
 10
-0.7223881966
 20
2.733122455
 30
0.0
 10
-0.7093677395
 20
2.8969309885
 30
0.0
 10
-0.6429929446
 20
3.1219370392
 30
0.0
 10
-0.5312219661
 20
3.3046465124
 30
0.0
 10
-0.3760724973
 20
3.4351258527
 30
0.0
 10
-0.1854886798
 20
3.5042287373
 30
0.0
 10
0.0286364881
 20
3.5096517133
 30
0.0
 10
0.2566929143
 20
3.4546148518
 30
0.0
 10
0.4050708171
 20
3.3839777006
 30
0.0
 10
0.4796933312
 20
3.3408915963
 30
0.0
  0
SPLINE
  5
425
100
AcDbEntity
  8
ASSI
100
AcDbSpline
 62
7
  6
CONTINUOUS
 70
0
 71
3
 72
13
 73
9
 74
0
 42
0.0000001
 43
0.0000001
 44
0.0000000001
 40
0.0
 40
0.0
 40
0.0
 40
0.0
 40
0.1142615865
 40
0.2375404667
 40
0.5000060664
 40
0.7624683449
 40
0.8857433485
 40
1.0
 40
1.0
 40
1.0
 40
1.0
 10
0.4796933312
 20
-10.3758090539
 30
0.0
 10
0.3973993447
 20
-10.3282935372
 30
0.0
 10
0.2348375928
 20
-10.214352662
 30
0.0
 10
-0.0694671979
 20
-9.9294910167
 30
0.0
 10
-0.3909463453
 20
-9.4904137065
 30
0.0
 10
-0.6104584976
 20
-8.9924689053
 30
0.0
 10
-0.7049977816
 20
-8.5865113167
 30
0.0
 10
-0.7223881968
 20
-8.3887651116
 30
0.0
 10
-0.7223881968
 20
-8.2937427746
 30
0.0
  0
SPLINE
  5
426
100
AcDbEntity
  8
ASSI
100
AcDbSpline
 62
7
  6
CONTINUOUS
 70
0
 71
3
 72
15
 73
11
 74
0
 42
0.0000001
 43
0.0000001
 44
0.0000000001
 40
0.0
 40
0.0
 40
0.0
 40
0.0
 40
0.1449018481
 40
0.2745170406
 40
0.3911053286
 40
0.4999889043
 40
0.6088744936
 40
0.7254681391
 40
0.8550905429
 40
1.0
 40
1.0
 40
1.0
 40
1.0
 10
11.1570057271
 20
-15.1527559426
 30
0.0
 10
11.1570057269
 20
-15.2389194631
 30
0.0
 10
11.1439852698
 20
-15.4027279967
 30
0.0
 10
11.0776104748
 20
-15.6277340474
 30
0.0
 10
10.9658394963
 20
-15.8104435206
 30
0.0
 10
10.8106900276
 20
-15.9409228609
 30
0.0
 10
10.6201062101
 20
-16.0100257455
 30
0.0
 10
10.4059810422
 20
-16.0154487215
 30
0.0
 10
10.177924616
 20
-15.96041186
 30
0.0
 10
10.0295467132
 20
-15.8897747088
 30
0.0
 10
9.9549241991
 20
-15.8466886044
 30
0.0
  0
SPLINE
  5
427
100
AcDbEntity
  8
ASSI
100
AcDbSpline
 62
7
  6
CONTINUOUS
 70
0
 71
3
 72
15
 73
11
 74
0
 42
0.0000001
 43
0.0000001
 44
0.0000000001
 40
0.0
 40
0.0
 40
0.0
 40
0.0
 40
0.1449018481
 40
0.2745170406
 40
0.3911053286
 40
0.4999889043
 40
0.6088744936
 40
0.7254681391
 40
0.8550905429
 40
1.0
 40
1.0
 40
1.0
 40
1.0
 10
-16.6322907735
 20
11.8331372842
 30
0.0
 10
-16.6322907733
 20
11.9193008048
 30
0.0
 10
-16.6192703162
 20
12.0831093384
 30
0.0
 10
-16.5528955212
 20
12.3081153891
 30
0.0
 10
-16.4411245428
 20
12.4908248623
 30
0.0
 10
-16.285975074
 20
12.6213042026
 30
0.0
 10
-16.0953912565
 20
12.6904070872
 30
0.0
 10
-15.8812660886
 20
12.6958300632
 30
0.0
 10
-15.6532096624
 20
12.6407932017
 30
0.0
 10
-15.5048317596
 20
12.5701560505
 30
0.0
 10
-15.4302092455
 20
12.5270699461
 30
0.0
  0
SPLINE
  5
428
100
AcDbEntity
  8
ASSI
100
AcDbSpline
 62
7
  6
CONTINUOUS
 70
0
 71
3
 72
13
 73
9
 74
0
 42
0.0000001
 43
0.0000001
 44
0.0000000001
 40
0.0
 40
0.0
 40
0.0
 40
0.0
 40
0.1142615865
 40
0.2375404667
 40
0.5000060664
 40
0.7624683449
 40
0.8857433485
 40
1.0
 40
1.0
 40
1.0
 40
1.0
 10
-15.4302092455
 20
-1.189630704
 30
0.0
 10
-15.512503232
 20
-1.1421151873
 30
0.0
 10
-15.6750649839
 20
-1.0281743122
 30
0.0
 10
-15.9793697746
 20
-0.7433126668
 30
0.0
 10
-16.300848922
 20
-0.3042353567
 30
0.0
 10
-16.5203610743
 20
0.1937094445
 30
0.0
 10
-16.6149003583
 20
0.5996670332
 30
0.0
 10
-16.6322907735
 20
0.7974132382
 30
0.0
 10
-16.6322907735
 20
0.8924355752
 30
0.0
  0
SPLINE
  5
429
100
AcDbEntity
  8
ASSI
100
AcDbSpline
 62
7
  6
CONTINUOUS
 70
0
 71
3
 72
15
 73
11
 74
0
 42
0.0000001
 43
0.0000001
 44
0.0000000001
 40
0.0
 40
0.0
 40
0.0
 40
0.0
 40
0.1449018481
 40
0.2745170406
 40
0.3911053286
 40
0.4999889043
 40
0.6088744936
 40
0.7254681391
 40
0.8550905429
 40
1.0
 40
1.0
 40
1.0
 40
1.0
 10
-4.7528968496
 20
-5.9665775927
 30
0.0
 10
-4.7528968498
 20
-6.0527411133
 30
0.0
 10
-4.7659173069
 20
-6.2165496468
 30
0.0
 10
-4.8322921019
 20
-6.4415556975
 30
0.0
 10
-4.9440630804
 20
-6.6242651707
 30
0.0
 10
-5.0992125491
 20
-6.754744511
 30
0.0
 10
-5.2897963666
 20
-6.8238473956
 30
0.0
 10
-5.5039215345
 20
-6.8292703716
 30
0.0
 10
-5.7319779607
 20
-6.7742335101
 30
0.0
 10
-5.8803558635
 20
-6.703596359
 30
0.0
 10
-5.9549783776
 20
-6.6605102546
 30
0.0
  0
SPLINE
  5
42A
100
AcDbEntity
  8
ASSI
100
AcDbSpline
 62
7
  6
CONTINUOUS
 70
0
 71
3
 72
11
 73
7
 74
0
 42
0.0000001
 43
0.0000001
 44
0.0000000001
 40
0.0
 40
0.0
 40
0.0
 40
0.0
 40
0.2191404659
 40
0.4557642665
 40
0.7154223701
 40
1.0
 40
1.0
 40
1.0
 40
1.0
 10
-20.99476915
 20
3.0422608205
 30
0.0
 10
-21.0324091155
 20
3.0306403817
 30
0.0
 10
-21.1144227587
 20
3.0176173283
 30
0.0
 10
-21.2435370367
 20
3.0288697719
 30
0.0
 10
-21.3788198078
 20
3.0691417215
 30
0.0
 10
-21.4670259127
 20
3.1124613123
 30
0.0
 10
-21.5113275637
 20
3.1380405304
 30
0.0
  0
SPLINE
  5
42B
100
AcDbEntity
  8
ASSI
100
AcDbSpline
 62
7
  6
CONTINUOUS
 70
0
 71
3
 72
15
 73
11
 74
0
 42
0.0000001
 43
0.0000001
 44
0.0000000001
 40
0.0
 40
0.0
 40
0.0
 40
0.0
 40
0.1449018481
 40
0.2745170406
 40
0.3911053286
 40
0.4999889043
 40
0.6088744936
 40
0.7254681391
 40
0.8550905429
 40
1.0
 40
1.0
 40
1.0
 40
1.0
 10
-32.5421933502
 20
21.0193156341
 30
0.0
 10
-32.54219335
 20
21.1054791547
 30
0.0
 10
-32.5291728929
 20
21.2692876883
 30
0.0
 10
-32.4627980979
 20
21.4942937389
 30
0.0
 10
-32.3510271194
 20
21.6770032121
 30
0.0
 10
-32.1958776507
 20
21.8074825525
 30
0.0
 10
-32.0052938332
 20
21.8765854371
 30
0.0
 10
-31.7911686653
 20
21.8820084131
 30
0.0
 10
-31.5631122391
 20
21.8269715516
 30
0.0
 10
-31.4147343363
 20
21.7563344004
 30
0.0
 10
-31.3401118222
 20
21.713248296
 30
0.0
  0
SPLINE
  5
42C
100
AcDbEntity
  8
ASSI
100
AcDbSpline
 62
7
  6
CONTINUOUS
 70
0
 71
3
 72
13
 73
9
 74
0
 42
0.0000001
 43
0.0000001
 44
0.0000000001
 40
0.0
 40
0.0
 40
0.0
 40
0.0
 40
0.1142615865
 40
0.2375404667
 40
0.5000060664
 40
0.7624683449
 40
0.8857433485
 40
1.0
 40
1.0
 40
1.0
 40
1.0
 10
-31.3401118222
 20
7.9965476459
 30
0.0
 10
-31.4224058087
 20
8.0440631626
 30
0.0
 10
-31.5849675606
 20
8.1580040377
 30
0.0
 10
-31.8892723513
 20
8.4428656831
 30
0.0
 10
-32.2107514987
 20
8.8819429932
 30
0.0
 10
-32.430263651
 20
9.3798877944
 30
0.0
 10
-32.524802935
 20
9.7858453831
 30
0.0
 10
-32.5421933502
 20
9.9835915881
 30
0.0
 10
-32.5421933502
 20
10.0786139251
 30
0.0
  0
SPLINE
  5
42D
100
AcDbEntity
  8
ASSI
100
AcDbSpline
 62
7
  6
CONTINUOUS
 70
0
 71
3
 72
15
 73
11
 74
0
 42
0.0000001
 43
0.0000001
 44
0.0000000001
 40
0.0
 40
0.0
 40
0.0
 40
0.0
 40
0.1449018481
 40
0.2745170406
 40
0.3911053286
 40
0.4999889043
 40
0.6088744936
 40
0.7254681391
 40
0.8550905429
 40
1.0
 40
1.0
 40
1.0
 40
1.0
 10
-20.6627994263
 20
3.2196007572
 30
0.0
 10
-20.6627994265
 20
3.1334372366
 30
0.0
 10
-20.6758198836
 20
2.969628703
 30
0.0
 10
-20.7421946786
 20
2.7446226524
 30
0.0
 10
-20.8539656571
 20
2.5619131792
 30
0.0
 10
-21.0091151258
 20
2.4314338389
 30
0.0
 10
-21.1996989433
 20
2.3623309542
 30
0.0
 10
-21.4138241112
 20
2.3569079783
 30
0.0
 10
-21.6418805374
 20
2.4119448398
 30
0.0
 10
-21.7902584402
 20
2.4825819909
 30
0.0
 10
-21.8648809543
 20
2.5256680953
 30
0.0
  0
SPLINE
  5
42E
100
AcDbEntity
  8
ASSI
100
AcDbSpline
 62
7
  6
CONTINUOUS
 70
0
 71
3
 72
11
 73
7
 74
0
 42
0.0000001
 43
0.0000001
 44
0.0000000001
 40
0.0
 40
0.0
 40
0.0
 40
0.0
 40
0.2191404659
 40
0.4557642665
 40
0.7154223701
 40
1.0
 40
1.0
 40
1.0
 40
1.0
 10
-5.0848665733
 20
-6.1439175294
 30
0.0
 10
-5.1225065388
 20
-6.1555379682
 30
0.0
 10
-5.204520182
 20
-6.1685610216
 30
0.0
 10
-5.33363446
 20
-6.1573085779
 30
0.0
 10
-5.4689172311
 20
-6.1170366284
 30
0.0
 10
-5.557123336
 20
-6.0737170376
 30
0.0
 10
-5.601424987
 20
-6.0481378195
 30
0.0
  0
SPLINE
  5
42F
100
AcDbEntity
  8
ASSI
100
AcDbSpline
 62
7
  6
CONTINUOUS
 70
0
 71
3
 72
11
 73
7
 74
0
 42
0.0000001
 43
0.0000001
 44
0.0000000001
 40
0.0
 40
0.0
 40
0.0
 40
0.0
 40
0.2191404659
 40
0.4557642665
 40
0.7154223701
 40
1.0
 40
1.0
 40
1.0
 40
1.0
 10
10.8250360034
 20
-15.3300958792
 30
0.0
 10
10.7873960379
 20
-15.341716318
 30
0.0
 10
10.7053823947
 20
-15.3547393715
 30
0.0
 10
10.5762681167
 20
-15.3434869278
 30
0.0
 10
10.4409853456
 20
-15.3032149783
 30
0.0
 10
10.3527792407
 20
-15.2598953874
 30
0.0
 10
10.3084775897
 20
-15.2343161694
 30
0.0
  0
SPLINE
  5
430
100
AcDbEntity
  8
ASSI
100
AcDbSpline
 62
7
  6
CONTINUOUS
 70
0
 71
3
 72
11
 73
7
 74
0
 42
0.0000001
 43
0.0000001
 44
0.0000000001
 40
0.0
 40
0.0
 40
0.0
 40
0.0
 40
0.2845769506
 40
0.5442334504
 40
0.7808566869
 40
1.0
 40
1.0
 40
1.0
 40
1.0
 10
15.8946211611
 20
-6.5392194155
 30
0.0
 10
15.894621161
 20
-6.4880661316
 30
0.0
 10
15.9012113358
 20
-6.3900230569
 30
0.0
 10
15.9339816747
 20
-6.2527376811
 30
0.0
 10
15.9888001961
 20
-6.1353049065
 30
0.0
 10
16.0410894911
 20
-6.0707985231
 30
0.0
 10
16.0699748268
 20
-6.0440156162
 30
0.0
  0
SPLINE
  5
431
100
AcDbEntity
  8
ASSI
100
AcDbSpline
 62
7
  6
CONTINUOUS
 70
0
 71
3
 72
9
 73
5
 74
0
 42
0.0000001
 43
0.0000001
 44
0.0000000001
 40
0.0
 40
0.0
 40
0.0
 40
0.0
 40
0.2698109577
 40
1.0
 40
1.0
 40
1.0
 40
1.0
 10
26.3598015226
 20
-24.3388396006
 30
0.0
 10
26.3849874716
 20
-24.3533816518
 30
0.0
 10
26.480263853
 20
-24.4036068519
 30
0.0
 10
26.5846448372
 20
-24.4385434061
 30
0.0
 10
26.6626306653
 20
-24.4491697114
 30
0.0
  0
SPLINE
  5
432
100
AcDbEntity
  8
ASSI
100
AcDbSpline
 62
7
  6
CONTINUOUS
 70
0
 71
3
 72
11
 73
7
 74
0
 42
0.0000001
 43
0.0000001
 44
0.0000000001
 40
0.0
 40
0.0
 40
0.0
 40
0.0
 40
0.2191404659
 40
0.4557642665
 40
0.7154223701
 40
1.0
 40
1.0
 40
1.0
 40
1.0
 10
26.7349385801
 20
-24.5162742291
 30
0.0
 10
26.6972986146
 20
-24.5278946679
 30
0.0
 10
26.6152849714
 20
-24.5409177213
 30
0.0
 10
26.4861706934
 20
-24.5296652777
 30
0.0
 10
26.3508879223
 20
-24.4893933281
 30
0.0
 10
26.2626818174
 20
-24.4460737373
 30
0.0
 10
26.2183801664
 20
-24.4204945193
 30
0.0
  0
SPLINE
  5
433
100
AcDbEntity
  8
ASSI
100
AcDbSpline
 62
7
  6
CONTINUOUS
 70
0
 71
3
 72
11
 73
7
 74
0
 42
0.0000001
 43
0.0000001
 44
0.0000000001
 40
0.0
 40
0.0
 40
0.0
 40
0.0
 40
0.2372134857
 40
0.4999938933
 40
0.7627776251
 40
1.0
 40
1.0
 40
1.0
 40
1.0
 10
16.0360425173
 20
-17.3982662059
 30
0.0
 10
16.0360425176
 20
-17.5373537685
 30
0.0
 10
16.0882127799
 20
-17.8307088868
 30
0.0
 10
16.2700632606
 20
-18.2429393607
 30
0.0
 10
16.5361437471
 20
-18.606545543
 30
0.0
 10
16.7641147189
 20
-18.7984103015
 30
0.0
 10
16.8845706547
 20
-18.86796005
 30
0.0
  0
SPLINE
  5
434
100
AcDbEntity
  8
ASSI
100
AcDbSpline
 62
7
  6
CONTINUOUS
 70
0
 71
3
 72
11
 73
7
 74
0
 42
0.0000001
 43
0.0000001
 44
0.0000000001
 40
0.0
 40
0.0
 40
0.0
 40
0.0
 40
0.2372223749
 40
0.5000061065
 40
0.762786514
 40
1.0
 40
1.0
 40
1.0
 40
1.0
 10
16.7431492985
 20
-18.9496149687
 30
0.0
 10
16.6226933622
 20
-18.880065221
 30
0.0
 10
16.3947223913
 20
-18.6882004613
 30
0.0
 10
16.1286419044
 20
-18.3245942798
 30
0.0
 10
15.9467914239
 20
-17.9123638057
 30
0.0
 10
15.894621161
 20
-17.6190086874
 30
0.0
 10
15.8946211611
 20
-17.4799211245
 30
0.0
  0
SPLINE
  5
435
100
AcDbEntity
  8
ASSI
100
AcDbSpline
 62
7
  6
CONTINUOUS
 70
0
 71
3
 72
11
 73
7
 74
0
 42
0.0000001
 43
0.0000001
 44
0.0000000001
 40
0.0
 40
0.0
 40
0.0
 40
0.0
 40
0.2845769506
 40
0.5442334504
 40
0.7808566869
 40
1.0
 40
1.0
 40
1.0
 40
1.0
 10
-0.0152814156
 20
2.6469589344
 30
0.0
 10
-0.0152814157
 20
2.6981122183
 30
0.0
 10
-0.0086912409
 20
2.7961552929
 30
0.0
 10
0.024079098
 20
2.9334406688
 30
0.0
 10
0.0788976194
 20
3.0508734434
 30
0.0
 10
0.1311869144
 20
3.1153798267
 30
0.0
 10
0.1600722501
 20
3.1421627337
 30
0.0
  0
SPLINE
  5
436
100
AcDbEntity
  8
ASSI
100
AcDbSpline
 62
7
  6
CONTINUOUS
 70
0
 71
3
 72
9
 73
5
 74
0
 42
0.0000001
 43
0.0000001
 44
0.0000000001
 40
0.0
 40
0.0
 40
0.0
 40
0.0
 40
0.2698109577
 40
1.0
 40
1.0
 40
1.0
 40
1.0
 10
10.4498989459
 20
-15.1526612507
 30
0.0
 10
10.475084895
 20
-15.167203302
 30
0.0
 10
10.5703612763
 20
-15.217428502
 30
0.0
 10
10.6747422605
 20
-15.2523650562
 30
0.0
 10
10.7527280886
 20
-15.2629913615
 30
0.0
  0
SPLINE
  5
437
100
AcDbEntity
  8
ASSI
100
AcDbSpline
 62
7
  6
CONTINUOUS
 70
0
 71
3
 72
11
 73
7
 74
0
 42
0.0000001
 43
0.0000001
 44
0.0000000001
 40
0.0
 40
0.0
 40
0.0
 40
0.0
 40
0.2372134857
 40
0.4999938933
 40
0.7627776251
 40
1.0
 40
1.0
 40
1.0
 40
1.0
 10
0.1261399406
 20
-8.212087856
 30
0.0
 10
0.1261399409
 20
-8.3511754187
 30
0.0
 10
0.1783102032
 20
-8.6445305369
 30
0.0
 10
0.3601606839
 20
-9.0567610109
 30
0.0
 10
0.6262411704
 20
-9.4203671931
 30
0.0
 10
0.8542121422
 20
-9.6122319516
 30
0.0
 10
0.974668078
 20
-9.6817817001
 30
0.0
  0
SPLINE
  5
438
100
AcDbEntity
  8
ASSI
100
AcDbSpline
 62
7
  6
CONTINUOUS
 70
0
 71
3
 72
11
 73
7
 74
0
 42
0.0000001
 43
0.0000001
 44
0.0000000001
 40
0.0
 40
0.0
 40
0.0
 40
0.0
 40
0.2372223749
 40
0.5000061065
 40
0.762786514
 40
1.0
 40
1.0
 40
1.0
 40
1.0
 10
0.8332467218
 20
-9.7634366188
 30
0.0
 10
0.7127907855
 20
-9.6938868712
 30
0.0
 10
0.4848198146
 20
-9.5020221114
 30
0.0
 10
0.2187393277
 20
-9.1384159299
 30
0.0
 10
0.0368888472
 20
-8.7261854558
 30
0.0
 10
-0.0152814157
 20
-8.4328303375
 30
0.0
 10
-0.0152814156
 20
-8.2937427746
 30
0.0
  0
SPLINE
  5
439
100
AcDbEntity
  8
ASSI
100
AcDbSpline
 62
7
  6
CONTINUOUS
 70
0
 71
3
 72
11
 73
7
 74
0
 42
0.0000001
 43
0.0000001
 44
0.0000000001
 40
0.0
 40
0.0
 40
0.0
 40
0.0
 40
0.2372223749
 40
0.5000061065
 40
0.762786514
 40
1.0
 40
1.0
 40
1.0
 40
1.0
 10
-30.9865584316
 20
8.608920081
 30
0.0
 10
-31.1070143679
 20
8.6784698286
 30
0.0
 10
-31.3349853388
 20
8.8703345883
 30
0.0
 10
-31.6010658257
 20
9.2339407698
 30
0.0
 10
-31.7829163062
 20
9.6461712439
 30
0.0
 10
-31.8350865691
 20
9.9395263623
 30
0.0
 10
-31.835086569
 20
10.0786139251
 30
0.0
  0
SPLINE
  5
43A
100
AcDbEntity
  8
ASSI
100
AcDbSpline
 62
7
  6
CONTINUOUS
 70
0
 71
3
 72
11
 73
7
 74
0
 42
0.0000001
 43
0.0000001
 44
0.0000000001
 40
0.0
 40
0.0
 40
0.0
 40
0.0
 40
0.2372134857
 40
0.4999938933
 40
0.7627776251
 40
1.0
 40
1.0
 40
1.0
 40
1.0
 10
-31.6936652128
 20
10.1602688438
 30
0.0
 10
-31.6936652125
 20
10.0211812811
 30
0.0
 10
-31.6414949502
 20
9.7278261628
 30
0.0
 10
-31.4596444695
 20
9.3155956889
 30
0.0
 10
-31.193563983
 20
8.9519895066
 30
0.0
 10
-30.9655930112
 20
8.7601247482
 30
0.0
 10
-30.8451370754
 20
8.6905749996
 30
0.0
  0
SPLINE
  5
43B
100
AcDbEntity
  8
ASSI
100
AcDbSpline
 62
7
  6
CONTINUOUS
 70
0
 71
3
 72
9
 73
5
 74
0
 42
0.0000001
 43
0.0000001
 44
0.0000000001
 40
0.0
 40
0.0
 40
0.0
 40
0.0
 40
0.2698109577
 40
1.0
 40
1.0
 40
1.0
 40
1.0
 10
-21.3699062075
 20
3.219695449
 30
0.0
 10
-21.3447202584
 20
3.2051533978
 30
0.0
 10
-21.2494438771
 20
3.1549281977
 30
0.0
 10
-21.1450628929
 20
3.1199916435
 30
0.0
 10
-21.0670770648
 20
3.1093653383
 30
0.0
  0
SPLINE
  5
43C
100
AcDbEntity
  8
ASSI
100
AcDbSpline
 62
7
  6
CONTINUOUS
 70
0
 71
3
 72
11
 73
7
 74
0
 42
0.0000001
 43
0.0000001
 44
0.0000000001
 40
0.0
 40
0.0
 40
0.0
 40
0.0
 40
0.2845769506
 40
0.5442334504
 40
0.7808566869
 40
1.0
 40
1.0
 40
1.0
 40
1.0
 10
-31.835086569
 20
21.0193156341
 30
0.0
 10
-31.8350865691
 20
21.0704689181
 30
0.0
 10
-31.8284963942
 20
21.1685119927
 30
0.0
 10
-31.7957260554
 20
21.3057973685
 30
0.0
 10
-31.740907534
 20
21.4232301431
 30
0.0
 10
-31.688618239
 20
21.4877365265
 30
0.0
 10
-31.6597329033
 20
21.5145194334
 30
0.0
  0
SPLINE
  5
43D
100
AcDbEntity
  8
ASSI
100
AcDbSpline
 62
7
  6
CONTINUOUS
 70
0
 71
3
 72
11
 73
7
 74
0
 42
0.0000001
 43
0.0000001
 44
0.0000000001
 40
0.0
 40
0.0
 40
0.0
 40
0.0
 40
0.2845769506
 40
0.5442334504
 40
0.7808566869
 40
1.0
 40
1.0
 40
1.0
 40
1.0
 10
-15.9251839923
 20
11.8331372842
 30
0.0
 10
-15.9251839924
 20
11.8842905682
 30
0.0
 10
-15.9185938175
 20
11.9823336428
 30
0.0
 10
-15.8858234787
 20
12.1196190187
 30
0.0
 10
-15.8310049573
 20
12.2370517933
 30
0.0
 10
-15.7787156623
 20
12.3015581766
 30
0.0
 10
-15.7498303266
 20
12.3283410835
 30
0.0
  0
SPLINE
  5
43E
100
AcDbEntity
  8
ASSI
100
AcDbSpline
 62
7
  6
CONTINUOUS
 70
0
 71
3
 72
9
 73
5
 74
0
 42
0.0000001
 43
0.0000001
 44
0.0000000001
 40
0.0
 40
0.0
 40
0.0
 40
0.0
 40
0.2698109577
 40
1.0
 40
1.0
 40
1.0
 40
1.0
 10
-5.4600036308
 20
-5.9664829008
 30
0.0
 10
-5.4348176817
 20
-5.9810249521
 30
0.0
 10
-5.3395413004
 20
-6.0312501522
 30
0.0
 10
-5.2351603162
 20
-6.0661867064
 30
0.0
 10
-5.1571744881
 20
-6.0768130116
 30
0.0
  0
SPLINE
  5
43F
100
AcDbEntity
  8
ASSI
100
AcDbSpline
 62
7
  6
CONTINUOUS
 70
0
 71
3
 72
11
 73
7
 74
0
 42
0.0000001
 43
0.0000001
 44
0.0000000001
 40
0.0
 40
0.0
 40
0.0
 40
0.0
 40
0.2372134857
 40
0.4999938933
 40
0.7627776251
 40
1.0
 40
1.0
 40
1.0
 40
1.0
 10
-15.7837626361
 20
0.9740904939
 30
0.0
 10
-15.7837626358
 20
0.8350029312
 30
0.0
 10
-15.7315923735
 20
0.5416478129
 30
0.0
 10
-15.5497418928
 20
0.129417339
 30
0.0
 10
-15.2836614063
 20
-0.2341888432
 30
0.0
 10
-15.0556904345
 20
-0.4260536017
 30
0.0
 10
-14.9352344987
 20
-0.4956033503
 30
0.0
  0
SPLINE
  5
440
100
AcDbEntity
  8
ASSI
100
AcDbSpline
 62
7
  6
CONTINUOUS
 70
0
 71
3
 72
11
 73
7
 74
0
 42
0.0000001
 43
0.0000001
 44
0.0000000001
 40
0.0
 40
0.0
 40
0.0
 40
0.0
 40
0.2372223749
 40
0.5000061065
 40
0.762786514
 40
1.0
 40
1.0
 40
1.0
 40
1.0
 10
-15.0766558549
 20
-0.5772582689
 30
0.0
 10
-15.1971117912
 20
-0.5077085213
 30
0.0
 10
-15.4250827621
 20
-0.3158437615
 30
0.0
 10
-15.691163249
 20
0.04776242
 30
0.0
 10
-15.8730137295
 20
0.459992894
 30
0.0
 10
-15.9251839924
 20
0.7533480124
 30
0.0
 10
-15.9251839923
 20
0.8924355752
 30
0.0
  0
SPLINE
  5
441
100
AcDbEntity
  8
CURVE
100
AcDbSpline
 62
250
  6
CONTINUOUS
 70
0
 71
3
 72
9
 73
5
 74
0
 42
0.0000001
 43
0.0000001
 44
0.0000000001
 40
0.0
 40
0.0
 40
0.0
 40
0.0
 40
0.3559141631
 40
1.0
 40
1.0
 40
1.0
 40
1.0
 10
51.1641294674
 20
-53.8169972452
 30
0.0
 10
51.1641294674
 20
-53.7798719462
 30
0.0
 10
51.1842664291
 20
-53.6622302233
 30
0.0
 10
51.2688716315
 20
-53.5465218724
 30
0.0
 10
51.3252150205
 20
-53.4925794314
 30
0.0
  0
SPLINE
  5
442
100
AcDbEntity
  8
CURVE
100
AcDbSpline
 62
250
  6
CONTINUOUS
 70
0
 71
3
 72
9
 73
5
 74
0
 42
0.0000001
 43
0.0000001
 44
0.0000000001
 40
0.0
 40
0.0
 40
0.0
 40
0.0
 40
0.2957417834
 40
1.0
 40
1.0
 40
1.0
 40
1.0
 10
50.091998863
 20
-53.9956240342
 30
0.0
 10
50.0602383583
 20
-54.1108677204
 30
0.0
 10
50.0084668427
 20
-54.4915077569
 30
0.0
 10
50.04035281
 20
-54.8289551375
 30
0.0
 10
50.0727508531
 20
-55.0573604741
 30
0.0
  0
SPLINE
  5
443
100
AcDbEntity
  8
CURVE
100
AcDbSpline
 62
250
  6
CONTINUOUS
 70
0
 71
3
 72
17
 73
13
 74
0
 42
0.0000001
 43
0.0000001
 44
0.0000000001
 40
0.0
 40
0.0
 40
0.0
 40
0.0
 40
0.0559780952
 40
0.1687540387
 40
0.321006234
 40
0.4122750837
 40
0.516613223
 40
0.6013931059
 40
0.6776022439
 40
0.8103422694
 40
0.9200404832
 40
1.0
 40
1.0
 40
1.0
 40
1.0
 10
51.0153960915
 20
-53.4545209894
 30
0.0
 10
51.012676352
 20
-53.4324542753
 30
0.0
 10
50.9704797627
 20
-53.3953608989
 30
0.0
 10
50.8900412917
 20
-53.339477936
 30
0.0
 10
50.7662187542
 20
-53.3331092019
 30
0.0
 10
50.6370438205
 20
-53.3701233287
 30
0.0
 10
50.529831322
 20
-53.4247922075
 30
0.0
 10
50.429695718
 20
-53.4948168599
 30
0.0
 10
50.3232938273
 20
-53.5911496595
 30
0.0
 10
50.2190176548
 20
-53.7206262174
 30
0.0
 10
50.1374709486
 20
-53.8680717628
 30
0.0
 10
50.1023006011
 20
-53.958197749
 30
0.0
 10
50.091998863
 20
-53.9956240342
 30
0.0
  0
SPLINE
  5
444
100
AcDbEntity
  8
CURVE
100
AcDbSpline
 62
250
  6
CONTINUOUS
 70
0
 71
3
 72
9
 73
5
 74
0
 42
0.0000001
 43
0.0000001
 44
0.0000000001
 40
0.0
 40
0.0
 40
0.0
 40
0.0
 40
0.2426586216
 40
1.0
 40
1.0
 40
1.0
 40
1.0
 10
51.3847686923
 20
-53.0100746935
 30
0.0
 10
51.3515473898
 20
-53.0380655898
 30
0.0
 10
51.2173916743
 20
-53.1488930007
 30
0.0
 10
51.0660022652
 20
-53.3158363946
 30
0.0
 10
51.0261991056
 20
-53.4487044033
 30
0.0
  0
SPLINE
  5
445
100
AcDbEntity
  8
CURVE
100
AcDbSpline
 62
250
  6
CONTINUOUS
 70
0
 71
3
 72
9
 73
5
 74
0
 42
0.0000001
 43
0.0000001
 44
0.0000000001
 40
0.0
 40
0.0
 40
0.0
 40
0.0
 40
0.1980141723
 40
1.0
 40
1.0
 40
1.0
 40
1.0
 10
51.8795823834
 20
-52.5980140448
 30
0.0
 10
51.8469870713
 20
-52.6254471974
 30
0.0
 10
51.6820060631
 20
-52.7626500461
 30
0.0
 10
51.5167560501
 20
-52.8988654512
 30
0.0
 10
51.3847686923
 20
-53.0100746935
 30
0.0
  0
SPLINE
  5
446
100
AcDbEntity
  8
CURVE
100
AcDbSpline
 62
250
  6
CONTINUOUS
 70
0
 71
3
 72
9
 73
5
 74
0
 42
0.0000001
 43
0.0000001
 44
0.0000000001
 40
0.0
 40
0.0
 40
0.0
 40
0.0
 40
0.5586214172
 40
1.0
 40
1.0
 40
1.0
 40
1.0
 10
51.3252150205
 20
-53.4925794314
 30
0.0
 10
51.4261339054
 20
-53.3959161078
 30
0.0
 10
51.6130071934
 20
-53.239636443
 30
0.0
 10
51.7977189718
 20
-53.0781561662
 30
0.0
 10
51.8795823834
 20
-53.0078038228
 30
0.0
  0
SPLINE
  5
447
100
AcDbEntity
  8
CURVE
100
AcDbSpline
 62
250
  6
CONTINUOUS
 70
0
 71
3
 72
9
 73
5
 74
0
 42
0.0000001
 43
0.0000001
 44
0.0000000001
 40
0.0
 40
0.0
 40
0.0
 40
0.0
 40
0.5206208722
 40
1.0
 40
1.0
 40
1.0
 40
1.0
 10
50.5806159014
 20
-53.7993170701
 30
0.0
 10
50.6596496391
 20
-53.7554020811
 30
0.0
 10
50.8322980616
 20
-53.7247758084
 30
0.0
 10
50.8630907542
 20
-53.896933117
 30
0.0
 10
50.8647159796
 20
-53.9772899144
 30
0.0
  0
SPLINE
  5
448
100
AcDbEntity
  8
CURVE
100
AcDbSpline
 62
250
  6
CONTINUOUS
 70
0
 71
3
 72
9
 73
5
 74
0
 42
0.0000001
 43
0.0000001
 44
0.0000000001
 40
0.0
 40
0.0
 40
0.0
 40
0.0
 40
0.5013510385
 40
1.0
 40
1.0
 40
1.0
 40
1.0
 10
50.352080057
 20
-54.1630207984
 30
0.0
 10
50.3585735259
 20
-54.0970852277
 30
0.0
 10
50.4078280827
 20
-53.9442746042
 30
0.0
 10
50.5246204575
 20
-53.8304440016
 30
0.0
 10
50.5806159014
 20
-53.7993170701
 30
0.0
  0
SPLINE
  5
449
100
AcDbEntity
  8
CURVE
100
AcDbSpline
 62
250
  6
CONTINUOUS
 70
0
 71
3
 72
9
 73
5
 74
0
 42
0.0000001
 43
0.0000001
 44
0.0000000001
 40
0.0
 40
0.0
 40
0.0
 40
0.0
 40
0.2703953699
 40
1.0
 40
1.0
 40
1.0
 40
1.0
 10
50.3628419429
 20
-54.490981191
 30
0.0
 10
50.3582970789
 20
-54.463693305
 30
0.0
 10
50.3433493835
 20
-54.3614290331
 30
0.0
 10
50.343673881
 20
-54.2483971608
 30
0.0
 10
50.352080057
 20
-54.1630207984
 30
0.0
  0
ENDSEC
  0
SECTION
  2
OBJECTS
  0
DICTIONARY
  5
C
100
AcDbDictionary
280
0
281
1
  3
ACAD_GROUP
350
D
  3
ACAD_MLINESTYLE
350
17
  3
ACAD_LAYOUT
350
1A
  3
ACAD_PLOTSETTINGS
350
19
  3
ACAD_PLOTSTYLENAME
350
E
  0
DICTIONARY
  5
D
102
{ACAD_REACTORS
330
C
102
}
100
AcDbDictionary
280
0
281
1
  0
ACDBDICTIONARYWDFLT
  5
E
102
{ACAD_REACTORS
330
C
102
}
100
AcDbDictionary
281
1
  3
Normal
350
F
100
AcDbDictionaryWithDefault
340
F
  0
DICTIONARY
  5
17
102
{ACAD_REACTORS
330
C
102
}
100
AcDbDictionary
280
0
281
1
  3
Standard
350
18
  0
DICTIONARY
  5
19
102
{ACAD_REACTORS
330
C
102
}
100
AcDbDictionary
281
1
  0
DICTIONARY
  5
1A
102
{ACAD_REACTORS
330
C
102
}
100
AcDbDictionary
281
1
  3
Model
350
44A
  3
Layout1
350
44B
  0
ACDBPLACEHOLDER
  5
F
102
{ACAD_REACTORS
330
E
102
}
  0
MLINESTYLE
  5
18
102
{ACAD_REACTORS
330
17
102
}
100
AcDbMlineStyle
  2
STANDARD
 70
0
  3

 62
256
 51
90.0
 52
90.0
 71
2
 49
0.5
 62
256
  6
BYLAYER
 49
-0.5
 62
256
  6
BYLAYER
  0
LAYOUT
  5
44A
102
{ACAD_REACTORS
330
1A
102
}
100
AcDbPlotSettings
  1

  2
none_device
  4
ISO_A4_(297.00_x_210.00_MM)
  6

 40
0.0
 41
0.0
 42
0.0
 43
0.0
 44
297.0
 45
210.0
 46
0.0
 47
0.0
 48
0.0
 49
0.0
140
0.0
141
0.0
142
1.0
143
1.0
 70
1024
 72
1
 73
0
 74
0
  7

 75
0
147
1.0
148
0.0
149
0.0
100
AcDbLayout
  1
Model
 70
0
 71
0
 10
0.0
 20
0.0
 11
297.0
 21
210.0
 12
0.0
 22
0.0
 32
0.0
 14
0.0
 24
0.0
 34
0.0
 15
0.0
 25
0.0
 35
0.0
146
0.0
 13
0.0
 23
0.0
 33
0.0
 16
1.0
 26
0.0
 36
0.0
 17
0.0
 27
1.0
 37
0.0
 76
0
330
21E
345
0
346
0
  0
LAYOUT
  5
44B
102
{ACAD_REACTORS
330
1A
102
}
100
AcDbPlotSettings
  1

  2
none_device
  4
ISO_A4_(297.00_x_210.00_MM)
  6

 40
0.0
 41
0.0
 42
0.0
 43
0.0
 44
297.0
 45
210.0
 46
0.0
 47
0.0
 48
0.0
 49
0.0
140
0.0
141
0.0
142
1.0
143
1.0
 70
0
 72
1
 73
0
 74
0
  7

 75
0
147
1.0
148
0.0
149
0.0
100
AcDbLayout
  1
Layout1
 70
0
 71
1
 10
0.0
 20
0.0
 11
297.0
 21
210.0
 12
0.0
 22
0.0
 32
0.0
 14
0.0
 24
0.0
 34
0.0
 15
0.0
 25
0.0
 35
0.0
146
0.0
 13
0.0
 23
0.0
 33
0.0
 16
1.0
 26
0.0
 36
0.0
 17
0.0
 27
1.0
 37
0.0
 76
0
330
21F
345
0
346
0
  0
ENDSEC
  0
EOF
