  0
SECTION
  2
HEADER
  9
$ACADVER
  1
AC1024
  9
$DWGCODEPAGE
  3
ANSI_1252
  9
$EXTMAX
 10
297.0
 20
210.0
 30
0.0
  9
$EXTMIN
 10
0.0
 20
0.0
 30
0.0
  9
$LIMMIN
 10
0.0
 20
0.0
  9
$LIMMAX
 10
297.0
 20
210.0
  9
$VIEWCTR
 10
148.5
 20
105.0
  9
$VIEWSIZE
 40
210.0
  9
$CLAYER
  8
0
  9
$LTSCALE
 40
16.335
  9
$CELTYPE
  6
BYLAYER
  9
$DIMSCALE
 40
1.0
  9
$DIMASZ
 40
3.0
  9
$DIMEXO
 40
0.5
  9
$DIMDLI
 40
11.286
  9
$DIMEXE
 40
1.5
  9
$DIMCEN
 40
2.673
  9
$DIMLFAC
 40
1.0
  9
$DIMBLK
  1
_FILLED
  9
$DIMALT
 70
0
  9
$DIMALTF
 40
0.0393700787
  9
$DIMTXT
 40
3.0
  9
$DIMTOL
 70
1
  9
$DIMLIM
 70
0
  9
$DIMTFAC
 40
1.0
  9
$DIMTP
 40
0.01
  9
$DIMTM
 40
0.01
  9
$DIMGAP
 40
0.625
  9
$DIMDSEP
 70
44
  9
$AUNITS
 70
0
  9
$PDMODE
 70
3
  9
$PDSIZE
 40
3.0
  9
$HANDSEED
  5
449
  9
$TILEMODE
 70
1
  9
$MEASUREMENT
 70
1
  9
$INSUNITS
 70
4
  0
ENDSEC
  0
SECTION
  2
CLASSES
  0
CLASS
  1
ACDBDICTIONARYWDFLT
  2
AcDbDictionaryWithDefault
  3
AutoCAD 2000
 90
0
 91
1
280
0
281
0
  0
CLASS
  1
ACDBPLACEHOLDER
  2
AcDbPlaceHolder
  3
AutoCAD 2000
 90
0
 91
1
280
0
281
0
  0
CLASS
  1
LAYOUT
  2
AcDbLayout
  3
AutoCAD 2000
 90
0
 91
0
280
0
281
0
  0
ENDSEC
  0
SECTION
  2
TABLES
  0
TABLE
  2
VPORT
  5
8
100
AcDbSymbolTable
 70
2
  0
VPORT
  5
1F4
100
AcDbSymbolTableRecord
100
AcDbViewportTableRecord
  2
*ACTIVE
 70
0
 10
0.0
 20
0.0
 11
1.0
 21
1.0
 12
148.5
 22
105.0
 13
0.0
 23
0.0
 14
1.0
 24
1.0
 15
0.0
 25
0.0
 16
0.0
 26
0.0
 36
1.0
 17
0.0
 27
0.0
 37
0.0
 40
210.0
 41
1.4142857143
 42
50.0
 43
0.0
 44
0.0
 50
0.0
 51
0.0
 71
0
 72
100
 73
1
 74
1
 75
0
 76
0
 77
0
 78
0
  0
ENDTAB
  0
TABLE
  2
LTYPE
  5
5
100
AcDbSymbolTable
 70
6
  0
LTYPE
  5
14
100
AcDbSymbolTableRecord
100
AcDbLinetypeTableRecord
  2
BYBLOCK
 70
0
  3

 72
65
 73
0
 40
0.0
  0
LTYPE
  5
15
100
AcDbSymbolTableRecord
100
AcDbLinetypeTableRecord
  2
BYLAYER
 70
0
  3

 72
65
 73
0
 40
0.0
  0
LTYPE
  5
16
100
AcDbSymbolTableRecord
100
AcDbLinetypeTableRecord
  2
CONTINUOUS
 70
64
  3
Solid line
 72
65
 73
0
 40
0.0
  0
LTYPE
  5
1F5
100
AcDbSymbolTableRecord
100
AcDbLinetypeTableRecord
  2
CENTER
 70
64
  3
____ _ ____ _ ____ _ ____ _ ____ _ ____ _ ____
 72
65
 73
4
 40
0.6
 49
0.375
 74
0
 49
-0.075
 74
0
 49
0.075
 74
0
 49
-0.075
 74
0
  0
LTYPE
  5
1F6
100
AcDbSymbolTableRecord
100
AcDbLinetypeTableRecord
  2
HIDDEN
 70
64
  3
- - - - - - - - - - - - - - - - - - - -
 72
65
 73
2
 40
0.2
 49
0.1
 74
0
 49
-0.1
 74
0
  0
LTYPE
  5
1F7
100
AcDbSymbolTableRecord
100
AcDbLinetypeTableRecord
  2
PHANTOM
 70
64
  3
_____ _ _ _____ _ _ _____ _ _ _____
 72
65
 73
6
 40
0.8
 49
0.45
 74
0
 49
-0.05
 74
0
 49
0.1
 74
0
 49
-0.05
 74
0
 49
0.1
 74
0
 49
-0.05
 74
0
  0
LTYPE
  5
1F8
100
AcDbSymbolTableRecord
100
AcDbLinetypeTableRecord
  2
DOT
 70
64
  3
. . . . . . . . . . . . . . . . . . . .
 72
65
 73
2
 40
0.2
 49
0.1
 74
0
 49
-0.1
 74
0
  0
LTYPE
  5
1F9
100
AcDbSymbolTableRecord
100
AcDbLinetypeTableRecord
  2
DASHED
 70
64
  3
- - - - - - - - - - - - - - - - - - - -
 72
65
 73
2
 40
0.2
 49
0.1
 74
0
 49
-0.1
 74
0
  0
ENDTAB
  0
TABLE
  2
LAYER
  5
2
100
AcDbSymbolTable
 70
36
  0
LAYER
  5
10
100
AcDbSymbolTableRecord
100
AcDbLayerTableRecord
  2
0
 70
0
 62
7
  6
CONTINUOUS
370
-3
390
F
  0
LAYER
  5
1FA
100
AcDbSymbolTableRecord
100
AcDbLayerTableRecord
  2
DEFAULT_1
 70
0
 62
7
  6
CENTER
370
-3
390
F
  0
LAYER
  5
1FB
100
AcDbSymbolTableRecord
100
AcDbLayerTableRecord
  2
DEFAULT_2
 70
0
 62
7
  6
HIDDEN
370
-3
390
F
  0
LAYER
  5
1FC
100
AcDbSymbolTableRecord
100
AcDbLayerTableRecord
  2
DEFAULT_3
 70
0
 62
7
  6
PHANTOM
370
-3
390
F
  0
LAYER
  5
1FD
100
AcDbSymbolTableRecord
100
AcDbLayerTableRecord
  2
ASSI
 70
0
 62
7
  6
CONTINUOUS
370
-3
390
F
  0
LAYER
  5
1FE
100
AcDbSymbolTableRecord
100
AcDbLayerTableRecord
  2
COORDINATE
 70
0
 62
7
  6
CONTINUOUS
370
-3
390
F
  0
LAYER
  5
1FF
100
AcDbSymbolTableRecord
100
AcDbLayerTableRecord
  2
COORD_ORIGINE
 70
0
 62
7
  6
CONTINUOUS
370
-3
390
F
  0
LAYER
  5
200
100
AcDbSymbolTableRecord
100
AcDbLayerTableRecord
  2
COPY_PUBLISH
 70
0
 62
7
  6
CONTINUOUS
370
-3
390
F
  0
LAYER
  5
201
100
AcDbSymbolTableRecord
100
AcDbLayerTableRecord
  2
COSMETIC
 70
0
 62
7
  6
CONTINUOUS
370
-3
390
F
  0
LAYER
  5
202
100
AcDbSymbolTableRecord
100
AcDbLayerTableRecord
  2
COSMETICI
 70
0
 62
7
  6
CONTINUOUS
370
-3
390
F
  0
LAYER
  5
203
100
AcDbSymbolTableRecord
100
AcDbLayerTableRecord
  2
CURVA_TASSELLO
 70
0
 62
7
  6
CONTINUOUS
370
-3
390
F
  0
LAYER
  5
204
100
AcDbSymbolTableRecord
100
AcDbLayerTableRecord
  2
CURVE
 70
0
 62
7
  6
CONTINUOUS
370
-3
390
F
  0
LAYER
  5
205
100
AcDbSymbolTableRecord
100
AcDbLayerTableRecord
  2
DRAFT
 70
0
 62
7
  6
CONTINUOUS
370
-3
390
F
  0
LAYER
  5
206
100
AcDbSymbolTableRecord
100
AcDbLayerTableRecord
  2
IMPORT_IGES
 70
0
 62
7
  6
CONTINUOUS
370
-3
390
F
  0
LAYER
  5
207
100
AcDbSymbolTableRecord
100
AcDbLayerTableRecord
  2
INTFCLR_2
 70
0
 62
7
  6
CONTINUOUS
370
-3
390
F
  0
LAYER
  5
208
100
AcDbSymbolTableRecord
100
AcDbLayerTableRecord
  2
INTF_1
 70
0
 62
7
  6
CONTINUOUS
370
-3
390
F
  0
LAYER
  5
209
100
AcDbSymbolTableRecord
100
AcDbLayerTableRecord
  2
INTF_6
 70
0
 62
7
  6
CONTINUOUS
370
-3
390
F
  0
LAYER
  5
20A
100
AcDbSymbolTableRecord
100
AcDbLayerTableRecord
  2
INTF_7
 70
0
 62
7
  6
CONTINUOUS
370
-3
390
F
  0
LAYER
  5
20B
100
AcDbSymbolTableRecord
100
AcDbLayerTableRecord
  2
LINEA_CHIUSURA
 70
0
 62
7
  6
CONTINUOUS
370
-3
390
F
  0
LAYER
  5
20C
100
AcDbSymbolTableRecord
100
AcDbLayerTableRecord
  2
LIVELLO_1
 70
0
 62
7
  6
CONTINUOUS
370
-3
390
F
  0
LAYER
  5
20D
100
AcDbSymbolTableRecord
100
AcDbLayerTableRecord
  2
NOTE
 70
0
 62
7
  6
CONTINUOUS
370
-3
390
F
  0
LAYER
  5
20E
100
AcDbSymbolTableRecord
100
AcDbLayerTableRecord
  2
PIANI
 70
0
 62
7
  6
CONTINUOUS
370
-3
390
F
  0
LAYER
  5
20F
100
AcDbSymbolTableRecord
100
AcDbLayerTableRecord
  2
PIANI_ORIGINE
 70
0
 62
7
  6
CONTINUOUS
370
-3
390
F
  0
LAYER
  5
210
100
AcDbSymbolTableRecord
100
AcDbLayerTableRecord
  2
PIANI_RIFERIMENTO
 70
0
 62
7
  6
CONTINUOUS
370
-3
390
F
  0
LAYER
  5
211
100
AcDbSymbolTableRecord
100
AcDbLayerTableRecord
  2
PUNTI
 70
0
 62
7
  6
CONTINUOUS
370
-3
390
F
  0
LAYER
  5
212
100
AcDbSymbolTableRecord
100
AcDbLayerTableRecord
  2
RACCORDO
 70
0
 62
7
  6
CONTINUOUS
370
-3
390
F
  0
LAYER
  5
213
100
AcDbSymbolTableRecord
100
AcDbLayerTableRecord
  2
RGB__255__255__255__
 70
0
 62
7
  6
CONTINUOUS
370
-3
390
F
  0
LAYER
  5
214
100
AcDbSymbolTableRecord
100
AcDbLayerTableRecord
  2
RGB____0____0____0__
 70
0
 62
7
  6
CONTINUOUS
370
-3
390
F
  0
LAYER
  5
215
100
AcDbSymbolTableRecord
100
AcDbLayerTableRecord
  2
SIMBOLI
 70
0
 62
7
  6
CONTINUOUS
370
-3
390
F
  0
LAYER
  5
216
100
AcDbSymbolTableRecord
100
AcDbLayerTableRecord
  2
SMUSSO
 70
0
 62
7
  6
CONTINUOUS
370
-3
390
F
  0
LAYER
  5
217
100
AcDbSymbolTableRecord
100
AcDbLayerTableRecord
  2
SNAPLINE
 70
0
 62
7
  6
CONTINUOUS
370
-3
390
F
  0
LAYER
  5
218
100
AcDbSymbolTableRecord
100
AcDbLayerTableRecord
  2
SUPERFICI
 70
0
 62
7
  6
CONTINUOUS
370
-3
390
F
  0
LAYER
  5
219
100
AcDbSymbolTableRecord
100
AcDbLayerTableRecord
  2
TRASH
 70
0
 62
7
  6
CONTINUOUS
370
-3
390
F
  0
LAYER
  5
21A
100
AcDbSymbolTableRecord
100
AcDbLayerTableRecord
  2
WHITE
 70
0
 62
7
  6
CONTINUOUS
370
-3
390
F
  0
LAYER
  5
21B
100
AcDbSymbolTableRecord
100
AcDbLayerTableRecord
  2
XSEC_DATUMS
 70
0
 62
7
  6
CONTINUOUS
370
-3
390
F
  0
ENDTAB
  0
TABLE
  2
STYLE
  5
3
100
AcDbSymbolTable
 70
1
  0
STYLE
  5
11
100
AcDbSymbolTableRecord
100
AcDbTextStyleTableRecord
  2
STANDARD
 70
0
 40
0.0
 41
0.8
 50
0.0
 71
0
 42
0.2
  3
txt
  4

  0
STYLE
  5
21C
100
AcDbSymbolTableRecord
100
AcDbTextStyleTableRecord
  2
TEXTSTYLE_1
 70
0
 40
0.0
 41
0.8
 50
0.0
 71
0
 42
0.2
  3
gdt
  4

  0
ENDTAB
  0
TABLE
  2
VIEW
  5
6
100
AcDbSymbolTable
 70
0
  0
ENDTAB
  0
TABLE
  2
UCS
  5
7
100
AcDbSymbolTable
 70
0
  0
ENDTAB
  0
TABLE
  2
APPID
  5
9
100
AcDbSymbolTable
 70
1
  0
APPID
  5
21D
100
AcDbSymbolTableRecord
100
AcDbRegAppTableRecord
  2
ACAD
 70
0
  0
ENDTAB
  0
TABLE
  2
BLOCK_RECORD
  5
1
100
AcDbSymbolTable
 70
0
  0
BLOCK_RECORD
  5
21E
100
AcDbSymbolTableRecord
100
AcDbBlockTableRecord
  2
*Model_Space
  0
BLOCK_RECORD
  5
21F
100
AcDbSymbolTableRecord
100
AcDbBlockTableRecord
  2
*Paper_Space
  0
BLOCK_RECORD
  5
220
100
AcDbSymbolTableRecord
100
AcDbBlockTableRecord
  2
_FILLED
  0
ENDTAB
  0
TABLE
  2
DIMSTYLE
  5
A
100
AcDbSymbolTable
 70
1
100
AcDbDimStyleTable
 71
0
  0
DIMSTYLE
105
221
100
AcDbSymbolTableRecord
100
AcDbDimStyleTableRecord
  2
STANDARD
 70
0
  3

  4

 40
1.0
 41
3.0
 42
0.5
 43
0.38
 44
1.5
 45
0.0
 46
0.0
 47
0.01
 48
0.01
140
3.0
141
0.09
142
0.0
143
25.4
144
1.0
145
0.0
146
1.0
147
0.625
 71
1
 72
0
 73
0
 74
0
 75
0
 76
0
 77
1
 78
8
 79
2
170
0
171
1
172
0
173
0
174
0
175
0
176
0
177
0
178
0
270
2
179
2
271
2
272
2
273
2
274
2
275
0
280
0
281
0
282
0
283
1
284
8
285
0
286
0
287
3
288
0
340
11
278
44
341
220
342
220
343
220
344
220
  0
ENDTAB
  0
ENDSEC
  0
SECTION
  2
BLOCKS
  0
BLOCK
  5
20
100
AcDbEntity
  8
0
100
AcDbBlockBegin
  2
*Model_Space
 70
0
 10
0.0
 20
0.0
 30
0.0
  3
*Model_Space
  1

  0
ENDBLK
  5
21
100
AcDbEntity
  8
0
100
AcDbBlockEnd
  0
BLOCK
  5
1C
100
AcDbEntity
  8
0
100
AcDbBlockBegin
  2
*Paper_Space
 70
0
 10
0.0
 20
0.0
 30
0.0
  3
*Paper_Space
  1

  0
ENDBLK
  5
1D
100
AcDbEntity
  8
0
100
AcDbBlockEnd
  0
BLOCK
  5
222
100
AcDbEntity
  8
0
100
AcDbBlockBegin
  2
_FILLED
 70
64
 10
0.0
 20
0.0
  3
_FILLED
  1

  0
SOLID
  5
223
100
AcDbEntity
  8
0
  6
BYBLOCK
 62
0
100
AcDbTrace
 10
0.0
 20
0.0
 11
-1.0
 21
0.3166666667
 12
-1.0
 22
-0.3166666667
 13
-1.0
 23
-0.3166666667
  0
ENDBLK
  5
224
100
AcDbEntity
  8
0
  6
BYBLOCK
 62
0
100
AcDbBlockEnd
  0
ENDSEC
  0
SECTION
  2
ENTITIES
  0
LINE
  5
225
100
AcDbEntity
  8
0
100
AcDbLine
 62
7
  6
CONTINUOUS
 10
130.8695479354
 20
131.5891124359
 11
134.6573617226
 21
134.0926793272
  0
LINE
  5
226
100
AcDbEntity
  8
ASSI
100
AcDbLine
 62
7
  6
CONTINUOUS
 10
130.8695479354
 20
131.5891124359
 11
134.6573617226
 21
134.0926793272
  0
LINE
  5
227
100
AcDbEntity
  8
0
100
AcDbLine
 62
7
  6
CONTINUOUS
 10
131.5770852047
 20
131.9975566297
 11
135.3648989919
 21
134.5011235211
  0
LINE
  5
228
100
AcDbEntity
  8
ASSI
100
AcDbLine
 62
7
  6
CONTINUOUS
 10
131.5770852047
 20
131.9975566297
 11
135.3648989919
 21
134.5011235211
  0
LINE
  5
229
100
AcDbEntity
  8
0
100
AcDbLine
 62
7
  6
CONTINUOUS
 10
131.5563215906
 20
131.9847172788
 11
131.5770852047
 21
131.9975566297
  0
LINE
  5
22A
100
AcDbEntity
  8
ASSI
100
AcDbLine
 62
7
  6
CONTINUOUS
 10
131.5563215906
 20
131.9847172788
 11
131.5770852047
 21
131.9975566297
  0
LINE
  5
22B
100
AcDbEntity
  8
0
100
AcDbLine
 62
7
  6
CONTINUOUS
 10
134.6573617226
 20
134.0926793272
 11
135.3648989919
 21
134.5011235211
  0
LINE
  5
22C
100
AcDbEntity
  8
ASSI
100
AcDbLine
 62
7
  6
CONTINUOUS
 10
134.6573617226
 20
134.0926793272
 11
135.3648989919
 21
134.5011235211
  0
LINE
  5
22D
100
AcDbEntity
  8
0
100
AcDbLine
 62
7
  6
CONTINUOUS
 10
131.5563215906
 20
131.9847172788
 11
130.8699232429
 21
131.5884760744
  0
LINE
  5
22E
100
AcDbEntity
  8
ASSI
100
AcDbLine
 62
7
  6
CONTINUOUS
 10
131.5563215906
 20
131.9847172788
 11
130.8699232429
 21
131.5884760744
  0
LINE
  5
22F
100
AcDbEntity
  8
0
100
AcDbLine
 62
7
  6
CONTINUOUS
 10
131.1736322907
 20
130.5694888404
 11
130.8946563566
 21
130.4084427648
  0
LINE
  5
230
100
AcDbEntity
  8
ASSI
100
AcDbLine
 62
7
  6
CONTINUOUS
 10
131.1736322907
 20
130.5694888404
 11
130.8946563566
 21
130.4084427648
  0
LINE
  5
231
100
AcDbEntity
  8
0
100
AcDbLine
 62
7
  6
CONTINUOUS
 10
131.1736322907
 20
130.5694888404
 11
131.5563215906
 21
131.9847172788
  0
LINE
  5
232
100
AcDbEntity
  8
ASSI
100
AcDbLine
 62
7
  6
CONTINUOUS
 10
131.1736322907
 20
130.5694888404
 11
131.5563215906
 21
131.9847172788
  0
LINE
  5
233
100
AcDbEntity
  8
0
100
AcDbLine
 62
7
  6
CONTINUOUS
 10
130.8946563566
 20
59.5768091655
 11
130.8699232429
 21
60.033044743
  0
LINE
  5
234
100
AcDbEntity
  8
ASSI
100
AcDbLine
 62
7
  6
CONTINUOUS
 10
130.8946563566
 20
59.5768091655
 11
130.8699232429
 21
60.033044743
  0
LINE
  5
235
100
AcDbEntity
  8
0
100
AcDbLine
 62
7
  6
CONTINUOUS
 10
130.8946563566
 20
130.4084427648
 11
130.8699232429
 21
131.5884760744
  0
LINE
  5
236
100
AcDbEntity
  8
ASSI
100
AcDbLine
 62
7
  6
CONTINUOUS
 10
130.8946563566
 20
130.4084427648
 11
130.8699232429
 21
131.5884760744
  0
LINE
  5
237
100
AcDbEntity
  8
0
100
AcDbLine
 62
7
  6
CONTINUOUS
 10
130.8699232429
 20
60.033044743
 11
130.8695479354
 21
60.0572376037
  0
LINE
  5
238
100
AcDbEntity
  8
ASSI
100
AcDbLine
 62
7
  6
CONTINUOUS
 10
130.8699232429
 20
60.033044743
 11
130.8695479354
 21
60.0572376037
  0
LINE
  5
239
100
AcDbEntity
  8
0
100
AcDbLine
 62
7
  6
CONTINUOUS
 10
130.8695479354
 20
131.5891124359
 11
130.8695479354
 21
60.0572376037
  0
LINE
  5
23A
100
AcDbEntity
  8
ASSI
100
AcDbLine
 62
7
  6
CONTINUOUS
 10
130.8695479354
 20
131.5891124359
 11
130.8695479354
 21
60.0572376037
  0
LINE
  5
23B
100
AcDbEntity
  8
0
100
AcDbLine
 62
7
  6
CONTINUOUS
 10
130.8946563566
 20
130.4084427648
 11
130.8946563566
 21
59.5768091655
  0
LINE
  5
23C
100
AcDbEntity
  8
ASSI
100
AcDbLine
 62
7
  6
CONTINUOUS
 10
130.8946563566
 20
130.4084427648
 11
130.8946563566
 21
59.5768091655
  0
LINE
  5
23D
100
AcDbEntity
  8
0
100
AcDbLine
 62
7
  6
CONTINUOUS
 10
231.3338981365
 20
1.5844497611
 11
232.7508572674
 21
1.2082703052
  0
LINE
  5
23E
100
AcDbEntity
  8
ASSI
100
AcDbLine
 62
7
  6
CONTINUOUS
 10
231.3338981365
 20
1.5844497611
 11
232.7508572674
 21
1.2082703052
  0
LINE
  5
23F
100
AcDbEntity
  8
0
100
AcDbLine
 62
7
  6
CONTINUOUS
 10
130.8946563566
 20
59.5768091655
 11
131.1736322907
 21
59.093608674
  0
LINE
  5
240
100
AcDbEntity
  8
ASSI
100
AcDbLine
 62
7
  6
CONTINUOUS
 10
130.8946563566
 20
59.5768091655
 11
131.1736322907
 21
59.093608674
  0
LWPOLYLINE
  5
241
100
AcDbEntity
  8
CURVE
100
AcDbPolyline
 62
250
  6
CONTINUOUS
 90
73
 70
0
 10
228.9184823056
 20
5.9617073534
 10
228.9221545047
 20
5.9604411225
 10
228.9257160564
 20
5.9597517409
 10
228.9291861852
 20
5.9595043421
 10
228.9325841156
 20
5.9595640597
 10
228.9359290721
 20
5.9597960275
 10
228.9462529443
 20
5.9608579674
 10
228.9562718327
 20
5.9623789653
 10
228.9660164793
 20
5.9644462005
 10
228.9758597282
 20
5.9672331688
 10
228.9854434158
 20
5.9706368506
 10
228.9947698418
 20
5.9745927798
 10
229.0038413058
 20
5.9790364905
 10
229.0145977916
 20
5.9850642915
 10
229.0249662061
 20
5.9917261128
 10
229.0349369377
 20
5.999021896
 10
229.0445003747
 20
6.0069515827
 10
229.052964456
 20
6.0148381738
 10
229.0610641331
 20
6.023254247
 10
229.0687907748
 20
6.0321883829
 10
229.0761357503
 20
6.0416291621
 10
229.0830904284
 20
6.0515651652
 10
229.0904541493
 20
6.0633477417
 10
229.0973042447
 20
6.075726882
 10
229.1036342632
 20
6.0886840685
 10
229.1094377537
 20
6.1022007837
 10
229.1147082651
 20
6.1162585103
 10
229.1191681385
 20
6.129934587
 10
229.123155697
 20
6.1440481349
 10
229.1266743351
 20
6.1585758517
 10
229.1297274468
 20
6.1734944353
 10
229.1323184267
 20
6.1887805836
 10
229.1344506688
 20
6.2044109944
 10
229.1362774456
 20
6.2220323386
 10
229.1375669221
 20
6.240017762
 10
229.1383363284
 20
6.2583404686
 10
229.1386006376
 20
6.2783708532
 10
229.1382911555
 20
6.2987334148
 10
229.1374144238
 20
6.3194019937
 10
229.1362949693
 20
6.336282372
 10
229.134794555
 20
6.3533396641
 10
229.1328971295
 20
6.3705686528
 10
229.1307279036
 20
6.3869895364
 10
229.1281848887
 20
6.4035502051
 10
229.1252625955
 20
6.4202420057
 10
229.121570678
 20
6.4389029625
 10
229.117403135
 20
6.4576921725
 10
229.1127579979
 20
6.4765871151
 10
229.1076332978
 20
6.4955652696
 10
229.1020270663
 20
6.5146041155
 10
229.096497432
 20
6.531990402
 10
229.0905719439
 20
6.549389714
 10
229.0842564016
 20
6.566783368
 10
229.0775566042
 20
6.5841526803
 10
229.0704783512
 20
6.6014789674
 10
229.0619083196
 20
6.6212606858
 10
229.0528613468
 20
6.6409351153
 10
229.0433500298
 20
6.6604760305
 10
229.0333869656
 20
6.6798572061
 10
229.0231526133
 20
6.6987518028
 10
229.0125079456
 20
6.7174439331
 10
229.0014680586
 20
6.735911278
 10
228.9900480485
 20
6.7541315183
 10
228.9782630118
 20
6.7720823351
 10
228.9661280445
 20
6.7897414091
 10
228.953658243
 20
6.8070864214
 10
228.9443655375
 20
6.8195137618
 10
228.9349022965
 20
6.8317247436
 10
228.9252678617
 20
6.8436817282
 10
228.9154615748
 20
6.8553470766
 10
228.9054827777
 20
6.8666831501
 10
228.8953308121
 20
6.8776523099
 10
228.8850050197
 20
6.8882169172
  0
LWPOLYLINE
  5
242
100
AcDbEntity
  8
CURVE
100
AcDbPolyline
 62
250
  6
CONTINUOUS
 90
23
 70
0
 10
228.3963299618
 20
6.9042853335
 10
228.4081396579
 20
6.8997379248
 10
228.4199702816
 20
6.8950640695
 10
228.4318206281
 20
6.8902528381
 10
228.4436894924
 20
6.8852933015
 10
228.4555756695
 20
6.8801745304
 10
228.4674779544
 20
6.8748855955
 10
228.4793951423
 20
6.8694155676
 10
228.491326028
 20
6.8637535174
 10
228.5032694067
 20
6.8578885157
 10
228.5152240734
 20
6.8518096333
 10
228.5271888232
 20
6.8455059408
 10
228.5384311335
 20
6.8393751322
 10
228.5496786089
 20
6.8330426324
 10
228.5609285868
 20
6.8265145909
 10
228.5721784049
 20
6.8197971574
 10
228.5834254006
 20
6.8128964814
 10
228.5946669117
 20
6.8058187127
 10
228.6059002757
 20
6.7985700008
 10
228.6171228301
 20
6.7911564954
 10
228.6283319126
 20
6.783584346
 10
228.6395248607
 20
6.7758597022
 10
228.650699012
 20
6.7679887138
  0
LWPOLYLINE
  5
243
100
AcDbEntity
  8
0
100
AcDbPolyline
 62
7
  6
CONTINUOUS
 90
7
 70
0
 10
152.2141030755
 20
89.0745570188
 10
152.2032830296
 20
89.0461526484
 10
152.1871635848
 20
88.9940994377
 10
152.1745553661
 20
88.9389369412
 10
152.1655118344
 20
88.8809032636
 10
152.1600707018
 20
88.8202462728
 10
152.1582545569
 20
88.7572261449
  0
LWPOLYLINE
  5
244
100
AcDbEntity
  8
ASSI
100
AcDbPolyline
 62
7
  6
CONTINUOUS
 90
7
 70
0
 10
152.2141030755
 20
89.0745570188
 10
152.2032830296
 20
89.0461526484
 10
152.1871635848
 20
88.9940994377
 10
152.1745553661
 20
88.9389369412
 10
152.1655118344
 20
88.8809032636
 10
152.1600707018
 20
88.8202462728
 10
152.1582545569
 20
88.7572261449
  0
LINE
  5
245
100
AcDbEntity
  8
0
100
AcDbLine
 62
250
  6
CONTINUOUS
 10
152.3976063036
 20
89.2729907102
 11
152.1582545569
 21
88.7572261449
  0
LINE
  5
246
100
AcDbEntity
  8
ASSI
100
AcDbLine
 62
250
  6
CONTINUOUS
 10
152.3976063036
 20
89.2729907102
 11
152.1582545569
 21
88.7572261449
  0
LWPOLYLINE
  5
247
100
AcDbEntity
  8
0
100
AcDbPolyline
 62
7
  6
CONTINUOUS
 90
3
 70
0
 10
152.2457625331
 20
89.1400425554
 10
152.2228439612
 20
89.0948699498
 10
152.2141030755
 20
89.0745570188
  0
LWPOLYLINE
  5
248
100
AcDbEntity
  8
ASSI
100
AcDbPolyline
 62
7
  6
CONTINUOUS
 90
3
 70
0
 10
152.2457625331
 20
89.1400425554
 10
152.2228439612
 20
89.0948699498
 10
152.2141030755
 20
89.0745570188
  0
LWPOLYLINE
  5
249
100
AcDbEntity
  8
0
100
AcDbPolyline
 62
7
  6
CONTINUOUS
 90
4
 70
0
 10
152.333606486
 20
89.25243254
 10
152.3012644098
 20
89.2189941757
 10
152.2719406365
 20
89.181477123
 10
152.2457625331
 20
89.1400425554
  0
LWPOLYLINE
  5
24A
100
AcDbEntity
  8
ASSI
100
AcDbPolyline
 62
7
  6
CONTINUOUS
 90
4
 70
0
 10
152.333606486
 20
89.25243254
 10
152.3012644098
 20
89.2189941757
 10
152.2719406365
 20
89.181477123
 10
152.2457625331
 20
89.1400425554
  0
LWPOLYLINE
  5
24B
100
AcDbEntity
  8
0
100
AcDbPolyline
 62
7
  6
CONTINUOUS
 90
3
 70
0
 10
152.1921851071
 20
89.1707776003
 10
152.2274075357
 20
89.1999962713
 10
152.265332346
 20
89.2248554596
  0
LWPOLYLINE
  5
24C
100
AcDbEntity
  8
ASSI
100
AcDbPolyline
 62
7
  6
CONTINUOUS
 90
3
 70
0
 10
152.1921851071
 20
89.1707776003
 10
152.2274075357
 20
89.1999962713
 10
152.265332346
 20
89.2248554596
  0
LINE
  5
24D
100
AcDbEntity
  8
0
100
AcDbLine
 62
250
  6
CONTINUOUS
 10
152.7511618045
 20
89.2223043029
 11
152.5168847458
 21
89.0870352009
  0
LINE
  5
24E
100
AcDbEntity
  8
0
100
AcDbLine
 62
250
  6
CONTINUOUS
 10
152.0168332007
 20
88.6755712262
 11
152.1582545569
 21
88.7572261449
  0
LINE
  5
24F
100
AcDbEntity
  8
ASSI
100
AcDbLine
 62
250
  6
CONTINUOUS
 10
152.0168332007
 20
88.6755712262
 11
152.1582545569
 21
88.7572261449
  0
LINE
  5
250
100
AcDbEntity
  8
0
100
AcDbLine
 62
250
  6
CONTINUOUS
 10
153.1831338203
 20
88.9818887429
 11
152.5168847458
 21
88.5972035565
  0
LWPOLYLINE
  5
251
100
AcDbEntity
  8
0
100
AcDbPolyline
 62
7
  6
CONTINUOUS
 90
13
 70
0
 10
152.265332346
 20
89.2248554596
 10
152.3058837618
 20
89.2452987301
 10
152.3488015743
 20
89.2611885671
 10
152.3939335473
 20
89.2724741369
 10
152.4410886237
 20
89.2791064998
 10
152.4900635007
 20
89.2810559464
 10
152.5406457283
 20
89.2783136315
 10
152.5926186903
 20
89.2708913173
 10
152.6457597383
 20
89.2588208185
 10
152.6998379803
 20
89.2421549984
 10
152.754620566
 20
89.2209665456
 10
152.8098738927
 20
89.1953467286
 10
152.8653613381
 20
89.1654060464
  0
LWPOLYLINE
  5
252
100
AcDbEntity
  8
ASSI
100
AcDbPolyline
 62
7
  6
CONTINUOUS
 90
13
 70
0
 10
152.265332346
 20
89.2248554596
 10
152.3058837618
 20
89.2452987301
 10
152.3488015743
 20
89.2611885671
 10
152.3939335473
 20
89.2724741369
 10
152.4410886237
 20
89.2791064998
 10
152.4900635007
 20
89.2810559464
 10
152.5406457283
 20
89.2783136315
 10
152.5926186903
 20
89.2708913173
 10
152.6457597383
 20
89.2588208185
 10
152.6998379803
 20
89.2421549984
 10
152.754620566
 20
89.2209665456
 10
152.8098738927
 20
89.1953467286
 10
152.8653613381
 20
89.1654060464
  0
LINE
  5
253
100
AcDbEntity
  8
0
100
AcDbLine
 62
7
  6
CONTINUOUS
 10
131.5770852047
 20
58.8317471063
 11
232.06482135
 21
0.8113876631
  0
LINE
  5
254
100
AcDbEntity
  8
ASSI
100
AcDbLine
 62
7
  6
CONTINUOUS
 10
131.5770852047
 20
58.8317471063
 11
232.06482135
 21
0.8113876631
  0
LINE
  5
255
100
AcDbEntity
  8
0
100
AcDbLine
 62
7
  6
CONTINUOUS
 10
131.1736322907
 20
59.093608674
 11
231.0549222024
 21
1.4234036855
  0
LINE
  5
256
100
AcDbEntity
  8
ASSI
100
AcDbLine
 62
7
  6
CONTINUOUS
 10
131.1736322907
 20
59.093608674
 11
231.0549222024
 21
1.4234036855
  0
LINE
  5
257
100
AcDbEntity
  8
0
100
AcDbLine
 62
7
  6
CONTINUOUS
 10
131.5770852047
 20
58.8317471063
 11
131.5563215906
 21
58.8441679319
  0
LINE
  5
258
100
AcDbEntity
  8
ASSI
100
AcDbLine
 62
7
  6
CONTINUOUS
 10
131.5770852047
 20
58.8317471063
 11
131.5563215906
 21
58.8441679319
  0
LINE
  5
259
100
AcDbEntity
  8
0
100
AcDbLine
 62
7
  6
CONTINUOUS
 10
131.1736322907
 20
59.093608674
 11
131.5563215906
 21
58.8441679319
  0
LINE
  5
25A
100
AcDbEntity
  8
ASSI
100
AcDbLine
 62
7
  6
CONTINUOUS
 10
131.1736322907
 20
59.093608674
 11
131.5563215906
 21
58.8441679319
  0
LWPOLYLINE
  5
25B
100
AcDbEntity
  8
0
100
AcDbPolyline
 62
7
  6
CONTINUOUS
 90
25
 70
0
 10
152.1582545569
 20
77.8165244359
 10
152.1600707368
 20
77.7514064317
 10
152.1655119478
 20
77.6844657357
 10
152.1745555606
 20
77.6159886323
 10
152.1871637973
 20
77.5462666838
 10
152.2032831716
 20
77.4755996158
 10
152.2228440229
 20
77.4042941981
 10
152.2457625862
 20
77.332655853
 10
152.2719407254
 20
77.2609913937
 10
152.3012645309
 20
77.1896119325
 10
152.3336066009
 20
77.1188257892
 10
152.3688290196
 20
77.0489331852
 10
152.4067827359
 20
76.9802293289
 10
152.4473052691
 20
76.9130083492
 10
152.4902231213
 20
76.8475580591
 10
152.5353551282
 20
76.7841551942
 10
152.5825101994
 20
76.7230693612
 10
152.6314850603
 20
76.664564994
 10
152.6820673381
 20
76.6088961859
 10
152.734040529
 20
76.5563012264
 10
152.7871818855
 20
76.5070055411
 10
152.8412602664
 20
76.4612231139
 10
152.8960427276
 20
76.4191501729
 10
152.9512957441
 20
76.3809650973
 10
153.0067826944
 20
76.3468305917
  0
LWPOLYLINE
  5
25C
100
AcDbEntity
  8
ASSI
100
AcDbPolyline
 62
7
  6
CONTINUOUS
 90
25
 70
0
 10
152.1582545569
 20
77.8165244359
 10
152.1600707368
 20
77.7514064317
 10
152.1655119478
 20
77.6844657357
 10
152.1745555606
 20
77.6159886323
 10
152.1871637973
 20
77.5462666838
 10
152.2032831716
 20
77.4755996158
 10
152.2228440229
 20
77.4042941981
 10
152.2457625862
 20
77.332655853
 10
152.2719407254
 20
77.2609913937
 10
152.3012645309
 20
77.1896119325
 10
152.3336066009
 20
77.1188257892
 10
152.3688290196
 20
77.0489331852
 10
152.4067827359
 20
76.9802293289
 10
152.4473052691
 20
76.9130083492
 10
152.4902231213
 20
76.8475580591
 10
152.5353551282
 20
76.7841551942
 10
152.5825101994
 20
76.7230693612
 10
152.6314850603
 20
76.664564994
 10
152.6820673381
 20
76.6088961859
 10
152.734040529
 20
76.5563012264
 10
152.7871818855
 20
76.5070055411
 10
152.8412602664
 20
76.4612231139
 10
152.8960427276
 20
76.4191501729
 10
152.9512957441
 20
76.3809650973
 10
153.0067826944
 20
76.3468305917
  0
LWPOLYLINE
  5
25D
100
AcDbEntity
  8
0
100
AcDbPolyline
 62
7
  6
CONTINUOUS
 90
28
 70
0
 10
152.5168847458
 20
78.5893148835
 10
152.5192111586
 20
78.4976255426
 10
152.5259874904
 20
78.404269453
 10
152.5372137412
 20
78.3092466144
 10
152.5529576454
 20
78.2122244164
 10
152.5731514685
 20
78.1135354696
 10
152.5975920075
 20
78.0141776058
 10
152.6263225416
 20
77.9141441053
 10
152.6592997915
 20
77.8134416877
 10
152.6961907166
 20
77.7130883437
 10
152.7370349322
 20
77.613088015
 10
152.781792823
 20
77.5134367599
 10
152.8300125021
 20
77.4151407433
 10
152.8817289831
 20
77.318213797
 10
152.9369072524
 20
77.2226420894
 10
152.9949903819
 20
77.1293902898
 10
153.0560079401
 20
77.0384817188
 10
153.1199303584
 20
76.9498930559
 10
153.1861120037
 20
76.8645190086
 10
153.2545759545
 20
76.7823920882
 10
153.3252991324
 20
76.7034797833
 10
153.3975666682
 20
76.6285792677
 10
153.4713944511
 20
76.5577312731
 10
153.5467665919
 20
76.4908950676
 10
153.622920554
 20
76.42874563
 10
153.6996021586
 20
76.3715079531
 10
153.7770655846
 20
76.318957044
 10
153.8553108318
 20
76.2710929028
  0
LWPOLYLINE
  5
25E
100
AcDbEntity
  8
ASSI
100
AcDbPolyline
 62
7
  6
CONTINUOUS
 90
28
 70
0
 10
152.5168847458
 20
78.5893148835
 10
152.5192111586
 20
78.4976255426
 10
152.5259874904
 20
78.404269453
 10
152.5372137412
 20
78.3092466144
 10
152.5529576454
 20
78.2122244164
 10
152.5731514685
 20
78.1135354696
 10
152.5975920075
 20
78.0141776058
 10
152.6263225416
 20
77.9141441053
 10
152.6592997915
 20
77.8134416877
 10
152.6961907166
 20
77.7130883437
 10
152.7370349322
 20
77.613088015
 10
152.781792823
 20
77.5134367599
 10
152.8300125021
 20
77.4151407433
 10
152.8817289831
 20
77.318213797
 10
152.9369072524
 20
77.2226420894
 10
152.9949903819
 20
77.1293902898
 10
153.0560079401
 20
77.0384817188
 10
153.1199303584
 20
76.9498930559
 10
153.1861120037
 20
76.8645190086
 10
153.2545759545
 20
76.7823920882
 10
153.3252991324
 20
76.7034797833
 10
153.3975666682
 20
76.6285792677
 10
153.4713944511
 20
76.5577312731
 10
153.5467665919
 20
76.4908950676
 10
153.622920554
 20
76.42874563
 10
153.6996021586
 20
76.3715079531
 10
153.7770655846
 20
76.318957044
 10
153.8553108318
 20
76.2710929028
  0
LINE
  5
25F
100
AcDbEntity
  8
0
100
AcDbLine
 62
7
  6
CONTINUOUS
 10
151.3097264195
 20
77.7348695172
 11
151.3097264195
 21
88.6755712262
  0
LINE
  5
260
100
AcDbEntity
  8
ASSI
100
AcDbLine
 62
7
  6
CONTINUOUS
 10
151.3097264195
 20
77.7348695172
 11
151.3097264195
 21
88.6755712262
  0
LINE
  5
261
100
AcDbEntity
  8
0
100
AcDbLine
 62
7
  6
CONTINUOUS
 10
152.0168332007
 20
77.7348695172
 11
152.0168332007
 21
88.6755712262
  0
LINE
  5
262
100
AcDbEntity
  8
ASSI
100
AcDbLine
 62
7
  6
CONTINUOUS
 10
152.0168332007
 20
77.7348695172
 11
152.0168332007
 21
88.6755712262
  0
LINE
  5
263
100
AcDbEntity
  8
0
100
AcDbLine
 62
7
  6
CONTINUOUS
 10
152.1582545569
 20
88.7572261449
 11
152.1582545569
 21
77.8165244359
  0
LINE
  5
264
100
AcDbEntity
  8
ASSI
100
AcDbLine
 62
7
  6
CONTINUOUS
 10
152.1582545569
 20
88.7572261449
 11
152.1582545569
 21
77.8165244359
  0
LINE
  5
265
100
AcDbEntity
  8
0
100
AcDbLine
 62
7
  6
CONTINUOUS
 10
152.5168847458
 20
89.2796018329
 11
152.5168847458
 21
78.5893148835
  0
LINE
  5
266
100
AcDbEntity
  8
ASSI
100
AcDbLine
 62
7
  6
CONTINUOUS
 10
152.5168847458
 20
89.2796018329
 11
152.5168847458
 21
78.5893148835
  0
LINE
  5
267
100
AcDbEntity
  8
0
100
AcDbLine
 62
250
  6
CONTINUOUS
 10
154.1216047989
 20
88.4400273616
 11
154.1216047989
 21
85.243150988
  0
LINE
  5
268
100
AcDbEntity
  8
0
100
AcDbLine
 62
7
  6
CONTINUOUS
 10
154.2058028588
 20
88.3914124571
 11
154.2058028588
 21
85.3634770991
  0
LWPOLYLINE
  5
269
100
AcDbEntity
  8
0
100
AcDbPolyline
 62
250
  6
CONTINUOUS
 90
10
 70
0
 10
154.1216047989
 20
85.243150988
 10
154.1211008047
 20
85.2224575062
 10
154.1189588978
 20
85.2028368515
 10
154.1151953726
 20
85.1844382913
 10
154.1098388613
 20
85.1674017981
 10
154.1029301135
 20
85.1518569772
 10
154.0945216847
 20
85.1379220836
 10
154.0846775366
 20
85.1257031264
 10
154.0734725615
 20
85.1152930728
 10
154.0635925325
 20
85.1083253425
  0
LWPOLYLINE
  5
26A
100
AcDbEntity
  8
0
100
AcDbPolyline
 62
7
  6
CONTINUOUS
 90
28
 70
0
 10
151.3097264195
 20
88.6755712262
 10
151.3118159091
 20
88.7555080136
 10
151.3179020146
 20
88.8323264277
 10
151.3279847363
 20
88.9060264686
 10
151.342124919
 20
88.9768365833
 10
151.3602617178
 20
89.0445283248
 10
151.3822125974
 20
89.1084163514
 10
151.4080163861
 20
89.1684617977
 10
151.4376342557
 20
89.2247035292
 10
151.4707671864
 20
89.2765728003
 10
151.5074508258
 20
89.324025076
 10
151.5476495262
 20
89.3671048915
 10
151.5909573247
 20
89.4053771066
 10
151.6374056427
 20
89.4387929203
 10
151.6869630588
 20
89.4674011338
 10
151.7391293461
 20
89.4909130098
 10
151.7939310052
 20
89.5092769428
 10
151.8513415355
 20
89.5225445384
 10
151.910781208
 20
89.5305818755
 10
151.9722708393
 20
89.5333358289
 10
152.0357896128
 20
89.5308595238
 10
152.1006953499
 20
89.5231784145
 10
152.1670022765
 20
89.5102394262
 10
152.2346961667
 20
89.4920956336
 10
152.3030921644
 20
89.4689317156
 10
152.3719619845
 20
89.4408092319
 10
152.4415339122
 20
89.4076666227
 10
152.5118079475
 20
89.3695038881
  0
LWPOLYLINE
  5
26B
100
AcDbEntity
  8
ASSI
100
AcDbPolyline
 62
7
  6
CONTINUOUS
 90
28
 70
0
 10
151.3097264195
 20
88.6755712262
 10
151.3118159091
 20
88.7555080136
 10
151.3179020146
 20
88.8323264277
 10
151.3279847363
 20
88.9060264686
 10
151.342124919
 20
88.9768365833
 10
151.3602617178
 20
89.0445283248
 10
151.3822125974
 20
89.1084163514
 10
151.4080163861
 20
89.1684617977
 10
151.4376342557
 20
89.2247035292
 10
151.4707671864
 20
89.2765728003
 10
151.5074508258
 20
89.324025076
 10
151.5476495262
 20
89.3671048915
 10
151.5909573247
 20
89.4053771066
 10
151.6374056427
 20
89.4387929203
 10
151.6869630588
 20
89.4674011338
 10
151.7391293461
 20
89.4909130098
 10
151.7939310052
 20
89.5092769428
 10
151.8513415355
 20
89.5225445384
 10
151.910781208
 20
89.5305818755
 10
151.9722708393
 20
89.5333358289
 10
152.0357896128
 20
89.5308595238
 10
152.1006953499
 20
89.5231784145
 10
152.1670022765
 20
89.5102394262
 10
152.2346961667
 20
89.4920956336
 10
152.3030921644
 20
89.4689317156
 10
152.3719619845
 20
89.4408092319
 10
152.4415339122
 20
89.4076666227
 10
152.5118079475
 20
89.3695038881
  0
LWPOLYLINE
  5
26C
100
AcDbEntity
  8
0
100
AcDbPolyline
 62
7
  6
CONTINUOUS
 90
11
 70
0
 10
152.0168332007
 20
88.6755712262
 10
152.0186493472
 20
88.7385913823
 10
152.0240904833
 20
88.7992483869
 10
152.0331340181
 20
88.8572820654
 10
152.0457422358
 20
88.9124445458
 10
152.0618616741
 20
88.9644977318
 10
152.0814225982
 20
89.0132150163
 10
152.1043411666
 20
89.0583876187
 10
152.1305192688
 20
89.0998221879
 10
152.1598430391
 20
89.1373392404
 10
152.1921851071
 20
89.1707776003
  0
LWPOLYLINE
  5
26D
100
AcDbEntity
  8
ASSI
100
AcDbPolyline
 62
7
  6
CONTINUOUS
 90
11
 70
0
 10
152.0168332007
 20
88.6755712262
 10
152.0186493472
 20
88.7385913823
 10
152.0240904833
 20
88.7992483869
 10
152.0331340181
 20
88.8572820654
 10
152.0457422358
 20
88.9124445458
 10
152.0618616741
 20
88.9644977318
 10
152.0814225982
 20
89.0132150163
 10
152.1043411666
 20
89.0583876187
 10
152.1305192688
 20
89.0998221879
 10
152.1598430391
 20
89.1373392404
 10
152.1921851071
 20
89.1707776003
  0
LWPOLYLINE
  5
26E
100
AcDbEntity
  8
0
100
AcDbPolyline
 62
250
  6
CONTINUOUS
 90
10
 70
0
 10
154.2058028582
 20
85.3634658195
 10
154.204868974
 20
85.3498202221
 10
154.2017136863
 20
85.3349750747
 10
154.1963521338
 20
85.3203422795
 10
154.188816073
 20
85.3060175574
 10
154.1791657758
 20
85.2921219225
 10
154.1675063213
 20
85.2787932366
 10
154.1539525244
 20
85.2661367924
 10
154.138609853
 20
85.2542288851
 10
154.1216047989
 20
85.243150988
  0
LINE
  5
26F
100
AcDbEntity
  8
0
100
AcDbLine
 62
250
  6
CONTINUOUS
 10
152.5168847458
 20
78.5893148835
 11
152.1582545569
 21
77.8165244359
  0
LINE
  5
270
100
AcDbEntity
  8
ASSI
100
AcDbLine
 62
250
  6
CONTINUOUS
 10
152.5168847458
 20
78.5893148835
 11
152.1582545569
 21
77.8165244359
  0
LINE
  5
271
100
AcDbEntity
  8
0
100
AcDbLine
 62
250
  6
CONTINUOUS
 10
152.5118079475
 20
75.652803238
 11
152.8653613381
 21
76.2651756731
  0
LINE
  5
272
100
AcDbEntity
  8
ASSI
100
AcDbLine
 62
250
  6
CONTINUOUS
 10
152.5118079475
 20
75.652803238
 11
152.8653613381
 21
76.2651756731
  0
LINE
  5
273
100
AcDbEntity
  8
0
100
AcDbLine
 62
250
  6
CONTINUOUS
 10
154.1216047989
 20
85.243150988
 11
152.5168847458
 21
84.2507680358
  0
LINE
  5
274
100
AcDbEntity
  8
0
100
AcDbLine
 62
7
  6
CONTINUOUS
 10
154.0635925325
 20
85.1083253425
 11
152.5168847458
 21
84.1518180461
  0
LWPOLYLINE
  5
275
100
AcDbEntity
  8
0
100
AcDbPolyline
 62
7
  6
CONTINUOUS
 90
11
 70
0
 10
210.5868596999
 20
43.1399785521
 10
210.541727727
 20
43.1286929823
 10
210.4945726505
 20
43.1220606194
 10
210.4455977735
 20
43.1201111728
 10
210.3950155459
 20
43.1228534878
 10
210.343042584
 20
43.130275802
 10
210.289901536
 20
43.1423463007
 10
210.235823294
 20
43.1590121208
 10
210.1810407082
 20
43.1802005736
 10
210.1257873815
 20
43.2058203906
 10
210.0702999361
 20
43.2357610728
  0
LWPOLYLINE
  5
276
100
AcDbEntity
  8
ASSI
100
AcDbPolyline
 62
7
  6
CONTINUOUS
 90
11
 70
0
 10
210.5868596999
 20
43.1399785521
 10
210.541727727
 20
43.1286929823
 10
210.4945726505
 20
43.1220606194
 10
210.4455977735
 20
43.1201111728
 10
210.3950155459
 20
43.1228534878
 10
210.343042584
 20
43.130275802
 10
210.289901536
 20
43.1423463007
 10
210.235823294
 20
43.1590121208
 10
210.1810407082
 20
43.1802005736
 10
210.1257873815
 20
43.2058203906
 10
210.0702999361
 20
43.2357610728
  0
LINE
  5
277
100
AcDbEntity
  8
CURVE
100
AcDbLine
 62
250
  6
CONTINUOUS
 10
228.0837081013
 20
5.5946863714
 11
228.4070963503
 21
5.4079660494
  0
LINE
  5
278
100
AcDbEntity
  8
CURVE
100
AcDbLine
 62
250
  6
CONTINUOUS
 10
228.9043215303
 20
5.1208744622
 11
229.2166401123
 21
4.9405456272
  0
LINE
  5
279
100
AcDbEntity
  8
CURVE
100
AcDbLine
 62
250
  6
CONTINUOUS
 10
227.9883618518
 20
5.6497384411
 11
227.6461473717
 21
5.8473287929
  0
LINE
  5
27A
100
AcDbEntity
  8
CURVE
100
AcDbLine
 62
250
  6
CONTINUOUS
 10
227.0302582014
 20
6.202935481
 11
226.7090862754
 21
6.3883761258
  0
LINE
  5
27B
100
AcDbEntity
  8
CURVE
100
AcDbLine
 62
250
  6
CONTINUOUS
 10
226.6581007136
 20
6.4178145502
 11
226.3404630418
 21
6.6012145609
  0
LINE
  5
27C
100
AcDbEntity
  8
CURVE
100
AcDbLine
 62
250
  6
CONTINUOUS
 10
225.8876910747
 20
6.8626394202
 11
225.842153198
 21
6.8889324195
  0
LINE
  5
27D
100
AcDbEntity
  8
CURVE
100
AcDbLine
 62
250
  6
CONTINUOUS
 10
225.3911776187
 20
7.1493200669
 11
225.0805506746
 21
7.3286721713
  0
LINE
  5
27E
100
AcDbEntity
  8
CURVE
100
AcDbLine
 62
250
  6
CONTINUOUS
 10
223.9605661804
 20
7.9753371816
 11
223.6744286327
 21
8.1405494155
  0
LINE
  5
27F
100
AcDbEntity
  8
CURVE
100
AcDbLine
 62
250
  6
CONTINUOUS
 10
224.5810622522
 20
7.6170705264
 11
224.9057573208
 21
7.4295956632
  0
LINE
  5
280
100
AcDbEntity
  8
CURVE
100
AcDbLine
 62
250
  6
CONTINUOUS
 10
227.5620341955
 20
6.254456457
 11
227.1198538793
 21
6.5097658297
  0
LINE
  5
281
100
AcDbEntity
  8
CURVE
100
AcDbLine
 62
250
  6
CONTINUOUS
 10
227.1862720795
 20
6.7488708766
 11
227.4971442213
 21
6.569377198
  0
LINE
  5
282
100
AcDbEntity
  8
CURVE
100
AcDbLine
 62
250
  6
CONTINUOUS
 10
228.4070963503
 20
6.1108539273
 11
228.5811899016
 21
6.0103344927
  0
LINE
  5
283
100
AcDbEntity
  8
CURVE
100
AcDbLine
 62
250
  6
CONTINUOUS
 10
228.5818897752
 20
6.3040854763
 11
228.3963299618
 21
6.4112253869
  0
LINE
  5
284
100
AcDbEntity
  8
CURVE
100
AcDbLine
 62
250
  6
CONTINUOUS
 10
223.1813034976
 20
10.2213568186
 11
223.5340222168
 21
10.0177014507
  0
LINE
  5
285
100
AcDbEntity
  8
CURVE
100
AcDbLine
 62
250
  6
CONTINUOUS
 10
224.1360943865
 20
9.6700725257
 11
224.4605679623
 21
9.4827255496
  0
LINE
  5
286
100
AcDbEntity
  8
CURVE
100
AcDbLine
 62
250
  6
CONTINUOUS
 10
225.2210037596
 20
9.0436594508
 11
225.5454299255
 21
8.8563398485
  0
LINE
  5
287
100
AcDbEntity
  8
CURVE
100
AcDbLine
 62
250
  6
CONTINUOUS
 10
226.1913902582
 20
8.4833704482
 11
226.5126436699
 21
8.2978827546
  0
LINE
  5
288
100
AcDbEntity
  8
CURVE
100
AcDbLine
 62
250
  6
CONTINUOUS
 10
227.1969918852
 20
7.902748672
 11
227.511094562
 21
7.721389723
  0
LINE
  5
289
100
AcDbEntity
  8
CURVE
100
AcDbLine
 62
250
  6
CONTINUOUS
 10
224.9057573208
 20
9.2257865676
 11
224.5810622522
 21
9.4132614308
  0
LWPOLYLINE
  5
28A
100
AcDbEntity
  8
CURVE
100
AcDbPolyline
 62
250
  6
CONTINUOUS
 90
46
 70
0
 10
228.5811899016
 20
6.0103344927
 10
228.586501347
 20
6.0071813394
 10
228.5918212088
 20
6.0038505551
 10
228.5971436018
 20
6.0003455547
 10
228.6024626407
 20
5.9966697532
 10
228.6077724403
 20
5.9928265655
 10
228.6130671152
 20
5.9888194064
 10
228.6183407803
 20
5.984651691
 10
228.6235875503
 20
5.980326834
 10
228.6288015399
 20
5.9758482504
 10
228.6339768639
 20
5.9712193551
 10
228.6391076369
 20
5.9664435631
 10
228.6441879738
 20
5.9615242892
 10
228.6492119893
 20
5.9564649484
 10
228.6541737981
 20
5.9512689555
 10
228.659067515
 20
5.9459397255
 10
228.6638872546
 20
5.9404806733
 10
228.6685074368
 20
5.9350400583
 10
228.6730494451
 20
5.9294850406
 10
228.6775109345
 20
5.9238212398
 10
228.6818895597
 20
5.9180542758
 10
228.6861829757
 20
5.9121897682
 10
228.6903888373
 20
5.9062333368
 10
228.6945047993
 20
5.9001906014
 10
228.6985285166
 20
5.8940671817
 10
228.7024576439
 20
5.8878686975
 10
228.7062898363
 20
5.8816007685
 10
228.7100227484
 20
5.8752690145
 10
228.7136540351
 20
5.8688790552
 10
228.7171813514
 20
5.8624365104
 10
228.7208685635
 20
5.8554325785
 10
228.7244335046
 20
5.8483793716
 10
228.7278776682
 20
5.8412822883
 10
228.7312025475
 20
5.8341467275
 10
228.734409636
 20
5.8269780878
 10
228.7375004269
 20
5.819781768
 10
228.7404764137
 20
5.8125631668
 10
228.7433390897
 20
5.805327683
 10
228.7460899482
 20
5.7980807154
 10
228.7487304827
 20
5.7908276627
 10
228.7512621864
 20
5.7835739237
 10
228.7536865528
 20
5.776324897
 10
228.7560050751
 20
5.7690859815
 10
228.7582192467
 20
5.7618625759
 10
228.7603305611
 20
5.754660079
 10
228.7623405114
 20
5.7474838894
  0
LINE
  5
28B
100
AcDbEntity
  8
0
100
AcDbLine
 62
7
  6
CONTINUOUS
 10
231.0549222024
 20
1.4234036855
 11
232.0644589198
 21
0.8120291008
  0
LINE
  5
28C
100
AcDbEntity
  8
ASSI
100
AcDbLine
 62
7
  6
CONTINUOUS
 10
231.0549222024
 20
1.4234036855
 11
232.0644589198
 21
0.8120291008
  0
LINE
  5
28D
100
AcDbEntity
  8
0
100
AcDbLine
 62
250
  6
CONTINUOUS
 10
152.0168332007
 20
77.7348695172
 11
152.1582545569
 21
77.8165244359
  0
LINE
  5
28E
100
AcDbEntity
  8
ASSI
100
AcDbLine
 62
250
  6
CONTINUOUS
 10
152.0168332007
 20
77.7348695172
 11
152.1582545569
 21
77.8165244359
  0
LINE
  5
28F
100
AcDbEntity
  8
0
100
AcDbLine
 62
250
  6
CONTINUOUS
 10
152.8653613381
 20
76.2651756731
 11
153.0067826944
 21
76.3468305917
  0
LINE
  5
290
100
AcDbEntity
  8
ASSI
100
AcDbLine
 62
250
  6
CONTINUOUS
 10
152.8653613381
 20
76.2651756731
 11
153.0067826944
 21
76.3468305917
  0
LWPOLYLINE
  5
291
100
AcDbEntity
  8
CURVE
100
AcDbPolyline
 62
250
  6
CONTINUOUS
 90
49
 70
0
 10
228.650699012
 20
6.7679887138
 10
228.6566498662
 20
6.7636622949
 10
228.6626011262
 20
6.7591499064
 10
228.6685462374
 20
6.7544558551
 10
228.6744786453
 20
6.7495844475
 10
228.6803917954
 20
6.7445399902
 10
228.6862791332
 20
6.73932679
 10
228.6921341042
 20
6.7339491534
 10
228.6979501538
 20
6.7284113871
 10
228.7037207277
 20
6.7227177977
 10
228.7094392712
 20
6.7168726918
 10
228.7150992298
 20
6.7108803761
 10
228.7206940491
 20
6.7047451573
 10
228.7262171746
 20
6.6984713419
 10
228.7316620517
 20
6.6920632365
 10
228.737022126
 20
6.685525148
 10
228.7422908429
 20
6.6788613827
 10
228.7474616479
 20
6.6720762475
 10
228.7525279865
 20
6.6651740489
 10
228.7574833043
 20
6.6581590936
 10
228.7623210466
 20
6.6510356881
 10
228.7670346591
 20
6.6438081392
 10
228.7716175872
 20
6.6364807535
 10
228.7760632763
 20
6.6290578376
 10
228.7803651721
 20
6.6215436982
 10
228.7844955204
 20
6.6139846615
 10
228.788475254
 20
6.6063488467
 10
228.7923024899
 20
6.5986454582
 10
228.7959753449
 20
6.5908837005
 10
228.7994919359
 20
6.5830727779
 10
228.80285038
 20
6.575221895
 10
228.806048794
 20
6.567340256
 10
228.809085295
 20
6.5594370655
 10
228.8119579997
 20
6.5515215279
 10
228.8146650252
 20
6.5436028476
 10
228.8172044884
 20
6.535690229
 10
228.8195745063
 20
6.5277928766
 10
228.8217731957
 20
6.5199199948
 10
228.8237986736
 20
6.512080788
 10
228.825649057
 20
6.5042844607
 10
228.8273224627
 20
6.4965402173
 10
228.8288170077
 20
6.4888572622
 10
228.830130809
 20
6.4812447998
 10
228.8312619835
 20
6.4737120345
 10
228.8322086481
 20
6.4662681709
 10
228.8329689197
 20
6.4589224133
 10
228.8335409154
 20
6.4516839662
 10
228.8339227519
 20
6.4445620339
 10
228.8341125464
 20
6.437565821
  0
LINE
  5
292
100
AcDbEntity
  8
0
100
AcDbLine
 62
7
  6
CONTINUOUS
 10
163.1891203435
 20
81.8165580583
 11
163.1891203435
 21
70.8758563493
  0
LINE
  5
293
100
AcDbEntity
  8
ASSI
100
AcDbLine
 62
7
  6
CONTINUOUS
 10
163.1891203435
 20
81.8165580583
 11
163.1891203435
 21
70.8758563493
  0
LINE
  5
294
100
AcDbEntity
  8
0
100
AcDbLine
 62
7
  6
CONTINUOUS
 10
167.2196289962
 20
68.5486911673
 11
167.2196289962
 21
79.4893928764
  0
LINE
  5
295
100
AcDbEntity
  8
ASSI
100
AcDbLine
 62
7
  6
CONTINUOUS
 10
167.2196289962
 20
68.5486911673
 11
167.2196289962
 21
79.4893928764
  0
LWPOLYLINE
  5
296
100
AcDbEntity
  8
0
100
AcDbPolyline
 62
7
  6
CONTINUOUS
 90
28
 70
0
 10
163.1891203435
 20
70.8758563493
 10
163.1870308539
 20
70.7959195619
 10
163.1809447483
 20
70.7191011478
 10
163.1708620267
 20
70.645401107
 10
163.156721844
 20
70.5745909922
 10
163.1385850452
 20
70.5068992508
 10
163.1166341656
 20
70.4430112242
 10
163.0908303768
 20
70.3829657778
 10
163.0612125073
 20
70.3267240464
 10
163.0280795766
 20
70.2748547752
 10
162.9913959372
 20
70.2274024995
 10
162.9511972368
 20
70.1843226841
 10
162.9078894382
 20
70.146050469
 10
162.8614411202
 20
70.1126346552
 10
162.8118837041
 20
70.0840264417
 10
162.7597174169
 20
70.0605145658
 10
162.7049157578
 20
70.0421506327
 10
162.6475052275
 20
70.0288830371
 10
162.588065555
 20
70.0208457
 10
162.5265759237
 20
70.0180917466
 10
162.4630571502
 20
70.0205680517
 10
162.398151413
 20
70.028249161
 10
162.3318444865
 20
70.0411881494
 10
162.2641505963
 20
70.0593319419
 10
162.1957545985
 20
70.0824958599
 10
162.1268847785
 20
70.1106183437
 10
162.0573128508
 20
70.1437609528
 10
161.9870388154
 20
70.1819236874
  0
LWPOLYLINE
  5
297
100
AcDbEntity
  8
ASSI
100
AcDbPolyline
 62
7
  6
CONTINUOUS
 90
28
 70
0
 10
163.1891203435
 20
70.8758563493
 10
163.1870308539
 20
70.7959195619
 10
163.1809447483
 20
70.7191011478
 10
163.1708620267
 20
70.645401107
 10
163.156721844
 20
70.5745909922
 10
163.1385850452
 20
70.5068992508
 10
163.1166341656
 20
70.4430112242
 10
163.0908303768
 20
70.3829657778
 10
163.0612125073
 20
70.3267240464
 10
163.0280795766
 20
70.2748547752
 10
162.9913959372
 20
70.2274024995
 10
162.9511972368
 20
70.1843226841
 10
162.9078894382
 20
70.146050469
 10
162.8614411202
 20
70.1126346552
 10
162.8118837041
 20
70.0840264417
 10
162.7597174169
 20
70.0605145658
 10
162.7049157578
 20
70.0421506327
 10
162.6475052275
 20
70.0288830371
 10
162.588065555
 20
70.0208457
 10
162.5265759237
 20
70.0180917466
 10
162.4630571502
 20
70.0205680517
 10
162.398151413
 20
70.028249161
 10
162.3318444865
 20
70.0411881494
 10
162.2641505963
 20
70.0593319419
 10
162.1957545985
 20
70.0824958599
 10
162.1268847785
 20
70.1106183437
 10
162.0573128508
 20
70.1437609528
 10
161.9870388154
 20
70.1819236874
  0
LWPOLYLINE
  5
298
100
AcDbEntity
  8
0
100
AcDbPolyline
 62
7
  6
CONTINUOUS
 90
28
 70
0
 10
167.2196289962
 20
79.4893928764
 10
167.2217184857
 20
79.5693296637
 10
167.2278045913
 20
79.6461480778
 10
167.237887313
 20
79.7198481187
 10
167.2520274957
 20
79.7906582334
 10
167.2701642945
 20
79.8583499749
 10
167.2921151741
 20
79.9222380015
 10
167.3179189628
 20
79.9822834478
 10
167.3475368324
 20
80.0385251793
 10
167.3806697631
 20
80.0903944504
 10
167.4173534024
 20
80.1378467262
 10
167.4575521029
 20
80.1809265416
 10
167.5008599014
 20
80.2191987567
 10
167.5473082194
 20
80.2526145705
 10
167.5968656355
 20
80.2812227839
 10
167.6490319228
 20
80.3047346599
 10
167.7038335819
 20
80.323098593
 10
167.7612441122
 20
80.3363661885
 10
167.8206837847
 20
80.3444035256
 10
167.882173416
 20
80.347157479
 10
167.9456921895
 20
80.3446811739
 10
168.0105979266
 20
80.3370000646
 10
168.0769048532
 20
80.3240610763
 10
168.1445987434
 20
80.3059172837
 10
168.2129947411
 20
80.2827533658
 10
168.2818645612
 20
80.254630882
 10
168.3514364889
 20
80.2214882728
 10
168.4217105242
 20
80.1833255382
  0
LWPOLYLINE
  5
299
100
AcDbEntity
  8
ASSI
100
AcDbPolyline
 62
7
  6
CONTINUOUS
 90
28
 70
0
 10
167.2196289962
 20
79.4893928764
 10
167.2217184857
 20
79.5693296637
 10
167.2278045913
 20
79.6461480778
 10
167.237887313
 20
79.7198481187
 10
167.2520274957
 20
79.7906582334
 10
167.2701642945
 20
79.8583499749
 10
167.2921151741
 20
79.9222380015
 10
167.3179189628
 20
79.9822834478
 10
167.3475368324
 20
80.0385251793
 10
167.3806697631
 20
80.0903944504
 10
167.4173534024
 20
80.1378467262
 10
167.4575521029
 20
80.1809265416
 10
167.5008599014
 20
80.2191987567
 10
167.5473082194
 20
80.2526145705
 10
167.5968656355
 20
80.2812227839
 10
167.6490319228
 20
80.3047346599
 10
167.7038335819
 20
80.323098593
 10
167.7612441122
 20
80.3363661885
 10
167.8206837847
 20
80.3444035256
 10
167.882173416
 20
80.347157479
 10
167.9456921895
 20
80.3446811739
 10
168.0105979266
 20
80.3370000646
 10
168.0769048532
 20
80.3240610763
 10
168.1445987434
 20
80.3059172837
 10
168.2129947411
 20
80.2827533658
 10
168.2818645612
 20
80.254630882
 10
168.3514364889
 20
80.2214882728
 10
168.4217105242
 20
80.1833255382
  0
LWPOLYLINE
  5
29A
100
AcDbEntity
  8
0
100
AcDbPolyline
 62
7
  6
CONTINUOUS
 90
7
 70
0
 10
163.1891203435
 20
71.2841309426
 10
163.1873041969
 20
71.2211107865
 10
163.1818630608
 20
71.1604537819
 10
163.1728195261
 20
71.1024201034
 10
163.1602113084
 20
71.047257623
 10
163.14409187
 20
70.995204437
 10
163.124530946
 20
70.9464871526
  0
LWPOLYLINE
  5
29B
100
AcDbEntity
  8
ASSI
100
AcDbPolyline
 62
7
  6
CONTINUOUS
 90
7
 70
0
 10
163.1891203435
 20
71.2841309426
 10
163.1873041969
 20
71.2211107865
 10
163.1818630608
 20
71.1604537819
 10
163.1728195261
 20
71.1024201034
 10
163.1602113084
 20
71.047257623
 10
163.14409187
 20
70.995204437
 10
163.124530946
 20
70.9464871526
  0
LWPOLYLINE
  5
29C
100
AcDbEntity
  8
0
100
AcDbPolyline
 62
7
  6
CONTINUOUS
 90
7
 70
0
 10
168.1240056522
 20
79.888378669
 10
168.1131856063
 20
79.8599742985
 10
168.0970661615
 20
79.8079210878
 10
168.0844579428
 20
79.7527585914
 10
168.0754144111
 20
79.6947249137
 10
168.0699732785
 20
79.634067923
 10
168.0681571336
 20
79.571047795
  0
LWPOLYLINE
  5
29D
100
AcDbEntity
  8
ASSI
100
AcDbPolyline
 62
7
  6
CONTINUOUS
 90
7
 70
0
 10
168.1240056522
 20
79.888378669
 10
168.1131856063
 20
79.8599742985
 10
168.0970661615
 20
79.8079210878
 10
168.0844579428
 20
79.7527585914
 10
168.0754144111
 20
79.6947249137
 10
168.0699732785
 20
79.634067923
 10
168.0681571336
 20
79.571047795
  0
LINE
  5
29E
100
AcDbEntity
  8
0
100
AcDbLine
 62
250
  6
CONTINUOUS
 10
168.3075088803
 20
80.0868123603
 11
168.0681571336
 21
79.571047795
  0
LINE
  5
29F
100
AcDbEntity
  8
ASSI
100
AcDbLine
 62
250
  6
CONTINUOUS
 10
168.3075088803
 20
80.0868123603
 11
168.0681571336
 21
79.571047795
  0
LWPOLYLINE
  5
2A0
100
AcDbEntity
  8
0
100
AcDbPolyline
 62
7
  6
CONTINUOUS
 90
7
 70
0
 10
163.124530946
 20
70.9464871526
 10
163.1016123775
 20
70.9013145502
 10
163.0754342754
 20
70.8598799809
 10
163.046110505
 20
70.8223629284
 10
163.0137684371
 20
70.7889245686
 10
162.9785460085
 20
70.7597058976
 10
162.9406211982
 20
70.7348467093
  0
LWPOLYLINE
  5
2A1
100
AcDbEntity
  8
ASSI
100
AcDbPolyline
 62
7
  6
CONTINUOUS
 90
7
 70
0
 10
163.124530946
 20
70.9464871526
 10
163.1016123775
 20
70.9013145502
 10
163.0754342754
 20
70.8598799809
 10
163.046110505
 20
70.8223629284
 10
163.0137684371
 20
70.7889245686
 10
162.9785460085
 20
70.7597058976
 10
162.9406211982
 20
70.7348467093
  0
LWPOLYLINE
  5
2A2
100
AcDbEntity
  8
0
100
AcDbPolyline
 62
7
  6
CONTINUOUS
 90
3
 70
0
 10
168.1556651098
 20
79.9538642055
 10
168.1327465379
 20
79.9086915999
 10
168.1240056522
 20
79.888378669
  0
LWPOLYLINE
  5
2A3
100
AcDbEntity
  8
ASSI
100
AcDbPolyline
 62
7
  6
CONTINUOUS
 90
3
 70
0
 10
168.1556651098
 20
79.9538642055
 10
168.1327465379
 20
79.9086915999
 10
168.1240056522
 20
79.888378669
  0
LINE
  5
2A4
100
AcDbEntity
  8
0
100
AcDbLine
 62
250
  6
CONTINUOUS
 10
161.9870388154
 20
70.1819236874
 11
162.340592206
 21
70.7942961225
  0
LINE
  5
2A5
100
AcDbEntity
  8
ASSI
100
AcDbLine
 62
250
  6
CONTINUOUS
 10
161.9870388154
 20
70.1819236874
 11
162.340592206
 21
70.7942961225
  0
LWPOLYLINE
  5
2A6
100
AcDbEntity
  8
0
100
AcDbPolyline
 62
7
  6
CONTINUOUS
 90
4
 70
0
 10
168.2435090627
 20
80.0662541901
 10
168.2111669865
 20
80.0328158258
 10
168.1818432132
 20
79.9952987731
 10
168.1556651098
 20
79.9538642055
  0
LWPOLYLINE
  5
2A7
100
AcDbEntity
  8
ASSI
100
AcDbPolyline
 62
7
  6
CONTINUOUS
 90
4
 70
0
 10
168.2435090627
 20
80.0662541901
 10
168.2111669865
 20
80.0328158258
 10
168.1818432132
 20
79.9952987731
 10
168.1556651098
 20
79.9538642055
  0
LWPOLYLINE
  5
2A8
100
AcDbEntity
  8
0
100
AcDbPolyline
 62
7
  6
CONTINUOUS
 90
3
 70
0
 10
168.1020876838
 20
79.9845992504
 10
168.1373101124
 20
80.0138179214
 10
168.1752349227
 20
80.0386771097
  0
LWPOLYLINE
  5
2A9
100
AcDbEntity
  8
ASSI
100
AcDbPolyline
 62
7
  6
CONTINUOUS
 90
3
 70
0
 10
168.1020876838
 20
79.9845992504
 10
168.1373101124
 20
80.0138179214
 10
168.1752349227
 20
80.0386771097
  0
LINE
  5
2AA
100
AcDbEntity
  8
0
100
AcDbLine
 62
250
  6
CONTINUOUS
 10
167.9267357774
 20
79.4893928764
 11
168.0681571336
 21
79.571047795
  0
LINE
  5
2AB
100
AcDbEntity
  8
ASSI
100
AcDbLine
 62
250
  6
CONTINUOUS
 10
167.9267357774
 20
79.4893928764
 11
168.0681571336
 21
79.571047795
  0
LWPOLYLINE
  5
2AC
100
AcDbEntity
  8
0
100
AcDbPolyline
 62
7
  6
CONTINUOUS
 90
13
 70
0
 10
168.1752349227
 20
80.0386771097
 10
168.2157863385
 20
80.0591203803
 10
168.258704151
 20
80.0750102172
 10
168.303836124
 20
80.086295787
 10
168.3509912004
 20
80.09292815
 10
168.3999660774
 20
80.0948775966
 10
168.450548305
 20
80.0921352816
 10
168.502521267
 20
80.0847129674
 10
168.555662315
 20
80.0726424687
 10
168.609740557
 20
80.0559766485
 10
168.6645231427
 20
80.0347881957
 10
168.7197764694
 20
80.0091683787
 10
168.7752639148
 20
79.9792276965
  0
LWPOLYLINE
  5
2AD
100
AcDbEntity
  8
ASSI
100
AcDbPolyline
 62
7
  6
CONTINUOUS
 90
13
 70
0
 10
168.1752349227
 20
80.0386771097
 10
168.2157863385
 20
80.0591203803
 10
168.258704151
 20
80.0750102172
 10
168.303836124
 20
80.086295787
 10
168.3509912004
 20
80.09292815
 10
168.3999660774
 20
80.0948775966
 10
168.450548305
 20
80.0921352816
 10
168.502521267
 20
80.0847129674
 10
168.555662315
 20
80.0726424687
 10
168.609740557
 20
80.0559766485
 10
168.6645231427
 20
80.0347881957
 10
168.7197764694
 20
80.0091683787
 10
168.7752639148
 20
79.9792276965
  0
LWPOLYLINE
  5
2AE
100
AcDbEntity
  8
0
100
AcDbPolyline
 62
7
  6
CONTINUOUS
 90
11
 70
0
 10
194.6769571232
 20
52.326156902
 10
194.6318251503
 20
52.3148713322
 10
194.5846700738
 20
52.3082389693
 10
194.5356951968
 20
52.3062895227
 10
194.4851129692
 20
52.3090318377
 10
194.4331400073
 20
52.3164541518
 10
194.3799989593
 20
52.3285246506
 10
194.3259207173
 20
52.3451904707
 10
194.2711381315
 20
52.3663789235
 10
194.2158848048
 20
52.3919987405
 10
194.1603973594
 20
52.4219394227
  0
LWPOLYLINE
  5
2AF
100
AcDbEntity
  8
ASSI
100
AcDbPolyline
 62
7
  6
CONTINUOUS
 90
11
 70
0
 10
194.6769571232
 20
52.326156902
 10
194.6318251503
 20
52.3148713322
 10
194.5846700738
 20
52.3082389693
 10
194.5356951968
 20
52.3062895227
 10
194.4851129692
 20
52.3090318377
 10
194.4331400073
 20
52.3164541518
 10
194.3799989593
 20
52.3285246506
 10
194.3259207173
 20
52.3451904707
 10
194.2711381315
 20
52.3663789235
 10
194.2158848048
 20
52.3919987405
 10
194.1603973594
 20
52.4219394227
  0
LINE
  5
2B0
100
AcDbEntity
  8
0
100
AcDbLine
 62
250
  6
CONTINUOUS
 10
199.0394341496
 20
50.1763344676
 11
199.7465409308
 21
50.1763344676
  0
LINE
  5
2B1
100
AcDbEntity
  8
ASSI
100
AcDbLine
 62
250
  6
CONTINUOUS
 10
199.0394341496
 20
50.1763344676
 11
199.7465409308
 21
50.1763344676
  0
LINE
  5
2B2
100
AcDbEntity
  8
0
100
AcDbLine
 62
250
  6
CONTINUOUS
 10
210.77818412
 20
43.2668548097
 11
210.2117212924
 21
43.3174159915
  0
LINE
  5
2B3
100
AcDbEntity
  8
ASSI
100
AcDbLine
 62
250
  6
CONTINUOUS
 10
210.77818412
 20
43.2668548097
 11
210.2117212924
 21
43.3174159915
  0
LINE
  5
2B4
100
AcDbEntity
  8
0
100
AcDbLine
 62
250
  6
CONTINUOUS
 10
201.5850185619
 20
48.7125578532
 11
200.7364904245
 21
48.7882955421
  0
LINE
  5
2B5
100
AcDbEntity
  8
ASSI
100
AcDbLine
 62
250
  6
CONTINUOUS
 10
201.5850185619
 20
48.7125578532
 11
200.7364904245
 21
48.7882955421
  0
LWPOLYLINE
  5
2B6
100
AcDbEntity
  8
0
100
AcDbPolyline
 62
7
  6
CONTINUOUS
 90
6
 70
0
 10
210.5145503079
 20
43.2070863386
 10
210.5364367978
 20
43.2045084168
 10
210.5870190341
 20
43.2017660922
 10
210.6359939413
 20
43.2037155322
 10
210.6831490397
 20
43.2103478925
 10
210.7282810151
 20
43.2216334581
  0
LWPOLYLINE
  5
2B7
100
AcDbEntity
  8
ASSI
100
AcDbPolyline
 62
7
  6
CONTINUOUS
 90
6
 70
0
 10
210.5145503079
 20
43.2070863386
 10
210.5364367978
 20
43.2045084168
 10
210.5870190341
 20
43.2017660922
 10
210.6359939413
 20
43.2037155322
 10
210.6831490397
 20
43.2103478925
 10
210.7282810151
 20
43.2216334581
  0
LWPOLYLINE
  5
2B8
100
AcDbEntity
  8
0
100
AcDbPolyline
 62
7
  6
CONTINUOUS
 90
5
 70
0
 10
163.1567220482
 20
82.1552352421
 10
163.1708621645
 20
82.068096565
 10
163.1809448326
 20
81.9827535024
 10
163.1870308923
 20
81.8989073335
 10
163.1891203435
 20
81.8165580583
  0
LWPOLYLINE
  5
2B9
100
AcDbEntity
  8
ASSI
100
AcDbPolyline
 62
7
  6
CONTINUOUS
 90
5
 70
0
 10
163.1567220482
 20
82.1552352421
 10
163.1708621645
 20
82.068096565
 10
163.1809448326
 20
81.9827535024
 10
163.1870308923
 20
81.8989073335
 10
163.1891203435
 20
81.8165580583
  0
LWPOLYLINE
  5
2BA
100
AcDbEntity
  8
0
100
AcDbPolyline
 62
7
  6
CONTINUOUS
 90
25
 70
0
 10
168.0681571336
 20
68.630346086
 10
168.0699733135
 20
68.5652280818
 10
168.0754145245
 20
68.4982873858
 10
168.0844581373
 20
68.4298102825
 10
168.097066374
 20
68.3600883339
 10
168.1131857483
 20
68.2894212659
 10
168.1327465996
 20
68.2181158482
 10
168.1556651629
 20
68.1464775032
 10
168.1818433021
 20
68.0748130439
 10
168.2111671076
 20
68.0034335826
 10
168.2435091776
 20
67.9326474393
 10
168.2787315963
 20
67.8627548353
 10
168.3166853126
 20
67.794050979
 10
168.3572078458
 20
67.7268299993
 10
168.400125698
 20
67.6613797092
 10
168.4452577049
 20
67.5979768443
 10
168.4924127761
 20
67.5368910113
 10
168.541387637
 20
67.4783866441
 10
168.5919699148
 20
67.422717836
 10
168.6439431057
 20
67.3701228765
 10
168.6970844622
 20
67.3208271913
 10
168.7511628431
 20
67.275044764
 10
168.8059453043
 20
67.232971823
 10
168.8611983208
 20
67.1947867474
 10
168.9166852711
 20
67.1606522419
  0
LWPOLYLINE
  5
2BB
100
AcDbEntity
  8
ASSI
100
AcDbPolyline
 62
7
  6
CONTINUOUS
 90
25
 70
0
 10
168.0681571336
 20
68.630346086
 10
168.0699733135
 20
68.5652280818
 10
168.0754145245
 20
68.4982873858
 10
168.0844581373
 20
68.4298102825
 10
168.097066374
 20
68.3600883339
 10
168.1131857483
 20
68.2894212659
 10
168.1327465996
 20
68.2181158482
 10
168.1556651629
 20
68.1464775032
 10
168.1818433021
 20
68.0748130439
 10
168.2111671076
 20
68.0034335826
 10
168.2435091776
 20
67.9326474393
 10
168.2787315963
 20
67.8627548353
 10
168.3166853126
 20
67.794050979
 10
168.3572078458
 20
67.7268299993
 10
168.400125698
 20
67.6613797092
 10
168.4452577049
 20
67.5979768443
 10
168.4924127761
 20
67.5368910113
 10
168.541387637
 20
67.4783866441
 10
168.5919699148
 20
67.422717836
 10
168.6439431057
 20
67.3701228765
 10
168.6970844622
 20
67.3208271913
 10
168.7511628431
 20
67.275044764
 10
168.8059453043
 20
67.232971823
 10
168.8611983208
 20
67.1947867474
 10
168.9166852711
 20
67.1606522419
  0
LWPOLYLINE
  5
2BC
100
AcDbEntity
  8
0
100
AcDbPolyline
 62
7
  6
CONTINUOUS
 90
28
 70
0
 10
168.4267873225
 20
69.4031365336
 10
168.4291137353
 20
69.3114471928
 10
168.4358900671
 20
69.2180911031
 10
168.4471163179
 20
69.1230682645
 10
168.4628602221
 20
69.0260460666
 10
168.4830540452
 20
68.9273571198
 10
168.5074945842
 20
68.8279992559
 10
168.5362251183
 20
68.7279657554
 10
168.5692023682
 20
68.6272633378
 10
168.6060932933
 20
68.5269099938
 10
168.6469375089
 20
68.4269096651
 10
168.6916953997
 20
68.32725841
 10
168.7399150788
 20
68.2289623934
 10
168.7916315598
 20
68.1320354472
 10
168.8468098291
 20
68.0364637395
 10
168.9048929586
 20
67.9432119399
 10
168.9659105167
 20
67.8523033689
 10
169.0298329351
 20
67.7637147061
 10
169.0960145804
 20
67.6783406587
 10
169.1644785312
 20
67.5962137383
 10
169.2352017091
 20
67.5173014335
 10
169.3074692449
 20
67.4424009179
 10
169.3812970278
 20
67.3715529232
 10
169.4566691686
 20
67.3047167177
 10
169.5328231307
 20
67.2425672801
 10
169.6095047353
 20
67.1853296032
 10
169.6869681613
 20
67.1327786942
 10
169.7652134085
 20
67.0849145529
  0
LWPOLYLINE
  5
2BD
100
AcDbEntity
  8
ASSI
100
AcDbPolyline
 62
7
  6
CONTINUOUS
 90
28
 70
0
 10
168.4267873225
 20
69.4031365336
 10
168.4291137353
 20
69.3114471928
 10
168.4358900671
 20
69.2180911031
 10
168.4471163179
 20
69.1230682645
 10
168.4628602221
 20
69.0260460666
 10
168.4830540452
 20
68.9273571198
 10
168.5074945842
 20
68.8279992559
 10
168.5362251183
 20
68.7279657554
 10
168.5692023682
 20
68.6272633378
 10
168.6060932933
 20
68.5269099938
 10
168.6469375089
 20
68.4269096651
 10
168.6916953997
 20
68.32725841
 10
168.7399150788
 20
68.2289623934
 10
168.7916315598
 20
68.1320354472
 10
168.8468098291
 20
68.0364637395
 10
168.9048929586
 20
67.9432119399
 10
168.9659105167
 20
67.8523033689
 10
169.0298329351
 20
67.7637147061
 10
169.0960145804
 20
67.6783406587
 10
169.1644785312
 20
67.5962137383
 10
169.2352017091
 20
67.5173014335
 10
169.3074692449
 20
67.4424009179
 10
169.3812970278
 20
67.3715529232
 10
169.4566691686
 20
67.3047167177
 10
169.5328231307
 20
67.2425672801
 10
169.6095047353
 20
67.1853296032
 10
169.6869681613
 20
67.1327786942
 10
169.7652134085
 20
67.0849145529
  0
LINE
  5
2BE
100
AcDbEntity
  8
0
100
AcDbLine
 62
7
  6
CONTINUOUS
 10
167.9267357774
 20
68.5486911673
 11
167.9267357774
 21
79.4893928764
  0
LINE
  5
2BF
100
AcDbEntity
  8
ASSI
100
AcDbLine
 62
7
  6
CONTINUOUS
 10
167.9267357774
 20
68.5486911673
 11
167.9267357774
 21
79.4893928764
  0
LINE
  5
2C0
100
AcDbEntity
  8
0
100
AcDbLine
 62
7
  6
CONTINUOUS
 10
168.0681571336
 20
79.571047795
 11
168.0681571336
 21
68.630346086
  0
LINE
  5
2C1
100
AcDbEntity
  8
ASSI
100
AcDbLine
 62
7
  6
CONTINUOUS
 10
168.0681571336
 20
79.571047795
 11
168.0681571336
 21
68.630346086
  0
LINE
  5
2C2
100
AcDbEntity
  8
0
100
AcDbLine
 62
7
  6
CONTINUOUS
 10
168.4267873225
 20
80.093423483
 11
168.4267873225
 21
69.4031365336
  0
LINE
  5
2C3
100
AcDbEntity
  8
ASSI
100
AcDbLine
 62
7
  6
CONTINUOUS
 10
168.4267873225
 20
80.093423483
 11
168.4267873225
 21
69.4031365336
  0
LWPOLYLINE
  5
2C4
100
AcDbEntity
  8
0
100
AcDbPolyline
 62
7
  6
CONTINUOUS
 90
11
 70
0
 10
167.9267357774
 20
79.4893928764
 10
167.9285519239
 20
79.5524130325
 10
167.93399306
 20
79.613070037
 10
167.9430365948
 20
79.6711037155
 10
167.9556448125
 20
79.7262661959
 10
167.9717642508
 20
79.7783193819
 10
167.9913251749
 20
79.8270366664
 10
168.0142437433
 20
79.8722092688
 10
168.0404218455
 20
79.913643838
 10
168.0697456158
 20
79.9511608906
 10
168.1020876838
 20
79.9845992504
  0
LWPOLYLINE
  5
2C5
100
AcDbEntity
  8
ASSI
100
AcDbPolyline
 62
7
  6
CONTINUOUS
 90
11
 70
0
 10
167.9267357774
 20
79.4893928764
 10
167.9285519239
 20
79.5524130325
 10
167.93399306
 20
79.613070037
 10
167.9430365948
 20
79.6711037155
 10
167.9556448125
 20
79.7262661959
 10
167.9717642508
 20
79.7783193819
 10
167.9913251749
 20
79.8270366664
 10
168.0142437433
 20
79.8722092688
 10
168.0404218455
 20
79.913643838
 10
168.0697456158
 20
79.9511608906
 10
168.1020876838
 20
79.9845992504
  0
LINE
  5
2C6
100
AcDbEntity
  8
0
100
AcDbLine
 62
250
  6
CONTINUOUS
 10
168.4267873225
 20
69.4031365336
 11
168.0681571336
 21
68.630346086
  0
LINE
  5
2C7
100
AcDbEntity
  8
ASSI
100
AcDbLine
 62
250
  6
CONTINUOUS
 10
168.4267873225
 20
69.4031365336
 11
168.0681571336
 21
68.630346086
  0
LINE
  5
2C8
100
AcDbEntity
  8
0
100
AcDbLine
 62
250
  6
CONTINUOUS
 10
168.4217105242
 20
66.4666248881
 11
168.7752639148
 21
67.0789973232
  0
LINE
  5
2C9
100
AcDbEntity
  8
ASSI
100
AcDbLine
 62
250
  6
CONTINUOUS
 10
168.4217105242
 20
66.4666248881
 11
168.7752639148
 21
67.0789973232
  0
LINE
  5
2CA
100
AcDbEntity
  8
0
100
AcDbLine
 62
250
  6
CONTINUOUS
 10
162.340592206
 20
70.7942961225
 11
162.4820135623
 21
70.8759510411
  0
LINE
  5
2CB
100
AcDbEntity
  8
ASSI
100
AcDbLine
 62
250
  6
CONTINUOUS
 10
162.340592206
 20
70.7942961225
 11
162.4820135623
 21
70.8759510411
  0
LWPOLYLINE
  5
2CC
100
AcDbEntity
  8
0
100
AcDbPolyline
 62
7
  6
CONTINUOUS
 90
3
 70
0
 10
162.9406211982
 20
70.7348467093
 10
162.9000697823
 20
70.7144034387
 10
162.8571519698
 20
70.6985136018
  0
LWPOLYLINE
  5
2CD
100
AcDbEntity
  8
ASSI
100
AcDbPolyline
 62
7
  6
CONTINUOUS
 90
3
 70
0
 10
162.9406211982
 20
70.7348467093
 10
162.9000697823
 20
70.7144034387
 10
162.8571519698
 20
70.6985136018
  0
LINE
  5
2CE
100
AcDbEntity
  8
0
100
AcDbLine
 62
250
  6
CONTINUOUS
 10
194.8682815433
 20
52.4530331596
 11
194.3018187157
 21
52.5035943414
  0
LINE
  5
2CF
100
AcDbEntity
  8
ASSI
100
AcDbLine
 62
250
  6
CONTINUOUS
 10
194.8682815433
 20
52.4530331596
 11
194.3018187157
 21
52.5035943414
  0
LWPOLYLINE
  5
2D0
100
AcDbEntity
  8
0
100
AcDbPolyline
 62
7
  6
CONTINUOUS
 90
6
 70
0
 10
194.6046477312
 20
52.3932646885
 10
194.6265342211
 20
52.3906867667
 10
194.6771164574
 20
52.3879444421
 10
194.7260913646
 20
52.3898938821
 10
194.773246463
 20
52.3965262424
 10
194.8183784384
 20
52.407811808
  0
LWPOLYLINE
  5
2D1
100
AcDbEntity
  8
ASSI
100
AcDbPolyline
 62
7
  6
CONTINUOUS
 90
6
 70
0
 10
194.6046477312
 20
52.3932646885
 10
194.6265342211
 20
52.3906867667
 10
194.6771164574
 20
52.3879444421
 10
194.7260913646
 20
52.3898938821
 10
194.773246463
 20
52.3965262424
 10
194.8183784384
 20
52.407811808
  0
LWPOLYLINE
  5
2D2
100
AcDbEntity
  8
CURVE
100
AcDbPolyline
 62
250
  6
CONTINUOUS
 90
30
 70
0
 10
228.8850050197
 20
6.8882169172
 10
228.8662084336
 20
6.9065443637
 10
228.8472293254
 20
6.9243437315
 10
228.828084323
 20
6.9416336596
 10
228.8087900545
 20
6.9584327868
 10
228.7893631481
 20
6.9747597521
 10
228.7698202318
 20
6.9906331943
 10
228.7501779336
 20
7.0060717524
 10
228.7304528816
 20
7.0210940653
 10
228.7106617039
 20
7.0357187718
 10
228.6908210286
 20
7.0499645109
 10
228.6709474836
 20
7.0638499214
 10
228.6510576972
 20
7.0773936424
 10
228.6218231425
 20
7.0967141639
 10
228.5925906526
 20
7.1153764083
 10
228.5633614573
 20
7.133419864
 10
228.5341367863
 20
7.1508840189
 10
228.5049178696
 20
7.1678083615
 10
228.475705937
 20
7.1842323799
 10
228.4465022182
 20
7.2001955623
 10
228.4173079432
 20
7.215737397
 10
228.3801060777
 20
7.2349928806
 10
228.3429264961
 20
7.2536535183
 10
228.3057741357
 20
7.2717450648
 10
228.2686539336
 20
7.2892932746
 10
228.2315708272
 20
7.3063239024
 10
228.1945297535
 20
7.3228627027
 10
228.1575356498
 20
7.3389354302
 10
228.1205934533
 20
7.3545678393
 10
228.0837081013
 20
7.3697856848
  0
LINE
  5
2D3
100
AcDbEntity
  8
0
100
AcDbLine
 62
7
  6
CONTINUOUS
 10
130.8695479354
 20
131.5891124359
 11
130.8699232429
 21
131.5884760744
  0
LINE
  5
2D4
100
AcDbEntity
  8
ASSI
100
AcDbLine
 62
7
  6
CONTINUOUS
 10
130.8695479354
 20
131.5891124359
 11
130.8699232429
 21
131.5884760744
  0
LINE
  5
2D5
100
AcDbEntity
  8
0
100
AcDbLine
 62
250
  6
CONTINUOUS
 10
167.9267357774
 20
68.5486911673
 11
168.0681571336
 21
68.630346086
  0
LINE
  5
2D6
100
AcDbEntity
  8
ASSI
100
AcDbLine
 62
250
  6
CONTINUOUS
 10
167.9267357774
 20
68.5486911673
 11
168.0681571336
 21
68.630346086
  0
LINE
  5
2D7
100
AcDbEntity
  8
0
100
AcDbLine
 62
250
  6
CONTINUOUS
 10
168.7752639148
 20
67.0789973232
 11
168.9166852711
 21
67.1606522419
  0
LINE
  5
2D8
100
AcDbEntity
  8
ASSI
100
AcDbLine
 62
250
  6
CONTINUOUS
 10
168.7752639148
 20
67.0789973232
 11
168.9166852711
 21
67.1606522419
  0
LINE
  5
2D9
100
AcDbEntity
  8
0
100
AcDbLine
 62
7
  6
CONTINUOUS
 10
231.3338981365
 20
72.4160833604
 11
232.7508572674
 21
72.7637016366
  0
LINE
  5
2DA
100
AcDbEntity
  8
ASSI
100
AcDbLine
 62
7
  6
CONTINUOUS
 10
231.3338981365
 20
72.4160833604
 11
232.7508572674
 21
72.7637016366
  0
LINE
  5
2DB
100
AcDbEntity
  8
0
100
AcDbLine
 62
250
  6
CONTINUOUS
 10
183.1295315729
 20
59.3625128175
 11
183.8366383541
 21
59.3625128175
  0
LINE
  5
2DC
100
AcDbEntity
  8
ASSI
100
AcDbLine
 62
250
  6
CONTINUOUS
 10
183.1295315729
 20
59.3625128175
 11
183.8366383541
 21
59.3625128175
  0
LINE
  5
2DD
100
AcDbEntity
  8
0
100
AcDbLine
 62
250
  6
CONTINUOUS
 10
199.0394341496
 20
61.1170361766
 11
199.7465409308
 21
61.1170361766
  0
LINE
  5
2DE
100
AcDbEntity
  8
ASSI
100
AcDbLine
 62
250
  6
CONTINUOUS
 10
199.0394341496
 20
61.1170361766
 11
199.7465409308
 21
61.1170361766
  0
LINE
  5
2DF
100
AcDbEntity
  8
0
100
AcDbLine
 62
250
  6
CONTINUOUS
 10
185.6751159852
 20
57.8987362031
 11
184.8265878478
 21
57.974473892
  0
LINE
  5
2E0
100
AcDbEntity
  8
ASSI
100
AcDbLine
 62
250
  6
CONTINUOUS
 10
185.6751159852
 20
57.8987362031
 11
184.8265878478
 21
57.974473892
  0
LINE
  5
2E1
100
AcDbEntity
  8
0
100
AcDbLine
 62
250
  6
CONTINUOUS
 10
178.9583789666
 20
61.6392115095
 11
178.391916139
 21
61.6897726913
  0
LINE
  5
2E2
100
AcDbEntity
  8
ASSI
100
AcDbLine
 62
250
  6
CONTINUOUS
 10
178.9583789666
 20
61.6392115095
 11
178.391916139
 21
61.6897726913
  0
LWPOLYLINE
  5
2E3
100
AcDbEntity
  8
0
100
AcDbPolyline
 62
7
  6
CONTINUOUS
 90
6
 70
0
 10
178.6947451545
 20
61.5794430383
 10
178.7166316444
 20
61.5768651165
 10
178.7672138807
 20
61.574122792
 10
178.8161887879
 20
61.576072232
 10
178.8633438863
 20
61.5827045923
 10
178.9084758617
 20
61.5939901579
  0
LWPOLYLINE
  5
2E4
100
AcDbEntity
  8
ASSI
100
AcDbPolyline
 62
7
  6
CONTINUOUS
 90
6
 70
0
 10
178.6947451545
 20
61.5794430383
 10
178.7166316444
 20
61.5768651165
 10
178.7672138807
 20
61.574122792
 10
178.8161887879
 20
61.576072232
 10
178.8633438863
 20
61.5827045923
 10
178.9084758617
 20
61.5939901579
  0
LWPOLYLINE
  5
2E5
100
AcDbEntity
  8
0
100
AcDbPolyline
 62
7
  6
CONTINUOUS
 90
7
 70
0
 10
210.2117212924
 20
43.3174159915
 10
210.2672087774
 20
43.2874752894
 10
210.3224621199
 20
43.2618554687
 10
210.3772446981
 20
43.2406670229
 10
210.4313228944
 20
43.2240012188
 10
210.4844638761
 20
43.2119307325
 10
210.5145503079
 20
43.2070863386
  0
LWPOLYLINE
  5
2E6
100
AcDbEntity
  8
ASSI
100
AcDbPolyline
 62
7
  6
CONTINUOUS
 90
7
 70
0
 10
210.2117212924
 20
43.3174159915
 10
210.2672087774
 20
43.2874752894
 10
210.3224621199
 20
43.2618554687
 10
210.3772446981
 20
43.2406670229
 10
210.4313228944
 20
43.2240012188
 10
210.4844638761
 20
43.2119307325
 10
210.5145503079
 20
43.2070863386
  0
LWPOLYLINE
  5
2E7
100
AcDbEntity
  8
0
100
AcDbPolyline
 62
7
  6
CONTINUOUS
 90
7
 70
0
 10
194.3018187157
 20
52.5035943414
 10
194.3573062007
 20
52.4736536393
 10
194.4125595432
 20
52.4480338186
 10
194.4673421214
 20
52.4268453727
 10
194.5214203177
 20
52.4101795687
 10
194.5745612994
 20
52.3981090824
 10
194.6046477312
 20
52.3932646885
  0
LWPOLYLINE
  5
2E8
100
AcDbEntity
  8
ASSI
100
AcDbPolyline
 62
7
  6
CONTINUOUS
 90
7
 70
0
 10
194.3018187157
 20
52.5035943414
 10
194.3573062007
 20
52.4736536393
 10
194.4125595432
 20
52.4480338186
 10
194.4673421214
 20
52.4268453727
 10
194.5214203177
 20
52.4101795687
 10
194.5745612994
 20
52.3981090824
 10
194.6046477312
 20
52.3932646885
  0
LWPOLYLINE
  5
2E9
100
AcDbEntity
  8
0
100
AcDbPolyline
 62
7
  6
CONTINUOUS
 90
7
 70
0
 10
178.391916139
 20
61.6897726913
 10
178.447403624
 20
61.6598319892
 10
178.5026569665
 20
61.6342121684
 10
178.5574395447
 20
61.6130237226
 10
178.611517741
 20
61.5963579185
 10
178.6646587227
 20
61.5842874323
 10
178.6947451545
 20
61.5794430383
  0
LWPOLYLINE
  5
2EA
100
AcDbEntity
  8
ASSI
100
AcDbPolyline
 62
7
  6
CONTINUOUS
 90
7
 70
0
 10
178.391916139
 20
61.6897726913
 10
178.447403624
 20
61.6598319892
 10
178.5026569665
 20
61.6342121684
 10
178.5574395447
 20
61.6130237226
 10
178.611517741
 20
61.5963579185
 10
178.6646587227
 20
61.5842874323
 10
178.6947451545
 20
61.5794430383
  0
LWPOLYLINE
  5
2EB
100
AcDbEntity
  8
0
100
AcDbPolyline
 62
7
  6
CONTINUOUS
 90
7
 70
0
 10
162.4820135623
 20
70.8759510411
 10
162.5375010473
 20
70.8460103391
 10
162.5927543898
 20
70.8203905183
 10
162.647536968
 20
70.7992020725
 10
162.7016151643
 20
70.7825362684
 10
162.754756146
 20
70.7704657821
 10
162.7848425778
 20
70.7656213882
  0
LWPOLYLINE
  5
2EC
100
AcDbEntity
  8
ASSI
100
AcDbPolyline
 62
7
  6
CONTINUOUS
 90
7
 70
0
 10
162.4820135623
 20
70.8759510411
 10
162.5375010473
 20
70.8460103391
 10
162.5927543898
 20
70.8203905183
 10
162.647536968
 20
70.7992020725
 10
162.7016151643
 20
70.7825362684
 10
162.754756146
 20
70.7704657821
 10
162.7848425778
 20
70.7656213882
  0
LINE
  5
2ED
100
AcDbEntity
  8
0
100
AcDbLine
 62
7
  6
CONTINUOUS
 10
209.7167465455
 20
42.6233886378
 11
200.2415156776
 21
48.0942681884
  0
LINE
  5
2EE
100
AcDbEntity
  8
ASSI
100
AcDbLine
 62
7
  6
CONTINUOUS
 10
209.7167465455
 20
42.6233886378
 11
200.2415156776
 21
48.0942681884
  0
LINE
  5
2EF
100
AcDbEntity
  8
0
100
AcDbLine
 62
7
  6
CONTINUOUS
 10
193.8068439688
 20
51.8095669877
 11
184.3316131009
 21
57.2804465383
  0
LINE
  5
2F0
100
AcDbEntity
  8
ASSI
100
AcDbLine
 62
7
  6
CONTINUOUS
 10
193.8068439688
 20
51.8095669877
 11
184.3316131009
 21
57.2804465383
  0
LINE
  5
2F1
100
AcDbEntity
  8
0
100
AcDbLine
 62
7
  6
CONTINUOUS
 10
177.8969413921
 20
60.9957453375
 11
168.4217105242
 21
66.4666248881
  0
LINE
  5
2F2
100
AcDbEntity
  8
ASSI
100
AcDbLine
 62
7
  6
CONTINUOUS
 10
177.8969413921
 20
60.9957453375
 11
168.4217105242
 21
66.4666248881
  0
LINE
  5
2F3
100
AcDbEntity
  8
0
100
AcDbLine
 62
7
  6
CONTINUOUS
 10
161.9870388154
 20
70.1819236874
 11
152.5118079475
 21
75.652803238
  0
LINE
  5
2F4
100
AcDbEntity
  8
ASSI
100
AcDbLine
 62
7
  6
CONTINUOUS
 10
161.9870388154
 20
70.1819236874
 11
152.5118079475
 21
75.652803238
  0
LINE
  5
2F5
100
AcDbEntity
  8
0
100
AcDbLine
 62
7
  6
CONTINUOUS
 10
210.0702999361
 20
43.2357610728
 11
200.5950690682
 21
48.7066406234
  0
LINE
  5
2F6
100
AcDbEntity
  8
ASSI
100
AcDbLine
 62
7
  6
CONTINUOUS
 10
210.0702999361
 20
43.2357610728
 11
200.5950690682
 21
48.7066406234
  0
LINE
  5
2F7
100
AcDbEntity
  8
0
100
AcDbLine
 62
7
  6
CONTINUOUS
 10
194.1603973594
 20
52.4219394227
 11
184.6851664915
 21
57.8928189733
  0
LINE
  5
2F8
100
AcDbEntity
  8
ASSI
100
AcDbLine
 62
7
  6
CONTINUOUS
 10
194.1603973594
 20
52.4219394227
 11
184.6851664915
 21
57.8928189733
  0
LINE
  5
2F9
100
AcDbEntity
  8
0
100
AcDbLine
 62
7
  6
CONTINUOUS
 10
178.2504947827
 20
61.6081177726
 11
168.7752639148
 21
67.0789973232
  0
LINE
  5
2FA
100
AcDbEntity
  8
ASSI
100
AcDbLine
 62
7
  6
CONTINUOUS
 10
178.2504947827
 20
61.6081177726
 11
168.7752639148
 21
67.0789973232
  0
LINE
  5
2FB
100
AcDbEntity
  8
0
100
AcDbLine
 62
7
  6
CONTINUOUS
 10
162.340592206
 20
70.7942961225
 11
152.8653613381
 21
76.2651756731
  0
LINE
  5
2FC
100
AcDbEntity
  8
ASSI
100
AcDbLine
 62
7
  6
CONTINUOUS
 10
162.340592206
 20
70.7942961225
 11
152.8653613381
 21
76.2651756731
  0
LINE
  5
2FD
100
AcDbEntity
  8
0
100
AcDbLine
 62
7
  6
CONTINUOUS
 10
153.0067826944
 20
76.3468305917
 11
162.4820135623
 21
70.8759510411
  0
LINE
  5
2FE
100
AcDbEntity
  8
ASSI
100
AcDbLine
 62
7
  6
CONTINUOUS
 10
153.0067826944
 20
76.3468305917
 11
162.4820135623
 21
70.8759510411
  0
LINE
  5
2FF
100
AcDbEntity
  8
0
100
AcDbLine
 62
7
  6
CONTINUOUS
 10
168.9166852711
 20
67.1606522419
 11
178.391916139
 21
61.6897726913
  0
LINE
  5
300
100
AcDbEntity
  8
ASSI
100
AcDbLine
 62
7
  6
CONTINUOUS
 10
168.9166852711
 20
67.1606522419
 11
178.391916139
 21
61.6897726913
  0
LINE
  5
301
100
AcDbEntity
  8
0
100
AcDbLine
 62
7
  6
CONTINUOUS
 10
184.8265878478
 20
57.974473892
 11
194.3018187157
 21
52.5035943414
  0
LINE
  5
302
100
AcDbEntity
  8
ASSI
100
AcDbLine
 62
7
  6
CONTINUOUS
 10
184.8265878478
 20
57.974473892
 11
194.3018187157
 21
52.5035943414
  0
LINE
  5
303
100
AcDbEntity
  8
0
100
AcDbLine
 62
7
  6
CONTINUOUS
 10
200.7364904245
 20
48.7882955421
 11
210.2117212924
 21
43.3174159915
  0
LINE
  5
304
100
AcDbEntity
  8
ASSI
100
AcDbLine
 62
7
  6
CONTINUOUS
 10
200.7364904245
 20
48.7882955421
 11
210.2117212924
 21
43.3174159915
  0
LINE
  5
305
100
AcDbEntity
  8
0
100
AcDbLine
 62
7
  6
CONTINUOUS
 10
153.8553108318
 20
76.2710929028
 11
163.1138081949
 21
70.9253525616
  0
LINE
  5
306
100
AcDbEntity
  8
ASSI
100
AcDbLine
 62
7
  6
CONTINUOUS
 10
153.8553108318
 20
76.2710929028
 11
163.1138081949
 21
70.9253525616
  0
LINE
  5
307
100
AcDbEntity
  8
0
100
AcDbLine
 62
7
  6
CONTINUOUS
 10
169.7652134085
 20
67.0849145529
 11
179.0237107716
 21
61.7391742117
  0
LINE
  5
308
100
AcDbEntity
  8
ASSI
100
AcDbLine
 62
7
  6
CONTINUOUS
 10
169.7652134085
 20
67.0849145529
 11
179.0237107716
 21
61.7391742117
  0
LINE
  5
309
100
AcDbEntity
  8
0
100
AcDbLine
 62
7
  6
CONTINUOUS
 10
185.6751159852
 20
57.8987362031
 11
194.9336133483
 21
52.5529958618
  0
LINE
  5
30A
100
AcDbEntity
  8
ASSI
100
AcDbLine
 62
7
  6
CONTINUOUS
 10
185.6751159852
 20
57.8987362031
 11
194.9336133483
 21
52.5529958618
  0
LINE
  5
30B
100
AcDbEntity
  8
0
100
AcDbLine
 62
7
  6
CONTINUOUS
 10
201.5850185619
 20
48.7125578532
 11
210.843515925
 21
43.366817512
  0
LINE
  5
30C
100
AcDbEntity
  8
ASSI
100
AcDbLine
 62
7
  6
CONTINUOUS
 10
201.5850185619
 20
48.7125578532
 11
210.843515925
 21
43.366817512
  0
LWPOLYLINE
  5
30D
100
AcDbEntity
  8
0
100
AcDbPolyline
 62
7
  6
CONTINUOUS
 90
28
 70
0
 10
152.5118079475
 20
75.652803238
 10
152.4415335829
 20
75.6957914323
 10
152.3719613947
 20
75.7429889449
 10
152.3030913827
 20
75.7943957757
 10
152.2346952742
 20
75.8502139821
 10
152.167001342
 20
75.9102415068
 10
152.1006944049
 20
75.9738721773
 10
152.0357887063
 20
76.041142603
 10
151.9722700029
 20
76.1120161744
 10
151.9107803828
 20
76.1857768907
 10
151.8513405902
 20
76.2624539356
 10
151.793929881
 20
76.3420181252
 10
151.7391281105
 20
76.4236659079
 10
151.686961831
 20
76.5074182338
 10
151.6374044904
 20
76.5932541527
 10
151.590956288
 20
76.6803072621
 10
151.5476486653
 20
76.7685900073
 10
151.5074501809
 20
76.858089943
 10
151.47076671
 20
76.9479033301
 10
151.4376338524
 20
77.0380336497
 10
151.4080160084
 20
77.1284774208
 10
151.3822122535
 20
77.2183204606
 10
151.3602614396
 20
77.3075567626
 10
151.3421247148
 20
77.3961923335
 10
151.3279845984
 20
77.4833310106
 10
151.3179019303
 20
77.5686740732
 10
151.3118158707
 20
77.652520242
 10
151.3097264195
 20
77.7348695172
  0
LWPOLYLINE
  5
30E
100
AcDbEntity
  8
ASSI
100
AcDbPolyline
 62
7
  6
CONTINUOUS
 90
28
 70
0
 10
152.5118079475
 20
75.652803238
 10
152.4415335829
 20
75.6957914323
 10
152.3719613947
 20
75.7429889449
 10
152.3030913827
 20
75.7943957757
 10
152.2346952742
 20
75.8502139821
 10
152.167001342
 20
75.9102415068
 10
152.1006944049
 20
75.9738721773
 10
152.0357887063
 20
76.041142603
 10
151.9722700029
 20
76.1120161744
 10
151.9107803828
 20
76.1857768907
 10
151.8513405902
 20
76.2624539356
 10
151.793929881
 20
76.3420181252
 10
151.7391281105
 20
76.4236659079
 10
151.686961831
 20
76.5074182338
 10
151.6374044904
 20
76.5932541527
 10
151.590956288
 20
76.6803072621
 10
151.5476486653
 20
76.7685900073
 10
151.5074501809
 20
76.858089943
 10
151.47076671
 20
76.9479033301
 10
151.4376338524
 20
77.0380336497
 10
151.4080160084
 20
77.1284774208
 10
151.3822122535
 20
77.2183204606
 10
151.3602614396
 20
77.3075567626
 10
151.3421247148
 20
77.3961923335
 10
151.3279845984
 20
77.4833310106
 10
151.3179019303
 20
77.5686740732
 10
151.3118158707
 20
77.652520242
 10
151.3097264195
 20
77.7348695172
  0
LWPOLYLINE
  5
30F
100
AcDbEntity
  8
0
100
AcDbPolyline
 62
7
  6
CONTINUOUS
 90
28
 70
0
 10
168.4217105242
 20
66.4666248881
 10
168.3514361596
 20
66.5096130825
 10
168.2818639714
 20
66.556810595
 10
168.2129939594
 20
66.6082174258
 10
168.1445978509
 20
66.6640356322
 10
168.0769039187
 20
66.7240631569
 10
168.0105969816
 20
66.7876938274
 10
167.945691283
 20
66.8549642531
 10
167.8821725796
 20
66.9258378245
 10
167.8206829595
 20
66.9995985409
 10
167.7612431669
 20
67.0762755857
 10
167.7038324576
 20
67.1558397754
 10
167.6490306872
 20
67.237487558
 10
167.5968644077
 20
67.321239884
 10
167.5473070671
 20
67.4070758029
 10
167.5008588647
 20
67.4941289122
 10
167.457551242
 20
67.5824116574
 10
167.4173527576
 20
67.6719115931
 10
167.3806692867
 20
67.7617249802
 10
167.3475364291
 20
67.8518552998
 10
167.3179185851
 20
67.9422990709
 10
167.2921148301
 20
68.0321421108
 10
167.2701640163
 20
68.1213784128
 10
167.2520272915
 20
68.2100139836
 10
167.2378871751
 20
68.2971526607
 10
167.227804507
 20
68.3824957233
 10
167.2217184474
 20
68.4663418922
 10
167.2196289962
 20
68.5486911673
  0
LWPOLYLINE
  5
310
100
AcDbEntity
  8
ASSI
100
AcDbPolyline
 62
7
  6
CONTINUOUS
 90
28
 70
0
 10
168.4217105242
 20
66.4666248881
 10
168.3514361596
 20
66.5096130825
 10
168.2818639714
 20
66.556810595
 10
168.2129939594
 20
66.6082174258
 10
168.1445978509
 20
66.6640356322
 10
168.0769039187
 20
66.7240631569
 10
168.0105969816
 20
66.7876938274
 10
167.945691283
 20
66.8549642531
 10
167.8821725796
 20
66.9258378245
 10
167.8206829595
 20
66.9995985409
 10
167.7612431669
 20
67.0762755857
 10
167.7038324576
 20
67.1558397754
 10
167.6490306872
 20
67.237487558
 10
167.5968644077
 20
67.321239884
 10
167.5473070671
 20
67.4070758029
 10
167.5008588647
 20
67.4941289122
 10
167.457551242
 20
67.5824116574
 10
167.4173527576
 20
67.6719115931
 10
167.3806692867
 20
67.7617249802
 10
167.3475364291
 20
67.8518552998
 10
167.3179185851
 20
67.9422990709
 10
167.2921148301
 20
68.0321421108
 10
167.2701640163
 20
68.1213784128
 10
167.2520272915
 20
68.2100139836
 10
167.2378871751
 20
68.2971526607
 10
167.227804507
 20
68.3824957233
 10
167.2217184474
 20
68.4663418922
 10
167.2196289962
 20
68.5486911673
  0
LWPOLYLINE
  5
311
100
AcDbEntity
  8
0
100
AcDbPolyline
 62
7
  6
CONTINUOUS
 90
28
 70
0
 10
184.3316131009
 20
57.2804465383
 10
184.2613387363
 20
57.3234347326
 10
184.1917665481
 20
57.3706322451
 10
184.1228965361
 20
57.4220390759
 10
184.0545004276
 20
57.4778572824
 10
183.9868064954
 20
57.5378848071
 10
183.9204995583
 20
57.6015154775
 10
183.8555938597
 20
57.6687859032
 10
183.7920751563
 20
57.7396594747
 10
183.7305855362
 20
57.813420191
 10
183.6711457436
 20
57.8900972358
 10
183.6137350343
 20
57.9696614255
 10
183.5589332639
 20
58.0513092082
 10
183.5067669844
 20
58.1350615341
 10
183.4572096438
 20
58.220897453
 10
183.4107614414
 20
58.3079505623
 10
183.3674538187
 20
58.3962333076
 10
183.3272553343
 20
58.4857332432
 10
183.2905718634
 20
58.5755466303
 10
183.2574390058
 20
58.66567695
 10
183.2278211618
 20
58.756120721
 10
183.2020174068
 20
58.8459637609
 10
183.180066593
 20
58.9352000629
 10
183.1619298682
 20
59.0238356337
 10
183.1477897518
 20
59.1109743108
 10
183.1377070837
 20
59.1963173734
 10
183.1316210241
 20
59.2801635423
 10
183.1295315729
 20
59.3625128175
  0
LWPOLYLINE
  5
312
100
AcDbEntity
  8
ASSI
100
AcDbPolyline
 62
7
  6
CONTINUOUS
 90
28
 70
0
 10
184.3316131009
 20
57.2804465383
 10
184.2613387363
 20
57.3234347326
 10
184.1917665481
 20
57.3706322451
 10
184.1228965361
 20
57.4220390759
 10
184.0545004276
 20
57.4778572824
 10
183.9868064954
 20
57.5378848071
 10
183.9204995583
 20
57.6015154775
 10
183.8555938597
 20
57.6687859032
 10
183.7920751563
 20
57.7396594747
 10
183.7305855362
 20
57.813420191
 10
183.6711457436
 20
57.8900972358
 10
183.6137350343
 20
57.9696614255
 10
183.5589332639
 20
58.0513092082
 10
183.5067669844
 20
58.1350615341
 10
183.4572096438
 20
58.220897453
 10
183.4107614414
 20
58.3079505623
 10
183.3674538187
 20
58.3962333076
 10
183.3272553343
 20
58.4857332432
 10
183.2905718634
 20
58.5755466303
 10
183.2574390058
 20
58.66567695
 10
183.2278211618
 20
58.756120721
 10
183.2020174068
 20
58.8459637609
 10
183.180066593
 20
58.9352000629
 10
183.1619298682
 20
59.0238356337
 10
183.1477897518
 20
59.1109743108
 10
183.1377070837
 20
59.1963173734
 10
183.1316210241
 20
59.2801635423
 10
183.1295315729
 20
59.3625128175
  0
LWPOLYLINE
  5
313
100
AcDbEntity
  8
0
100
AcDbPolyline
 62
7
  6
CONTINUOUS
 90
28
 70
0
 10
200.2415156776
 20
48.0942681884
 10
200.171241313
 20
48.1372563827
 10
200.1016691248
 20
48.1844538953
 10
200.0327991128
 20
48.235860726
 10
199.9644030043
 20
48.2916789325
 10
199.8967090721
 20
48.3517064572
 10
199.8304021349
 20
48.4153371276
 10
199.7654964364
 20
48.4826075533
 10
199.701977733
 20
48.5534811248
 10
199.6404881129
 20
48.6272418411
 10
199.5810483203
 20
48.7039188859
 10
199.523637611
 20
48.7834830756
 10
199.4688358406
 20
48.8651308583
 10
199.4166695611
 20
48.9488831842
 10
199.3671122205
 20
49.0347191031
 10
199.3206640181
 20
49.1217722125
 10
199.2773563954
 20
49.2100549577
 10
199.237157911
 20
49.2995548934
 10
199.2004744401
 20
49.3893682804
 10
199.1673415825
 20
49.4794986001
 10
199.1377237385
 20
49.5699423711
 10
199.1119199835
 20
49.659785411
 10
199.0899691697
 20
49.749021713
 10
199.0718324449
 20
49.8376572838
 10
199.0576923285
 20
49.924795961
 10
199.0476096604
 20
50.0101390235
 10
199.0415236008
 20
50.0939851924
 10
199.0394341496
 20
50.1763344676
  0
LWPOLYLINE
  5
314
100
AcDbEntity
  8
ASSI
100
AcDbPolyline
 62
7
  6
CONTINUOUS
 90
28
 70
0
 10
200.2415156776
 20
48.0942681884
 10
200.171241313
 20
48.1372563827
 10
200.1016691248
 20
48.1844538953
 10
200.0327991128
 20
48.235860726
 10
199.9644030043
 20
48.2916789325
 10
199.8967090721
 20
48.3517064572
 10
199.8304021349
 20
48.4153371276
 10
199.7654964364
 20
48.4826075533
 10
199.701977733
 20
48.5534811248
 10
199.6404881129
 20
48.6272418411
 10
199.5810483203
 20
48.7039188859
 10
199.523637611
 20
48.7834830756
 10
199.4688358406
 20
48.8651308583
 10
199.4166695611
 20
48.9488831842
 10
199.3671122205
 20
49.0347191031
 10
199.3206640181
 20
49.1217722125
 10
199.2773563954
 20
49.2100549577
 10
199.237157911
 20
49.2995548934
 10
199.2004744401
 20
49.3893682804
 10
199.1673415825
 20
49.4794986001
 10
199.1377237385
 20
49.5699423711
 10
199.1119199835
 20
49.659785411
 10
199.0899691697
 20
49.749021713
 10
199.0718324449
 20
49.8376572838
 10
199.0576923285
 20
49.924795961
 10
199.0476096604
 20
50.0101390235
 10
199.0415236008
 20
50.0939851924
 10
199.0394341496
 20
50.1763344676
  0
LWPOLYLINE
  5
315
100
AcDbEntity
  8
0
100
AcDbPolyline
 62
7
  6
CONTINUOUS
 90
25
 70
0
 10
152.8653613381
 20
76.2651756731
 10
152.8098743627
 20
76.2993101951
 10
152.7546213324
 20
76.3374952826
 10
152.699838869
 20
76.3795682285
 10
152.6457605024
 20
76.4253506463
 10
152.5926191706
 20
76.4746463098
 10
152.5406459981
 20
76.5272412501
 10
152.4900637248
 20
76.5829100515
 10
152.4410888631
 20
76.6414144177
 10
152.3939337935
 20
76.7025002465
 10
152.3488017946
 20
76.7659030971
 10
152.3058839517
 20
76.8313533687
 10
152.2653614229
 20
76.8985743353
 10
152.2274077022
 20
76.967278193
 10
152.1921852762
 20
77.037170805
 10
152.1598432037
 20
77.1079569469
 10
152.130519407
 20
77.1793363776
 10
152.1043412771
 20
77.2510007966
 10
152.08142271
 20
77.3226391339
 10
152.0618618372
 20
77.3939446105
 10
152.0457424405
 20
77.464611768
 10
152.0331341949
 20
77.5343337745
 10
152.0240905842
 20
77.6028108853
 10
152.018649378
 20
77.6697515602
 10
152.0168332007
 20
77.7348695172
  0
LWPOLYLINE
  5
316
100
AcDbEntity
  8
ASSI
100
AcDbPolyline
 62
7
  6
CONTINUOUS
 90
25
 70
0
 10
152.8653613381
 20
76.2651756731
 10
152.8098743627
 20
76.2993101951
 10
152.7546213324
 20
76.3374952826
 10
152.699838869
 20
76.3795682285
 10
152.6457605024
 20
76.4253506463
 10
152.5926191706
 20
76.4746463098
 10
152.5406459981
 20
76.5272412501
 10
152.4900637248
 20
76.5829100515
 10
152.4410888631
 20
76.6414144177
 10
152.3939337935
 20
76.7025002465
 10
152.3488017946
 20
76.7659030971
 10
152.3058839517
 20
76.8313533687
 10
152.2653614229
 20
76.8985743353
 10
152.2274077022
 20
76.967278193
 10
152.1921852762
 20
77.037170805
 10
152.1598432037
 20
77.1079569469
 10
152.130519407
 20
77.1793363776
 10
152.1043412771
 20
77.2510007966
 10
152.08142271
 20
77.3226391339
 10
152.0618618372
 20
77.3939446105
 10
152.0457424405
 20
77.464611768
 10
152.0331341949
 20
77.5343337745
 10
152.0240905842
 20
77.6028108853
 10
152.018649378
 20
77.6697515602
 10
152.0168332007
 20
77.7348695172
  0
LWPOLYLINE
  5
317
100
AcDbEntity
  8
0
100
AcDbPolyline
 62
7
  6
CONTINUOUS
 90
25
 70
0
 10
168.7752639148
 20
67.0789973232
 10
168.7197769394
 20
67.1131318452
 10
168.6645239091
 20
67.1513169328
 10
168.6097414457
 20
67.1933898786
 10
168.5556630791
 20
67.2391722964
 10
168.5025217473
 20
67.2884679599
 10
168.4505485748
 20
67.3410629002
 10
168.3999663015
 20
67.3967317016
 10
168.3509914398
 20
67.4552360678
 10
168.3038363702
 20
67.5163218966
 10
168.2587043713
 20
67.5797247473
 10
168.2157865284
 20
67.6451750189
 10
168.1752639996
 20
67.7123959855
 10
168.1373102789
 20
67.7810998431
 10
168.1020878529
 20
67.8509924551
 10
168.0697457804
 20
67.921778597
 10
168.0404219837
 20
67.9931580277
 10
168.0142438538
 20
68.0648224468
 10
167.9913252866
 20
68.136460784
 10
167.9717644139
 20
68.2077662606
 10
167.9556450172
 20
68.2784334181
 10
167.9430367716
 20
68.3481554246
 10
167.9339931609
 20
68.4166325354
 10
167.9285519547
 20
68.4835732103
 10
167.9267357774
 20
68.5486911673
  0
LWPOLYLINE
  5
318
100
AcDbEntity
  8
ASSI
100
AcDbPolyline
 62
7
  6
CONTINUOUS
 90
25
 70
0
 10
168.7752639148
 20
67.0789973232
 10
168.7197769394
 20
67.1131318452
 10
168.6645239091
 20
67.1513169328
 10
168.6097414457
 20
67.1933898786
 10
168.5556630791
 20
67.2391722964
 10
168.5025217473
 20
67.2884679599
 10
168.4505485748
 20
67.3410629002
 10
168.3999663015
 20
67.3967317016
 10
168.3509914398
 20
67.4552360678
 10
168.3038363702
 20
67.5163218966
 10
168.2587043713
 20
67.5797247473
 10
168.2157865284
 20
67.6451750189
 10
168.1752639996
 20
67.7123959855
 10
168.1373102789
 20
67.7810998431
 10
168.1020878529
 20
67.8509924551
 10
168.0697457804
 20
67.921778597
 10
168.0404219837
 20
67.9931580277
 10
168.0142438538
 20
68.0648224468
 10
167.9913252866
 20
68.136460784
 10
167.9717644139
 20
68.2077662606
 10
167.9556450172
 20
68.2784334181
 10
167.9430367716
 20
68.3481554246
 10
167.9339931609
 20
68.4166325354
 10
167.9285519547
 20
68.4835732103
 10
167.9267357774
 20
68.5486911673
  0
LWPOLYLINE
  5
319
100
AcDbEntity
  8
0
100
AcDbPolyline
 62
7
  6
CONTINUOUS
 90
25
 70
0
 10
184.6851664915
 20
57.8928189733
 10
184.6296795161
 20
57.9269534953
 10
184.5744264858
 20
57.9651385829
 10
184.5196440224
 20
58.0072115287
 10
184.4655656558
 20
58.0529939465
 10
184.412424324
 20
58.1022896101
 10
184.3604511515
 20
58.1548845504
 10
184.3098688782
 20
58.2105533518
 10
184.2608940165
 20
58.2690577179
 10
184.2137389469
 20
58.3301435467
 10
184.168606948
 20
58.3935463974
 10
184.1256891051
 20
58.458996669
 10
184.0851665763
 20
58.5262176356
 10
184.0472128556
 20
58.5949214933
 10
184.0119904296
 20
58.6648141052
 10
183.9796483571
 20
58.7356002471
 10
183.9503245603
 20
58.8069796779
 10
183.9241464305
 20
58.8786440969
 10
183.9012278633
 20
58.9502824342
 10
183.8816669906
 20
59.0215879107
 10
183.8655475939
 20
59.0922550682
 10
183.8529393483
 20
59.1619770747
 10
183.8438957376
 20
59.2304541855
 10
183.8384545314
 20
59.2973948605
 10
183.8366383541
 20
59.3625128175
  0
LWPOLYLINE
  5
31A
100
AcDbEntity
  8
ASSI
100
AcDbPolyline
 62
7
  6
CONTINUOUS
 90
25
 70
0
 10
184.6851664915
 20
57.8928189733
 10
184.6296795161
 20
57.9269534953
 10
184.5744264858
 20
57.9651385829
 10
184.5196440224
 20
58.0072115287
 10
184.4655656558
 20
58.0529939465
 10
184.412424324
 20
58.1022896101
 10
184.3604511515
 20
58.1548845504
 10
184.3098688782
 20
58.2105533518
 10
184.2608940165
 20
58.2690577179
 10
184.2137389469
 20
58.3301435467
 10
184.168606948
 20
58.3935463974
 10
184.1256891051
 20
58.458996669
 10
184.0851665763
 20
58.5262176356
 10
184.0472128556
 20
58.5949214933
 10
184.0119904296
 20
58.6648141052
 10
183.9796483571
 20
58.7356002471
 10
183.9503245603
 20
58.8069796779
 10
183.9241464305
 20
58.8786440969
 10
183.9012278633
 20
58.9502824342
 10
183.8816669906
 20
59.0215879107
 10
183.8655475939
 20
59.0922550682
 10
183.8529393483
 20
59.1619770747
 10
183.8438957376
 20
59.2304541855
 10
183.8384545314
 20
59.2973948605
 10
183.8366383541
 20
59.3625128175
  0
LWPOLYLINE
  5
31B
100
AcDbEntity
  8
0
100
AcDbPolyline
 62
7
  6
CONTINUOUS
 90
25
 70
0
 10
200.5950690682
 20
48.7066406234
 10
200.5395820928
 20
48.7407751455
 10
200.4843290625
 20
48.778960233
 10
200.4295465991
 20
48.8210331789
 10
200.3754682325
 20
48.8668155967
 10
200.3223269007
 20
48.9161112602
 10
200.2703537282
 20
48.9687062005
 10
200.2197714549
 20
49.0243750019
 10
200.1707965932
 20
49.0828793681
 10
200.1236415236
 20
49.1439651968
 10
200.0785095247
 20
49.2073680475
 10
200.0355916818
 20
49.2728183191
 10
199.995069153
 20
49.3400392857
 10
199.9571154323
 20
49.4087431434
 10
199.9218930063
 20
49.4786357554
 10
199.8895509338
 20
49.5494218972
 10
199.860227137
 20
49.620801328
 10
199.8340490072
 20
49.692465747
 10
199.81113044
 20
49.7641040843
 10
199.7915695673
 20
49.8354095608
 10
199.7754501706
 20
49.9060767184
 10
199.7628419249
 20
49.9757987248
 10
199.7537983143
 20
50.0442758356
 10
199.7483571081
 20
50.1112165106
 10
199.7465409308
 20
50.1763344676
  0
LWPOLYLINE
  5
31C
100
AcDbEntity
  8
ASSI
100
AcDbPolyline
 62
7
  6
CONTINUOUS
 90
25
 70
0
 10
200.5950690682
 20
48.7066406234
 10
200.5395820928
 20
48.7407751455
 10
200.4843290625
 20
48.778960233
 10
200.4295465991
 20
48.8210331789
 10
200.3754682325
 20
48.8668155967
 10
200.3223269007
 20
48.9161112602
 10
200.2703537282
 20
48.9687062005
 10
200.2197714549
 20
49.0243750019
 10
200.1707965932
 20
49.0828793681
 10
200.1236415236
 20
49.1439651968
 10
200.0785095247
 20
49.2073680475
 10
200.0355916818
 20
49.2728183191
 10
199.995069153
 20
49.3400392857
 10
199.9571154323
 20
49.4087431434
 10
199.9218930063
 20
49.4786357554
 10
199.8895509338
 20
49.5494218972
 10
199.860227137
 20
49.620801328
 10
199.8340490072
 20
49.692465747
 10
199.81113044
 20
49.7641040843
 10
199.7915695673
 20
49.8354095608
 10
199.7754501706
 20
49.9060767184
 10
199.7628419249
 20
49.9757987248
 10
199.7537983143
 20
50.0442758356
 10
199.7483571081
 20
50.1112165106
 10
199.7465409308
 20
50.1763344676
  0
LWPOLYLINE
  5
31D
100
AcDbEntity
  8
0
100
AcDbPolyline
 62
7
  6
CONTINUOUS
 90
25
 70
0
 10
183.9780597103
 20
59.4441677361
 10
183.9798758902
 20
59.3790497319
 10
183.9853171011
 20
59.3121090359
 10
183.994360714
 20
59.2436319326
 10
184.0069689507
 20
59.1739099841
 10
184.023088325
 20
59.103242916
 10
184.0426491763
 20
59.0319374984
 10
184.0655677396
 20
58.9602991533
 10
184.0917458788
 20
58.888634694
 10
184.1210696843
 20
58.8172552328
 10
184.1534117543
 20
58.7464690895
 10
184.188634173
 20
58.6765764855
 10
184.2265878893
 20
58.6078726291
 10
184.2671104225
 20
58.5406516494
 10
184.3100282747
 20
58.4752013594
 10
184.3551602816
 20
58.4117984945
 10
184.4023153528
 20
58.3507126614
 10
184.4512902137
 20
58.2922082942
 10
184.5018724915
 20
58.2365394861
 10
184.5538456823
 20
58.1839445267
 10
184.6069870389
 20
58.1346488414
 10
184.6610654198
 20
58.0888664142
 10
184.715847881
 20
58.0467934732
 10
184.7711008975
 20
58.0086083975
 10
184.8265878478
 20
57.974473892
  0
LWPOLYLINE
  5
31E
100
AcDbEntity
  8
ASSI
100
AcDbPolyline
 62
7
  6
CONTINUOUS
 90
25
 70
0
 10
183.9780597103
 20
59.4441677361
 10
183.9798758902
 20
59.3790497319
 10
183.9853171011
 20
59.3121090359
 10
183.994360714
 20
59.2436319326
 10
184.0069689507
 20
59.1739099841
 10
184.023088325
 20
59.103242916
 10
184.0426491763
 20
59.0319374984
 10
184.0655677396
 20
58.9602991533
 10
184.0917458788
 20
58.888634694
 10
184.1210696843
 20
58.8172552328
 10
184.1534117543
 20
58.7464690895
 10
184.188634173
 20
58.6765764855
 10
184.2265878893
 20
58.6078726291
 10
184.2671104225
 20
58.5406516494
 10
184.3100282747
 20
58.4752013594
 10
184.3551602816
 20
58.4117984945
 10
184.4023153528
 20
58.3507126614
 10
184.4512902137
 20
58.2922082942
 10
184.5018724915
 20
58.2365394861
 10
184.5538456823
 20
58.1839445267
 10
184.6069870389
 20
58.1346488414
 10
184.6610654198
 20
58.0888664142
 10
184.715847881
 20
58.0467934732
 10
184.7711008975
 20
58.0086083975
 10
184.8265878478
 20
57.974473892
  0
LWPOLYLINE
  5
31F
100
AcDbEntity
  8
0
100
AcDbPolyline
 62
7
  6
CONTINUOUS
 90
28
 70
0
 10
184.3366898992
 20
60.2169581837
 10
184.339016312
 20
60.1252688429
 10
184.3457926438
 20
60.0319127532
 10
184.3570188946
 20
59.9368899147
 10
184.3727627988
 20
59.8398677167
 10
184.3929566219
 20
59.7411787699
 10
184.4173971609
 20
59.641820906
 10
184.446127695
 20
59.5417874055
 10
184.4791049449
 20
59.441084988
 10
184.51599587
 20
59.3407316439
 10
184.5568400856
 20
59.2407313153
 10
184.6015979764
 20
59.1410800601
 10
184.6498176555
 20
59.0427840435
 10
184.7015341365
 20
58.9458570973
 10
184.7567124058
 20
58.8502853896
 10
184.8147955353
 20
58.75703359
 10
184.8758130934
 20
58.6661250191
 10
184.9397355118
 20
58.5775363562
 10
185.0059171571
 20
58.4921623089
 10
185.0743811079
 20
58.4100353884
 10
185.1451042858
 20
58.3311230836
 10
185.2173718216
 20
58.256222568
 10
185.2911996045
 20
58.1853745733
 10
185.3665717453
 20
58.1185383679
 10
185.4427257074
 20
58.0563889303
 10
185.519407312
 20
57.9991512534
 10
185.596870738
 20
57.9466003443
 10
185.6751159852
 20
57.8987362031
  0
LWPOLYLINE
  5
320
100
AcDbEntity
  8
ASSI
100
AcDbPolyline
 62
7
  6
CONTINUOUS
 90
28
 70
0
 10
184.3366898992
 20
60.2169581837
 10
184.339016312
 20
60.1252688429
 10
184.3457926438
 20
60.0319127532
 10
184.3570188946
 20
59.9368899147
 10
184.3727627988
 20
59.8398677167
 10
184.3929566219
 20
59.7411787699
 10
184.4173971609
 20
59.641820906
 10
184.446127695
 20
59.5417874055
 10
184.4791049449
 20
59.441084988
 10
184.51599587
 20
59.3407316439
 10
184.5568400856
 20
59.2407313153
 10
184.6015979764
 20
59.1410800601
 10
184.6498176555
 20
59.0427840435
 10
184.7015341365
 20
58.9458570973
 10
184.7567124058
 20
58.8502853896
 10
184.8147955353
 20
58.75703359
 10
184.8758130934
 20
58.6661250191
 10
184.9397355118
 20
58.5775363562
 10
185.0059171571
 20
58.4921623089
 10
185.0743811079
 20
58.4100353884
 10
185.1451042858
 20
58.3311230836
 10
185.2173718216
 20
58.256222568
 10
185.2911996045
 20
58.1853745733
 10
185.3665717453
 20
58.1185383679
 10
185.4427257074
 20
58.0563889303
 10
185.519407312
 20
57.9991512534
 10
185.596870738
 20
57.9466003443
 10
185.6751159852
 20
57.8987362031
  0
LINE
  5
321
100
AcDbEntity
  8
0
100
AcDbLine
 62
7
  6
CONTINUOUS
 10
179.0990229202
 20
72.6303797084
 11
179.0990229202
 21
61.6896779994
  0
LINE
  5
322
100
AcDbEntity
  8
ASSI
100
AcDbLine
 62
7
  6
CONTINUOUS
 10
179.0990229202
 20
72.6303797084
 11
179.0990229202
 21
61.6896779994
  0
LINE
  5
323
100
AcDbEntity
  8
0
100
AcDbLine
 62
7
  6
CONTINUOUS
 10
183.1295315729
 20
59.3625128175
 11
183.1295315729
 21
70.3032145265
  0
LINE
  5
324
100
AcDbEntity
  8
ASSI
100
AcDbLine
 62
7
  6
CONTINUOUS
 10
183.1295315729
 20
59.3625128175
 11
183.1295315729
 21
70.3032145265
  0
LINE
  5
325
100
AcDbEntity
  8
0
100
AcDbLine
 62
7
  6
CONTINUOUS
 10
183.8366383541
 20
59.3625128175
 11
183.8366383541
 21
70.3032145265
  0
LINE
  5
326
100
AcDbEntity
  8
ASSI
100
AcDbLine
 62
7
  6
CONTINUOUS
 10
183.8366383541
 20
59.3625128175
 11
183.8366383541
 21
70.3032145265
  0
LINE
  5
327
100
AcDbEntity
  8
0
100
AcDbLine
 62
7
  6
CONTINUOUS
 10
183.9780597103
 20
70.3848694451
 11
183.9780597103
 21
59.4441677361
  0
LINE
  5
328
100
AcDbEntity
  8
ASSI
100
AcDbLine
 62
7
  6
CONTINUOUS
 10
183.9780597103
 20
70.3848694451
 11
183.9780597103
 21
59.4441677361
  0
LINE
  5
329
100
AcDbEntity
  8
0
100
AcDbLine
 62
7
  6
CONTINUOUS
 10
184.3366898992
 20
70.9072451331
 11
184.3366898992
 21
60.2169581837
  0
LINE
  5
32A
100
AcDbEntity
  8
ASSI
100
AcDbLine
 62
7
  6
CONTINUOUS
 10
184.3366898992
 20
70.9072451331
 11
184.3366898992
 21
60.2169581837
  0
LWPOLYLINE
  5
32B
100
AcDbEntity
  8
0
100
AcDbPolyline
 62
7
  6
CONTINUOUS
 90
28
 70
0
 10
179.0990229202
 20
61.6896779994
 10
179.0969334306
 20
61.609741212
 10
179.090847325
 20
61.5329227979
 10
179.0807646034
 20
61.4592227571
 10
179.0666244207
 20
61.3884126424
 10
179.0484876219
 20
61.3207209009
 10
179.0265367423
 20
61.2568328743
 10
179.0007329535
 20
61.196787428
 10
178.971115084
 20
61.1405456965
 10
178.9379821533
 20
61.0886764253
 10
178.9012985139
 20
61.0412241496
 10
178.8610998135
 20
60.9981443342
 10
178.8177920149
 20
60.9598721191
 10
178.7713436969
 20
60.9264563053
 10
178.7217862808
 20
60.8978480918
 10
178.6696199936
 20
60.8743362159
 10
178.6148183345
 20
60.8559722828
 10
178.5574078042
 20
60.8427046872
 10
178.4979681317
 20
60.8346673502
 10
178.4364785004
 20
60.8319133967
 10
178.3729597269
 20
60.8343897018
 10
178.3080539897
 20
60.8420708111
 10
178.2417470632
 20
60.8550097995
 10
178.174053173
 20
60.8731535921
 10
178.1056571752
 20
60.89631751
 10
178.0367873552
 20
60.9244399938
 10
177.9672154275
 20
60.957582603
 10
177.8969413921
 20
60.9957453375
  0
LWPOLYLINE
  5
32C
100
AcDbEntity
  8
ASSI
100
AcDbPolyline
 62
7
  6
CONTINUOUS
 90
28
 70
0
 10
179.0990229202
 20
61.6896779994
 10
179.0969334306
 20
61.609741212
 10
179.090847325
 20
61.5329227979
 10
179.0807646034
 20
61.4592227571
 10
179.0666244207
 20
61.3884126424
 10
179.0484876219
 20
61.3207209009
 10
179.0265367423
 20
61.2568328743
 10
179.0007329535
 20
61.196787428
 10
178.971115084
 20
61.1405456965
 10
178.9379821533
 20
61.0886764253
 10
178.9012985139
 20
61.0412241496
 10
178.8610998135
 20
60.9981443342
 10
178.8177920149
 20
60.9598721191
 10
178.7713436969
 20
60.9264563053
 10
178.7217862808
 20
60.8978480918
 10
178.6696199936
 20
60.8743362159
 10
178.6148183345
 20
60.8559722828
 10
178.5574078042
 20
60.8427046872
 10
178.4979681317
 20
60.8346673502
 10
178.4364785004
 20
60.8319133967
 10
178.3729597269
 20
60.8343897018
 10
178.3080539897
 20
60.8420708111
 10
178.2417470632
 20
60.8550097995
 10
178.174053173
 20
60.8731535921
 10
178.1056571752
 20
60.89631751
 10
178.0367873552
 20
60.9244399938
 10
177.9672154275
 20
60.957582603
 10
177.8969413921
 20
60.9957453375
  0
LWPOLYLINE
  5
32D
100
AcDbEntity
  8
0
100
AcDbPolyline
 62
7
  6
CONTINUOUS
 90
28
 70
0
 10
183.1295315729
 20
70.3032145265
 10
183.1316210624
 20
70.3831513139
 10
183.137707168
 20
70.459969728
 10
183.1477898896
 20
70.5336697688
 10
183.1619300724
 20
70.6044798836
 10
183.1800668712
 20
70.672171625
 10
183.2020177508
 20
70.7360596516
 10
183.2278215395
 20
70.7961050979
 10
183.2574394091
 20
70.8523468294
 10
183.2905723398
 20
70.9042161006
 10
183.3272559791
 20
70.9516683763
 10
183.3674546796
 20
70.9947481917
 10
183.4107624781
 20
71.0330204068
 10
183.4572107961
 20
71.0664362206
 10
183.5067682122
 20
71.0950444341
 10
183.5589344995
 20
71.11855631
 10
183.6137361586
 20
71.1369202431
 10
183.6711466889
 20
71.1501878387
 10
183.7305863614
 20
71.1582251757
 10
183.7920759927
 20
71.1609791292
 10
183.8555947662
 20
71.1585028241
 10
183.9205005033
 20
71.1508217148
 10
183.9868074299
 20
71.1378827264
 10
184.05450132
 20
71.1197389339
 10
184.1228973178
 20
71.0965750159
 10
184.1917671379
 20
71.0684525321
 10
184.2613390656
 20
71.0353099229
 10
184.3316131009
 20
70.9971471884
  0
LWPOLYLINE
  5
32E
100
AcDbEntity
  8
ASSI
100
AcDbPolyline
 62
7
  6
CONTINUOUS
 90
28
 70
0
 10
183.1295315729
 20
70.3032145265
 10
183.1316210624
 20
70.3831513139
 10
183.137707168
 20
70.459969728
 10
183.1477898896
 20
70.5336697688
 10
183.1619300724
 20
70.6044798836
 10
183.1800668712
 20
70.672171625
 10
183.2020177508
 20
70.7360596516
 10
183.2278215395
 20
70.7961050979
 10
183.2574394091
 20
70.8523468294
 10
183.2905723398
 20
70.9042161006
 10
183.3272559791
 20
70.9516683763
 10
183.3674546796
 20
70.9947481917
 10
183.4107624781
 20
71.0330204068
 10
183.4572107961
 20
71.0664362206
 10
183.5067682122
 20
71.0950444341
 10
183.5589344995
 20
71.11855631
 10
183.6137361586
 20
71.1369202431
 10
183.6711466889
 20
71.1501878387
 10
183.7305863614
 20
71.1582251757
 10
183.7920759927
 20
71.1609791292
 10
183.8555947662
 20
71.1585028241
 10
183.9205005033
 20
71.1508217148
 10
183.9868074299
 20
71.1378827264
 10
184.05450132
 20
71.1197389339
 10
184.1228973178
 20
71.0965750159
 10
184.1917671379
 20
71.0684525321
 10
184.2613390656
 20
71.0353099229
 10
184.3316131009
 20
70.9971471884
  0
LWPOLYLINE
  5
32F
100
AcDbEntity
  8
0
100
AcDbPolyline
 62
7
  6
CONTINUOUS
 90
7
 70
0
 10
179.0990229202
 20
62.0979525928
 10
179.0972067736
 20
62.0349324366
 10
179.0917656375
 20
61.9742754321
 10
179.0827221028
 20
61.9162417536
 10
179.0701138851
 20
61.8610792732
 10
179.0539944467
 20
61.8090260872
 10
179.0344335227
 20
61.7603088027
  0
LWPOLYLINE
  5
330
100
AcDbEntity
  8
ASSI
100
AcDbPolyline
 62
7
  6
CONTINUOUS
 90
7
 70
0
 10
179.0990229202
 20
62.0979525928
 10
179.0972067736
 20
62.0349324366
 10
179.0917656375
 20
61.9742754321
 10
179.0827221028
 20
61.9162417536
 10
179.0701138851
 20
61.8610792732
 10
179.0539944467
 20
61.8090260872
 10
179.0344335227
 20
61.7603088027
  0
LWPOLYLINE
  5
331
100
AcDbEntity
  8
0
100
AcDbPolyline
 62
7
  6
CONTINUOUS
 90
11
 70
0
 10
183.8366383541
 20
70.3032145265
 10
183.8384545006
 20
70.3662346826
 10
183.8438956367
 20
70.4268916872
 10
183.8529391715
 20
70.4849253657
 10
183.8655473892
 20
70.5400878461
 10
183.8816668275
 20
70.5921410321
 10
183.9012277516
 20
70.6408583165
 10
183.92414632
 20
70.6860309189
 10
183.9503244222
 20
70.7274654882
 10
183.9796481925
 20
70.7649825407
 10
184.0119902605
 20
70.7984209005
  0
LWPOLYLINE
  5
332
100
AcDbEntity
  8
ASSI
100
AcDbPolyline
 62
7
  6
CONTINUOUS
 90
11
 70
0
 10
183.8366383541
 20
70.3032145265
 10
183.8384545006
 20
70.3662346826
 10
183.8438956367
 20
70.4268916872
 10
183.8529391715
 20
70.4849253657
 10
183.8655473892
 20
70.5400878461
 10
183.8816668275
 20
70.5921410321
 10
183.9012277516
 20
70.6408583165
 10
183.92414632
 20
70.6860309189
 10
183.9503244222
 20
70.7274654882
 10
183.9796481925
 20
70.7649825407
 10
184.0119902605
 20
70.7984209005
  0
LWPOLYLINE
  5
333
100
AcDbEntity
  8
0
100
AcDbPolyline
 62
7
  6
CONTINUOUS
 90
7
 70
0
 10
184.0339082289
 20
70.7022003191
 10
184.023088183
 20
70.6737959487
 10
184.0069687382
 20
70.6217427379
 10
183.9943605195
 20
70.5665802415
 10
183.9853169878
 20
70.5085465638
 10
183.9798758552
 20
70.4478895731
 10
183.9780597103
 20
70.3848694451
  0
LWPOLYLINE
  5
334
100
AcDbEntity
  8
ASSI
100
AcDbPolyline
 62
7
  6
CONTINUOUS
 90
7
 70
0
 10
184.0339082289
 20
70.7022003191
 10
184.023088183
 20
70.6737959487
 10
184.0069687382
 20
70.6217427379
 10
183.9943605195
 20
70.5665802415
 10
183.9853169878
 20
70.5085465638
 10
183.9798758552
 20
70.4478895731
 10
183.9780597103
 20
70.3848694451
  0
LINE
  5
335
100
AcDbEntity
  8
0
100
AcDbLine
 62
250
  6
CONTINUOUS
 10
184.217411457
 20
70.9006340105
 11
183.9780597103
 21
70.3848694451
  0
LINE
  5
336
100
AcDbEntity
  8
ASSI
100
AcDbLine
 62
250
  6
CONTINUOUS
 10
184.217411457
 20
70.9006340105
 11
183.9780597103
 21
70.3848694451
  0
LWPOLYLINE
  5
337
100
AcDbEntity
  8
0
100
AcDbPolyline
 62
7
  6
CONTINUOUS
 90
7
 70
0
 10
179.0344335227
 20
61.7603088027
 10
179.0115149542
 20
61.7151362003
 10
178.9853368521
 20
61.6737016311
 10
178.9560130817
 20
61.6361845785
 10
178.9236710138
 20
61.6027462187
 10
178.8884485852
 20
61.5735275477
 10
178.8505237749
 20
61.5486683594
  0
LWPOLYLINE
  5
338
100
AcDbEntity
  8
ASSI
100
AcDbPolyline
 62
7
  6
CONTINUOUS
 90
7
 70
0
 10
179.0344335227
 20
61.7603088027
 10
179.0115149542
 20
61.7151362003
 10
178.9853368521
 20
61.6737016311
 10
178.9560130817
 20
61.6361845785
 10
178.9236710138
 20
61.6027462187
 10
178.8884485852
 20
61.5735275477
 10
178.8505237749
 20
61.5486683594
  0
LWPOLYLINE
  5
339
100
AcDbEntity
  8
0
100
AcDbPolyline
 62
7
  6
CONTINUOUS
 90
3
 70
0
 10
184.0655676865
 20
70.7676858556
 10
184.0426491146
 20
70.72251325
 10
184.0339082289
 20
70.7022003191
  0
LWPOLYLINE
  5
33A
100
AcDbEntity
  8
ASSI
100
AcDbPolyline
 62
7
  6
CONTINUOUS
 90
3
 70
0
 10
184.0655676865
 20
70.7676858556
 10
184.0426491146
 20
70.72251325
 10
184.0339082289
 20
70.7022003191
  0
LINE
  5
33B
100
AcDbEntity
  8
0
100
AcDbLine
 62
250
  6
CONTINUOUS
 10
177.8969413921
 20
60.9957453375
 11
178.2504947827
 21
61.6081177726
  0
LINE
  5
33C
100
AcDbEntity
  8
ASSI
100
AcDbLine
 62
250
  6
CONTINUOUS
 10
177.8969413921
 20
60.9957453375
 11
178.2504947827
 21
61.6081177726
  0
LWPOLYLINE
  5
33D
100
AcDbEntity
  8
0
100
AcDbPolyline
 62
7
  6
CONTINUOUS
 90
4
 70
0
 10
184.1534116394
 20
70.8800758403
 10
184.1210695632
 20
70.8466374759
 10
184.0917457899
 20
70.8091204232
 10
184.0655676865
 20
70.7676858556
  0
LWPOLYLINE
  5
33E
100
AcDbEntity
  8
ASSI
100
AcDbPolyline
 62
7
  6
CONTINUOUS
 90
4
 70
0
 10
184.1534116394
 20
70.8800758403
 10
184.1210695632
 20
70.8466374759
 10
184.0917457899
 20
70.8091204232
 10
184.0655676865
 20
70.7676858556
  0
LWPOLYLINE
  5
33F
100
AcDbEntity
  8
0
100
AcDbPolyline
 62
7
  6
CONTINUOUS
 90
3
 70
0
 10
184.0119902605
 20
70.7984209005
 10
184.0472126891
 20
70.8276395715
 10
184.0851374994
 20
70.8524987599
  0
LWPOLYLINE
  5
340
100
AcDbEntity
  8
ASSI
100
AcDbPolyline
 62
7
  6
CONTINUOUS
 90
3
 70
0
 10
184.0119902605
 20
70.7984209005
 10
184.0472126891
 20
70.8276395715
 10
184.0851374994
 20
70.8524987599
  0
LINE
  5
341
100
AcDbEntity
  8
0
100
AcDbLine
 62
250
  6
CONTINUOUS
 10
183.8366383541
 20
70.3032145265
 11
183.9780597103
 21
70.3848694451
  0
LINE
  5
342
100
AcDbEntity
  8
ASSI
100
AcDbLine
 62
250
  6
CONTINUOUS
 10
183.8366383541
 20
70.3032145265
 11
183.9780597103
 21
70.3848694451
  0
LWPOLYLINE
  5
343
100
AcDbEntity
  8
0
100
AcDbPolyline
 62
7
  6
CONTINUOUS
 90
13
 70
0
 10
184.0851374994
 20
70.8524987599
 10
184.1256889152
 20
70.8729420304
 10
184.1686067277
 20
70.8888318674
 10
184.2137387007
 20
70.9001174372
 10
184.2608937771
 20
70.9067498001
 10
184.3098686541
 20
70.9086992467
 10
184.3604508817
 20
70.9059569317
 10
184.4124238437
 20
70.8985346175
 10
184.4655648917
 20
70.8864641188
 10
184.5196431337
 20
70.8697982986
 10
184.5744257194
 20
70.8486098459
 10
184.6296790461
 20
70.8229900288
 10
184.6851664915
 20
70.7930493466
  0
LWPOLYLINE
  5
344
100
AcDbEntity
  8
ASSI
100
AcDbPolyline
 62
7
  6
CONTINUOUS
 90
13
 70
0
 10
184.0851374994
 20
70.8524987599
 10
184.1256889152
 20
70.8729420304
 10
184.1686067277
 20
70.8888318674
 10
184.2137387007
 20
70.9001174372
 10
184.2608937771
 20
70.9067498001
 10
184.3098686541
 20
70.9086992467
 10
184.3604508817
 20
70.9059569317
 10
184.4124238437
 20
70.8985346175
 10
184.4655648917
 20
70.8864641188
 10
184.5196431337
 20
70.8697982986
 10
184.5744257194
 20
70.8486098459
 10
184.6296790461
 20
70.8229900288
 10
184.6851664915
 20
70.7930493466
  0
LWPOLYLINE
  5
345
100
AcDbEntity
  8
0
100
AcDbPolyline
 62
7
  6
CONTINUOUS
 90
11
 70
0
 10
178.7670545465
 20
61.5123352519
 10
178.7219225736
 20
61.5010496821
 10
178.6747674971
 20
61.4944173192
 10
178.6257926201
 20
61.4924678726
 10
178.5752103925
 20
61.4952101875
 10
178.5232374306
 20
61.5026325017
 10
178.4700963826
 20
61.5147030004
 10
178.4160181406
 20
61.5313688206
 10
178.3612355548
 20
61.5525572734
 10
178.3059822281
 20
61.5781770904
 10
178.2504947827
 20
61.6081177726
  0
LWPOLYLINE
  5
346
100
AcDbEntity
  8
ASSI
100
AcDbPolyline
 62
7
  6
CONTINUOUS
 90
11
 70
0
 10
178.7670545465
 20
61.5123352519
 10
178.7219225736
 20
61.5010496821
 10
178.6747674971
 20
61.4944173192
 10
178.6257926201
 20
61.4924678726
 10
178.5752103925
 20
61.4952101875
 10
178.5232374306
 20
61.5026325017
 10
178.4700963826
 20
61.5147030004
 10
178.4160181406
 20
61.5313688206
 10
178.3612355548
 20
61.5525572734
 10
178.3059822281
 20
61.5781770904
 10
178.2504947827
 20
61.6081177726
  0
LINE
  5
347
100
AcDbEntity
  8
0
100
AcDbLine
 62
250
  6
CONTINUOUS
 10
169.7652134085
 20
67.0849145529
 11
168.9166852711
 21
67.1606522419
  0
LINE
  5
348
100
AcDbEntity
  8
ASSI
100
AcDbLine
 62
250
  6
CONTINUOUS
 10
169.7652134085
 20
67.0849145529
 11
168.9166852711
 21
67.1606522419
  0
LWPOLYLINE
  5
349
100
AcDbEntity
  8
0
100
AcDbPolyline
 62
7
  6
CONTINUOUS
 90
6
 70
0
 10
162.7848425778
 20
70.7656213882
 10
162.8067290677
 20
70.7630434664
 10
162.857311304
 20
70.7603011419
 10
162.9062862112
 20
70.7622505819
 10
162.9534413096
 20
70.7688829422
 10
162.998573285
 20
70.7801685078
  0
LWPOLYLINE
  5
34A
100
AcDbEntity
  8
ASSI
100
AcDbPolyline
 62
7
  6
CONTINUOUS
 90
6
 70
0
 10
162.7848425778
 20
70.7656213882
 10
162.8067290677
 20
70.7630434664
 10
162.857311304
 20
70.7603011419
 10
162.9062862112
 20
70.7622505819
 10
162.9534413096
 20
70.7688829422
 10
162.998573285
 20
70.7801685078
  0
LWPOLYLINE
  5
34B
100
AcDbEntity
  8
0
100
AcDbPolyline
 62
7
  6
CONTINUOUS
 90
20
 70
0
 10
162.2641514888
 20
83.7012135934
 10
162.331845421
 20
83.6411860687
 10
162.3981523581
 20
83.5775553983
 10
162.4630580566
 20
83.5102849726
 10
162.52657676
 20
83.4394114011
 10
162.5880663802
 20
83.3656506848
 10
162.6475061727
 20
83.28897364
 10
162.704916882
 20
83.2094094503
 10
162.7597186524
 20
83.1277616676
 10
162.8118849319
 20
83.0440093417
 10
162.8614422726
 20
82.9581734228
 10
162.907890475
 20
82.8711203135
 10
162.9511980977
 20
82.7828375682
 10
162.9913965821
 20
82.6933376325
 10
163.028080053
 20
82.6035242455
 10
163.0612129105
 20
82.5133939258
 10
163.0908307546
 20
82.4229501548
 10
163.1166345095
 20
82.3331071149
 10
163.1385853234
 20
82.2438708129
 10
163.1567220482
 20
82.1552352421
  0
LWPOLYLINE
  5
34C
100
AcDbEntity
  8
ASSI
100
AcDbPolyline
 62
7
  6
CONTINUOUS
 90
20
 70
0
 10
162.2641514888
 20
83.7012135934
 10
162.331845421
 20
83.6411860687
 10
162.3981523581
 20
83.5775553983
 10
162.4630580566
 20
83.5102849726
 10
162.52657676
 20
83.4394114011
 10
162.5880663802
 20
83.3656506848
 10
162.6475061727
 20
83.28897364
 10
162.704916882
 20
83.2094094503
 10
162.7597186524
 20
83.1277616676
 10
162.8118849319
 20
83.0440093417
 10
162.8614422726
 20
82.9581734228
 10
162.907890475
 20
82.8711203135
 10
162.9511980977
 20
82.7828375682
 10
162.9913965821
 20
82.6933376325
 10
163.028080053
 20
82.6035242455
 10
163.0612129105
 20
82.5133939258
 10
163.0908307546
 20
82.4229501548
 10
163.1166345095
 20
82.3331071149
 10
163.1385853234
 20
82.2438708129
 10
163.1567220482
 20
82.1552352421
  0
LWPOLYLINE
  5
34D
100
AcDbEntity
  8
0
100
AcDbPolyline
 62
7
  6
CONTINUOUS
 90
5
 70
0
 10
179.0666246249
 20
72.9690568922
 10
179.0807647412
 20
72.8819182151
 10
179.0908474093
 20
72.7965751525
 10
179.096933469
 20
72.7127289836
 10
179.0990229202
 20
72.6303797084
  0
LWPOLYLINE
  5
34E
100
AcDbEntity
  8
ASSI
100
AcDbPolyline
 62
7
  6
CONTINUOUS
 90
5
 70
0
 10
179.0666246249
 20
72.9690568922
 10
179.0807647412
 20
72.8819182151
 10
179.0908474093
 20
72.7965751525
 10
179.096933469
 20
72.7127289836
 10
179.0990229202
 20
72.6303797084
  0
LINE
  5
34F
100
AcDbEntity
  8
0
100
AcDbLine
 62
250
  6
CONTINUOUS
 10
184.3366898992
 20
60.2169581837
 11
183.9780597103
 21
59.4441677361
  0
LINE
  5
350
100
AcDbEntity
  8
ASSI
100
AcDbLine
 62
250
  6
CONTINUOUS
 10
184.3366898992
 20
60.2169581837
 11
183.9780597103
 21
59.4441677361
  0
LINE
  5
351
100
AcDbEntity
  8
0
100
AcDbLine
 62
250
  6
CONTINUOUS
 10
184.3316131009
 20
57.2804465383
 11
184.6851664915
 21
57.8928189733
  0
LINE
  5
352
100
AcDbEntity
  8
ASSI
100
AcDbLine
 62
250
  6
CONTINUOUS
 10
184.3316131009
 20
57.2804465383
 11
184.6851664915
 21
57.8928189733
  0
LINE
  5
353
100
AcDbEntity
  8
0
100
AcDbLine
 62
250
  6
CONTINUOUS
 10
178.2504947827
 20
61.6081177726
 11
178.391916139
 21
61.6897726913
  0
LINE
  5
354
100
AcDbEntity
  8
ASSI
100
AcDbLine
 62
250
  6
CONTINUOUS
 10
178.2504947827
 20
61.6081177726
 11
178.391916139
 21
61.6897726913
  0
LWPOLYLINE
  5
355
100
AcDbEntity
  8
0
100
AcDbPolyline
 62
7
  6
CONTINUOUS
 90
3
 70
0
 10
178.8505237749
 20
61.5486683594
 10
178.809972359
 20
61.5282250889
 10
178.7670545465
 20
61.5123352519
  0
LWPOLYLINE
  5
356
100
AcDbEntity
  8
ASSI
100
AcDbPolyline
 62
7
  6
CONTINUOUS
 90
3
 70
0
 10
178.8505237749
 20
61.5486683594
 10
178.809972359
 20
61.5282250889
 10
178.7670545465
 20
61.5123352519
  0
LINE
  5
357
100
AcDbEntity
  8
0
100
AcDbLine
 62
250
  6
CONTINUOUS
 10
167.2196289962
 20
68.5486911673
 11
167.9267357774
 21
68.5486911673
  0
LINE
  5
358
100
AcDbEntity
  8
ASSI
100
AcDbLine
 62
250
  6
CONTINUOUS
 10
167.2196289962
 20
68.5486911673
 11
167.9267357774
 21
68.5486911673
  0
LINE
  5
359
100
AcDbEntity
  8
0
100
AcDbLine
 62
250
  6
CONTINUOUS
 10
183.1295315729
 20
70.3032145265
 11
183.8366383541
 21
70.3032145265
  0
LINE
  5
35A
100
AcDbEntity
  8
ASSI
100
AcDbLine
 62
250
  6
CONTINUOUS
 10
183.1295315729
 20
70.3032145265
 11
183.8366383541
 21
70.3032145265
  0
LINE
  5
35B
100
AcDbEntity
  8
0
100
AcDbLine
 62
250
  6
CONTINUOUS
 10
163.0484763899
 20
70.8253898593
 11
162.4820135623
 21
70.8759510411
  0
LINE
  5
35C
100
AcDbEntity
  8
ASSI
100
AcDbLine
 62
250
  6
CONTINUOUS
 10
163.0484763899
 20
70.8253898593
 11
162.4820135623
 21
70.8759510411
  0
LINE
  5
35D
100
AcDbEntity
  8
0
100
AcDbLine
 62
250
  6
CONTINUOUS
 10
153.8553108318
 20
76.2710929028
 11
153.0067826944
 21
76.3468305917
  0
LINE
  5
35E
100
AcDbEntity
  8
ASSI
100
AcDbLine
 62
250
  6
CONTINUOUS
 10
153.8553108318
 20
76.2710929028
 11
153.0067826944
 21
76.3468305917
  0
LINE
  5
35F
100
AcDbEntity
  8
0
100
AcDbLine
 62
7
  6
CONTINUOUS
 10
152.5118079475
 20
89.3695038881
 11
161.9870388154
 21
83.8986243375
  0
LINE
  5
360
100
AcDbEntity
  8
ASSI
100
AcDbLine
 62
7
  6
CONTINUOUS
 10
152.5118079475
 20
89.3695038881
 11
161.9870388154
 21
83.8986243375
  0
LINE
  5
361
100
AcDbEntity
  8
0
100
AcDbLine
 62
7
  6
CONTINUOUS
 10
168.4217105242
 20
80.1833255382
 11
177.8969413921
 21
74.7124459877
  0
LINE
  5
362
100
AcDbEntity
  8
ASSI
100
AcDbLine
 62
7
  6
CONTINUOUS
 10
168.4217105242
 20
80.1833255382
 11
177.8969413921
 21
74.7124459877
  0
LINE
  5
363
100
AcDbEntity
  8
0
100
AcDbLine
 62
7
  6
CONTINUOUS
 10
184.3316131009
 20
70.9971471884
 11
193.8068439688
 21
65.5262676378
  0
LINE
  5
364
100
AcDbEntity
  8
ASSI
100
AcDbLine
 62
7
  6
CONTINUOUS
 10
184.3316131009
 20
70.9971471884
 11
193.8068439688
 21
65.5262676378
  0
LINE
  5
365
100
AcDbEntity
  8
0
100
AcDbLine
 62
7
  6
CONTINUOUS
 10
200.2415156776
 20
61.8109688385
 11
209.7167465455
 21
56.3400892879
  0
LINE
  5
366
100
AcDbEntity
  8
ASSI
100
AcDbLine
 62
7
  6
CONTINUOUS
 10
200.2415156776
 20
61.8109688385
 11
209.7167465455
 21
56.3400892879
  0
LWPOLYLINE
  5
367
100
AcDbEntity
  8
0
100
AcDbPolyline
 62
7
  6
CONTINUOUS
 90
5
 70
0
 10
161.9870388154
 20
83.8986243375
 10
162.05731318
 20
83.8556361432
 10
162.1268853683
 20
83.8084386306
 10
162.1957553803
 20
83.7570317999
 10
162.2641514888
 20
83.7012135934
  0
LWPOLYLINE
  5
368
100
AcDbEntity
  8
ASSI
100
AcDbPolyline
 62
7
  6
CONTINUOUS
 90
5
 70
0
 10
161.9870388154
 20
83.8986243375
 10
162.05731318
 20
83.8556361432
 10
162.1268853683
 20
83.8084386306
 10
162.1957553803
 20
83.7570317999
 10
162.2641514888
 20
83.7012135934
  0
LWPOLYLINE
  5
369
100
AcDbEntity
  8
0
100
AcDbPolyline
 62
7
  6
CONTINUOUS
 90
5
 70
0
 10
177.8969413921
 20
74.7124459877
 10
177.9672157567
 20
74.6694577933
 10
178.036787945
 20
74.6222602808
 10
178.105657957
 20
74.57085345
 10
178.1740540655
 20
74.5150352435
  0
LWPOLYLINE
  5
36A
100
AcDbEntity
  8
ASSI
100
AcDbPolyline
 62
7
  6
CONTINUOUS
 90
5
 70
0
 10
177.8969413921
 20
74.7124459877
 10
177.9672157567
 20
74.6694577933
 10
178.036787945
 20
74.6222602808
 10
178.105657957
 20
74.57085345
 10
178.1740540655
 20
74.5150352435
  0
LWPOLYLINE
  5
36B
100
AcDbEntity
  8
0
100
AcDbPolyline
 62
7
  6
CONTINUOUS
 90
5
 70
0
 10
193.8068439688
 20
65.5262676378
 10
193.8771183334
 20
65.4832794434
 10
193.9466905217
 20
65.4360819309
 10
194.0155605336
 20
65.3846751001
 10
194.0839566422
 20
65.3288568937
  0
LWPOLYLINE
  5
36C
100
AcDbEntity
  8
ASSI
100
AcDbPolyline
 62
7
  6
CONTINUOUS
 90
5
 70
0
 10
193.8068439688
 20
65.5262676378
 10
193.8771183334
 20
65.4832794434
 10
193.9466905217
 20
65.4360819309
 10
194.0155605336
 20
65.3846751001
 10
194.0839566422
 20
65.3288568937
  0
LWPOLYLINE
  5
36D
100
AcDbEntity
  8
0
100
AcDbPolyline
 62
7
  6
CONTINUOUS
 90
5
 70
0
 10
209.7167465455
 20
56.3400892879
 10
209.7870209101
 20
56.2971010936
 10
209.8565930984
 20
56.249903581
 10
209.9254631103
 20
56.1984967503
 10
209.9938592189
 20
56.1426785438
  0
LWPOLYLINE
  5
36E
100
AcDbEntity
  8
ASSI
100
AcDbPolyline
 62
7
  6
CONTINUOUS
 90
5
 70
0
 10
209.7167465455
 20
56.3400892879
 10
209.7870209101
 20
56.2971010936
 10
209.8565930984
 20
56.249903581
 10
209.9254631103
 20
56.1984967503
 10
209.9938592189
 20
56.1426785438
  0
LWPOLYLINE
  5
36F
100
AcDbEntity
  8
0
100
AcDbPolyline
 62
7
  6
CONTINUOUS
 90
20
 70
0
 10
178.1740540655
 20
74.5150352435
 10
178.2417479977
 20
74.4550077188
 10
178.3080549348
 20
74.3913770484
 10
178.3729606333
 20
74.3241066227
 10
178.4364793367
 20
74.2532330512
 10
178.4979689569
 20
74.1794723349
 10
178.5574087494
 20
74.1027952901
 10
178.6148194587
 20
74.0232311004
 10
178.6696212291
 20
73.9415833177
 10
178.7217875086
 20
73.8578309918
 10
178.7713448493
 20
73.7719950729
 10
178.8177930517
 20
73.6849419636
 10
178.8611006744
 20
73.5966592183
 10
178.9012991588
 20
73.5071592827
 10
178.9379826297
 20
73.4173458956
 10
178.9711154872
 20
73.327215576
 10
179.0007333313
 20
73.2367718049
 10
179.0265370862
 20
73.146928765
 10
179.0484879001
 20
73.057692463
 10
179.0666246249
 20
72.9690568922
  0
LWPOLYLINE
  5
370
100
AcDbEntity
  8
ASSI
100
AcDbPolyline
 62
7
  6
CONTINUOUS
 90
20
 70
0
 10
178.1740540655
 20
74.5150352435
 10
178.2417479977
 20
74.4550077188
 10
178.3080549348
 20
74.3913770484
 10
178.3729606333
 20
74.3241066227
 10
178.4364793367
 20
74.2532330512
 10
178.4979689569
 20
74.1794723349
 10
178.5574087494
 20
74.1027952901
 10
178.6148194587
 20
74.0232311004
 10
178.6696212291
 20
73.9415833177
 10
178.7217875086
 20
73.8578309918
 10
178.7713448493
 20
73.7719950729
 10
178.8177930517
 20
73.6849419636
 10
178.8611006744
 20
73.5966592183
 10
178.9012991588
 20
73.5071592827
 10
178.9379826297
 20
73.4173458956
 10
178.9711154872
 20
73.327215576
 10
179.0007333313
 20
73.2367718049
 10
179.0265370862
 20
73.146928765
 10
179.0484879001
 20
73.057692463
 10
179.0666246249
 20
72.9690568922
  0
LWPOLYLINE
  5
371
100
AcDbEntity
  8
0
100
AcDbPolyline
 62
7
  6
CONTINUOUS
 90
20
 70
0
 10
194.0839566422
 20
65.3288568937
 10
194.1516505744
 20
65.268829369
 10
194.2179575115
 20
65.2051986985
 10
194.28286321
 20
65.1379282728
 10
194.3463819134
 20
65.0670547014
 10
194.4078715336
 20
64.993293985
 10
194.4673113261
 20
64.9166169402
 10
194.5247220354
 20
64.8370527505
 10
194.5795238058
 20
64.7554049679
 10
194.6316900853
 20
64.671652642
 10
194.681247426
 20
64.585816723
 10
194.7276956284
 20
64.4987636137
 10
194.7710032511
 20
64.4104808685
 10
194.8112017355
 20
64.3209809328
 10
194.8478852064
 20
64.2311675457
 10
194.8810180639
 20
64.1410372261
 10
194.910635908
 20
64.050593455
 10
194.9364396629
 20
63.9607504152
 10
194.9583904768
 20
63.8715141132
 10
194.9765272016
 20
63.7828785423
  0
LWPOLYLINE
  5
372
100
AcDbEntity
  8
ASSI
100
AcDbPolyline
 62
7
  6
CONTINUOUS
 90
20
 70
0
 10
194.0839566422
 20
65.3288568937
 10
194.1516505744
 20
65.268829369
 10
194.2179575115
 20
65.2051986985
 10
194.28286321
 20
65.1379282728
 10
194.3463819134
 20
65.0670547014
 10
194.4078715336
 20
64.993293985
 10
194.4673113261
 20
64.9166169402
 10
194.5247220354
 20
64.8370527505
 10
194.5795238058
 20
64.7554049679
 10
194.6316900853
 20
64.671652642
 10
194.681247426
 20
64.585816723
 10
194.7276956284
 20
64.4987636137
 10
194.7710032511
 20
64.4104808685
 10
194.8112017355
 20
64.3209809328
 10
194.8478852064
 20
64.2311675457
 10
194.8810180639
 20
64.1410372261
 10
194.910635908
 20
64.050593455
 10
194.9364396629
 20
63.9607504152
 10
194.9583904768
 20
63.8715141132
 10
194.9765272016
 20
63.7828785423
  0
LINE
  5
373
100
AcDbEntity
  8
0
100
AcDbLine
 62
7
  6
CONTINUOUS
 10
195.0089254968
 20
63.4442013586
 11
195.0089254968
 21
52.5034996496
  0
LINE
  5
374
100
AcDbEntity
  8
ASSI
100
AcDbLine
 62
7
  6
CONTINUOUS
 10
195.0089254968
 20
63.4442013586
 11
195.0089254968
 21
52.5034996496
  0
LWPOLYLINE
  5
375
100
AcDbEntity
  8
0
100
AcDbPolyline
 62
7
  6
CONTINUOUS
 90
28
 70
0
 10
195.0089254968
 20
52.5034996496
 10
195.0068360073
 20
52.4235628622
 10
195.0007499017
 20
52.3467444481
 10
194.9906671801
 20
52.2730444072
 10
194.9765269974
 20
52.2022342925
 10
194.9583901986
 20
52.134542551
 10
194.936439319
 20
52.0706545244
 10
194.9106355302
 20
52.0106090781
 10
194.8810176606
 20
51.9543673466
 10
194.84788473
 20
51.9024980755
 10
194.8112010906
 20
51.8550457997
 10
194.7710023902
 20
51.8119659843
 10
194.7276945916
 20
51.7736937692
 10
194.6812462736
 20
51.7402779554
 10
194.6316888575
 20
51.711669742
 10
194.5795225703
 20
51.688157866
 10
194.5247209112
 20
51.6697939329
 10
194.4673103809
 20
51.6565263374
 10
194.4078707084
 20
51.6484890003
 10
194.3463810771
 20
51.6457350469
 10
194.2828623036
 20
51.648211352
 10
194.2179565664
 20
51.6558924613
 10
194.1516496399
 20
51.6688314496
 10
194.0839557497
 20
51.6869752422
 10
194.0155597519
 20
51.7101391601
 10
193.9466899319
 20
51.7382616439
 10
193.8771180042
 20
51.7714042531
 10
193.8068439688
 20
51.8095669877
  0
LWPOLYLINE
  5
376
100
AcDbEntity
  8
ASSI
100
AcDbPolyline
 62
7
  6
CONTINUOUS
 90
28
 70
0
 10
195.0089254968
 20
52.5034996496
 10
195.0068360073
 20
52.4235628622
 10
195.0007499017
 20
52.3467444481
 10
194.9906671801
 20
52.2730444072
 10
194.9765269974
 20
52.2022342925
 10
194.9583901986
 20
52.134542551
 10
194.936439319
 20
52.0706545244
 10
194.9106355302
 20
52.0106090781
 10
194.8810176606
 20
51.9543673466
 10
194.84788473
 20
51.9024980755
 10
194.8112010906
 20
51.8550457997
 10
194.7710023902
 20
51.8119659843
 10
194.7276945916
 20
51.7736937692
 10
194.6812462736
 20
51.7402779554
 10
194.6316888575
 20
51.711669742
 10
194.5795225703
 20
51.688157866
 10
194.5247209112
 20
51.6697939329
 10
194.4673103809
 20
51.6565263374
 10
194.4078707084
 20
51.6484890003
 10
194.3463810771
 20
51.6457350469
 10
194.2828623036
 20
51.648211352
 10
194.2179565664
 20
51.6558924613
 10
194.1516496399
 20
51.6688314496
 10
194.0839557497
 20
51.6869752422
 10
194.0155597519
 20
51.7101391601
 10
193.9466899319
 20
51.7382616439
 10
193.8771180042
 20
51.7714042531
 10
193.8068439688
 20
51.8095669877
  0
LWPOLYLINE
  5
377
100
AcDbEntity
  8
0
100
AcDbPolyline
 62
7
  6
CONTINUOUS
 90
7
 70
0
 10
195.0089254968
 20
52.9117742429
 10
195.0071093503
 20
52.8487540868
 10
195.0016682142
 20
52.7880970822
 10
194.9926246795
 20
52.7300634037
 10
194.9800164618
 20
52.6749009233
 10
194.9638970234
 20
52.6228477373
 10
194.9443360993
 20
52.5741304529
  0
LWPOLYLINE
  5
378
100
AcDbEntity
  8
ASSI
100
AcDbPolyline
 62
7
  6
CONTINUOUS
 90
7
 70
0
 10
195.0089254968
 20
52.9117742429
 10
195.0071093503
 20
52.8487540868
 10
195.0016682142
 20
52.7880970822
 10
194.9926246795
 20
52.7300634037
 10
194.9800164618
 20
52.6749009233
 10
194.9638970234
 20
52.6228477373
 10
194.9443360993
 20
52.5741304529
  0
LINE
  5
379
100
AcDbEntity
  8
0
100
AcDbLine
 62
250
  6
CONTINUOUS
 10
183.8366383541
 20
59.3625128175
 11
183.9780597103
 21
59.4441677361
  0
LINE
  5
37A
100
AcDbEntity
  8
ASSI
100
AcDbLine
 62
250
  6
CONTINUOUS
 10
183.8366383541
 20
59.3625128175
 11
183.9780597103
 21
59.4441677361
  0
LINE
  5
37B
100
AcDbEntity
  8
0
100
AcDbLine
 62
250
  6
CONTINUOUS
 10
184.6851664915
 20
57.8928189733
 11
184.8265878478
 21
57.974473892
  0
LINE
  5
37C
100
AcDbEntity
  8
ASSI
100
AcDbLine
 62
250
  6
CONTINUOUS
 10
184.6851664915
 20
57.8928189733
 11
184.8265878478
 21
57.974473892
  0
LWPOLYLINE
  5
37D
100
AcDbEntity
  8
0
100
AcDbPolyline
 62
7
  6
CONTINUOUS
 90
11
 70
0
 10
162.8571519698
 20
70.6985136018
 10
162.8120199969
 20
70.6872280319
 10
162.7648649204
 20
70.680595669
 10
162.7158900434
 20
70.6786462224
 10
162.6653078158
 20
70.6813885374
 10
162.6133348539
 20
70.6888108516
 10
162.5601938059
 20
70.7008813503
 10
162.5061155639
 20
70.7175471705
 10
162.4513329781
 20
70.7387356232
 10
162.3960796514
 20
70.7643554403
 10
162.340592206
 20
70.7942961225
  0
LWPOLYLINE
  5
37E
100
AcDbEntity
  8
ASSI
100
AcDbPolyline
 62
7
  6
CONTINUOUS
 90
11
 70
0
 10
162.8571519698
 20
70.6985136018
 10
162.8120199969
 20
70.6872280319
 10
162.7648649204
 20
70.680595669
 10
162.7158900434
 20
70.6786462224
 10
162.6653078158
 20
70.6813885374
 10
162.6133348539
 20
70.6888108516
 10
162.5601938059
 20
70.7008813503
 10
162.5061155639
 20
70.7175471705
 10
162.4513329781
 20
70.7387356232
 10
162.3960796514
 20
70.7643554403
 10
162.340592206
 20
70.7942961225
  0
LINE
  5
37F
100
AcDbEntity
  8
0
100
AcDbLine
 62
250
  6
CONTINUOUS
 10
151.3097264195
 20
77.7348695172
 11
152.0168332007
 21
77.7348695172
  0
LINE
  5
380
100
AcDbEntity
  8
ASSI
100
AcDbLine
 62
250
  6
CONTINUOUS
 10
151.3097264195
 20
77.7348695172
 11
152.0168332007
 21
77.7348695172
  0
LINE
  5
381
100
AcDbEntity
  8
0
100
AcDbLine
 62
250
  6
CONTINUOUS
 10
167.2196289962
 20
79.4893928764
 11
167.9267357774
 21
79.4893928764
  0
LINE
  5
382
100
AcDbEntity
  8
ASSI
100
AcDbLine
 62
250
  6
CONTINUOUS
 10
167.2196289962
 20
79.4893928764
 11
167.9267357774
 21
79.4893928764
  0
LWPOLYLINE
  5
383
100
AcDbEntity
  8
0
100
AcDbPolyline
 62
7
  6
CONTINUOUS
 90
20
 70
0
 10
209.9938592189
 20
56.1426785438
 10
210.0615531511
 20
56.0826510191
 10
210.1278600882
 20
56.0190203486
 10
210.1927657867
 20
55.951749923
 10
210.2562844901
 20
55.8808763515
 10
210.3177741103
 20
55.8071156352
 10
210.3772139028
 20
55.7304385904
 10
210.4346246121
 20
55.6508744007
 10
210.4894263825
 20
55.569226618
 10
210.541592662
 20
55.4854742921
 10
210.5911500027
 20
55.3996383732
 10
210.6375982051
 20
55.3125852638
 10
210.6809058278
 20
55.2243025186
 10
210.7211043122
 20
55.1348025829
 10
210.7577877831
 20
55.0449891959
 10
210.7909206406
 20
54.9548588762
 10
210.8205384846
 20
54.8644151052
 10
210.8463422396
 20
54.7745720653
 10
210.8682930535
 20
54.6853357633
 10
210.8864297783
 20
54.5967001925
  0
LWPOLYLINE
  5
384
100
AcDbEntity
  8
ASSI
100
AcDbPolyline
 62
7
  6
CONTINUOUS
 90
20
 70
0
 10
209.9938592189
 20
56.1426785438
 10
210.0615531511
 20
56.0826510191
 10
210.1278600882
 20
56.0190203486
 10
210.1927657867
 20
55.951749923
 10
210.2562844901
 20
55.8808763515
 10
210.3177741103
 20
55.8071156352
 10
210.3772139028
 20
55.7304385904
 10
210.4346246121
 20
55.6508744007
 10
210.4894263825
 20
55.569226618
 10
210.541592662
 20
55.4854742921
 10
210.5911500027
 20
55.3996383732
 10
210.6375982051
 20
55.3125852638
 10
210.6809058278
 20
55.2243025186
 10
210.7211043122
 20
55.1348025829
 10
210.7577877831
 20
55.0449891959
 10
210.7909206406
 20
54.9548588762
 10
210.8205384846
 20
54.8644151052
 10
210.8463422396
 20
54.7745720653
 10
210.8682930535
 20
54.6853357633
 10
210.8864297783
 20
54.5967001925
  0
LINE
  5
385
100
AcDbEntity
  8
0
100
AcDbLine
 62
7
  6
CONTINUOUS
 10
232.0644589198
 20
0.8120291008
 11
232.06482135
 21
0.8113876631
  0
LINE
  5
386
100
AcDbEntity
  8
ASSI
100
AcDbLine
 62
7
  6
CONTINUOUS
 10
232.0644589198
 20
0.8120291008
 11
232.06482135
 21
0.8113876631
  0
LWPOLYLINE
  5
387
100
AcDbEntity
  8
0
100
AcDbPolyline
 62
7
  6
CONTINUOUS
 90
5
 70
0
 10
194.9765272016
 20
63.7828785423
 10
194.9906673179
 20
63.6957398652
 10
195.000749986
 20
63.6103968026
 10
195.0068360457
 20
63.5265506337
 10
195.0089254968
 20
63.4442013586
  0
LWPOLYLINE
  5
388
100
AcDbEntity
  8
ASSI
100
AcDbPolyline
 62
7
  6
CONTINUOUS
 90
5
 70
0
 10
194.9765272016
 20
63.7828785423
 10
194.9906673179
 20
63.6957398652
 10
195.000749986
 20
63.6103968026
 10
195.0068360457
 20
63.5265506337
 10
195.0089254968
 20
63.4442013586
  0
LWPOLYLINE
  5
389
100
AcDbEntity
  8
0
100
AcDbPolyline
 62
7
  6
CONTINUOUS
 90
25
 70
0
 10
199.887962287
 20
50.2579893862
 10
199.8897784669
 20
50.192871382
 10
199.8952196778
 20
50.125930686
 10
199.9042632907
 20
50.0574535827
 10
199.9168715274
 20
49.9877316342
 10
199.9329909017
 20
49.9170645661
 10
199.952551753
 20
49.8457591485
 10
199.9754703163
 20
49.7741208034
 10
200.0016484555
 20
49.7024563441
 10
200.030972261
 20
49.6310768829
 10
200.063314331
 20
49.5602907396
 10
200.0985367497
 20
49.4903981356
 10
200.136490466
 20
49.4216942793
 10
200.1770129992
 20
49.3544732996
 10
200.2199308514
 20
49.2890230095
 10
200.2650628583
 20
49.2256201446
 10
200.3122179294
 20
49.1645343116
 10
200.3611927904
 20
49.1060299444
 10
200.4117750682
 20
49.0503611363
 10
200.463748259
 20
48.9977661768
 10
200.5168896156
 20
48.9484704915
 10
200.5709679965
 20
48.9026880643
 10
200.6257504577
 20
48.8606151233
 10
200.6810034742
 20
48.8224300476
 10
200.7364904245
 20
48.7882955421
  0
LWPOLYLINE
  5
38A
100
AcDbEntity
  8
ASSI
100
AcDbPolyline
 62
7
  6
CONTINUOUS
 90
25
 70
0
 10
199.887962287
 20
50.2579893862
 10
199.8897784669
 20
50.192871382
 10
199.8952196778
 20
50.125930686
 10
199.9042632907
 20
50.0574535827
 10
199.9168715274
 20
49.9877316342
 10
199.9329909017
 20
49.9170645661
 10
199.952551753
 20
49.8457591485
 10
199.9754703163
 20
49.7741208034
 10
200.0016484555
 20
49.7024563441
 10
200.030972261
 20
49.6310768829
 10
200.063314331
 20
49.5602907396
 10
200.0985367497
 20
49.4903981356
 10
200.136490466
 20
49.4216942793
 10
200.1770129992
 20
49.3544732996
 10
200.2199308514
 20
49.2890230095
 10
200.2650628583
 20
49.2256201446
 10
200.3122179294
 20
49.1645343116
 10
200.3611927904
 20
49.1060299444
 10
200.4117750682
 20
49.0503611363
 10
200.463748259
 20
48.9977661768
 10
200.5168896156
 20
48.9484704915
 10
200.5709679965
 20
48.9026880643
 10
200.6257504577
 20
48.8606151233
 10
200.6810034742
 20
48.8224300476
 10
200.7364904245
 20
48.7882955421
  0
LWPOLYLINE
  5
38B
100
AcDbEntity
  8
0
100
AcDbPolyline
 62
7
  6
CONTINUOUS
 90
28
 70
0
 10
200.2465924759
 20
51.0307798339
 10
200.2489188887
 20
50.939090493
 10
200.2556952205
 20
50.8457344033
 10
200.2669214713
 20
50.7507115648
 10
200.2826653755
 20
50.6536893668
 10
200.3028591986
 20
50.55500042
 10
200.3272997376
 20
50.4556425561
 10
200.3560302717
 20
50.3556090556
 10
200.3890075216
 20
50.2549066381
 10
200.4258984467
 20
50.154553294
 10
200.4667426623
 20
50.0545529654
 10
200.5115005531
 20
49.9549017102
 10
200.5597202322
 20
49.8566056936
 10
200.6114367132
 20
49.7596787474
 10
200.6666149825
 20
49.6641070398
 10
200.724698112
 20
49.5708552401
 10
200.7857156701
 20
49.4799466692
 10
200.8496380885
 20
49.3913580063
 10
200.9158197338
 20
49.305983959
 10
200.9842836846
 20
49.2238570386
 10
201.0550068625
 20
49.1449447337
 10
201.1272743983
 20
49.0700442181
 10
201.2011021812
 20
48.9991962234
 10
201.276474322
 20
48.932360018
 10
201.3526282841
 20
48.8702105804
 10
201.4293098887
 20
48.8129729035
 10
201.5067733146
 20
48.7604219944
 10
201.5850185619
 20
48.7125578532
  0
LWPOLYLINE
  5
38C
100
AcDbEntity
  8
ASSI
100
AcDbPolyline
 62
7
  6
CONTINUOUS
 90
28
 70
0
 10
200.2465924759
 20
51.0307798339
 10
200.2489188887
 20
50.939090493
 10
200.2556952205
 20
50.8457344033
 10
200.2669214713
 20
50.7507115648
 10
200.2826653755
 20
50.6536893668
 10
200.3028591986
 20
50.55500042
 10
200.3272997376
 20
50.4556425561
 10
200.3560302717
 20
50.3556090556
 10
200.3890075216
 20
50.2549066381
 10
200.4258984467
 20
50.154553294
 10
200.4667426623
 20
50.0545529654
 10
200.5115005531
 20
49.9549017102
 10
200.5597202322
 20
49.8566056936
 10
200.6114367132
 20
49.7596787474
 10
200.6666149825
 20
49.6641070398
 10
200.724698112
 20
49.5708552401
 10
200.7857156701
 20
49.4799466692
 10
200.8496380885
 20
49.3913580063
 10
200.9158197338
 20
49.305983959
 10
200.9842836846
 20
49.2238570386
 10
201.0550068625
 20
49.1449447337
 10
201.1272743983
 20
49.0700442181
 10
201.2011021812
 20
48.9991962234
 10
201.276474322
 20
48.932360018
 10
201.3526282841
 20
48.8702105804
 10
201.4293098887
 20
48.8129729035
 10
201.5067733146
 20
48.7604219944
 10
201.5850185619
 20
48.7125578532
  0
LINE
  5
38D
100
AcDbEntity
  8
0
100
AcDbLine
 62
7
  6
CONTINUOUS
 10
199.0394341496
 20
50.1763344676
 11
199.0394341496
 21
61.1170361766
  0
LINE
  5
38E
100
AcDbEntity
  8
ASSI
100
AcDbLine
 62
7
  6
CONTINUOUS
 10
199.0394341496
 20
50.1763344676
 11
199.0394341496
 21
61.1170361766
  0
LINE
  5
38F
100
AcDbEntity
  8
0
100
AcDbLine
 62
7
  6
CONTINUOUS
 10
199.7465409308
 20
50.1763344676
 11
199.7465409308
 21
61.1170361766
  0
LINE
  5
390
100
AcDbEntity
  8
ASSI
100
AcDbLine
 62
7
  6
CONTINUOUS
 10
199.7465409308
 20
50.1763344676
 11
199.7465409308
 21
61.1170361766
  0
LINE
  5
391
100
AcDbEntity
  8
0
100
AcDbLine
 62
7
  6
CONTINUOUS
 10
199.887962287
 20
61.1986910953
 11
199.887962287
 21
50.2579893862
  0
LINE
  5
392
100
AcDbEntity
  8
ASSI
100
AcDbLine
 62
7
  6
CONTINUOUS
 10
199.887962287
 20
61.1986910953
 11
199.887962287
 21
50.2579893862
  0
LINE
  5
393
100
AcDbEntity
  8
0
100
AcDbLine
 62
7
  6
CONTINUOUS
 10
200.2465924759
 20
61.7210667833
 11
200.2465924759
 21
51.0307798339
  0
LINE
  5
394
100
AcDbEntity
  8
ASSI
100
AcDbLine
 62
7
  6
CONTINUOUS
 10
200.2465924759
 20
61.7210667833
 11
200.2465924759
 21
51.0307798339
  0
LWPOLYLINE
  5
395
100
AcDbEntity
  8
0
100
AcDbPolyline
 62
7
  6
CONTINUOUS
 90
28
 70
0
 10
199.0394341496
 20
61.1170361766
 10
199.0415236391
 20
61.196972964
 10
199.0476097447
 20
61.2737913781
 10
199.0576924663
 20
61.3474914189
 10
199.0718326491
 20
61.4183015337
 10
199.0899694479
 20
61.4859932751
 10
199.1119203275
 20
61.5498813017
 10
199.1377241162
 20
61.6099267481
 10
199.1673419858
 20
61.6661684795
 10
199.2004749164
 20
61.7180377507
 10
199.2371585558
 20
61.7654900264
 10
199.2773572563
 20
61.8085698418
 10
199.3206650548
 20
61.8468420569
 10
199.3671133728
 20
61.8802578707
 10
199.4166707889
 20
61.9088660842
 10
199.4688370762
 20
61.9323779601
 10
199.5236387353
 20
61.9507418932
 10
199.5810492656
 20
61.9640094888
 10
199.6404889381
 20
61.9720468259
 10
199.7019785694
 20
61.9748007793
 10
199.7654973429
 20
61.9723244742
 10
199.83040308
 20
61.9646433649
 10
199.8967100066
 20
61.9517043765
 10
199.9644038967
 20
61.933560584
 10
200.0327998945
 20
61.910396666
 10
200.1016697146
 20
61.8822741822
 10
200.1712416423
 20
61.8491315731
 10
200.2415156776
 20
61.8109688385
  0
LWPOLYLINE
  5
396
100
AcDbEntity
  8
ASSI
100
AcDbPolyline
 62
7
  6
CONTINUOUS
 90
28
 70
0
 10
199.0394341496
 20
61.1170361766
 10
199.0415236391
 20
61.196972964
 10
199.0476097447
 20
61.2737913781
 10
199.0576924663
 20
61.3474914189
 10
199.0718326491
 20
61.4183015337
 10
199.0899694479
 20
61.4859932751
 10
199.1119203275
 20
61.5498813017
 10
199.1377241162
 20
61.6099267481
 10
199.1673419858
 20
61.6661684795
 10
199.2004749164
 20
61.7180377507
 10
199.2371585558
 20
61.7654900264
 10
199.2773572563
 20
61.8085698418
 10
199.3206650548
 20
61.8468420569
 10
199.3671133728
 20
61.8802578707
 10
199.4166707889
 20
61.9088660842
 10
199.4688370762
 20
61.9323779601
 10
199.5236387353
 20
61.9507418932
 10
199.5810492656
 20
61.9640094888
 10
199.6404889381
 20
61.9720468259
 10
199.7019785694
 20
61.9748007793
 10
199.7654973429
 20
61.9723244742
 10
199.83040308
 20
61.9646433649
 10
199.8967100066
 20
61.9517043765
 10
199.9644038967
 20
61.933560584
 10
200.0327998945
 20
61.910396666
 10
200.1016697146
 20
61.8822741822
 10
200.1712416423
 20
61.8491315731
 10
200.2415156776
 20
61.8109688385
  0
LWPOLYLINE
  5
397
100
AcDbEntity
  8
0
100
AcDbPolyline
 62
7
  6
CONTINUOUS
 90
11
 70
0
 10
199.7465409308
 20
61.1170361766
 10
199.7483570773
 20
61.1800563327
 10
199.7537982134
 20
61.2407133373
 10
199.7628417482
 20
61.2987470158
 10
199.7754499659
 20
61.3539094962
 10
199.7915694042
 20
61.4059626822
 10
199.8111303283
 20
61.4546799666
 10
199.8340488967
 20
61.499852569
 10
199.8602269989
 20
61.5412871383
 10
199.8895507692
 20
61.5788041908
 10
199.9218928372
 20
61.6122425507
  0
LWPOLYLINE
  5
398
100
AcDbEntity
  8
ASSI
100
AcDbPolyline
 62
7
  6
CONTINUOUS
 90
11
 70
0
 10
199.7465409308
 20
61.1170361766
 10
199.7483570773
 20
61.1800563327
 10
199.7537982134
 20
61.2407133373
 10
199.7628417482
 20
61.2987470158
 10
199.7754499659
 20
61.3539094962
 10
199.7915694042
 20
61.4059626822
 10
199.8111303283
 20
61.4546799666
 10
199.8340488967
 20
61.499852569
 10
199.8602269989
 20
61.5412871383
 10
199.8895507692
 20
61.5788041908
 10
199.9218928372
 20
61.6122425507
  0
LWPOLYLINE
  5
399
100
AcDbEntity
  8
0
100
AcDbPolyline
 62
7
  6
CONTINUOUS
 90
7
 70
0
 10
199.9438108056
 20
61.5160219692
 10
199.9329907597
 20
61.4876175988
 10
199.9168713149
 20
61.435564388
 10
199.9042630962
 20
61.3804018916
 10
199.8952195645
 20
61.322368214
 10
199.8897784319
 20
61.2617112232
 10
199.887962287
 20
61.1986910953
  0
LWPOLYLINE
  5
39A
100
AcDbEntity
  8
ASSI
100
AcDbPolyline
 62
7
  6
CONTINUOUS
 90
7
 70
0
 10
199.9438108056
 20
61.5160219692
 10
199.9329907597
 20
61.4876175988
 10
199.9168713149
 20
61.435564388
 10
199.9042630962
 20
61.3804018916
 10
199.8952195645
 20
61.322368214
 10
199.8897784319
 20
61.2617112232
 10
199.887962287
 20
61.1986910953
  0
LINE
  5
39B
100
AcDbEntity
  8
0
100
AcDbLine
 62
250
  6
CONTINUOUS
 10
200.1273140337
 20
61.7144556606
 11
199.887962287
 21
61.1986910953
  0
LINE
  5
39C
100
AcDbEntity
  8
ASSI
100
AcDbLine
 62
250
  6
CONTINUOUS
 10
200.1273140337
 20
61.7144556606
 11
199.887962287
 21
61.1986910953
  0
LWPOLYLINE
  5
39D
100
AcDbEntity
  8
0
100
AcDbPolyline
 62
7
  6
CONTINUOUS
 90
7
 70
0
 10
194.9443360993
 20
52.5741304529
 10
194.9214175309
 20
52.5289578504
 10
194.8952394288
 20
52.4875232812
 10
194.8659156584
 20
52.4500062287
 10
194.8335735905
 20
52.4165678688
 10
194.7983511619
 20
52.3873491978
 10
194.7604263516
 20
52.3624900095
  0
LWPOLYLINE
  5
39E
100
AcDbEntity
  8
ASSI
100
AcDbPolyline
 62
7
  6
CONTINUOUS
 90
7
 70
0
 10
194.9443360993
 20
52.5741304529
 10
194.9214175309
 20
52.5289578504
 10
194.8952394288
 20
52.4875232812
 10
194.8659156584
 20
52.4500062287
 10
194.8335735905
 20
52.4165678688
 10
194.7983511619
 20
52.3873491978
 10
194.7604263516
 20
52.3624900095
  0
LWPOLYLINE
  5
39F
100
AcDbEntity
  8
0
100
AcDbPolyline
 62
7
  6
CONTINUOUS
 90
3
 70
0
 10
199.9754702632
 20
61.5815075058
 10
199.9525516913
 20
61.5363349001
 10
199.9438108056
 20
61.5160219692
  0
LWPOLYLINE
  5
3A0
100
AcDbEntity
  8
ASSI
100
AcDbPolyline
 62
7
  6
CONTINUOUS
 90
3
 70
0
 10
199.9754702632
 20
61.5815075058
 10
199.9525516913
 20
61.5363349001
 10
199.9438108056
 20
61.5160219692
  0
LINE
  5
3A1
100
AcDbEntity
  8
0
100
AcDbLine
 62
250
  6
CONTINUOUS
 10
193.8068439688
 20
51.8095669877
 11
194.1603973594
 21
52.4219394227
  0
LINE
  5
3A2
100
AcDbEntity
  8
ASSI
100
AcDbLine
 62
250
  6
CONTINUOUS
 10
193.8068439688
 20
51.8095669877
 11
194.1603973594
 21
52.4219394227
  0
LWPOLYLINE
  5
3A3
100
AcDbEntity
  8
0
100
AcDbPolyline
 62
7
  6
CONTINUOUS
 90
4
 70
0
 10
200.0633142161
 20
61.6938974904
 10
200.0309721399
 20
61.6604591261
 10
200.0016483666
 20
61.6229420734
 10
199.9754702632
 20
61.5815075058
  0
LWPOLYLINE
  5
3A4
100
AcDbEntity
  8
ASSI
100
AcDbPolyline
 62
7
  6
CONTINUOUS
 90
4
 70
0
 10
200.0633142161
 20
61.6938974904
 10
200.0309721399
 20
61.6604591261
 10
200.0016483666
 20
61.6229420734
 10
199.9754702632
 20
61.5815075058
  0
LWPOLYLINE
  5
3A5
100
AcDbEntity
  8
0
100
AcDbPolyline
 62
7
  6
CONTINUOUS
 90
3
 70
0
 10
199.9218928372
 20
61.6122425507
 10
199.9571152658
 20
61.6414612217
 10
199.9950400761
 20
61.66632041
  0
LWPOLYLINE
  5
3A6
100
AcDbEntity
  8
ASSI
100
AcDbPolyline
 62
7
  6
CONTINUOUS
 90
3
 70
0
 10
199.9218928372
 20
61.6122425507
 10
199.9571152658
 20
61.6414612217
 10
199.9950400761
 20
61.66632041
  0
LINE
  5
3A7
100
AcDbEntity
  8
0
100
AcDbLine
 62
250
  6
CONTINUOUS
 10
199.7465409308
 20
61.1170361766
 11
199.887962287
 21
61.1986910953
  0
LINE
  5
3A8
100
AcDbEntity
  8
ASSI
100
AcDbLine
 62
250
  6
CONTINUOUS
 10
199.7465409308
 20
61.1170361766
 11
199.887962287
 21
61.1986910953
  0
LWPOLYLINE
  5
3A9
100
AcDbEntity
  8
0
100
AcDbPolyline
 62
7
  6
CONTINUOUS
 90
13
 70
0
 10
199.9950400761
 20
61.66632041
 10
200.0355914919
 20
61.6867636805
 10
200.0785093044
 20
61.7026535175
 10
200.1236412774
 20
61.7139390873
 10
200.1707963538
 20
61.7205714502
 10
200.2197712308
 20
61.7225208968
 10
200.2703534584
 20
61.7197785818
 10
200.3223264204
 20
61.7123562677
 10
200.3754674684
 20
61.7002857689
 10
200.4295457104
 20
61.6836199488
 10
200.4843282961
 20
61.662431496
 10
200.5395816228
 20
61.636811679
 10
200.5950690682
 20
61.6068709968
  0
LWPOLYLINE
  5
3AA
100
AcDbEntity
  8
ASSI
100
AcDbPolyline
 62
7
  6
CONTINUOUS
 90
13
 70
0
 10
199.9950400761
 20
61.66632041
 10
200.0355914919
 20
61.6867636805
 10
200.0785093044
 20
61.7026535175
 10
200.1236412774
 20
61.7139390873
 10
200.1707963538
 20
61.7205714502
 10
200.2197712308
 20
61.7225208968
 10
200.2703534584
 20
61.7197785818
 10
200.3223264204
 20
61.7123562677
 10
200.3754674684
 20
61.7002857689
 10
200.4295457104
 20
61.6836199488
 10
200.4843282961
 20
61.662431496
 10
200.5395816228
 20
61.636811679
 10
200.5950690682
 20
61.6068709968
  0
LINE
  5
3AB
100
AcDbEntity
  8
0
100
AcDbLine
 62
250
  6
CONTINUOUS
 10
200.2465924759
 20
51.0307798339
 11
199.887962287
 21
50.2579893862
  0
LINE
  5
3AC
100
AcDbEntity
  8
ASSI
100
AcDbLine
 62
250
  6
CONTINUOUS
 10
200.2465924759
 20
51.0307798339
 11
199.887962287
 21
50.2579893862
  0
LINE
  5
3AD
100
AcDbEntity
  8
0
100
AcDbLine
 62
250
  6
CONTINUOUS
 10
194.1603973594
 20
52.4219394227
 11
194.3018187157
 21
52.5035943414
  0
LINE
  5
3AE
100
AcDbEntity
  8
ASSI
100
AcDbLine
 62
250
  6
CONTINUOUS
 10
194.1603973594
 20
52.4219394227
 11
194.3018187157
 21
52.5035943414
  0
LINE
  5
3AF
100
AcDbEntity
  8
0
100
AcDbLine
 62
7
  6
CONTINUOUS
 10
232.06482135
 20
73.9771971866
 11
236.1267543347
 21
76.3224910888
  0
LINE
  5
3B0
100
AcDbEntity
  8
ASSI
100
AcDbLine
 62
7
  6
CONTINUOUS
 10
232.06482135
 20
73.9771971866
 11
236.1267543347
 21
76.3224910888
  0
LINE
  5
3B1
100
AcDbEntity
  8
0
100
AcDbLine
 62
7
  6
CONTINUOUS
 10
232.7723586193
 20
72.7517066892
 11
236.834291604
 21
75.0970005914
  0
LINE
  5
3B2
100
AcDbEntity
  8
ASSI
100
AcDbLine
 62
7
  6
CONTINUOUS
 10
232.7723586193
 20
72.7517066892
 11
236.834291604
 21
75.0970005914
  0
LINE
  5
3B3
100
AcDbEntity
  8
0
100
AcDbLine
 62
250
  6
CONTINUOUS
 10
199.7465409308
 20
50.1763344676
 11
199.887962287
 21
50.2579893862
  0
LINE
  5
3B4
100
AcDbEntity
  8
ASSI
100
AcDbLine
 62
250
  6
CONTINUOUS
 10
199.7465409308
 20
50.1763344676
 11
199.887962287
 21
50.2579893862
  0
LWPOLYLINE
  5
3B5
100
AcDbEntity
  8
0
100
AcDbPolyline
 62
7
  6
CONTINUOUS
 90
3
 70
0
 10
194.7604263516
 20
52.3624900095
 10
194.7198749357
 20
52.342046739
 10
194.6769571232
 20
52.326156902
  0
LWPOLYLINE
  5
3B6
100
AcDbEntity
  8
ASSI
100
AcDbPolyline
 62
7
  6
CONTINUOUS
 90
3
 70
0
 10
194.7604263516
 20
52.3624900095
 10
194.7198749357
 20
52.342046739
 10
194.6769571232
 20
52.326156902
  0
LINE
  5
3B7
100
AcDbEntity
  8
0
100
AcDbLine
 62
250
  6
CONTINUOUS
 10
151.3097264195
 20
88.6755712262
 11
152.0168332007
 21
88.6755712262
  0
LINE
  5
3B8
100
AcDbEntity
  8
ASSI
100
AcDbLine
 62
250
  6
CONTINUOUS
 10
151.3097264195
 20
88.6755712262
 11
152.0168332007
 21
88.6755712262
  0
LINE
  5
3B9
100
AcDbEntity
  8
0
100
AcDbLine
 62
7
  6
CONTINUOUS
 10
210.9188280735
 20
54.2580230087
 11
210.9188280735
 21
43.3173212997
  0
LINE
  5
3BA
100
AcDbEntity
  8
ASSI
100
AcDbLine
 62
7
  6
CONTINUOUS
 10
210.9188280735
 20
54.2580230087
 11
210.9188280735
 21
43.3173212997
  0
LWPOLYLINE
  5
3BB
100
AcDbEntity
  8
0
100
AcDbPolyline
 62
7
  6
CONTINUOUS
 90
28
 70
0
 10
210.9188280735
 20
43.3173212997
 10
210.916738584
 20
43.2373845123
 10
210.9106524784
 20
43.1605660982
 10
210.9005697568
 20
43.0868660574
 10
210.8864295741
 20
43.0160559426
 10
210.8682927753
 20
42.9483642011
 10
210.8463418957
 20
42.8844761745
 10
210.8205381069
 20
42.8244307282
 10
210.7909202373
 20
42.7681889967
 10
210.7577873067
 20
42.7163197256
 10
210.7211036673
 20
42.6688674499
 10
210.6809049669
 20
42.6257876344
 10
210.6375971683
 20
42.5875154194
 10
210.5911488503
 20
42.5540996056
 10
210.5415914342
 20
42.5254913921
 10
210.489425147
 20
42.5019795161
 10
210.4346234879
 20
42.4836155831
 10
210.3772129576
 20
42.4703479875
 10
210.3177732851
 20
42.4623106504
 10
210.2562836538
 20
42.459556697
 10
210.1927648803
 20
42.4620330021
 10
210.1278591431
 20
42.4697141114
 10
210.0615522166
 20
42.4826530997
 10
209.9938583264
 20
42.5007968923
 10
209.9254623286
 20
42.5239608103
 10
209.8565925085
 20
42.552083294
 10
209.7870205808
 20
42.5852259032
 10
209.7167465455
 20
42.6233886378
  0
LWPOLYLINE
  5
3BC
100
AcDbEntity
  8
ASSI
100
AcDbPolyline
 62
7
  6
CONTINUOUS
 90
28
 70
0
 10
210.9188280735
 20
43.3173212997
 10
210.916738584
 20
43.2373845123
 10
210.9106524784
 20
43.1605660982
 10
210.9005697568
 20
43.0868660574
 10
210.8864295741
 20
43.0160559426
 10
210.8682927753
 20
42.9483642011
 10
210.8463418957
 20
42.8844761745
 10
210.8205381069
 20
42.8244307282
 10
210.7909202373
 20
42.7681889967
 10
210.7577873067
 20
42.7163197256
 10
210.7211036673
 20
42.6688674499
 10
210.6809049669
 20
42.6257876344
 10
210.6375971683
 20
42.5875154194
 10
210.5911488503
 20
42.5540996056
 10
210.5415914342
 20
42.5254913921
 10
210.489425147
 20
42.5019795161
 10
210.4346234879
 20
42.4836155831
 10
210.3772129576
 20
42.4703479875
 10
210.3177732851
 20
42.4623106504
 10
210.2562836538
 20
42.459556697
 10
210.1927648803
 20
42.4620330021
 10
210.1278591431
 20
42.4697141114
 10
210.0615522166
 20
42.4826530997
 10
209.9938583264
 20
42.5007968923
 10
209.9254623286
 20
42.5239608103
 10
209.8565925085
 20
42.552083294
 10
209.7870205808
 20
42.5852259032
 10
209.7167465455
 20
42.6233886378
  0
LWPOLYLINE
  5
3BD
100
AcDbEntity
  8
0
100
AcDbPolyline
 62
7
  6
CONTINUOUS
 90
7
 70
0
 10
210.9188280735
 20
43.725595893
 10
210.917011927
 20
43.6625757369
 10
210.9115707909
 20
43.6019187323
 10
210.9025272562
 20
43.5438850538
 10
210.8899190385
 20
43.4887225734
 10
210.8737996001
 20
43.4366693874
 10
210.854238676
 20
43.387952103
  0
LWPOLYLINE
  5
3BE
100
AcDbEntity
  8
ASSI
100
AcDbPolyline
 62
7
  6
CONTINUOUS
 90
7
 70
0
 10
210.9188280735
 20
43.725595893
 10
210.917011927
 20
43.6625757369
 10
210.9115707909
 20
43.6019187323
 10
210.9025272562
 20
43.5438850538
 10
210.8899190385
 20
43.4887225734
 10
210.8737996001
 20
43.4366693874
 10
210.854238676
 20
43.387952103
  0
LINE
  5
3BF
100
AcDbEntity
  8
0
100
AcDbLine
 62
250
  6
CONTINUOUS
 10
200.2415156776
 20
48.0942681884
 11
200.5950690682
 21
48.7066406234
  0
LINE
  5
3C0
100
AcDbEntity
  8
ASSI
100
AcDbLine
 62
250
  6
CONTINUOUS
 10
200.2415156776
 20
48.0942681884
 11
200.5950690682
 21
48.7066406234
  0
LINE
  5
3C1
100
AcDbEntity
  8
0
100
AcDbLine
 62
250
  6
CONTINUOUS
 10
200.5950690682
 20
48.7066406234
 11
200.7364904245
 21
48.7882955421
  0
LINE
  5
3C2
100
AcDbEntity
  8
ASSI
100
AcDbLine
 62
250
  6
CONTINUOUS
 10
200.5950690682
 20
48.7066406234
 11
200.7364904245
 21
48.7882955421
  0
LINE
  5
3C3
100
AcDbEntity
  8
0
100
AcDbLine
 62
7
  6
CONTINUOUS
 10
232.7508572674
 20
72.7637016366
 11
232.7723586193
 21
72.7517066892
  0
LINE
  5
3C4
100
AcDbEntity
  8
ASSI
100
AcDbLine
 62
7
  6
CONTINUOUS
 10
232.7508572674
 20
72.7637016366
 11
232.7723586193
 21
72.7517066892
  0
LINE
  5
3C5
100
AcDbEntity
  8
0
100
AcDbLine
 62
7
  6
CONTINUOUS
 10
231.0549222024
 20
72.8992838519
 11
131.1736322907
 21
130.5694888404
  0
LINE
  5
3C6
100
AcDbEntity
  8
ASSI
100
AcDbLine
 62
7
  6
CONTINUOUS
 10
231.0549222024
 20
72.8992838519
 11
131.1736322907
 21
130.5694888404
  0
LINE
  5
3C7
100
AcDbEntity
  8
CURVE
100
AcDbLine
 62
250
  6
CONTINUOUS
 10
225.842153198
 20
6.8889324195
 11
225.4612471161
 21
8.2816713844
  0
LINE
  5
3C8
100
AcDbEntity
  8
CURVE
100
AcDbLine
 62
250
  6
CONTINUOUS
 10
225.5454299255
 20
8.8563398485
 11
225.8666951897
 21
7.6736545941
  0
LWPOLYLINE
  5
3C9
100
AcDbEntity
  8
CURVE
100
AcDbPolyline
 62
250
  6
CONTINUOUS
 90
5
 70
0
 10
228.7623405114
 20
5.7474838894
 10
228.7676964512
 20
5.7274281081
 10
228.7727938936
 20
5.7074166467
 10
228.7776777682
 20
5.6874422329
 10
228.7823930047
 20
5.6674975944
  0
LINE
  5
3CA
100
AcDbEntity
  8
CURVE
100
AcDbLine
 62
250
  6
CONTINUOUS
 10
223.6744286327
 20
8.1405494155
 11
223.1813034976
 21
10.2213568186
  0
LINE
  5
3CB
100
AcDbEntity
  8
CURVE
100
AcDbLine
 62
250
  6
CONTINUOUS
 10
227.511094562
 20
7.721389723
 11
227.9883618518
 21
5.6497384411
  0
LINE
  5
3CC
100
AcDbEntity
  8
CURVE
100
AcDbLine
 62
250
  6
CONTINUOUS
 10
223.5340222168
 20
10.0177014507
 11
223.8305299227
 21
8.6102021472
  0
LWPOLYLINE
  5
3CD
100
AcDbEntity
  8
0
100
AcDbPolyline
 62
7
  6
CONTINUOUS
 90
5
 70
0
 10
210.8864297783
 20
54.5967001925
 10
210.9005698946
 20
54.5095615153
 10
210.9106525627
 20
54.4242184528
 10
210.9167386224
 20
54.3403722839
 10
210.9188280735
 20
54.2580230087
  0
LWPOLYLINE
  5
3CE
100
AcDbEntity
  8
ASSI
100
AcDbPolyline
 62
7
  6
CONTINUOUS
 90
5
 70
0
 10
210.8864297783
 20
54.5967001925
 10
210.9005698946
 20
54.5095615153
 10
210.9106525627
 20
54.4242184528
 10
210.9167386224
 20
54.3403722839
 10
210.9188280735
 20
54.2580230087
  0
LINE
  5
3CF
100
AcDbEntity
  8
0
100
AcDbLine
 62
7
  6
CONTINUOUS
 10
231.0549222024
 20
72.8992838519
 11
232.0644589198
 21
73.9525784477
  0
LINE
  5
3D0
100
AcDbEntity
  8
ASSI
100
AcDbLine
 62
7
  6
CONTINUOUS
 10
231.0549222024
 20
72.8992838519
 11
232.0644589198
 21
73.9525784477
  0
LINE
  5
3D1
100
AcDbEntity
  8
0
100
AcDbLine
 62
250
  6
CONTINUOUS
 10
210.0702999361
 20
43.2357610728
 11
210.2117212924
 21
43.3174159915
  0
LINE
  5
3D2
100
AcDbEntity
  8
ASSI
100
AcDbLine
 62
250
  6
CONTINUOUS
 10
210.0702999361
 20
43.2357610728
 11
210.2117212924
 21
43.3174159915
  0
LWPOLYLINE
  5
3D3
100
AcDbEntity
  8
0
100
AcDbPolyline
 62
7
  6
CONTINUOUS
 90
3
 70
0
 10
210.6703289283
 20
43.1763116596
 10
210.6297775124
 20
43.1558683891
 10
210.5868596999
 20
43.1399785521
  0
LWPOLYLINE
  5
3D4
100
AcDbEntity
  8
ASSI
100
AcDbPolyline
 62
7
  6
CONTINUOUS
 90
3
 70
0
 10
210.6703289283
 20
43.1763116596
 10
210.6297775124
 20
43.1558683891
 10
210.5868596999
 20
43.1399785521
  0
LINE
  5
3D5
100
AcDbEntity
  8
0
100
AcDbLine
 62
7
  6
CONTINUOUS
 10
232.06482135
 20
73.9771971866
 11
131.5770852047
 21
131.9975566297
  0
LINE
  5
3D6
100
AcDbEntity
  8
ASSI
100
AcDbLine
 62
7
  6
CONTINUOUS
 10
232.06482135
 20
73.9771971866
 11
131.5770852047
 21
131.9975566297
  0
LINE
  5
3D7
100
AcDbEntity
  8
0
100
AcDbLine
 62
7
  6
CONTINUOUS
 10
236.1267543347
 20
76.3224910888
 11
135.3648989919
 21
134.5011235211
  0
LINE
  5
3D8
100
AcDbEntity
  8
ASSI
100
AcDbLine
 62
7
  6
CONTINUOUS
 10
236.1267543347
 20
76.3224910888
 11
135.3648989919
 21
134.5011235211
  0
LINE
  5
3D9
100
AcDbEntity
  8
CURVE
100
AcDbLine
 62
250
  6
CONTINUOUS
 10
228.7823930047
 20
5.6674975944
 11
228.7914972811
 21
5.6276685542
  0
LINE
  5
3DA
100
AcDbEntity
  8
CURVE
100
AcDbLine
 62
250
  6
CONTINUOUS
 10
228.7914972811
 20
5.6276685542
 11
228.857763326
 21
5.3329395686
  0
LWPOLYLINE
  5
3DB
100
AcDbEntity
  8
CURVE
100
AcDbPolyline
 62
250
  6
CONTINUOUS
 90
37
 70
0
 10
229.0903352362
 20
5.5633092375
 10
229.0871079331
 20
5.5778726168
 10
229.0837869676
 20
5.5924549363
 10
229.0803559584
 20
5.6070566886
 10
229.0767985242
 20
5.6216783665
 10
229.0730982837
 20
5.6363204624
 10
229.0692388554
 20
5.650983469
 10
229.0652038581
 20
5.665667879
 10
229.0609769104
 20
5.6803741848
 10
229.056541631
 20
5.6951028792
 10
229.0518816386
 20
5.7098544547
 10
229.0469805517
 20
5.7246294039
 10
229.0434713741
 20
5.734774426
 10
229.0398343255
 20
5.7449238052
 10
229.0360626257
 20
5.7550706742
 10
229.0321494947
 20
5.7652081656
 10
229.0280881522
 20
5.7753294121
 10
229.0238718181
 20
5.7854275466
 10
229.0194937122
 20
5.7954957016
 10
229.0149470545
 20
5.8055270099
 10
229.0102250647
 20
5.8155146042
 10
229.0053209627
 20
5.8254516171
 10
229.0002279684
 20
5.8353311815
 10
228.9949393015
 20
5.84514643
 10
228.989919647
 20
5.8540725081
 10
228.984735774
 20
5.8629239428
 10
228.9793933036
 20
5.8716858069
 10
228.9738978563
 20
5.880343173
 10
228.968255053
 20
5.888881114
 10
228.9624705145
 20
5.8972847025
 10
228.9565498616
 20
5.9055390114
 10
228.9504987151
 20
5.9136291134
 10
228.9443226957
 20
5.9215400812
 10
228.9380274243
 20
5.9292569876
 10
228.9316185216
 20
5.9367649053
 10
228.9251016084
 20
5.9440489071
 10
228.9184823056
 20
5.9510940657
  0
LINE
  5
3DC
100
AcDbEntity
  8
CURVE
100
AcDbLine
 62
250
  6
CONTINUOUS
 10
228.857763326
 20
5.3329395686
 11
228.9043215303
 21
5.1208744622
  0
LINE
  5
3DD
100
AcDbEntity
  8
CURVE
100
AcDbLine
 62
250
  6
CONTINUOUS
 10
229.0965743808
 20
5.5342373294
 11
229.0903352362
 21
5.5633092375
  0
LINE
  5
3DE
100
AcDbEntity
  8
CURVE
100
AcDbLine
 62
250
  6
CONTINUOUS
 10
227.6461473717
 20
5.8473287929
 11
227.5620341955
 21
6.254456457
  0
LINE
  5
3DF
100
AcDbEntity
  8
CURVE
100
AcDbLine
 62
250
  6
CONTINUOUS
 10
229.1208051622
 20
5.4171274199
 11
229.0965743808
 21
5.5342373294
  0
LINE
  5
3E0
100
AcDbEntity
  8
CURVE
100
AcDbLine
 62
250
  6
CONTINUOUS
 10
229.2166401123
 20
4.9405456272
 11
229.2018261166
 21
5.0132224812
  0
LINE
  5
3E1
100
AcDbEntity
  8
CURVE
100
AcDbLine
 62
250
  6
CONTINUOUS
 10
229.2018261166
 20
5.0132224812
 11
229.1208051622
 21
5.4171274199
  0
LINE
  5
3E2
100
AcDbEntity
  8
CURVE
100
AcDbLine
 62
250
  6
CONTINUOUS
 10
227.4971442213
 20
6.569377198
 11
227.3479425422
 21
7.322073652
  0
LINE
  5
3E3
100
AcDbEntity
  8
CURVE
100
AcDbLine
 62
250
  6
CONTINUOUS
 10
226.5126436699
 20
8.2978827546
 11
226.6581007136
 21
6.4178145502
  0
LINE
  5
3E4
100
AcDbEntity
  8
CURVE
100
AcDbLine
 62
250
  6
CONTINUOUS
 10
226.3404630418
 20
6.6012145609
 11
226.2737537156
 21
7.8076510776
  0
LWPOLYLINE
  5
3E5
100
AcDbEntity
  8
0
100
AcDbPolyline
 62
7
  6
CONTINUOUS
 90
7
 70
0
 10
210.854238676
 20
43.387952103
 10
210.8313201076
 20
43.3427795006
 10
210.8051420055
 20
43.3013449313
 10
210.7758182351
 20
43.2638278788
 10
210.7434761672
 20
43.2303895189
 10
210.7082537386
 20
43.2011708479
 10
210.6703289283
 20
43.1763116596
  0
LWPOLYLINE
  5
3E6
100
AcDbEntity
  8
ASSI
100
AcDbPolyline
 62
7
  6
CONTINUOUS
 90
7
 70
0
 10
210.854238676
 20
43.387952103
 10
210.8313201076
 20
43.3427795006
 10
210.8051420055
 20
43.3013449313
 10
210.7758182351
 20
43.2638278788
 10
210.7434761672
 20
43.2303895189
 10
210.7082537386
 20
43.2011708479
 10
210.6703289283
 20
43.1763116596
  0
LINE
  5
3E7
100
AcDbEntity
  8
0
100
AcDbLine
 62
250
  6
CONTINUOUS
 10
209.7167465455
 20
42.6233886378
 11
210.0702999361
 21
43.2357610728
  0
LINE
  5
3E8
100
AcDbEntity
  8
ASSI
100
AcDbLine
 62
250
  6
CONTINUOUS
 10
209.7167465455
 20
42.6233886378
 11
210.0702999361
 21
43.2357610728
  0
LWPOLYLINE
  5
3E9
100
AcDbEntity
  8
CURVE
100
AcDbPolyline
 62
250
  6
CONTINUOUS
 90
58
 70
0
 10
228.8341125464
 20
6.437565821
 10
228.8341614619
 20
6.429210481
 10
228.8340806868
 20
6.4209059857
 10
228.8338621746
 20
6.4126658844
 10
228.8334978789
 20
6.4045037262
 10
228.8329797532
 20
6.3964330604
 10
228.8322997509
 20
6.3884674363
 10
228.8314498257
 20
6.3806204031
 10
228.8304219308
 20
6.37290551
 10
228.82920802
 20
6.3653363063
 10
228.8278000467
 20
6.3579263412
 10
228.8261899644
 20
6.3506891639
 10
228.8243697266
 20
6.3436383237
 10
228.8223312868
 20
6.3367873697
 10
228.8200665985
 20
6.3301498514
 10
228.8175676153
 20
6.3237393178
 10
228.8148262907
 20
6.3175693182
 10
228.8120987372
 20
6.3121419952
 10
228.8091657493
 20
6.3069345994
 10
228.806031797
 20
6.3019540558
 10
228.8027013503
 20
6.2972072891
 10
228.7991788793
 20
6.2927012244
 10
228.7954688539
 20
6.2884427867
 10
228.7915757441
 20
6.2844389007
 10
228.78750402
 20
6.2806964915
 10
228.7832581515
 20
6.2772224839
 10
228.7788426088
 20
6.2740238029
 10
228.7742618617
 20
6.2711073735
 10
228.7695203803
 20
6.2684801205
 10
228.7646226346
 20
6.2661489689
 10
228.7595730947
 20
6.2641208435
 10
228.7541457459
 20
6.2623317549
 10
228.7485655756
 20
6.2608711262
 10
228.7428402743
 20
6.25972972
 10
228.736977533
 20
6.258898299
 10
228.7309850422
 20
6.2583676257
 10
228.724870493
 20
6.2581284628
 10
228.7186415759
 20
6.2581715727
 10
228.7123059817
 20
6.2584877182
 10
228.7058714013
 20
6.2590676618
 10
228.6993455254
 20
6.2599021661
 10
228.6927360448
 20
6.2609819936
 10
228.6860506501
 20
6.2622979071
 10
228.6792970323
 20
6.263840669
 10
228.672482882
 20
6.2656010419
 10
228.6656158901
 20
6.2675697886
 10
228.6587037472
 20
6.2697376714
 10
228.6517541442
 20
6.2720954531
 10
228.6447747718
 20
6.2746338963
 10
228.6377733209
 20
6.2773437634
 10
228.630757482
 20
6.2802158172
 10
228.6237349461
 20
6.2832408201
 10
228.6167134039
 20
6.2864095349
 10
228.6097005462
 20
6.289712724
 10
228.6027040637
 20
6.2931411501
 10
228.5957316472
 20
6.2966855758
 10
228.5887909874
 20
6.3003367637
 10
228.5818897752
 20
6.3040854763
  0
LINE
  5
3EA
100
AcDbEntity
  8
CURVE
100
AcDbLine
 62
250
  6
CONTINUOUS
 10
224.5810622522
 20
9.4132614308
 11
224.5810622522
 21
7.6170705264
  0
LINE
  5
3EB
100
AcDbEntity
  8
CURVE
100
AcDbLine
 62
250
  6
CONTINUOUS
 10
224.9057573208
 20
7.4295956632
 11
224.9057573208
 21
9.2257865676
  0
LINE
  5
3EC
100
AcDbEntity
  8
CURVE
100
AcDbLine
 62
250
  6
CONTINUOUS
 10
228.0837081013
 20
7.3697856848
 11
228.0837081013
 21
5.5946863714
  0
LINE
  5
3ED
100
AcDbEntity
  8
CURVE
100
AcDbLine
 62
250
  6
CONTINUOUS
 10
228.3963299618
 20
6.4112253869
 11
228.3963299618
 21
6.9042853335
  0
LINE
  5
3EE
100
AcDbEntity
  8
CURVE
100
AcDbLine
 62
250
  6
CONTINUOUS
 10
228.4070963503
 20
5.4079660494
 11
228.4070963503
 21
6.1108539273
  0
LINE
  5
3EF
100
AcDbEntity
  8
CURVE
100
AcDbLine
 62
250
  6
CONTINUOUS
 10
228.9184823056
 20
5.9510940657
 11
228.9184823056
 21
5.9617073534
  0
LINE
  5
3F0
100
AcDbEntity
  8
CURVE
100
AcDbLine
 62
250
  6
CONTINUOUS
 10
225.4612471161
 20
8.2816713844
 11
225.3911776187
 21
7.1493200669
  0
LINE
  5
3F1
100
AcDbEntity
  8
CURVE
100
AcDbLine
 62
250
  6
CONTINUOUS
 10
225.0805506746
 20
7.3286721713
 11
225.2210037596
 21
9.0436594508
  0
LINE
  5
3F2
100
AcDbEntity
  8
0
100
AcDbLine
 62
7
  6
CONTINUOUS
 10
231.3338981365
 20
72.4160833604
 11
231.0549222024
 21
72.8992838519
  0
LINE
  5
3F3
100
AcDbEntity
  8
ASSI
100
AcDbLine
 62
7
  6
CONTINUOUS
 10
231.3338981365
 20
72.4160833604
 11
231.0549222024
 21
72.8992838519
  0
LINE
  5
3F4
100
AcDbEntity
  8
0
100
AcDbLine
 62
7
  6
CONTINUOUS
 10
232.7508572674
 20
72.7637016366
 11
232.0644589198
 21
73.9525784477
  0
LINE
  5
3F5
100
AcDbEntity
  8
ASSI
100
AcDbLine
 62
7
  6
CONTINUOUS
 10
232.7508572674
 20
72.7637016366
 11
232.0644589198
 21
73.9525784477
  0
LINE
  5
3F6
100
AcDbEntity
  8
0
100
AcDbLine
 62
7
  6
CONTINUOUS
 10
231.3338981365
 20
1.5844497611
 11
231.3338981365
 21
72.4160833604
  0
LINE
  5
3F7
100
AcDbEntity
  8
ASSI
100
AcDbLine
 62
7
  6
CONTINUOUS
 10
231.3338981365
 20
1.5844497611
 11
231.3338981365
 21
72.4160833604
  0
LINE
  5
3F8
100
AcDbEntity
  8
0
100
AcDbLine
 62
7
  6
CONTINUOUS
 10
232.7723586193
 20
1.219831857
 11
232.7723586193
 21
72.7517066892
  0
LINE
  5
3F9
100
AcDbEntity
  8
ASSI
100
AcDbLine
 62
7
  6
CONTINUOUS
 10
232.7723586193
 20
1.219831857
 11
232.7723586193
 21
72.7517066892
  0
LINE
  5
3FA
100
AcDbEntity
  8
0
100
AcDbLine
 62
7
  6
CONTINUOUS
 10
232.06482135
 20
73.9771971866
 11
232.0644589198
 21
73.9525784477
  0
LINE
  5
3FB
100
AcDbEntity
  8
ASSI
100
AcDbLine
 62
7
  6
CONTINUOUS
 10
232.06482135
 20
73.9771971866
 11
232.0644589198
 21
73.9525784477
  0
LINE
  5
3FC
100
AcDbEntity
  8
0
100
AcDbLine
 62
7
  6
CONTINUOUS
 10
236.1267543347
 20
76.3224910888
 11
236.834291604
 21
75.0970005914
  0
LINE
  5
3FD
100
AcDbEntity
  8
ASSI
100
AcDbLine
 62
7
  6
CONTINUOUS
 10
236.1267543347
 20
76.3224910888
 11
236.834291604
 21
75.0970005914
  0
LINE
  5
3FE
100
AcDbEntity
  8
0
100
AcDbLine
 62
7
  6
CONTINUOUS
 10
236.834291604
 20
3.2486103713
 11
236.834291604
 21
75.0970005914
  0
LINE
  5
3FF
100
AcDbEntity
  8
ASSI
100
AcDbLine
 62
7
  6
CONTINUOUS
 10
236.834291604
 20
3.2486103713
 11
236.834291604
 21
75.0970005914
  0
LINE
  5
400
100
AcDbEntity
  8
CURVE
100
AcDbLine
 62
250
  6
CONTINUOUS
 10
223.8305299227
 20
8.6102021472
 11
224.1360943865
 21
9.6700725257
  0
LINE
  5
401
100
AcDbEntity
  8
CURVE
100
AcDbLine
 62
250
  6
CONTINUOUS
 10
224.4605679623
 20
9.4827255496
 11
223.9605661804
 21
7.9753371816
  0
LINE
  5
402
100
AcDbEntity
  8
CURVE
100
AcDbLine
 62
250
  6
CONTINUOUS
 10
227.3479425422
 20
7.322073652
 11
227.1862720795
 21
6.7488708766
  0
LINE
  5
403
100
AcDbEntity
  8
CURVE
100
AcDbLine
 62
250
  6
CONTINUOUS
 10
227.1198538793
 20
6.5097658297
 11
227.0302582014
 21
6.202935481
  0
LINE
  5
404
100
AcDbEntity
  8
CURVE
100
AcDbLine
 62
250
  6
CONTINUOUS
 10
226.7090862754
 20
6.3883761258
 11
227.1969918852
 21
7.902748672
  0
LINE
  5
405
100
AcDbEntity
  8
CURVE
100
AcDbLine
 62
250
  6
CONTINUOUS
 10
225.8666951897
 20
7.6736545941
 11
226.1913902582
 21
8.4833704482
  0
LINE
  5
406
100
AcDbEntity
  8
CURVE
100
AcDbLine
 62
250
  6
CONTINUOUS
 10
226.2737537156
 20
7.8076510776
 11
225.8876910747
 21
6.8626394202
  0
LINE
  5
407
100
AcDbEntity
  8
CURVE
100
AcDbLine
 62
7
  6
CONTINUOUS
 10
223.1976135166
 20
10.152534514
 11
223.2352739553
 21
10.1901949527
  0
LINE
  5
408
100
AcDbEntity
  8
CURVE
100
AcDbLine
 62
7
  6
CONTINUOUS
 10
223.2780830395
 20
9.8129826089
 11
223.5015505911
 21
10.0364501604
  0
LINE
  5
409
100
AcDbEntity
  8
CURVE
100
AcDbLine
 62
7
  6
CONTINUOUS
 10
223.3585525625
 20
9.4734307038
 11
223.5981958765
 21
9.7130740178
  0
LINE
  5
40A
100
AcDbEntity
  8
CURVE
100
AcDbLine
 62
7
  6
CONTINUOUS
 10
223.4390220854
 20
9.1338787987
 11
223.6712821897
 21
9.366138903
  0
LINE
  5
40B
100
AcDbEntity
  8
CURVE
100
AcDbLine
 62
7
  6
CONTINUOUS
 10
223.5194916084
 20
8.7943268936
 11
223.744368503
 21
9.0192037882
  0
LINE
  5
40C
100
AcDbEntity
  8
CURVE
100
AcDbLine
 62
7
  6
CONTINUOUS
 10
224.0311172868
 20
9.3059525721
 11
224.3003804984
 21
9.5752157836
  0
LINE
  5
40D
100
AcDbEntity
  8
CURVE
100
AcDbLine
 62
7
  6
CONTINUOUS
 10
223.5999611313
 20
8.4547749886
 11
223.8174548162
 21
8.6722686734
  0
LINE
  5
40E
100
AcDbEntity
  8
CURVE
100
AcDbLine
 62
7
  6
CONTINUOUS
 10
223.8609693137
 20
8.715783171
 11
224.3775093189
 21
9.2323231762
  0
LINE
  5
40F
100
AcDbEntity
  8
CURVE
100
AcDbLine
 62
7
  6
CONTINUOUS
 10
223.6942895446
 20
8.1290819739
 11
224.1690377497
 21
8.6038301789
  0
LINE
  5
410
100
AcDbEntity
  8
CURVE
100
AcDbLine
 62
7
  6
CONTINUOUS
 10
224.5810622522
 20
9.0158546814
 11
224.8330020943
 21
9.2677945235
  0
LINE
  5
411
100
AcDbEntity
  8
CURVE
100
AcDbLine
 62
7
  6
CONTINUOUS
 10
224.5810622522
 20
8.5958332534
 11
224.9057573208
 21
8.9205283219
  0
LINE
  5
412
100
AcDbEntity
  8
CURVE
100
AcDbLine
 62
7
  6
CONTINUOUS
 10
224.5810622522
 20
8.1758118253
 11
224.9057573208
 21
8.5005068939
  0
LINE
  5
413
100
AcDbEntity
  8
CURVE
100
AcDbLine
 62
7
  6
CONTINUOUS
 10
225.200673863
 20
8.7954234361
 11
225.3654870414
 21
8.9602366146
  0
LINE
  5
414
100
AcDbEntity
  8
CURVE
100
AcDbLine
 62
7
  6
CONTINUOUS
 10
224.5810622522
 20
7.7557903973
 11
224.9057573208
 21
8.0804854659
  0
LINE
  5
415
100
AcDbEntity
  8
CURVE
100
AcDbLine
 62
7
  6
CONTINUOUS
 10
225.1632067152
 20
8.3379348603
 11
225.5745202941
 21
8.7492484392
  0
LINE
  5
416
100
AcDbEntity
  8
CURVE
100
AcDbLine
 62
7
  6
CONTINUOUS
 10
224.7593960877
 20
7.5141028048
 11
224.9057573208
 21
7.6604640379
  0
LINE
  5
417
100
AcDbEntity
  8
CURVE
100
AcDbLine
 62
7
  6
CONTINUOUS
 10
225.1257395675
 20
7.8804462846
 11
225.4569123006
 21
8.2116190177
  0
LINE
  5
418
100
AcDbEntity
  8
CURVE
100
AcDbLine
 62
7
  6
CONTINUOUS
 10
225.475360546
 20
8.2300672631
 11
225.664242857
 21
8.4189495741
  0
LINE
  5
419
100
AcDbEntity
  8
CURVE
100
AcDbLine
 62
7
  6
CONTINUOUS
 10
225.0882724197
 20
7.4229577088
 11
225.4292071381
 21
7.7638924272
  0
LINE
  5
41A
100
AcDbEntity
  8
CURVE
100
AcDbLine
 62
7
  6
CONTINUOUS
 10
225.5655638912
 20
7.9002491803
 11
225.7539654199
 21
8.088650709
  0
LINE
  5
41B
100
AcDbEntity
  8
CURVE
100
AcDbLine
 62
7
  6
CONTINUOUS
 10
225.2919493592
 20
7.2066132203
 11
225.4015019757
 21
7.3161658368
  0
LINE
  5
41C
100
AcDbEntity
  8
CURVE
100
AcDbLine
 62
7
  6
CONTINUOUS
 10
225.6557672364
 20
7.5704310975
 11
225.8436879828
 21
7.7583518438
  0
LINE
  5
41D
100
AcDbEntity
  8
CURVE
100
AcDbLine
 62
7
  6
CONTINUOUS
 10
225.9387974726
 20
7.8534613337
 11
226.4305935845
 21
8.3452574456
  0
LINE
  5
41E
100
AcDbEntity
  8
CURVE
100
AcDbLine
 62
7
  6
CONTINUOUS
 10
225.7459705816
 20
7.2406130146
 11
226.2466405782
 21
7.7412830112
  0
LINE
  5
41F
100
AcDbEntity
  8
CURVE
100
AcDbLine
 62
7
  6
CONTINUOUS
 10
226.2758105655
 20
7.7704529985
 11
226.5335120002
 21
8.0281544332
  0
LINE
  5
420
100
AcDbEntity
  8
CURVE
100
AcDbLine
 62
7
  6
CONTINUOUS
 10
225.8361739268
 20
6.9107949318
 11
225.9565343663
 21
7.0311553713
  0
LINE
  5
421
100
AcDbEntity
  8
CURVE
100
AcDbLine
 62
7
  6
CONTINUOUS
 10
226.2978185284
 20
7.3724395334
 11
226.5636745841
 21
7.6382955891
  0
LINE
  5
422
100
AcDbEntity
  8
CURVE
100
AcDbLine
 62
7
  6
CONTINUOUS
 10
226.3198264913
 20
6.9744260682
 11
226.593837168
 21
7.2484367449
  0
LINE
  5
423
100
AcDbEntity
  8
CURVE
100
AcDbLine
 62
7
  6
CONTINUOUS
 10
227.1726755738
 20
7.8272751508
 11
227.2294234918
 21
7.8840230688
  0
LINE
  5
424
100
AcDbEntity
  8
CURVE
100
AcDbLine
 62
7
  6
CONTINUOUS
 10
226.3570559023
 20
6.5916340512
 11
226.6239997518
 21
6.8585779008
  0
LINE
  5
425
100
AcDbEntity
  8
CURVE
100
AcDbLine
 62
7
  6
CONTINUOUS
 10
226.9730288012
 20
7.2076069502
 11
227.4957001276
 21
7.7302782765
  0
LINE
  5
426
100
AcDbEntity
  8
CURVE
100
AcDbLine
 62
7
  6
CONTINUOUS
 10
226.6233325381
 20
6.437889259
 11
226.6541623357
 21
6.4687190567
  0
LINE
  5
427
100
AcDbEntity
  8
CURVE
100
AcDbLine
 62
7
  6
CONTINUOUS
 10
226.7733820287
 20
6.5879387496
 11
227.285253746
 21
7.099810467
  0
LINE
  5
428
100
AcDbEntity
  8
CURVE
100
AcDbLine
 62
7
  6
CONTINUOUS
 10
227.3743410521
 20
7.188897773
 11
227.5851938349
 21
7.3997505558
  0
LINE
  5
429
100
AcDbEntity
  8
CURVE
100
AcDbLine
 62
7
  6
CONTINUOUS
 10
226.8896091738
 20
6.2841444667
 11
227.2928175591
 21
6.687352852
  0
LINE
  5
42A
100
AcDbEntity
  8
CURVE
100
AcDbLine
 62
7
  6
CONTINUOUS
 10
227.4438255094
 20
6.8383608023
 11
227.6638399285
 21
7.0583752214
  0
LINE
  5
42B
100
AcDbEntity
  8
CURVE
100
AcDbLine
 62
7
  6
CONTINUOUS
 10
227.3831995025
 20
6.3577133674
 11
227.7424860221
 21
6.716999887
  0
LINE
  5
42C
100
AcDbEntity
  8
CURVE
100
AcDbLine
 62
7
  6
CONTINUOUS
 10
228.0837081013
 20
7.0582219662
 11
228.2999208357
 21
7.2744347006
  0
LINE
  5
42D
100
AcDbEntity
  8
CURVE
100
AcDbLine
 62
7
  6
CONTINUOUS
 10
227.5856513598
 20
6.1401437967
 11
227.8211321157
 21
6.3756245526
  0
LINE
  5
42E
100
AcDbEntity
  8
CURVE
100
AcDbLine
 62
7
  6
CONTINUOUS
 10
228.0837081013
 20
6.6382005382
 11
228.5730255062
 21
7.127517943
  0
LINE
  5
42F
100
AcDbEntity
  8
CURVE
100
AcDbLine
 62
7
  6
CONTINUOUS
 10
227.6884390811
 20
5.8229100899
 11
227.8997782093
 21
6.0342492181
  0
LINE
  5
430
100
AcDbEntity
  8
CURVE
100
AcDbLine
 62
7
  6
CONTINUOUS
 10
228.0837081013
 20
6.2181791101
 11
228.3963299618
 21
6.5308009707
  0
LINE
  5
431
100
AcDbEntity
  8
CURVE
100
AcDbLine
 62
7
  6
CONTINUOUS
 10
228.6405435563
 20
6.7750145652
 11
228.8167199652
 21
6.9511909741
  0
LINE
  5
432
100
AcDbEntity
  8
CURVE
100
AcDbLine
 62
7
  6
CONTINUOUS
 10
227.9547157169
 20
5.6691652977
 11
227.9784243029
 21
5.6928738837
  0
LINE
  5
433
100
AcDbEntity
  8
CURVE
100
AcDbLine
 62
7
  6
CONTINUOUS
 10
228.0837081013
 20
5.7981576821
 11
228.5869665074
 21
6.3014160882
  0
LINE
  5
434
100
AcDbEntity
  8
CURVE
100
AcDbLine
 62
7
  6
CONTINUOUS
 10
228.818060395
 20
6.5325099759
 11
229.0089806756
 21
6.7234302565
  0
LINE
  5
435
100
AcDbEntity
  8
CURVE
100
AcDbLine
 62
7
  6
CONTINUOUS
 10
228.220992137
 20
5.5154202898
 11
228.4070963503
 21
5.7015245031
  0
LINE
  5
436
100
AcDbEntity
  8
CURVE
100
AcDbLine
 62
7
  6
CONTINUOUS
 10
228.6553332959
 20
5.9497614487
 11
229.1253360338
 21
6.4197641866
  0
LINE
  5
437
100
AcDbEntity
  8
CURVE
100
AcDbLine
 62
7
  6
CONTINUOUS
 10
228.7843817161
 20
5.6587884409
 11
228.9860460425
 21
5.8604527673
  0
LINE
  5
438
100
AcDbEntity
  8
CURVE
100
AcDbLine
 62
7
  6
CONTINUOUS
 10
228.8614420794
 20
5.3158273761
 11
229.093593729
 21
5.5479790257
  0
LINE
  5
439
100
AcDbEntity
  8
CURVE
100
AcDbLine
 62
7
  6
CONTINUOUS
 10
229.0198220443
 20
5.054185913
 11
229.1646937514
 21
5.1990576201
  0
LINE
  5
43A
100
AcDbEntity
  8
0
100
AcDbLine
 62
7
  6
CONTINUOUS
 10
231.0549222024
 20
1.4234036855
 11
231.3338981365
 21
1.5844497611
  0
LINE
  5
43B
100
AcDbEntity
  8
ASSI
100
AcDbLine
 62
7
  6
CONTINUOUS
 10
231.0549222024
 20
1.4234036855
 11
231.3338981365
 21
1.5844497611
  0
LINE
  5
43C
100
AcDbEntity
  8
0
100
AcDbLine
 62
7
  6
CONTINUOUS
 10
232.0644589198
 20
0.8120291008
 11
232.7508572674
 21
1.2082703052
  0
LINE
  5
43D
100
AcDbEntity
  8
ASSI
100
AcDbLine
 62
7
  6
CONTINUOUS
 10
232.0644589198
 20
0.8120291008
 11
232.7508572674
 21
1.2082703052
  0
LINE
  5
43E
100
AcDbEntity
  8
0
100
AcDbLine
 62
7
  6
CONTINUOUS
 10
236.834291604
 20
3.2486103713
 11
236.1267543347
 21
2.8401661774
  0
LINE
  5
43F
100
AcDbEntity
  8
ASSI
100
AcDbLine
 62
7
  6
CONTINUOUS
 10
236.834291604
 20
3.2486103713
 11
236.1267543347
 21
2.8401661774
  0
LINE
  5
440
100
AcDbEntity
  8
0
100
AcDbLine
 62
7
  6
CONTINUOUS
 10
232.7723586193
 20
1.219831857
 11
232.7508572674
 21
1.2082703052
  0
LINE
  5
441
100
AcDbEntity
  8
ASSI
100
AcDbLine
 62
7
  6
CONTINUOUS
 10
232.7723586193
 20
1.219831857
 11
232.7508572674
 21
1.2082703052
  0
LINE
  5
442
100
AcDbEntity
  8
0
100
AcDbLine
 62
7
  6
CONTINUOUS
 10
232.7723586193
 20
1.219831857
 11
236.834291604
 21
3.2486103713
  0
LINE
  5
443
100
AcDbEntity
  8
ASSI
100
AcDbLine
 62
7
  6
CONTINUOUS
 10
232.7723586193
 20
1.219831857
 11
236.834291604
 21
3.2486103713
  0
LINE
  5
444
100
AcDbEntity
  8
0
100
AcDbLine
 62
7
  6
CONTINUOUS
 10
232.06482135
 20
0.8113876631
 11
236.1267543347
 21
2.8401661774
  0
LINE
  5
445
100
AcDbEntity
  8
ASSI
100
AcDbLine
 62
7
  6
CONTINUOUS
 10
232.06482135
 20
0.8113876631
 11
236.1267543347
 21
2.8401661774
  0
ARC
  5
446
100
AcDbEntity
  8
0
100
AcDbCircle
 62
7
  6
CONTINUOUS
 10
153.9058028588
 20
85.3634770991
 40
0.3
100
AcDbArc
 50
301.7332683128
 51
359.9978457589
  0
ENDSEC
  0
SECTION
  2
OBJECTS
  0
DICTIONARY
  5
C
100
AcDbDictionary
280
0
281
1
  3
ACAD_GROUP
350
D
  3
ACAD_MLINESTYLE
350
17
  3
ACAD_LAYOUT
350
1A
  3
ACAD_PLOTSETTINGS
350
19
  3
ACAD_PLOTSTYLENAME
350
E
  0
DICTIONARY
  5
D
102
{ACAD_REACTORS
330
C
102
}
100
AcDbDictionary
280
0
281
1
  0
ACDBDICTIONARYWDFLT
  5
E
102
{ACAD_REACTORS
330
C
102
}
100
AcDbDictionary
281
1
  3
Normal
350
F
100
AcDbDictionaryWithDefault
340
F
  0
DICTIONARY
  5
17
102
{ACAD_REACTORS
330
C
102
}
100
AcDbDictionary
280
0
281
1
  3
Standard
350
18
  0
DICTIONARY
  5
19
102
{ACAD_REACTORS
330
C
102
}
100
AcDbDictionary
281
1
  0
DICTIONARY
  5
1A
102
{ACAD_REACTORS
330
C
102
}
100
AcDbDictionary
281
1
  3
Model
350
447
  3
Layout1
350
448
  0
ACDBPLACEHOLDER
  5
F
102
{ACAD_REACTORS
330
E
102
}
  0
MLINESTYLE
  5
18
102
{ACAD_REACTORS
330
17
102
}
100
AcDbMlineStyle
  2
STANDARD
 70
0
  3

 62
256
 51
90.0
 52
90.0
 71
2
 49
0.5
 62
256
  6
BYLAYER
 49
-0.5
 62
256
  6
BYLAYER
  0
LAYOUT
  5
447
102
{ACAD_REACTORS
330
1A
102
}
100
AcDbPlotSettings
  1

  2
none_device
  4
ISO_A4_(297.00_x_210.00_MM)
  6

 40
0.0
 41
0.0
 42
0.0
 43
0.0
 44
297.0
 45
210.0
 46
0.0
 47
0.0
 48
0.0
 49
0.0
140
0.0
141
0.0
142
1.0
143
1.0
 70
1024
 72
1
 73
0
 74
0
  7

 75
0
147
1.0
148
0.0
149
0.0
100
AcDbLayout
  1
Model
 70
0
 71
0
 10
0.0
 20
0.0
 11
297.0
 21
210.0
 12
0.0
 22
0.0
 32
0.0
 14
0.0
 24
0.0
 34
0.0
 15
0.0
 25
0.0
 35
0.0
146
0.0
 13
0.0
 23
0.0
 33
0.0
 16
1.0
 26
0.0
 36
0.0
 17
0.0
 27
1.0
 37
0.0
 76
0
330
21E
345
0
346
0
  0
LAYOUT
  5
448
102
{ACAD_REACTORS
330
1A
102
}
100
AcDbPlotSettings
  1

  2
none_device
  4
ISO_A4_(297.00_x_210.00_MM)
  6

 40
0.0
 41
0.0
 42
0.0
 43
0.0
 44
297.0
 45
210.0
 46
0.0
 47
0.0
 48
0.0
 49
0.0
140
0.0
141
0.0
142
1.0
143
1.0
 70
0
 72
1
 73
0
 74
0
  7

 75
0
147
1.0
148
0.0
149
0.0
100
AcDbLayout
  1
Layout1
 70
0
 71
1
 10
0.0
 20
0.0
 11
297.0
 21
210.0
 12
0.0
 22
0.0
 32
0.0
 14
0.0
 24
0.0
 34
0.0
 15
0.0
 25
0.0
 35
0.0
146
0.0
 13
0.0
 23
0.0
 33
0.0
 16
1.0
 26
0.0
 36
0.0
 17
0.0
 27
1.0
 37
0.0
 76
0
330
21F
345
0
346
0
  0
ENDSEC
  0
EOF
