  0
SECTION
  2
HEADER
  9
$ACADVER
  1
AC1024
  9
$DWGCODEPAGE
  3
ANSI_1252
  9
$EXTMAX
 10
297.0
 20
210.0
 30
0.0
  9
$EXTMIN
 10
0.0
 20
0.0
 30
0.0
  9
$LIMMIN
 10
0.0
 20
0.0
  9
$LIMMAX
 10
297.0
 20
210.0
  9
$VIEWCTR
 10
148.5
 20
105.0
  9
$VIEWSIZE
 40
210.0
  9
$CLAYER
  8
0
  9
$LTSCALE
 40
16.335
  9
$CELTYPE
  6
BYLAYER
  9
$DIMSCALE
 40
1.0
  9
$DIMASZ
 40
3.0
  9
$DIMEXO
 40
0.5
  9
$DIMDLI
 40
11.286
  9
$DIMEXE
 40
1.5
  9
$DIMCEN
 40
2.673
  9
$DIMLFAC
 40
1.0
  9
$DIMBLK
  1
_FILLED
  9
$DIMALT
 70
0
  9
$DIMALTF
 40
0.0393700787
  9
$DIMTXT
 40
3.0
  9
$DIMTOL
 70
1
  9
$DIMLIM
 70
0
  9
$DIMTFAC
 40
1.0
  9
$DIMTP
 40
0.01
  9
$DIMTM
 40
0.01
  9
$DIMGAP
 40
0.625
  9
$DIMDSEP
 70
44
  9
$AUNITS
 70
0
  9
$PDMODE
 70
3
  9
$PDSIZE
 40
3.0
  9
$HANDSEED
  5
299
  9
$TILEMODE
 70
1
  9
$MEASUREMENT
 70
1
  9
$INSUNITS
 70
4
  0
ENDSEC
  0
SECTION
  2
CLASSES
  0
CLASS
  1
ACDBDICTIONARYWDFLT
  2
AcDbDictionaryWithDefault
  3
AutoCAD 2000
 90
0
 91
1
280
0
281
0
  0
CLASS
  1
ACDBPLACEHOLDER
  2
AcDbPlaceHolder
  3
AutoCAD 2000
 90
0
 91
1
280
0
281
0
  0
CLASS
  1
LAYOUT
  2
AcDbLayout
  3
AutoCAD 2000
 90
0
 91
0
280
0
281
0
  0
ENDSEC
  0
SECTION
  2
TABLES
  0
TABLE
  2
VPORT
  5
8
100
AcDbSymbolTable
 70
2
  0
VPORT
  5
1F4
100
AcDbSymbolTableRecord
100
AcDbViewportTableRecord
  2
*ACTIVE
 70
0
 10
0.0
 20
0.0
 11
1.0
 21
1.0
 12
148.5
 22
105.0
 13
0.0
 23
0.0
 14
1.0
 24
1.0
 15
0.0
 25
0.0
 16
0.0
 26
0.0
 36
1.0
 17
0.0
 27
0.0
 37
0.0
 40
210.0
 41
1.4142857143
 42
50.0
 43
0.0
 44
0.0
 50
0.0
 51
0.0
 71
0
 72
100
 73
1
 74
1
 75
0
 76
0
 77
0
 78
0
  0
ENDTAB
  0
TABLE
  2
LTYPE
  5
5
100
AcDbSymbolTable
 70
6
  0
LTYPE
  5
14
100
AcDbSymbolTableRecord
100
AcDbLinetypeTableRecord
  2
BYBLOCK
 70
0
  3

 72
65
 73
0
 40
0.0
  0
LTYPE
  5
15
100
AcDbSymbolTableRecord
100
AcDbLinetypeTableRecord
  2
BYLAYER
 70
0
  3

 72
65
 73
0
 40
0.0
  0
LTYPE
  5
16
100
AcDbSymbolTableRecord
100
AcDbLinetypeTableRecord
  2
CONTINUOUS
 70
64
  3
Solid line
 72
65
 73
0
 40
0.0
  0
LTYPE
  5
1F5
100
AcDbSymbolTableRecord
100
AcDbLinetypeTableRecord
  2
CENTER
 70
64
  3
____ _ ____ _ ____ _ ____ _ ____ _ ____ _ ____
 72
65
 73
4
 40
0.6
 49
0.375
 74
0
 49
-0.075
 74
0
 49
0.075
 74
0
 49
-0.075
 74
0
  0
LTYPE
  5
1F6
100
AcDbSymbolTableRecord
100
AcDbLinetypeTableRecord
  2
HIDDEN
 70
64
  3
- - - - - - - - - - - - - - - - - - - -
 72
65
 73
2
 40
0.2
 49
0.1
 74
0
 49
-0.1
 74
0
  0
LTYPE
  5
1F7
100
AcDbSymbolTableRecord
100
AcDbLinetypeTableRecord
  2
PHANTOM
 70
64
  3
_____ _ _ _____ _ _ _____ _ _ _____
 72
65
 73
6
 40
0.8
 49
0.45
 74
0
 49
-0.05
 74
0
 49
0.1
 74
0
 49
-0.05
 74
0
 49
0.1
 74
0
 49
-0.05
 74
0
  0
LTYPE
  5
1F8
100
AcDbSymbolTableRecord
100
AcDbLinetypeTableRecord
  2
DOT
 70
64
  3
. . . . . . . . . . . . . . . . . . . .
 72
65
 73
2
 40
0.2
 49
0.1
 74
0
 49
-0.1
 74
0
  0
LTYPE
  5
1F9
100
AcDbSymbolTableRecord
100
AcDbLinetypeTableRecord
  2
DASHED
 70
64
  3
- - - - - - - - - - - - - - - - - - - -
 72
65
 73
2
 40
0.2
 49
0.1
 74
0
 49
-0.1
 74
0
  0
ENDTAB
  0
TABLE
  2
LAYER
  5
2
100
AcDbSymbolTable
 70
36
  0
LAYER
  5
10
100
AcDbSymbolTableRecord
100
AcDbLayerTableRecord
  2
0
 70
0
 62
7
  6
CONTINUOUS
370
-3
390
F
  0
LAYER
  5
1FA
100
AcDbSymbolTableRecord
100
AcDbLayerTableRecord
  2
DEFAULT_1
 70
0
 62
7
  6
CENTER
370
-3
390
F
  0
LAYER
  5
1FB
100
AcDbSymbolTableRecord
100
AcDbLayerTableRecord
  2
DEFAULT_2
 70
0
 62
7
  6
HIDDEN
370
-3
390
F
  0
LAYER
  5
1FC
100
AcDbSymbolTableRecord
100
AcDbLayerTableRecord
  2
DEFAULT_3
 70
0
 62
7
  6
PHANTOM
370
-3
390
F
  0
LAYER
  5
1FD
100
AcDbSymbolTableRecord
100
AcDbLayerTableRecord
  2
ASSI
 70
0
 62
7
  6
CONTINUOUS
370
-3
390
F
  0
LAYER
  5
1FE
100
AcDbSymbolTableRecord
100
AcDbLayerTableRecord
  2
COORDINATE
 70
0
 62
7
  6
CONTINUOUS
370
-3
390
F
  0
LAYER
  5
1FF
100
AcDbSymbolTableRecord
100
AcDbLayerTableRecord
  2
COORD_ORIGINE
 70
0
 62
7
  6
CONTINUOUS
370
-3
390
F
  0
LAYER
  5
200
100
AcDbSymbolTableRecord
100
AcDbLayerTableRecord
  2
COPY_PUBLISH
 70
0
 62
7
  6
CONTINUOUS
370
-3
390
F
  0
LAYER
  5
201
100
AcDbSymbolTableRecord
100
AcDbLayerTableRecord
  2
COSMETIC
 70
0
 62
7
  6
CONTINUOUS
370
-3
390
F
  0
LAYER
  5
202
100
AcDbSymbolTableRecord
100
AcDbLayerTableRecord
  2
COSMETICI
 70
0
 62
7
  6
CONTINUOUS
370
-3
390
F
  0
LAYER
  5
203
100
AcDbSymbolTableRecord
100
AcDbLayerTableRecord
  2
CURVE
 70
0
 62
7
  6
CONTINUOUS
370
-3
390
F
  0
LAYER
  5
204
100
AcDbSymbolTableRecord
100
AcDbLayerTableRecord
  2
CURVE_COSTRUZIONE
 70
0
 62
7
  6
CONTINUOUS
370
-3
390
F
  0
LAYER
  5
205
100
AcDbSymbolTableRecord
100
AcDbLayerTableRecord
  2
CURVE_TASSELLI
 70
0
 62
7
  6
CONTINUOUS
370
-3
390
F
  0
LAYER
  5
206
100
AcDbSymbolTableRecord
100
AcDbLayerTableRecord
  2
DRAFT
 70
0
 62
7
  6
CONTINUOUS
370
-3
390
F
  0
LAYER
  5
207
100
AcDbSymbolTableRecord
100
AcDbLayerTableRecord
  2
IMPORT_IGES
 70
0
 62
7
  6
CONTINUOUS
370
-3
390
F
  0
LAYER
  5
208
100
AcDbSymbolTableRecord
100
AcDbLayerTableRecord
  2
INTFCLR_2
 70
0
 62
7
  6
CONTINUOUS
370
-3
390
F
  0
LAYER
  5
209
100
AcDbSymbolTableRecord
100
AcDbLayerTableRecord
  2
INTF_1
 70
0
 62
7
  6
CONTINUOUS
370
-3
390
F
  0
LAYER
  5
20A
100
AcDbSymbolTableRecord
100
AcDbLayerTableRecord
  2
INTF_6
 70
0
 62
7
  6
CONTINUOUS
370
-3
390
F
  0
LAYER
  5
20B
100
AcDbSymbolTableRecord
100
AcDbLayerTableRecord
  2
INTF_7
 70
0
 62
7
  6
CONTINUOUS
370
-3
390
F
  0
LAYER
  5
20C
100
AcDbSymbolTableRecord
100
AcDbLayerTableRecord
  2
INTF_CYAN
 70
0
 62
7
  6
CONTINUOUS
370
-3
390
F
  0
LAYER
  5
20D
100
AcDbSymbolTableRecord
100
AcDbLayerTableRecord
  2
LIVELLO_1
 70
0
 62
7
  6
CONTINUOUS
370
-3
390
F
  0
LAYER
  5
20E
100
AcDbSymbolTableRecord
100
AcDbLayerTableRecord
  2
NOTE
 70
0
 62
7
  6
CONTINUOUS
370
-3
390
F
  0
LAYER
  5
20F
100
AcDbSymbolTableRecord
100
AcDbLayerTableRecord
  2
PIANI
 70
0
 62
7
  6
CONTINUOUS
370
-3
390
F
  0
LAYER
  5
210
100
AcDbSymbolTableRecord
100
AcDbLayerTableRecord
  2
PIANI_ORIGINE
 70
0
 62
7
  6
CONTINUOUS
370
-3
390
F
  0
LAYER
  5
211
100
AcDbSymbolTableRecord
100
AcDbLayerTableRecord
  2
PIANI_RIFERIMENTO
 70
0
 62
7
  6
CONTINUOUS
370
-3
390
F
  0
LAYER
  5
212
100
AcDbSymbolTableRecord
100
AcDbLayerTableRecord
  2
PUNTI
 70
0
 62
7
  6
CONTINUOUS
370
-3
390
F
  0
LAYER
  5
213
100
AcDbSymbolTableRecord
100
AcDbLayerTableRecord
  2
RACCORDO
 70
0
 62
7
  6
CONTINUOUS
370
-3
390
F
  0
LAYER
  5
214
100
AcDbSymbolTableRecord
100
AcDbLayerTableRecord
  2
RGB__255__255__255__
 70
0
 62
7
  6
CONTINUOUS
370
-3
390
F
  0
LAYER
  5
215
100
AcDbSymbolTableRecord
100
AcDbLayerTableRecord
  2
RGB____0____0____0__
 70
0
 62
7
  6
CONTINUOUS
370
-3
390
F
  0
LAYER
  5
216
100
AcDbSymbolTableRecord
100
AcDbLayerTableRecord
  2
SIMBOLI
 70
0
 62
7
  6
CONTINUOUS
370
-3
390
F
  0
LAYER
  5
217
100
AcDbSymbolTableRecord
100
AcDbLayerTableRecord
  2
SMUSSO
 70
0
 62
7
  6
CONTINUOUS
370
-3
390
F
  0
LAYER
  5
218
100
AcDbSymbolTableRecord
100
AcDbLayerTableRecord
  2
SUPERFICI
 70
0
 62
7
  6
CONTINUOUS
370
-3
390
F
  0
LAYER
  5
219
100
AcDbSymbolTableRecord
100
AcDbLayerTableRecord
  2
TRASH
 70
0
 62
7
  6
CONTINUOUS
370
-3
390
F
  0
LAYER
  5
21A
100
AcDbSymbolTableRecord
100
AcDbLayerTableRecord
  2
WHITE
 70
0
 62
7
  6
CONTINUOUS
370
-3
390
F
  0
LAYER
  5
21B
100
AcDbSymbolTableRecord
100
AcDbLayerTableRecord
  2
XSEC_DATUMS
 70
0
 62
7
  6
CONTINUOUS
370
-3
390
F
  0
ENDTAB
  0
TABLE
  2
STYLE
  5
3
100
AcDbSymbolTable
 70
1
  0
STYLE
  5
11
100
AcDbSymbolTableRecord
100
AcDbTextStyleTableRecord
  2
STANDARD
 70
0
 40
0.0
 41
0.8
 50
0.0
 71
0
 42
0.2
  3
txt
  4

  0
STYLE
  5
21C
100
AcDbSymbolTableRecord
100
AcDbTextStyleTableRecord
  2
TEXTSTYLE_1
 70
0
 40
0.0
 41
0.8
 50
0.0
 71
0
 42
0.2
  3
gdt
  4

  0
ENDTAB
  0
TABLE
  2
VIEW
  5
6
100
AcDbSymbolTable
 70
0
  0
ENDTAB
  0
TABLE
  2
UCS
  5
7
100
AcDbSymbolTable
 70
0
  0
ENDTAB
  0
TABLE
  2
APPID
  5
9
100
AcDbSymbolTable
 70
1
  0
APPID
  5
21D
100
AcDbSymbolTableRecord
100
AcDbRegAppTableRecord
  2
ACAD
 70
0
  0
ENDTAB
  0
TABLE
  2
BLOCK_RECORD
  5
1
100
AcDbSymbolTable
 70
0
  0
BLOCK_RECORD
  5
21E
100
AcDbSymbolTableRecord
100
AcDbBlockTableRecord
  2
*Model_Space
  0
BLOCK_RECORD
  5
21F
100
AcDbSymbolTableRecord
100
AcDbBlockTableRecord
  2
*Paper_Space
  0
BLOCK_RECORD
  5
220
100
AcDbSymbolTableRecord
100
AcDbBlockTableRecord
  2
_FILLED
  0
ENDTAB
  0
TABLE
  2
DIMSTYLE
  5
A
100
AcDbSymbolTable
 70
1
100
AcDbDimStyleTable
 71
0
  0
DIMSTYLE
105
221
100
AcDbSymbolTableRecord
100
AcDbDimStyleTableRecord
  2
STANDARD
 70
0
  3

  4

 40
1.0
 41
3.0
 42
0.5
 43
0.38
 44
1.5
 45
0.0
 46
0.0
 47
0.01
 48
0.01
140
3.0
141
0.09
142
0.0
143
25.4
144
1.0
145
0.0
146
1.0
147
0.625
 71
1
 72
0
 73
0
 74
0
 75
0
 76
0
 77
1
 78
8
 79
2
170
0
171
1
172
0
173
0
174
0
175
0
176
0
177
0
178
0
270
2
179
2
271
2
272
2
273
2
274
2
275
0
280
0
281
0
282
0
283
1
284
8
285
0
286
0
287
3
288
0
340
11
278
44
341
220
342
220
343
220
344
220
  0
ENDTAB
  0
ENDSEC
  0
SECTION
  2
BLOCKS
  0
BLOCK
  5
20
100
AcDbEntity
  8
0
100
AcDbBlockBegin
  2
*Model_Space
 70
0
 10
0.0
 20
0.0
 30
0.0
  3
*Model_Space
  1

  0
ENDBLK
  5
21
100
AcDbEntity
  8
0
100
AcDbBlockEnd
  0
BLOCK
  5
1C
100
AcDbEntity
  8
0
100
AcDbBlockBegin
  2
*Paper_Space
 70
0
 10
0.0
 20
0.0
 30
0.0
  3
*Paper_Space
  1

  0
ENDBLK
  5
1D
100
AcDbEntity
  8
0
100
AcDbBlockEnd
  0
BLOCK
  5
222
100
AcDbEntity
  8
0
100
AcDbBlockBegin
  2
_FILLED
 70
64
 10
0.0
 20
0.0
  3
_FILLED
  1

  0
SOLID
  5
223
100
AcDbEntity
  8
0
  6
BYBLOCK
 62
0
100
AcDbTrace
 10
0.0
 20
0.0
 11
-1.0
 21
0.3166666667
 12
-1.0
 22
-0.3166666667
 13
-1.0
 23
-0.3166666667
  0
ENDBLK
  5
224
100
AcDbEntity
  8
0
  6
BYBLOCK
 62
0
100
AcDbBlockEnd
  0
ENDSEC
  0
SECTION
  2
ENTITIES
  0
LINE
  5
225
100
AcDbEntity
  8
0
100
AcDbLine
 62
7
  6
CONTINUOUS
 10
116.8641771328
 20
155.7220164712
 11
120.6519909199
 21
158.2255833626
  0
LINE
  5
226
100
AcDbEntity
  8
0
100
AcDbLine
 62
7
  6
CONTINUOUS
 10
117.5717144021
 20
156.1304606651
 11
121.3595281892
 21
158.6340275564
  0
LINE
  5
227
100
AcDbEntity
  8
ASSI
100
AcDbLine
 62
7
  6
CONTINUOUS
 10
121.3881583233
 20
158.6174968759
 11
121.7837922579
 21
158.8789923124
  0
LINE
  5
228
100
AcDbEntity
  8
0
100
AcDbLine
 62
7
  6
CONTINUOUS
 10
117.5509507879
 20
156.1176213141
 11
117.5717144021
 21
156.1304606651
  0
LINE
  5
229
100
AcDbEntity
  8
ASSI
100
AcDbLine
 62
7
  6
CONTINUOUS
 10
121.3595076891
 20
158.6340630682
 11
121.7837922579
 21
158.8789923124
  0
LINE
  5
22A
100
AcDbEntity
  8
0
100
AcDbLine
 62
7
  6
CONTINUOUS
 10
120.6519909199
 20
158.2255833626
 11
121.3595281892
 21
158.6340275564
  0
LINE
  5
22B
100
AcDbEntity
  8
0
100
AcDbLine
 62
7
  6
CONTINUOUS
 10
117.5509507879
 20
156.1176213141
 11
116.8645524403
 21
155.7213801097
  0
LINE
  5
22C
100
AcDbEntity
  8
0
100
AcDbLine
 62
7
  6
CONTINUOUS
 10
117.168261488
 20
154.7023928757
 11
116.8892855539
 21
154.5413468002
  0
LINE
  5
22D
100
AcDbEntity
  8
0
100
AcDbLine
 62
7
  6
CONTINUOUS
 10
117.168261488
 20
154.7023928757
 11
117.5509507879
 21
156.1176213141
  0
LINE
  5
22E
100
AcDbEntity
  8
0
100
AcDbLine
 62
7
  6
CONTINUOUS
 10
178.7912077592
 20
47.9683191328
 11
180.2081668901
 21
47.592139677
  0
LINE
  5
22F
100
AcDbEntity
  8
0
100
AcDbLine
 62
7
  6
CONTINUOUS
 10
116.8892855539
 20
83.7097132008
 11
117.168261488
 21
83.2265127093
  0
LINE
  5
230
100
AcDbEntity
  8
0
100
AcDbLine
 62
7
  6
CONTINUOUS
 10
116.8892855539
 20
83.7097132008
 11
116.8645524403
 21
84.1659487783
  0
LINE
  5
231
100
AcDbEntity
  8
0
100
AcDbLine
 62
7
  6
CONTINUOUS
 10
117.5717144021
 20
82.9646511416
 11
117.5509507879
 21
82.9770719672
  0
LINE
  5
232
100
AcDbEntity
  8
0
100
AcDbLine
 62
7
  6
CONTINUOUS
 10
117.168261488
 20
83.2265127093
 11
117.5509507879
 21
82.9770719672
  0
LINE
  5
233
100
AcDbEntity
  8
0
100
AcDbLine
 62
7
  6
CONTINUOUS
 10
116.8892855539
 20
154.5413468002
 11
116.8645524403
 21
155.7213801097
  0
LINE
  5
234
100
AcDbEntity
  8
0
100
AcDbLine
 62
7
  6
CONTINUOUS
 10
116.8645524403
 20
84.1659487783
 11
116.8641771328
 21
84.190141639
  0
LINE
  5
235
100
AcDbEntity
  8
0
100
AcDbLine
 62
7
  6
CONTINUOUS
 10
116.8641771328
 20
155.7220164712
 11
116.8641771328
 21
84.190141639
  0
LINE
  5
236
100
AcDbEntity
  8
0
100
AcDbLine
 62
7
  6
CONTINUOUS
 10
116.8892855539
 20
154.5413468002
 11
116.8892855539
 21
83.7097132008
  0
LINE
  5
237
100
AcDbEntity
  8
0
100
AcDbLine
 62
7
  6
CONTINUOUS
 10
117.5717144021
 20
82.9646511416
 11
179.5221309727
 21
47.1952570348
  0
LINE
  5
238
100
AcDbEntity
  8
0
100
AcDbLine
 62
7
  6
CONTINUOUS
 10
117.168261488
 20
83.2265127093
 11
178.512231825
 21
47.8072730572
  0
LINE
  5
239
100
AcDbEntity
  8
0
100
AcDbLine
 62
7
  6
CONTINUOUS
 10
178.512231825
 20
47.8072730572
 11
179.5217685425
 21
47.1958984725
  0
LWPOLYLINE
  5
23A
100
AcDbEntity
  8
0
100
AcDbPolyline
 62
7
  6
CONTINUOUS
 90
17
 70
0
 10
129.2079829723
 20
112.421143094
 10
129.2118058598
 20
112.5959541535
 10
129.2232652752
 20
112.7659189127
 10
129.2423331155
 20
112.9306146237
 10
129.2689624412
 20
113.0896320121
 10
129.3030873906
 20
113.2425750325
 10
129.3446231447
 20
113.3890620184
 10
129.3934666002
 20
113.5287285192
 10
129.4494965452
 20
113.6612272275
 10
129.5125734838
 20
113.7862278351
 10
129.5825406099
 20
113.9034194213
 10
129.6592240742
 20
114.0125106394
 10
129.7424329623
 20
114.1132298285
 10
129.8319602515
 20
114.2053264699
 10
129.9275834632
 20
114.2885717647
 10
130.0290649129
 20
114.3627588115
 10
130.1087923738
 20
114.41229844
  0
LWPOLYLINE
  5
23B
100
AcDbEntity
  8
ASSI
100
AcDbPolyline
 62
7
  6
CONTINUOUS
 90
13
 70
0
 10
129.632247041
 20
112.66610785
 10
129.6360699285
 20
112.8409189095
 10
129.6475293439
 20
113.0108836687
 10
129.6665971842
 20
113.1755793797
 10
129.6932265099
 20
113.3345967681
 10
129.7273514593
 20
113.4875397885
 10
129.7688872134
 20
113.6340267744
 10
129.8177306689
 20
113.7736932752
 10
129.8737606139
 20
113.9061919835
 10
129.9368375525
 20
114.0311925911
 10
130.0068046786
 20
114.1483841773
 10
130.0834881429
 20
114.2574753954
 10
130.166697031
 20
114.3581945845
  0
LWPOLYLINE
  5
23C
100
AcDbEntity
  8
0
100
AcDbPolyline
 62
7
  6
CONTINUOUS
 90
33
 70
0
 10
128.5008761911
 20
112.421143094
 10
128.5052257385
 20
112.616807714
 10
128.5179918694
 20
112.8061514382
 10
128.5391745839
 20
112.9891742666
 10
128.5688680208
 20
113.166299822
 10
128.6069780413
 20
113.3371044815
 10
128.6532222281
 20
113.5003173766
 10
128.7076613489
 20
113.6558816638
 10
128.7702346359
 20
113.8038541866
 10
128.8404773694
 20
113.9431346061
 10
128.9184467564
 20
114.0736579603
 10
129.0040855899
 20
114.1954892114
 10
129.0967575284
 20
114.307722907
 10
129.1965148425
 20
114.4102873739
 10
129.3033052615
 20
114.5032542854
 10
129.4163356328
 20
114.5859332097
 10
129.5356523448
 20
114.6582475683
 10
129.6612090089
 20
114.7202739397
 10
129.792073307
 20
114.7715516275
 10
129.9282848391
 20
114.8120006663
 10
130.0698040051
 20
114.8417010214
 10
130.2155796863
 20
114.8604318926
 10
130.3656436455
 20
114.8681115759
 10
130.5199641199
 20
114.8648217751
 10
130.677394702
 20
114.8505868017
 10
130.8379585391
 20
114.8253251197
 10
131.0016324838
 20
114.7891182651
 10
131.1672006872
 20
114.7422351571
 10
131.3346772344
 20
114.684596288
 10
131.5040480401
 20
114.6162811653
 10
131.6740549997
 20
114.5377972315
 10
131.844702848
 20
114.4490687623
 10
131.9300132659
 20
114.4010831482
  0
LWPOLYLINE
  5
23D
100
AcDbEntity
  8
0
100
AcDbPolyline
 62
7
  6
CONTINUOUS
 90
13
 70
0
 10
130.2374323924
 20
114.3990495957
 10
130.1543131379
 20
114.2983898028
 10
130.0775018352
 20
114.18912203
 10
130.0075690141
 20
114.0720578834
 10
129.9445658925
 20
113.9471393102
 10
129.8884412525
 20
113.8144243632
 10
129.8396119699
 20
113.6748988065
 10
129.7981323668
 20
113.5285119276
 10
129.7639481212
 20
113.375314439
 10
129.7373131427
 20
113.2164442427
 10
129.7183120677
 20
113.0522806393
 10
129.7068602599
 20
112.8824443282
 10
129.7029577191
 20
112.7069353093
  0
LWPOLYLINE
  5
23E
100
AcDbEntity
  8
ASSI
100
AcDbPolyline
 62
7
  6
CONTINUOUS
 90
13
 70
0
 10
130.6193482816
 20
114.5927294959
 10
130.5785772066
 20
114.5433545588
 10
130.5017659039
 20
114.434086786
 10
130.4318330828
 20
114.3170226394
 10
130.3688299612
 20
114.1921040662
 10
130.3127053212
 20
114.0593891192
 10
130.2638760386
 20
113.9198635625
 10
130.2223964355
 20
113.7734766836
 10
130.1882121899
 20
113.620279195
 10
130.1615772114
 20
113.4614089987
 10
130.1425761364
 20
113.2972453953
 10
130.1311243286
 20
113.1274090842
 10
130.1272217878
 20
112.9519000653
  0
LWPOLYLINE
  5
23F
100
AcDbEntity
  8
ASSI
100
AcDbPolyline
 62
7
  6
CONTINUOUS
 90
3
 70
0
 10
130.166697031
 20
114.3581945845
 10
130.2562243202
 20
114.4502912259
 10
130.3312602199
 20
114.5156141269
  0
LWPOLYLINE
  5
240
100
AcDbEntity
  8
0
100
AcDbPolyline
 62
7
  6
CONTINUOUS
 90
3
 70
0
 10
130.3732442774
 20
114.5313749632
 10
130.3269065684
 20
114.4910373127
 10
130.2374323924
 20
114.3990495957
  0
LWPOLYLINE
  5
241
100
AcDbEntity
  8
0
100
AcDbPolyline
 62
7
  6
CONTINUOUS
 90
46
 70
0
 10
129.7029577191
 20
112.7069353093
 10
129.7068602599
 20
112.5269197342
 10
129.7183120677
 20
112.3438591624
 10
129.7373131427
 20
112.157753594
 10
129.7639481212
 20
111.968125992
 10
129.7981323668
 20
111.7754533935
 10
129.8396119699
 20
111.5811669087
 10
129.8884412525
 20
111.3852545204
 10
129.9445658925
 20
111.1877282459
 10
130.0075690141
 20
110.9900552472
 10
130.0775018352
 20
110.7922344316
 10
130.1543131379
 20
110.5942668918
 10
130.2374323924
 20
110.3976230673
 10
130.3269065684
 20
110.2023128145
 10
130.4226886962
 20
110.0083262771
 10
130.5240673368
 20
109.8171043249
 10
130.6310841625
 20
109.6286675433
 10
130.7436975009
 20
109.4429953469
 10
130.8610708963
 20
109.2614668494
 10
130.9832397925
 20
109.0841129052
 10
131.1101687457
 20
108.91090266
 10
131.2409149682
 20
108.7431226639
 10
131.3755068838
 20
108.5808133512
 10
131.5139160686
 20
108.4239342877
 10
131.6551144636
 20
108.2736507209
 10
131.7991228376
 20
108.1300117616
 10
131.9459204216
 20
107.9929682989
 10
132.0944168504
 20
107.8635382479
 10
132.2446247735
 20
107.7417782989
 10
132.3965315414
 20
107.6276317615
 10
132.549008839
 20
107.5219464798
 10
132.7020609146
 20
107.4247854572
 10
132.85568352
 20
107.3360856902
 10
133.0087355956
 20
107.2565060123
 10
133.1612128932
 20
107.1861143327
 10
133.313119661
 20
107.1248427423
 10
133.4633275842
 20
107.0731463467
 10
133.6118240129
 20
107.031096444
 10
133.758621597
 20
106.9986217362
 10
133.9026299709
 20
106.975963435
 10
134.0438283659
 20
106.9631946345
 10
134.1822375508
 20
106.9602422407
 10
134.3168294663
 20
106.9671281829
 10
134.4475756888
 20
106.9839257186
 10
134.574504642
 20
107.0105615903
 10
134.6896290509
 20
107.0447461922
  0
LWPOLYLINE
  5
242
100
AcDbEntity
  8
ASSI
100
AcDbPolyline
 62
7
  6
CONTINUOUS
 90
44
 70
0
 10
130.1272217878
 20
112.9519000653
 10
130.1311243286
 20
112.7718844902
 10
130.1425761364
 20
112.5888239184
 10
130.1615772114
 20
112.40271835
 10
130.1882121899
 20
112.213090748
 10
130.2223964355
 20
112.0204181495
 10
130.2638760386
 20
111.8261316646
 10
130.3127053212
 20
111.6302192764
 10
130.3688299612
 20
111.4326930019
 10
130.4318330828
 20
111.2350200032
 10
130.5017659039
 20
111.0371991876
 10
130.5785772066
 20
110.8392316478
 10
130.6616964611
 20
110.6425878233
 10
130.7511706371
 20
110.4472775705
 10
130.8469527649
 20
110.2532910331
 10
130.9483314055
 20
110.0620690809
 10
131.0553482312
 20
109.8736322993
 10
131.1679615696
 20
109.6879601029
 10
131.285334965
 20
109.5064316054
 10
131.4075038612
 20
109.3290776612
 10
131.5344328144
 20
109.155867416
 10
131.6651790369
 20
108.9880874199
 10
131.7997709525
 20
108.8257781072
 10
131.9381801373
 20
108.6688990437
 10
132.0793785324
 20
108.5186154769
 10
132.2233869063
 20
108.3749765176
 10
132.3701844904
 20
108.2379330549
 10
132.5186809191
 20
108.1085030039
 10
132.6688888422
 20
107.9867430549
 10
132.8207956101
 20
107.8725965175
 10
132.9732729077
 20
107.7669112358
 10
133.1263249833
 20
107.6697502132
 10
133.2799475887
 20
107.5810504462
 10
133.4329996643
 20
107.5014707683
 10
133.5854769619
 20
107.4310790887
 10
133.7373837297
 20
107.3698074982
 10
133.8875916529
 20
107.3181111027
 10
134.0360880816
 20
107.2760612
 10
134.1828856657
 20
107.2435864922
 10
134.3268940396
 20
107.220928191
 10
134.4680924346
 20
107.2081593905
 10
134.6065016195
 20
107.2052069967
 10
134.7410935351
 20
107.2120929389
 10
134.867740371
 20
107.2283638086
  0
LWPOLYLINE
  5
243
100
AcDbEntity
  8
0
100
AcDbPolyline
 62
7
  6
CONTINUOUS
 90
5
 70
0
 10
130.1087923738
 20
114.41229844
 10
130.1361522473
 20
114.4277031416
 10
130.248579271
 20
114.4832433291
 10
130.3660667073
 20
114.5292413745
 10
130.4883225688
 20
114.5655828828
  0
LWPOLYLINE
  5
244
100
AcDbEntity
  8
ASSI
100
AcDbPolyline
 62
7
  6
CONTINUOUS
 90
45
 70
0
 10
166.3235415942
 20
88.5973223994
 10
166.1968213094
 20
88.5707278699
 10
166.065951626
 20
88.5539464951
 10
165.9312578362
 20
88.5470200543
 10
165.7930748528
 20
88.5499658353
 10
165.6517463852
 20
88.5627765509
 10
165.5076238346
 20
88.5854203673
 10
165.3610654922
 20
88.6178410102
 10
165.2124358236
 20
88.6599578678
 10
165.0621043839
 20
88.7116662228
 10
164.9104449122
 20
88.7728375253
 10
164.7578344916
 20
88.8433196832
 10
164.6046525536
 20
88.9229374597
 10
164.4512799466
 20
89.0114929062
 10
164.2980980075
 20
89.108765844
 10
164.1454875839
 20
89.2145144281
 10
163.9938281083
 20
89.3284757375
 10
163.8434966658
 20
89.4503664168
 10
163.6948669953
 20
89.5798834316
 10
163.5483086523
 20
89.716704746
 10
163.4041861065
 20
89.8604900921
 10
163.2628576513
 20
90.0108819953
 10
163.1246746854
 20
90.167506502
 10
162.9899809149
 20
90.3299739955
 10
162.8591112548
 20
90.4978804363
 10
162.732390995
 20
90.6708084085
 10
162.6101351517
 20
90.8483279661
 10
162.4926477259
 20
91.0299976176
 10
162.3802207083
 20
91.2153657858
 10
162.2731333749
 20
91.4039719737
 10
162.1716519171
 20
91.5953473707
 10
162.0760286964
 20
91.7890160863
 10
161.9865014126
 20
91.9844967166
 10
161.9032925427
 20
92.1813035501
 10
161.8266091092
 20
92.3789470017
 10
161.756642036
 20
92.5769349144
 10
161.6935651697
 20
92.7747751784
 10
161.6375353096
 20
92.9719758033
 10
161.5886919496
 20
93.1680453823
 10
161.5471562963
 20
93.3624966305
 10
161.5130314445
 20
93.554846046
 10
161.4864022055
 20
93.7446140249
 10
161.4673344345
 20
93.9313284723
 10
161.4558750652
 20
94.1145259125
 10
161.4520521944
 20
94.2937511502
  0
LWPOLYLINE
  5
245
100
AcDbEntity
  8
0
100
AcDbPolyline
 62
7
  6
CONTINUOUS
 90
64
 70
0
 10
135.3598119686
 20
108.4608795387
 10
135.3554624212
 20
108.2652149187
 10
135.3426962903
 20
108.0758711945
 10
135.3215135758
 20
107.8928483661
 10
135.2918201388
 20
107.7157228108
 10
135.2537101184
 20
107.5449181512
 10
135.2074659315
 20
107.3817052561
 10
135.1530268108
 20
107.2261409689
 10
135.0904535238
 20
107.0781684461
 10
135.0202107903
 20
106.9388880266
 10
134.9422414032
 20
106.8083646724
 10
134.8566025698
 20
106.6865334214
 10
134.7639306313
 20
106.5742997257
 10
134.6641733172
 20
106.4717352588
 10
134.5573828981
 20
106.3787683473
 10
134.4443525269
 20
106.296089423
 10
134.3250358149
 20
106.2237750644
 10
134.1994791508
 20
106.161748693
 10
134.0686148527
 20
106.1104710053
 10
133.9324033206
 20
106.0700219664
 10
133.7908841546
 20
106.0403216113
 10
133.6451084734
 20
106.0215907401
 10
133.4950445142
 20
106.0139110569
 10
133.3407240398
 20
106.0172008576
 10
133.1832934577
 20
106.031435831
 10
133.0227296206
 20
106.056697513
 10
132.8590556758
 20
106.0929043676
 10
132.6934874725
 20
106.1397874756
 10
132.5260109253
 20
106.1974263448
 10
132.3566401196
 20
106.2657414674
 10
132.1866331599
 20
106.3442254012
 10
132.0159853117
 20
106.4329538704
 10
131.8447013095
 20
106.5318511507
 10
131.6740534625
 20
106.6401826274
 10
131.5040465051
 20
106.7580185571
 10
131.3346757028
 20
106.8852886831
 10
131.1671991606
 20
107.0210476203
 10
131.0016309616
 20
107.1653586138
 10
130.8379570228
 20
107.3181584186
 10
130.6773931997
 20
107.4783119145
 10
130.5199626407
 20
107.645873908
 10
130.3656421973
 20
107.8207895926
 10
130.2155782806
 20
108.0017594284
 10
130.0698026626
 20
108.1888284257
 10
129.9282835711
 20
108.3819515741
 10
129.7920721012
 20
108.5796943027
 10
129.6612078437
 20
108.7820908561
 10
129.5356512078
 20
108.9891069896
 10
129.4163345152
 20
109.1992053978
 10
129.3033041463
 20
109.4124091129
 10
129.1965137208
 20
109.6286951027
 10
129.09675642
 20
109.8464569662
 10
129.004084523
 20
110.0657060121
 10
128.9184457508
 20
110.2864309316
 10
128.8404764473
 20
110.5069913969
 10
128.770233828
 20
110.7273862934
 10
128.7076606773
 20
110.9476167358
 10
128.6532216927
 20
111.1660457402
 10
128.6069776428
 20
111.3826599607
 10
128.568867759
 20
111.5974727432
 10
128.5391744327
 20
111.8088871424
 10
128.5179917946
 20
112.016370843
 10
128.5052257141
 20
112.2204561602
 10
128.5008761911
 20
112.421143094
  0
LINE
  5
246
100
AcDbEntity
  8
0
100
AcDbLine
 62
7
  6
CONTINUOUS
 10
135.3546523585
 20
108.6745169537
 11
135.3445296657
 21
108.5243783133
  0
LWPOLYLINE
  5
247
100
AcDbEntity
  8
0
100
AcDbPolyline
 62
7
  6
CONTINUOUS
 90
11
 70
0
 10
135.3445296657
 20
108.5243783133
 10
135.3254618254
 20
108.3596826024
 10
135.2988324997
 20
108.2006652139
 10
135.2647075503
 20
108.0477221935
 10
135.2231717962
 20
107.9012352076
 10
135.1743283406
 20
107.7615687068
 10
135.1182983957
 20
107.6290699986
 10
135.055221457
 20
107.504069391
 10
134.985254331
 20
107.3868778047
 10
134.9085708667
 20
107.2777865866
 10
134.8253619785
 20
107.1770673975
  0
LWPOLYLINE
  5
248
100
AcDbEntity
  8
0
100
AcDbPolyline
 62
7
  6
CONTINUOUS
 90
5
 70
0
 10
134.8253619785
 20
107.1770673975
 10
134.7358346894
 20
107.0849707562
 10
134.6402114777
 20
107.0017254614
 10
134.538730028
 20
106.9275384145
 10
134.459002567
 20
106.8779987861
  0
LWPOLYLINE
  5
249
100
AcDbEntity
  8
0
100
AcDbPolyline
 62
7
  6
CONTINUOUS
 90
49
 70
0
 10
134.459002567
 20
106.8779987861
 10
134.4316426936
 20
106.8625940844
 10
134.3192156699
 20
106.8070538969
 10
134.2017282336
 20
106.7610558515
 10
134.0794723721
 20
106.7247143432
 10
133.9527520873
 20
106.6981198137
 10
133.8218824039
 20
106.6813384388
 10
133.6871886141
 20
106.674411998
 10
133.5490056307
 20
106.677357779
 10
133.4076771631
 20
106.6901684946
 10
133.2635546125
 20
106.712812311
 10
133.1169962701
 20
106.7452329539
 10
132.9683666015
 20
106.7873498116
 10
132.8180351618
 20
106.8390581666
 10
132.6663756901
 20
106.9002294691
 10
132.5137652695
 20
106.970711627
 10
132.3605833315
 20
107.0503294034
 10
132.2072107245
 20
107.13888485
 10
132.0540287854
 20
107.2361577877
 10
131.9014183618
 20
107.3419063719
 10
131.7497588862
 20
107.4558676812
 10
131.5994274437
 20
107.5777583605
 10
131.4507977732
 20
107.7072753753
 10
131.3042394302
 20
107.8440966897
 10
131.1601168844
 20
107.9878820358
 10
131.0187884292
 20
108.1382739391
 10
130.8806054633
 20
108.2948984457
 10
130.7459116928
 20
108.4573659392
 10
130.6150420327
 20
108.6252723801
 10
130.4883217729
 20
108.7982003522
 10
130.3660659296
 20
108.9757199098
 10
130.2485785038
 20
109.1573895613
 10
130.1361514862
 20
109.3427577295
 10
130.0290641528
 20
109.5313639174
 10
129.927582695
 20
109.7227393145
 10
129.8319594743
 20
109.91640803
 10
129.7424321905
 20
110.1118886604
 10
129.6592233206
 20
110.3086954939
 10
129.5825398871
 20
110.5063389454
 10
129.5125728139
 20
110.7043268581
 10
129.4494959476
 20
110.9021671221
 10
129.3934660875
 20
111.0993677471
 10
129.3446227275
 20
111.295437326
 10
129.3030870742
 20
111.4898885743
 10
129.2689622224
 20
111.6822379898
 10
129.2423329834
 20
111.8720059686
 10
129.2232652124
 20
112.0587204161
 10
129.2118058431
 20
112.2419178562
 10
129.2079829723
 20
112.421143094
  0
LWPOLYLINE
  5
24A
100
AcDbEntity
  8
ASSI
100
AcDbPolyline
 62
7
  6
CONTINUOUS
 90
3
 70
0
 10
134.6607987897
 20
107.0196478551
 10
134.6259923023
 20
107.0060206075
 10
134.5037364408
 20
106.9696790992
  0
LINE
  5
24B
100
AcDbEntity
  8
0
100
AcDbLine
 62
7
  6
CONTINUOUS
 10
162.3081277222
 20
96.1932261831
 11
162.434848007
 21
96.2198207126
  0
LWPOLYLINE
  5
24C
100
AcDbEntity
  8
0
100
AcDbPolyline
 62
7
  6
CONTINUOUS
 90
10
 70
0
 10
162.434848007
 20
96.2198207126
 10
162.5657176904
 20
96.2366020874
 10
162.7004114802
 20
96.2435285283
 10
162.8385944635
 20
96.2405827473
 10
162.9799229312
 20
96.2277720317
 10
163.1240454818
 20
96.2051282152
 10
163.2706038242
 20
96.1727075724
 10
163.4192334927
 20
96.1305907147
 10
163.5695649325
 20
96.0788823597
 10
163.7212244042
 20
96.0177110572
  0
LWPOLYLINE
  5
24D
100
AcDbEntity
  8
0
100
AcDbPolyline
 62
7
  6
CONTINUOUS
 90
46
 70
0
 10
145.6128602958
 20
103.5207569594
 10
145.6167628366
 20
103.3407413843
 10
145.6282146444
 20
103.1576808125
 10
145.6472157193
 20
102.9715752441
 10
145.6738506979
 20
102.7819476422
 10
145.7080349435
 20
102.5892750436
 10
145.7495145466
 20
102.3949885588
 10
145.7983438292
 20
102.1990761705
 10
145.8544684692
 20
102.0015498961
 10
145.9174715908
 20
101.8038768973
 10
145.9874044119
 20
101.6060560818
 10
146.0642157146
 20
101.4080885419
 10
146.1473349691
 20
101.2114447174
 10
146.2368091451
 20
101.0161344647
 10
146.3325912729
 20
100.8221479272
 10
146.4339699135
 20
100.630925975
 10
146.5409867392
 20
100.4424891934
 10
146.6536000776
 20
100.256816997
 10
146.770973473
 20
100.0752884995
 10
146.8931423692
 20
99.8979345554
 10
147.0200713224
 20
99.7247243101
 10
147.1508175449
 20
99.556944314
 10
147.2854094605
 20
99.3946350014
 10
147.4238186453
 20
99.2377559379
 10
147.5650170403
 20
99.087472371
 10
147.7090254143
 20
98.9438334117
 10
147.8558229983
 20
98.806789949
 10
148.0043194271
 20
98.677359898
 10
148.1545273502
 20
98.555599949
 10
148.3064341181
 20
98.4414534117
 10
148.4589114157
 20
98.3357681299
 10
148.6119634913
 20
98.2386071073
 10
148.7655860967
 20
98.1499073403
 10
148.9186381723
 20
98.0703276624
 10
149.0711154699
 20
97.9999359828
 10
149.2230222377
 20
97.9386643924
 10
149.3732301609
 20
97.8869679968
 10
149.5217265896
 20
97.8449180941
 10
149.6685241737
 20
97.8124433863
 10
149.8125325476
 20
97.7897850851
 10
149.9537309426
 20
97.7770162847
 10
150.0921401275
 20
97.7740638908
 10
150.226732043
 20
97.780949833
 10
150.3574782655
 20
97.7977473687
 10
150.4844072187
 20
97.8243832404
 10
150.5995316276
 20
97.8585678423
  0
LWPOLYLINE
  5
24E
100
AcDbEntity
  8
ASSI
100
AcDbPolyline
 62
7
  6
CONTINUOUS
 90
44
 70
0
 10
146.0371243645
 20
103.7657217154
 10
146.0410269053
 20
103.5857061403
 10
146.0524787131
 20
103.4026455685
 10
146.0714797881
 20
103.2165400001
 10
146.0981147666
 20
103.0269123982
 10
146.1322990122
 20
102.8342397996
 10
146.1737786153
 20
102.6399533148
 10
146.2226078979
 20
102.4440409265
 10
146.2787325379
 20
102.2465146521
 10
146.3417356595
 20
102.0488416533
 10
146.4116684806
 20
101.8510208378
 10
146.4884797833
 20
101.6530532979
 10
146.5715990378
 20
101.4564094734
 10
146.6610732138
 20
101.2610992207
 10
146.7568553416
 20
101.0671126832
 10
146.8582339822
 20
100.875890731
 10
146.9652508079
 20
100.6874539494
 10
147.0778641463
 20
100.501781753
 10
147.1952375417
 20
100.3202532555
 10
147.3174064379
 20
100.1428993114
 10
147.4443353911
 20
99.9696890661
 10
147.5750816136
 20
99.80190907
 10
147.7096735292
 20
99.6395997573
 10
147.848082714
 20
99.4827206939
 10
147.9892811091
 20
99.332437127
 10
148.133289483
 20
99.1887981677
 10
148.2800870671
 20
99.051754705
 10
148.4285834958
 20
98.922324654
 10
148.5787914189
 20
98.800564705
 10
148.7306981868
 20
98.6864181677
 10
148.8831754844
 20
98.5807328859
 10
149.03622756
 20
98.4835718633
 10
149.1898501654
 20
98.3948720963
 10
149.342902241
 20
98.3152924184
 10
149.4953795386
 20
98.2449007388
 10
149.6472863064
 20
98.1836291484
 10
149.7974942296
 20
98.1319327528
 10
149.9459906583
 20
98.0898828501
 10
150.0927882424
 20
98.0574081423
 10
150.2367966163
 20
98.0347498411
 10
150.3779950113
 20
98.0219810407
 10
150.5164041962
 20
98.0190286468
 10
150.6509961118
 20
98.025914589
 10
150.7776429477
 20
98.0421854587
  0
LWPOLYLINE
  5
24F
100
AcDbEntity
  8
0
100
AcDbPolyline
 62
7
  6
CONTINUOUS
 90
17
 70
0
 10
145.117885549
 20
103.2349647441
 10
145.1217084365
 20
103.4097758036
 10
145.1331678519
 20
103.5797405628
 10
145.1522356922
 20
103.7444362738
 10
145.1788650179
 20
103.9034536622
 10
145.2129899673
 20
104.0563966826
 10
145.2545257214
 20
104.2028836685
 10
145.3033691769
 20
104.3425501694
 10
145.3593991219
 20
104.4750488776
 10
145.4224760605
 20
104.6000494852
 10
145.4924431866
 20
104.7172410714
 10
145.5691266509
 20
104.8263322895
 10
145.652335539
 20
104.9270514786
 10
145.7418628281
 20
105.01914812
 10
145.8374860399
 20
105.1023934148
 10
145.9389674896
 20
105.1765804616
 10
146.0186949505
 20
105.2261200901
  0
LWPOLYLINE
  5
250
100
AcDbEntity
  8
ASSI
100
AcDbPolyline
 62
7
  6
CONTINUOUS
 90
13
 70
0
 10
145.5421496177
 20
103.4799295001
 10
145.5459725052
 20
103.6547405596
 10
145.5574319206
 20
103.8247053188
 10
145.5764997609
 20
103.9894010298
 10
145.6031290866
 20
104.1484184182
 10
145.637254036
 20
104.3013614386
 10
145.6787897901
 20
104.4478484245
 10
145.7276332456
 20
104.5875149254
 10
145.7836631906
 20
104.7200136336
 10
145.8467401292
 20
104.8450142412
 10
145.9167072553
 20
104.9622058274
 10
145.9933907196
 20
105.0712970455
 10
146.0765996077
 20
105.1720162346
  0
LWPOLYLINE
  5
251
100
AcDbEntity
  8
0
100
AcDbPolyline
 62
7
  6
CONTINUOUS
 90
33
 70
0
 10
144.4107787678
 20
103.2349647441
 10
144.4151283152
 20
103.4306293641
 10
144.4278944461
 20
103.6199730883
 10
144.4490771606
 20
103.8029959167
 10
144.4787705975
 20
103.9801214721
 10
144.516880618
 20
104.1509261316
 10
144.5631248048
 20
104.3141390267
 10
144.6175639256
 20
104.4697033139
 10
144.6801372126
 20
104.6176758367
 10
144.7503799461
 20
104.7569562562
 10
144.8283493331
 20
104.8874796105
 10
144.9139881666
 20
105.0093108615
 10
145.0066601051
 20
105.1215445571
 10
145.1064174191
 20
105.224109024
 10
145.2132078382
 20
105.3170759355
 10
145.3262382095
 20
105.3997548598
 10
145.4455549215
 20
105.4720692184
 10
145.5711115856
 20
105.5340955898
 10
145.7019758837
 20
105.5853732776
 10
145.8381874158
 20
105.6258223164
 10
145.9797065818
 20
105.6555226716
 10
146.125482263
 20
105.6742535427
 10
146.2755462222
 20
105.681933226
 10
146.4298666966
 20
105.6786434252
 10
146.5872972787
 20
105.6644084518
 10
146.7478611157
 20
105.6391467698
 10
146.9115350605
 20
105.6029399153
 10
147.0771032639
 20
105.5560568073
 10
147.2445798111
 20
105.4984179381
 10
147.4139506168
 20
105.4301028154
 10
147.5839575764
 20
105.3516188816
 10
147.7546054247
 20
105.2628904125
 10
147.8399158426
 20
105.2149047983
  0
LWPOLYLINE
  5
252
100
AcDbEntity
  8
0
100
AcDbPolyline
 62
7
  6
CONTINUOUS
 90
13
 70
0
 10
146.1473349691
 20
105.2128712459
 10
146.0642157146
 20
105.1122114529
 10
145.9874044119
 20
105.0029436801
 10
145.9174715908
 20
104.8858795335
 10
145.8544684692
 20
104.7609609603
 10
145.7983438292
 20
104.6282460133
 10
145.7495145466
 20
104.4887204567
 10
145.7080349435
 20
104.3423335777
 10
145.6738506979
 20
104.1891360892
 10
145.6472157193
 20
104.0302658929
 10
145.6282146444
 20
103.8661022895
 10
145.6167628366
 20
103.6962659783
 10
145.6128602958
 20
103.5207569594
  0
LWPOLYLINE
  5
253
100
AcDbEntity
  8
ASSI
100
AcDbPolyline
 62
7
  6
CONTINUOUS
 90
13
 70
0
 10
146.5292508583
 20
105.406551146
 10
146.4884797833
 20
105.3571762089
 10
146.4116684806
 20
105.2479084361
 10
146.3417356595
 20
105.1308442895
 10
146.2787325379
 20
105.0059257163
 10
146.2226078979
 20
104.8732107693
 10
146.1737786153
 20
104.7336852127
 10
146.1322990122
 20
104.5872983337
 10
146.0981147666
 20
104.4341008452
 10
146.0714797881
 20
104.2752306488
 10
146.0524787131
 20
104.1110670454
 10
146.0410269053
 20
103.9412307343
 10
146.0371243645
 20
103.7657217154
  0
LWPOLYLINE
  5
254
100
AcDbEntity
  8
ASSI
100
AcDbPolyline
 62
7
  6
CONTINUOUS
 90
3
 70
0
 10
146.0765996077
 20
105.1720162346
 10
146.1661268969
 20
105.264112876
 10
146.2411627966
 20
105.329435777
  0
LWPOLYLINE
  5
255
100
AcDbEntity
  8
0
100
AcDbPolyline
 62
7
  6
CONTINUOUS
 90
3
 70
0
 10
146.2831468541
 20
105.3451966133
 10
146.2368091451
 20
105.3048589629
 10
146.1473349691
 20
105.2128712459
  0
LWPOLYLINE
  5
256
100
AcDbEntity
  8
0
100
AcDbPolyline
 62
7
  6
CONTINUOUS
 90
5
 70
0
 10
146.0186949505
 20
105.2261200901
 10
146.046054824
 20
105.2415247918
 10
146.1584818477
 20
105.2970649792
 10
146.2759692839
 20
105.3430630246
 10
146.3982251455
 20
105.379404533
  0
LWPOLYLINE
  5
257
100
AcDbEntity
  8
ASSI
100
AcDbPolyline
 62
7
  6
CONTINUOUS
 90
45
 70
0
 10
150.4136390175
 20
97.7835007493
 10
150.2869187327
 20
97.7569062198
 10
150.1560490493
 20
97.740124845
 10
150.0213552595
 20
97.7331984042
 10
149.8831722761
 20
97.7361441851
 10
149.7418438085
 20
97.7489549007
 10
149.5977212579
 20
97.7715987172
 10
149.4511629155
 20
97.8040193601
 10
149.3025332469
 20
97.8461362177
 10
149.1522018072
 20
97.8978445727
 10
149.0005423355
 20
97.9590158752
 10
148.8479319149
 20
98.0294980331
 10
148.6947499769
 20
98.1091158096
 10
148.5413773699
 20
98.1976712561
 10
148.3881954308
 20
98.2949441938
 10
148.2355850072
 20
98.400692778
 10
148.0839255316
 20
98.5146540873
 10
147.9335940891
 20
98.6365447666
 10
147.7849644186
 20
98.7660617814
 10
147.6384060756
 20
98.9028830959
 10
147.4942835298
 20
99.046668442
 10
147.3529550746
 20
99.1970603452
 10
147.2147721087
 20
99.3536848519
 10
147.0800783382
 20
99.5161523453
 10
146.9492086781
 20
99.6840587862
 10
146.8224884183
 20
99.8569867583
 10
146.700232575
 20
100.034506316
 10
146.5827451492
 20
100.2161759675
 10
146.4703181316
 20
100.4015441357
 10
146.3632307982
 20
100.5901503236
 10
146.2617493404
 20
100.7815257206
 10
146.1661261197
 20
100.9751944361
 10
146.0765988359
 20
101.1706750665
 10
145.993389966
 20
101.3674819
 10
145.9167065325
 20
101.5651253516
 10
145.8467394593
 20
101.7631132643
 10
145.783662593
 20
101.9609535283
 10
145.7276327329
 20
102.1581541532
 10
145.6787893729
 20
102.3542237321
 10
145.6372537196
 20
102.5486749804
 10
145.6031288678
 20
102.7410243959
 10
145.5764996288
 20
102.9307923748
 10
145.5574318578
 20
103.1175068222
 10
145.5459724885
 20
103.3007042624
 10
145.5421496177
 20
103.4799295001
  0
LWPOLYLINE
  5
258
100
AcDbEntity
  8
0
100
AcDbPolyline
 62
7
  6
CONTINUOUS
 90
64
 70
0
 10
151.2697145453
 20
99.2747011888
 10
151.2653649979
 20
99.0790365688
 10
151.252598867
 20
98.8896928446
 10
151.2314161525
 20
98.7066700163
 10
151.2017227155
 20
98.5295444609
 10
151.1636126951
 20
98.3587398013
 10
151.1173685082
 20
98.1955269063
 10
151.0629293875
 20
98.039962619
 10
151.0003561005
 20
97.8919900963
 10
150.930113367
 20
97.7527096767
 10
150.8521439799
 20
97.6221863225
 10
150.7665051465
 20
97.5003550715
 10
150.673833208
 20
97.3881213758
 10
150.5740758939
 20
97.2855569089
 10
150.4672854748
 20
97.1925899974
 10
150.3542551036
 20
97.1099110731
 10
150.2349383916
 20
97.0375967145
 10
150.1093817275
 20
96.9755703431
 10
149.9785174294
 20
96.9242926554
 10
149.8423058973
 20
96.8838436166
 10
149.7007867313
 20
96.8541432614
 10
149.5550110501
 20
96.8354123902
 10
149.4049470909
 20
96.827732707
 10
149.2506266165
 20
96.8310225078
 10
149.0931960344
 20
96.8452574812
 10
148.9326321973
 20
96.8705191631
 10
148.7689582525
 20
96.9067260177
 10
148.6033900492
 20
96.9536091257
 10
148.435913502
 20
97.0112479949
 10
148.2665426963
 20
97.0795631175
 10
148.0965357366
 20
97.1580470513
 10
147.9258878884
 20
97.2467755205
 10
147.7546038862
 20
97.3456728009
 10
147.5839560392
 20
97.4540042775
 10
147.4139490818
 20
97.5718402072
 10
147.2445782795
 20
97.6991103332
 10
147.0771017373
 20
97.8348692705
 10
146.9115335383
 20
97.979180264
 10
146.7478595995
 20
98.1319800687
 10
146.5872957764
 20
98.2921335646
 10
146.4298652174
 20
98.4596955581
 10
146.275544774
 20
98.6346112427
 10
146.1254808573
 20
98.8155810785
 10
145.9797052393
 20
99.0026500758
 10
145.8381861478
 20
99.1957732243
 10
145.7019746779
 20
99.3935159528
 10
145.5711104204
 20
99.5959125062
 10
145.4455537845
 20
99.8029286397
 10
145.3262370919
 20
100.013027048
 10
145.213206723
 20
100.226230763
 10
145.1064162975
 20
100.4425167529
 10
145.0066589967
 20
100.6602786163
 10
144.9139870997
 20
100.8795276622
 10
144.8283483275
 20
101.1002525817
 10
144.750379024
 20
101.3208130471
 10
144.6801364046
 20
101.5412079436
 10
144.617563254
 20
101.7614383859
 10
144.5631242694
 20
101.9798673904
 10
144.5168802195
 20
102.1964816108
 10
144.4787703357
 20
102.4112943934
 10
144.4490770094
 20
102.6227087925
 10
144.4278943713
 20
102.8301924931
 10
144.4151282907
 20
103.0342778103
 10
144.4107787678
 20
103.2349647441
  0
LINE
  5
259
100
AcDbEntity
  8
ASSI
100
AcDbLine
 62
7
  6
CONTINUOUS
 10
183.5840632656
 20
122.7063616586
 11
184.0083280261
 21
122.9513252165
  0
LINE
  5
25A
100
AcDbEntity
  8
0
100
AcDbLine
 62
7
  6
CONTINUOUS
 10
179.5221309727
 20
120.3610665583
 11
183.5840639574
 21
122.7063604605
  0
LWPOLYLINE
  5
25B
100
AcDbEntity
  8
0
100
AcDbPolyline
 62
7
  6
CONTINUOUS
 90
3
 70
0
 10
163.7212244042
 20
96.0177110572
 10
163.8738348248
 20
95.9472288993
 10
163.9297627595
 20
95.9181598206
  0
LWPOLYLINE
  5
25C
100
AcDbEntity
  8
0
100
AcDbPolyline
 62
7
  6
CONTINUOUS
 90
33
 70
0
 10
131.9300132659
 20
114.4010831482
 10
132.0159868501
 20
114.350171482
 10
132.1866346972
 20
114.2418400053
 10
132.3566416546
 20
114.1240040756
 10
132.5260124569
 20
113.9967339496
 10
132.6934889991
 20
113.8609750124
 10
132.8590571981
 20
113.7166640189
 10
133.0227311369
 20
113.5638642141
 10
133.1832949599
 20
113.4037107182
 10
133.340725519
 20
113.2361487247
 10
133.4950459623
 20
113.0612330401
 10
133.645109879
 20
112.8802632043
 10
133.7908854971
 20
112.693194207
 10
133.9324045886
 20
112.5000710586
 10
134.0686160585
 20
112.30232833
 10
134.199480316
 20
112.0999317766
 10
134.3250369519
 20
111.8929156431
 10
134.4443536445
 20
111.6828172349
 10
134.5573840134
 20
111.4696135198
 10
134.6641744389
 20
111.25332753
 10
134.7639317397
 20
111.0355656665
 10
134.8566036366
 20
110.8163166206
 10
134.9422424088
 20
110.5955917011
 10
135.0202117124
 20
110.3750312358
 10
135.0904543317
 20
110.1546363393
 10
135.1530274824
 20
109.9344058969
 10
135.207466467
 20
109.7159768925
 10
135.2537105169
 20
109.499362672
 10
135.2918204007
 20
109.2845498895
 10
135.3215137269
 20
109.0731354903
 10
135.3426963651
 20
108.8656517897
 10
135.3554624456
 20
108.6615664725
 10
135.3598119686
 20
108.4608795387
  0
LWPOLYLINE
  5
25D
100
AcDbEntity
  8
0
100
AcDbPolyline
 62
7
  6
CONTINUOUS
 90
33
 70
0
 10
147.8399158426
 20
105.2149047983
 10
147.9258894268
 20
105.1639931321
 10
148.0965372739
 20
105.0556616554
 10
148.2665442313
 20
104.9378257257
 10
148.4359150336
 20
104.8105555997
 10
148.6033915758
 20
104.6747966625
 10
148.7689597748
 20
104.530485669
 10
148.9326337136
 20
104.3776858642
 10
149.0931975366
 20
104.2175323684
 10
149.2506280957
 20
104.0499703748
 10
149.404948539
 20
103.8750546902
 10
149.5550124557
 20
103.6940848545
 10
149.7007880738
 20
103.5070158572
 10
149.8423071653
 20
103.3138927087
 10
149.9785186352
 20
103.1161499801
 10
150.1093828927
 20
102.9137534268
 10
150.2349395286
 20
102.7067372933
 10
150.3542562211
 20
102.496638885
 10
150.4672865901
 20
102.2834351699
 10
150.5740770156
 20
102.0671491801
 10
150.6738343164
 20
101.8493873167
 10
150.7665062133
 20
101.6301382707
 10
150.8521449855
 20
101.4094133512
 10
150.9301142891
 20
101.1888528859
 10
151.0003569084
 20
100.9684579894
 10
151.0629300591
 20
100.748227547
 10
151.1173690437
 20
100.5297985426
 10
151.1636130936
 20
100.3131843221
 10
151.2017229774
 20
100.0983715396
 10
151.2314163036
 20
99.8869571404
 10
151.2525989418
 20
99.6794734398
 10
151.2653650223
 20
99.4753881226
 10
151.2697145453
 20
99.2747011888
  0
LWPOLYLINE
  5
25E
100
AcDbEntity
  8
0
100
AcDbPolyline
 62
7
  6
CONTINUOUS
 90
33
 70
0
 10
163.7498184193
 20
96.0287264485
 10
163.8357920035
 20
95.9778147822
 10
164.0064398506
 20
95.8694833056
 10
164.176446808
 20
95.7516473759
 10
164.3458176103
 20
95.6243772499
 10
164.5132941525
 20
95.4886183126
 10
164.6788623514
 20
95.3443073191
 10
164.8425362903
 20
95.1915075143
 10
165.0031001133
 20
95.0313540185
 10
165.1605306724
 20
94.863792025
 10
165.3148511157
 20
94.6888763404
 10
165.4649150324
 20
94.5079065046
 10
165.6106906505
 20
94.3208375073
 10
165.752209742
 20
94.1277143588
 10
165.8884212119
 20
93.9299716303
 10
166.0192854694
 20
93.7275750769
 10
166.1448421053
 20
93.5205589434
 10
166.2641587978
 20
93.3104605351
 10
166.3771891668
 20
93.0972568201
 10
166.4839795923
 20
92.8809708302
 10
166.5837368931
 20
92.6632089668
 10
166.67640879
 20
92.4439599209
 10
166.7620475622
 20
92.2232350014
 10
166.8400168658
 20
92.002674536
 10
166.9102594851
 20
91.7822796395
 10
166.9728326358
 20
91.5620491972
 10
167.0272716204
 20
91.3436201927
 10
167.0735156703
 20
91.1270059723
 10
167.1116255541
 20
90.9121931897
 10
167.1413188803
 20
90.7007787905
 10
167.1625015185
 20
90.49329509
 10
167.175267599
 20
90.2892097728
 10
167.179617122
 20
90.088522839
  0
LINE
  5
25F
100
AcDbEntity
  8
0
100
AcDbLine
 62
7
  6
CONTINUOUS
 10
116.8641771328
 20
155.7220164712
 11
116.8645524403
 21
155.7213801097
  0
LINE
  5
260
100
AcDbEntity
  8
0
100
AcDbLine
 62
7
  6
CONTINUOUS
 10
179.5217685425
 20
47.1958984725
 11
179.5221309727
 21
47.1952570348
  0
LINE
  5
261
100
AcDbEntity
  8
0
100
AcDbLine
 62
7
  6
CONTINUOUS
 10
151.2645549352
 20
99.4883386038
 11
151.2544322424
 21
99.3381999634
  0
LWPOLYLINE
  5
262
100
AcDbEntity
  8
0
100
AcDbPolyline
 62
7
  6
CONTINUOUS
 90
11
 70
0
 10
151.2544322424
 20
99.3381999634
 10
151.2353644021
 20
99.1735042525
 10
151.2087350764
 20
99.0144868641
 10
151.174610127
 20
98.8615438437
 10
151.1330743729
 20
98.7150568578
 10
151.0842309173
 20
98.5753903569
 10
151.0282009724
 20
98.4428916487
 10
150.9651240337
 20
98.3178910411
 10
150.8951569077
 20
98.2006994548
 10
150.8184734434
 20
98.0916082368
 10
150.7352645552
 20
97.9908890477
  0
LWPOLYLINE
  5
263
100
AcDbEntity
  8
0
100
AcDbPolyline
 62
7
  6
CONTINUOUS
 90
5
 70
0
 10
150.7352645552
 20
97.9908890477
 10
150.6457372661
 20
97.8987924063
 10
150.5501140544
 20
97.8155471115
 10
150.4486326047
 20
97.7413600647
 10
150.3689051437
 20
97.6918204362
  0
LINE
  5
264
100
AcDbEntity
  8
ASSI
100
AcDbLine
 62
7
  6
CONTINUOUS
 10
184.2916005349
 20
121.4808711612
 11
184.7158652954
 21
121.7258347191
  0
LINE
  5
265
100
AcDbEntity
  8
0
100
AcDbLine
 62
7
  6
CONTINUOUS
 10
180.229668242
 20
119.1355760609
 11
184.2916012267
 21
121.4808699631
  0
LWPOLYLINE
  5
266
100
AcDbEntity
  8
0
100
AcDbPolyline
 62
7
  6
CONTINUOUS
 90
49
 70
0
 10
150.3689051437
 20
97.6918204362
 10
150.3415452703
 20
97.6764157345
 10
150.2291182466
 20
97.6208755471
 10
150.1116308103
 20
97.5748775016
 10
149.9893749488
 20
97.5385359933
 10
149.862654664
 20
97.5119414638
 10
149.7317849806
 20
97.495160089
 10
149.5970911908
 20
97.4882336482
 10
149.4589082074
 20
97.4911794291
 10
149.3175797398
 20
97.5039901448
 10
149.1734571892
 20
97.5266339612
 10
149.0268988468
 20
97.5590546041
 10
148.8782691782
 20
97.6011714617
 10
148.7279377385
 20
97.6528798167
 10
148.5762782668
 20
97.7140511192
 10
148.4236678462
 20
97.7845332771
 10
148.2704859082
 20
97.8641510536
 10
148.1171133012
 20
97.9527065001
 10
147.9639313621
 20
98.0499794378
 10
147.8113209385
 20
98.155728022
 10
147.6596614629
 20
98.2696893313
 10
147.5093300204
 20
98.3915800106
 10
147.3607003498
 20
98.5210970254
 10
147.2141420069
 20
98.6579183399
 10
147.0700194611
 20
98.801703686
 10
146.9286910059
 20
98.9520955892
 10
146.79050804
 20
99.1087200959
 10
146.6558142695
 20
99.2711875894
 10
146.5249446094
 20
99.4390940302
 10
146.3982243496
 20
99.6120220023
 10
146.2759685063
 20
99.78954156
 10
146.1584810805
 20
99.9712112115
 10
146.0460540629
 20
100.1565793797
 10
145.9389667295
 20
100.3451855676
 10
145.8374852717
 20
100.5365609646
 10
145.741862051
 20
100.7302296801
 10
145.6523347672
 20
100.9257103105
 10
145.5691258973
 20
101.122517144
 10
145.4924424638
 20
101.3201605956
 10
145.4224753906
 20
101.5181485083
 10
145.3593985243
 20
101.7159887723
 10
145.3033686642
 20
101.9131893972
 10
145.2545253042
 20
102.1092589761
 10
145.2129896509
 20
102.3037102244
 10
145.1788647991
 20
102.4960596399
 10
145.15223556
 20
102.6858276188
 10
145.1331677891
 20
102.8725420662
 10
145.1217084197
 20
103.0557395064
 10
145.117885549
 20
103.2349647441
  0
LWPOLYLINE
  5
267
100
AcDbEntity
  8
ASSI
100
AcDbPolyline
 62
7
  6
CONTINUOUS
 90
3
 70
0
 10
150.5707013664
 20
97.8334695053
 10
150.535894879
 20
97.8198422576
 10
150.4136390175
 20
97.7835007493
  0
LINE
  5
268
100
AcDbEntity
  8
0
100
AcDbLine
 62
7
  6
CONTINUOUS
 10
146.3982251455
 20
105.379404533
 11
146.5249454303
 21
105.4059990625
  0
LWPOLYLINE
  5
269
100
AcDbEntity
  8
0
100
AcDbPolyline
 62
7
  6
CONTINUOUS
 90
10
 70
0
 10
146.5249454303
 20
105.4059990625
 10
146.6558151137
 20
105.4227804373
 10
146.7905089035
 20
105.4297068781
 10
146.9286918868
 20
105.4267610971
 10
147.0700203545
 20
105.4139503815
 10
147.2141429051
 20
105.3913065651
 10
147.3607012475
 20
105.3588859222
 10
147.509330916
 20
105.3167690646
 10
147.6596623558
 20
105.2650607096
 10
147.8113218275
 20
105.2038894071
  0
LWPOLYLINE
  5
26A
100
AcDbEntity
  8
0
100
AcDbPolyline
 62
7
  6
CONTINUOUS
 90
3
 70
0
 10
147.8113218275
 20
105.2038894071
 10
147.9639322481
 20
105.1334072492
 10
148.0198601828
 20
105.1043381705
  0
LWPOLYLINE
  5
26B
100
AcDbEntity
  8
0
100
AcDbPolyline
 62
7
  6
CONTINUOUS
 90
3
 70
0
 10
131.9014192508
 20
114.390067757
 10
132.0540296714
 20
114.3195855991
 10
132.1099576062
 20
114.2905165204
  0
LINE
  5
26C
100
AcDbEntity
  8
0
100
AcDbLine
 62
7
  6
CONTINUOUS
 10
178.512231825
 20
119.2831532236
 11
179.5217685425
 21
120.3364478194
  0
LINE
  5
26D
100
AcDbEntity
  8
0
100
AcDbLine
 62
7
  6
CONTINUOUS
 10
178.7912077592
 20
118.7999527321
 11
180.2081668901
 21
119.1475710083
  0
LWPOLYLINE
  5
26E
100
AcDbEntity
  8
ASSI
100
AcDbPolyline
 62
7
  6
CONTINUOUS
 90
45
 70
0
 10
134.5037364408
 20
106.9696790992
 10
134.377016156
 20
106.9430845697
 10
134.2461464726
 20
106.9263031948
 10
134.1114526828
 20
106.919376754
 10
133.9732696994
 20
106.922322535
 10
133.8319412318
 20
106.9351332506
 10
133.6878186812
 20
106.957777067
 10
133.5412603388
 20
106.9901977099
 10
133.3926306702
 20
107.0323145676
 10
133.2422992305
 20
107.0840229226
 10
133.0906397588
 20
107.1451942251
 10
132.9380293382
 20
107.215676383
 10
132.7848474002
 20
107.2952941594
 10
132.6314747932
 20
107.383849606
 10
132.4782928541
 20
107.4811225437
 10
132.3256824305
 20
107.5868711279
 10
132.1740229549
 20
107.7008324372
 10
132.0236915124
 20
107.8227231165
 10
131.8750618419
 20
107.9522401313
 10
131.7285034989
 20
108.0890614457
 10
131.5843809531
 20
108.2328467918
 10
131.4430524979
 20
108.3832386951
 10
131.304869532
 20
108.5398632017
 10
131.1701757615
 20
108.7023306952
 10
131.0393061014
 20
108.8702371361
 10
130.9125858416
 20
109.0431651082
 10
130.7903299983
 20
109.2206846658
 10
130.6728425725
 20
109.4023543173
 10
130.5604155549
 20
109.5877224855
 10
130.4533282215
 20
109.7763286734
 10
130.3518467637
 20
109.9677040705
 10
130.256223543
 20
110.161372786
 10
130.1666962592
 20
110.3568534164
 10
130.0834873893
 20
110.5536602499
 10
130.0068039558
 20
110.7513037014
 10
129.9368368826
 20
110.9492916141
 10
129.8737600163
 20
111.1471318781
 10
129.8177301562
 20
111.3443325031
 10
129.7688867962
 20
111.540402082
 10
129.7273511429
 20
111.7348533303
 10
129.6932262911
 20
111.9272027457
 10
129.6665970521
 20
112.1169707246
 10
129.6475292811
 20
112.303685172
 10
129.6360699118
 20
112.4868826122
 10
129.632247041
 20
112.66610785
  0
LWPOLYLINE
  5
26F
100
AcDbEntity
  8
0
100
AcDbPolyline
 62
7
  6
CONTINUOUS
 90
46
 70
0
 10
161.5227628725
 20
94.3345786096
 10
161.5266654133
 20
94.1545630344
 10
161.5381172211
 20
93.9715024627
 10
161.557118296
 20
93.7853968942
 10
161.5837532746
 20
93.5957692923
 10
161.6179375202
 20
93.4030966937
 10
161.6594171233
 20
93.2088102089
 10
161.7082464059
 20
93.0128978207
 10
161.7643710459
 20
92.8153715462
 10
161.8273741675
 20
92.6176985474
 10
161.8973069886
 20
92.4198777319
 10
161.9741182913
 20
92.2219101921
 10
162.0572375458
 20
92.0252663675
 10
162.1467117218
 20
91.8299561148
 10
162.2424938496
 20
91.6359695774
 10
162.3438724902
 20
91.4447476251
 10
162.4508893158
 20
91.2563108435
 10
162.5635026543
 20
91.0706386471
 10
162.6808760497
 20
90.8891101496
 10
162.8030449459
 20
90.7117562055
 10
162.9299738991
 20
90.5385459602
 10
163.0607201216
 20
90.3707659641
 10
163.1953120372
 20
90.2084566515
 10
163.333721222
 20
90.051577588
 10
163.474919617
 20
89.9012940212
 10
163.618927991
 20
89.7576550618
 10
163.765725575
 20
89.6206115992
 10
163.9142220038
 20
89.4911815481
 10
164.0644299269
 20
89.3694215991
 10
164.2163366947
 20
89.2552750618
 10
164.3688139923
 20
89.1495897801
 10
164.521866068
 20
89.0524287574
 10
164.6754886734
 20
88.9637289904
 10
164.828540749
 20
88.8841493125
 10
164.9810180466
 20
88.813757633
 10
165.1329248144
 20
88.7524860425
 10
165.2831327376
 20
88.7007896469
 10
165.4316291663
 20
88.6587397443
 10
165.5784267504
 20
88.6262650364
 10
165.7224351243
 20
88.6036067353
 10
165.8636335193
 20
88.5908379348
 10
166.0020427042
 20
88.587885541
 10
166.1366346197
 20
88.5947714832
 10
166.2673808422
 20
88.6115690188
 10
166.3943097954
 20
88.6382048905
 10
166.5094342043
 20
88.6723894924
  0
LWPOLYLINE
  5
270
100
AcDbEntity
  8
ASSI
100
AcDbPolyline
 62
7
  6
CONTINUOUS
 90
44
 70
0
 10
161.9470269412
 20
94.5795433656
 10
161.950929482
 20
94.3995277904
 10
161.9623812898
 20
94.2164672187
 10
161.9813823648
 20
94.0303616502
 10
162.0080173433
 20
93.8407340483
 10
162.0422015889
 20
93.6480614497
 10
162.083681192
 20
93.4537749649
 10
162.1325104746
 20
93.2578625767
 10
162.1886351146
 20
93.0603363022
 10
162.2516382362
 20
92.8626633034
 10
162.3215710573
 20
92.6648424879
 10
162.39838236
 20
92.4668749481
 10
162.4815016145
 20
92.2702311235
 10
162.5709757905
 20
92.0749208708
 10
162.6667579183
 20
91.8809343334
 10
162.7681365589
 20
91.6897123811
 10
162.8751533846
 20
91.5012755995
 10
162.987766723
 20
91.3156034031
 10
163.1051401184
 20
91.1340749056
 10
163.2273090146
 20
90.9567209615
 10
163.3542379678
 20
90.7835107162
 10
163.4849841903
 20
90.6157307201
 10
163.6195761059
 20
90.4534214075
 10
163.7579852907
 20
90.296542344
 10
163.8991836858
 20
90.1462587772
 10
164.0431920597
 20
90.0026198178
 10
164.1899896438
 20
89.8655763552
 10
164.3384860725
 20
89.7361463041
 10
164.4886939956
 20
89.6143863551
 10
164.6406007635
 20
89.5002398178
 10
164.7930780611
 20
89.394554536
 10
164.9461301367
 20
89.2973935134
 10
165.0997527421
 20
89.2086937464
 10
165.2528048177
 20
89.1291140685
 10
165.4052821153
 20
89.0587223889
 10
165.5571888831
 20
88.9974507985
 10
165.7073968063
 20
88.9457544029
 10
165.855893235
 20
88.9037045002
 10
166.0026908191
 20
88.8712297924
 10
166.146699193
 20
88.8485714913
 10
166.287897588
 20
88.8358026908
 10
166.4263067729
 20
88.832850297
 10
166.5608986885
 20
88.8397362392
 10
166.6875455244
 20
88.8560071088
  0
LWPOLYLINE
  5
271
100
AcDbEntity
  8
0
100
AcDbPolyline
 62
7
  6
CONTINUOUS
 90
17
 70
0
 10
161.0277881257
 20
94.0487863942
 10
161.0316110132
 20
94.2235974537
 10
161.0430704286
 20
94.393562213
 10
161.0621382689
 20
94.5582579239
 10
161.0887675946
 20
94.7172753123
 10
161.122892544
 20
94.8702183328
 10
161.1644282981
 20
95.0167053186
 10
161.2132717536
 20
95.1563718195
 10
161.2693016986
 20
95.2888705277
 10
161.3323786372
 20
95.4138711353
 10
161.4023457633
 20
95.5310627216
 10
161.4790292276
 20
95.6401539396
 10
161.5622381157
 20
95.7408731288
 10
161.6517654048
 20
95.8329697701
 10
161.7473886166
 20
95.9162150649
 10
161.8488700663
 20
95.9904021118
 10
161.9285975272
 20
96.0399417402
  0
LWPOLYLINE
  5
272
100
AcDbEntity
  8
ASSI
100
AcDbPolyline
 62
7
  6
CONTINUOUS
 90
13
 70
0
 10
161.4520521944
 20
94.2937511502
 10
161.4558750819
 20
94.4685622097
 10
161.4673344973
 20
94.638526969
 10
161.4864023376
 20
94.8032226799
 10
161.5130316633
 20
94.9622400683
 10
161.5471566127
 20
95.1151830887
 10
161.5886923668
 20
95.2616700746
 10
161.6375358223
 20
95.4013365755
 10
161.6935657673
 20
95.5338352837
 10
161.7566427059
 20
95.6588358913
 10
161.826609832
 20
95.7760274776
 10
161.9032932963
 20
95.8851186956
 10
161.9865021844
 20
95.9858378848
  0
LWPOLYLINE
  5
273
100
AcDbEntity
  8
0
100
AcDbPolyline
 62
7
  6
CONTINUOUS
 90
33
 70
0
 10
160.3206813445
 20
94.0487863942
 10
160.3250308919
 20
94.2444510143
 10
160.3377970228
 20
94.4337947385
 10
160.3589797372
 20
94.6168175668
 10
160.3886731742
 20
94.7939431222
 10
160.4267831947
 20
94.9647477818
 10
160.4730273815
 20
95.1279606768
 10
160.5274665023
 20
95.2835249641
 10
160.5900397893
 20
95.4314974868
 10
160.6602825228
 20
95.5707779064
 10
160.7382519098
 20
95.7013012606
 10
160.8238907433
 20
95.8231325116
 10
160.9165626818
 20
95.9353662073
 10
161.0163199958
 20
96.0379306741
 10
161.1231104149
 20
96.1308975857
 10
161.2361407862
 20
96.21357651
 10
161.3554574982
 20
96.2858908686
 10
161.4810141623
 20
96.3479172399
 10
161.6118784604
 20
96.3991949277
 10
161.7480899925
 20
96.4396439665
 10
161.8896091585
 20
96.4693443217
 10
162.0353848397
 20
96.4880751929
 10
162.1854487989
 20
96.4957548761
 10
162.3397692733
 20
96.4924650753
 10
162.4971998554
 20
96.4782301019
 10
162.6577636924
 20
96.45296842
 10
162.8214376372
 20
96.4167615654
 10
162.9870058406
 20
96.3698784574
 10
163.1544823878
 20
96.3122395882
 10
163.3238531935
 20
96.2439244656
 10
163.4938601531
 20
96.1654405318
 10
163.6645080014
 20
96.0767120626
 10
163.7498184193
 20
96.0287264485
  0
LWPOLYLINE
  5
274
100
AcDbEntity
  8
0
100
AcDbPolyline
 62
7
  6
CONTINUOUS
 90
13
 70
0
 10
162.0572375458
 20
96.026692896
 10
161.9741182913
 20
95.9260331031
 10
161.8973069886
 20
95.8167653303
 10
161.8273741675
 20
95.6997011836
 10
161.7643710459
 20
95.5747826104
 10
161.7082464059
 20
95.4420676635
 10
161.6594171233
 20
95.3025421068
 10
161.6179375202
 20
95.1561552279
 10
161.5837532746
 20
95.0029577393
 10
161.557118296
 20
94.844087543
 10
161.5381172211
 20
94.6799239396
 10
161.5266654133
 20
94.5100876284
 10
161.5227628725
 20
94.3345786096
  0
LWPOLYLINE
  5
275
100
AcDbEntity
  8
ASSI
100
AcDbPolyline
 62
7
  6
CONTINUOUS
 90
13
 70
0
 10
162.439153435
 20
96.2203727962
 10
162.39838236
 20
96.1709978591
 10
162.3215710573
 20
96.0617300862
 10
162.2516382362
 20
95.9446659396
 10
162.1886351146
 20
95.8197473664
 10
162.1325104746
 20
95.6870324194
 10
162.083681192
 20
95.5475068628
 10
162.0422015889
 20
95.4011199839
 10
162.0080173433
 20
95.2479224953
 10
161.9813823648
 20
95.089052299
 10
161.9623812898
 20
94.9248886956
 10
161.950929482
 20
94.7550523844
 10
161.9470269412
 20
94.5795433656
  0
LWPOLYLINE
  5
276
100
AcDbEntity
  8
ASSI
100
AcDbPolyline
 62
7
  6
CONTINUOUS
 90
3
 70
0
 10
161.9865021844
 20
95.9858378848
 10
162.0760294736
 20
96.0779345261
 10
162.1510653733
 20
96.1432574271
  0
LWPOLYLINE
  5
277
100
AcDbEntity
  8
0
100
AcDbPolyline
 62
7
  6
CONTINUOUS
 90
3
 70
0
 10
162.1930494308
 20
96.1590182635
 10
162.1467117218
 20
96.118680613
 10
162.0572375458
 20
96.026692896
  0
LWPOLYLINE
  5
278
100
AcDbEntity
  8
0
100
AcDbPolyline
 62
7
  6
CONTINUOUS
 90
5
 70
0
 10
161.9285975272
 20
96.0399417402
 10
161.9559574007
 20
96.0553464419
 10
162.0683844244
 20
96.1108866293
 10
162.1858718606
 20
96.1568846748
 10
162.3081277222
 20
96.1932261831
  0
LWPOLYLINE
  5
279
100
AcDbEntity
  8
0
100
AcDbPolyline
 62
7
  6
CONTINUOUS
 90
64
 70
0
 10
167.179617122
 20
90.088522839
 10
167.1752675746
 20
89.8928582189
 10
167.1625014437
 20
89.7035144947
 10
167.1413187292
 20
89.5204916664
 10
167.1116252922
 20
89.343366111
 10
167.0735152718
 20
89.1725614515
 10
167.0272710849
 20
89.0093485564
 10
166.9728319642
 20
88.8537842692
 10
166.9102586772
 20
88.7058117464
 10
166.8400159437
 20
88.5665313268
 10
166.7620465566
 20
88.4360079726
 10
166.6764077232
 20
88.3141767216
 10
166.5837357847
 20
88.2019430259
 10
166.4839784706
 20
88.0993785591
 10
166.3771880515
 20
88.0064116475
 10
166.2641576803
 20
87.9237327232
 10
166.1448409683
 20
87.8514183646
 10
166.0192843042
 20
87.7893919933
 10
165.8884200061
 20
87.7381143055
 10
165.752208474
 20
87.6976652667
 10
165.610689308
 20
87.6679649115
 10
165.4649136268
 20
87.6492340403
 10
165.3148496676
 20
87.6415543571
 10
165.1605291932
 20
87.6448441579
 10
165.0030986111
 20
87.6590791313
 10
164.842534774
 20
87.6843408132
 10
164.6788608292
 20
87.7205476678
 10
164.5132926259
 20
87.7674307758
 10
164.3458160787
 20
87.825069645
 10
164.176445273
 20
87.8933847676
 10
164.0064383133
 20
87.9718687014
 10
163.8357904651
 20
88.0605971706
 10
163.6645064629
 20
88.159494451
 10
163.4938586159
 20
88.2678259277
 10
163.3238516585
 20
88.3856618573
 10
163.1544808562
 20
88.5129319833
 10
162.987004314
 20
88.6486909206
 10
162.821436115
 20
88.7930019141
 10
162.6577621762
 20
88.9458017189
 10
162.4971983531
 20
89.1059552147
 10
162.3397677941
 20
89.2735172082
 10
162.1854473507
 20
89.4484328928
 10
162.035383434
 20
89.6294027286
 10
161.889607816
 20
89.8164717259
 10
161.7480887245
 20
90.0095948744
 10
161.6118772546
 20
90.2073376029
 10
161.4810129971
 20
90.4097341563
 10
161.3554563612
 20
90.6167502898
 10
161.2361396686
 20
90.8268486981
 10
161.1231092997
 20
91.0400524131
 10
161.0163188742
 20
91.256338403
 10
160.9165615734
 20
91.4741002664
 10
160.8238896764
 20
91.6933493123
 10
160.7382509042
 20
91.9140742319
 10
160.6602816007
 20
92.1346346972
 10
160.5900389813
 20
92.3550295937
 10
160.5274658307
 20
92.575260036
 10
160.4730268461
 20
92.7936890405
 10
160.4267827962
 20
93.0103032609
 10
160.3886729124
 20
93.2251160435
 10
160.3589795861
 20
93.4365304427
 10
160.337796948
 20
93.6440141433
 10
160.3250308674
 20
93.8480994605
 10
160.3206813445
 20
94.0487863942
  0
LINE
  5
27A
100
AcDbEntity
  8
0
100
AcDbLine
 62
7
  6
CONTINUOUS
 10
167.1744575119
 20
90.3021602539
 11
167.1643348191
 21
90.1520216136
  0
LWPOLYLINE
  5
27B
100
AcDbEntity
  8
0
100
AcDbPolyline
 62
7
  6
CONTINUOUS
 90
11
 70
0
 10
167.1643348191
 20
90.1520216136
 10
167.1452669788
 20
89.9873259026
 10
167.1186376531
 20
89.8283085142
 10
167.0845127037
 20
89.6753654938
 10
167.0429769496
 20
89.5288785079
 10
166.994133494
 20
89.389212007
 10
166.9381035491
 20
89.2567132988
 10
166.8750266104
 20
89.1317126912
 10
166.8050594844
 20
89.014521105
 10
166.7283760201
 20
88.9054298869
 10
166.6451671319
 20
88.8047106978
  0
LINE
  5
27C
100
AcDbEntity
  8
0
100
AcDbLine
 62
7
  6
CONTINUOUS
 10
130.4883225688
 20
114.5655828828
 11
130.6150428536
 21
114.5921774123
  0
LWPOLYLINE
  5
27D
100
AcDbEntity
  8
0
100
AcDbPolyline
 62
7
  6
CONTINUOUS
 90
10
 70
0
 10
130.6150428536
 20
114.5921774123
 10
130.745912537
 20
114.6089587872
 10
130.8806063268
 20
114.615885228
 10
131.0187893101
 20
114.612939447
 10
131.1601177778
 20
114.6001287314
 10
131.3042403284
 20
114.577484915
 10
131.4507986708
 20
114.5450642721
 10
131.5994283393
 20
114.5029474144
 10
131.7497597791
 20
114.4512390595
 10
131.9014192508
 20
114.390067757
  0
LWPOLYLINE
  5
27E
100
AcDbEntity
  8
0
100
AcDbPolyline
 62
7
  6
CONTINUOUS
 90
5
 70
0
 10
166.6451671319
 20
88.8047106978
 10
166.5556398428
 20
88.7126140564
 10
166.4600166311
 20
88.6293687616
 10
166.3585351814
 20
88.5551817148
 10
166.2788077204
 20
88.5056420863
  0
LWPOLYLINE
  5
27F
100
AcDbEntity
  8
0
100
AcDbPolyline
 62
7
  6
CONTINUOUS
 90
49
 70
0
 10
166.2788077204
 20
88.5056420863
 10
166.251447847
 20
88.4902373846
 10
166.1390208233
 20
88.4346971972
 10
166.021533387
 20
88.3886991518
 10
165.8992775255
 20
88.3523576434
 10
165.7725572407
 20
88.3257631139
 10
165.6416875573
 20
88.3089817391
 10
165.5069937675
 20
88.3020552983
 10
165.3688107841
 20
88.3050010793
 10
165.2274823165
 20
88.3178117949
 10
165.0833597659
 20
88.3404556113
 10
164.9368014235
 20
88.3728762542
 10
164.7881717549
 20
88.4149931118
 10
164.6378403152
 20
88.4667014668
 10
164.4861808435
 20
88.5278727693
 10
164.3335704229
 20
88.5983549272
 10
164.1803884849
 20
88.6779727037
 10
164.0270158779
 20
88.7665281502
 10
163.8738339388
 20
88.863801088
 10
163.7212235152
 20
88.9695496721
 10
163.5695640396
 20
89.0835109815
 10
163.4192325971
 20
89.2054016608
 10
163.2706029265
 20
89.3349186756
 10
163.1240445836
 20
89.47173999
 10
162.9799220378
 20
89.6155253361
 10
162.8385935826
 20
89.7659172393
 10
162.7004106167
 20
89.922541746
 10
162.5657168462
 20
90.0850092395
 10
162.4348471861
 20
90.2529156804
 10
162.3081269263
 20
90.4258436525
 10
162.185871083
 20
90.6033632101
 10
162.0683836572
 20
90.7850328616
 10
161.9559566396
 20
90.9704010298
 10
161.8488693062
 20
91.1590072177
 10
161.7473878484
 20
91.3503826147
 10
161.6517646277
 20
91.5440513303
 10
161.5622373439
 20
91.7395319606
 10
161.479028474
 20
91.9363387941
 10
161.4023450405
 20
92.1339822457
 10
161.3323779673
 20
92.3319701584
 10
161.269301101
 20
92.5298104224
 10
161.2132712409
 20
92.7270110473
 10
161.1644278809
 20
92.9230806263
 10
161.1228922276
 20
93.1175318745
 10
161.0887673758
 20
93.30988129
 10
161.0621381367
 20
93.4996492689
 10
161.0430703658
 20
93.6863637163
 10
161.0316109964
 20
93.8695611565
 10
161.0277881257
 20
94.0487863942
  0
LWPOLYLINE
  5
280
100
AcDbEntity
  8
ASSI
100
AcDbPolyline
 62
7
  6
CONTINUOUS
 90
3
 70
0
 10
166.4806039431
 20
88.6472911554
 10
166.4457974557
 20
88.6336639078
 10
166.3235415942
 20
88.5973223994
  0
LINE
  5
281
100
AcDbEntity
  8
0
100
AcDbLine
 62
7
  6
CONTINUOUS
 10
178.7912077592
 20
47.9683191328
 11
178.7912077592
 21
118.7999527321
  0
LINE
  5
282
100
AcDbEntity
  8
0
100
AcDbLine
 62
7
  6
CONTINUOUS
 10
180.229668242
 20
47.6037012287
 11
180.229668242
 21
119.1355760609
  0
LINE
  5
283
100
AcDbEntity
  8
0
100
AcDbLine
 62
7
  6
CONTINUOUS
 10
179.5221309727
 20
120.3610665583
 11
179.5217685425
 21
120.3364478194
  0
LINE
  5
284
100
AcDbEntity
  8
0
100
AcDbLine
 62
7
  6
CONTINUOUS
 10
180.2081668901
 20
119.1475710083
 11
180.229668242
 21
119.1355760609
  0
LINE
  5
285
100
AcDbEntity
  8
0
100
AcDbLine
 62
7
  6
CONTINUOUS
 10
178.512231825
 20
119.2831532236
 11
117.168261488
 21
154.7023928757
  0
LINE
  5
286
100
AcDbEntity
  8
0
100
AcDbLine
 62
7
  6
CONTINUOUS
 10
179.5221309727
 20
120.3610665583
 11
117.5717144021
 21
156.1304606651
  0
LINE
  5
287
100
AcDbEntity
  8
0
100
AcDbLine
 62
7
  6
CONTINUOUS
 10
184.2916012267
 20
49.632479743
 11
184.2916012267
 21
121.4808699631
  0
LINE
  5
288
100
AcDbEntity
  8
ASSI
100
AcDbLine
 62
7
  6
CONTINUOUS
 10
184.7158652954
 20
49.877444499
 11
184.7158652954
 21
121.7258347191
  0
LINE
  5
289
100
AcDbEntity
  8
0
100
AcDbLine
 62
7
  6
CONTINUOUS
 10
183.5840639574
 20
122.7063604605
 11
121.3595281892
 21
158.6340275564
  0
LINE
  5
28A
100
AcDbEntity
  8
ASSI
100
AcDbLine
 62
7
  6
CONTINUOUS
 10
184.0083280261
 20
122.9513252165
 11
121.7837922579
 21
158.8789923124
  0
LINE
  5
28B
100
AcDbEntity
  8
0
100
AcDbLine
 62
7
  6
CONTINUOUS
 10
178.7912077592
 20
118.7999527321
 11
178.512231825
 21
119.2831532236
  0
LINE
  5
28C
100
AcDbEntity
  8
0
100
AcDbLine
 62
7
  6
CONTINUOUS
 10
180.2081668901
 20
119.1475710083
 11
179.5217685425
 21
120.3364478194
  0
LINE
  5
28D
100
AcDbEntity
  8
0
100
AcDbLine
 62
7
  6
CONTINUOUS
 10
183.5840639574
 20
122.7063604605
 11
184.2916012267
 21
121.4808699631
  0
LINE
  5
28E
100
AcDbEntity
  8
ASSI
100
AcDbLine
 62
7
  6
CONTINUOUS
 10
184.0083280261
 20
122.9513252165
 11
184.7158652954
 21
121.7258347191
  0
LINE
  5
28F
100
AcDbEntity
  8
0
100
AcDbLine
 62
7
  6
CONTINUOUS
 10
178.512231825
 20
47.8072730572
 11
178.7912077592
 21
47.9683191328
  0
LINE
  5
290
100
AcDbEntity
  8
0
100
AcDbLine
 62
7
  6
CONTINUOUS
 10
179.5217685425
 20
47.1958984725
 11
180.2081668901
 21
47.592139677
  0
LINE
  5
291
100
AcDbEntity
  8
ASSI
100
AcDbLine
 62
7
  6
CONTINUOUS
 10
184.7158652954
 20
49.877444499
 11
184.2915807266
 21
49.6325152547
  0
LINE
  5
292
100
AcDbEntity
  8
0
100
AcDbLine
 62
7
  6
CONTINUOUS
 10
184.2916012267
 20
49.632479743
 11
183.5840639574
 21
49.2240355491
  0
LINE
  5
293
100
AcDbEntity
  8
0
100
AcDbLine
 62
7
  6
CONTINUOUS
 10
180.229668242
 20
47.6037012287
 11
180.2081668901
 21
47.592139677
  0
LINE
  5
294
100
AcDbEntity
  8
ASSI
100
AcDbLine
 62
7
  6
CONTINUOUS
 10
184.2916012267
 20
49.6655409963
 11
184.7158652954
 21
49.877444499
  0
LINE
  5
295
100
AcDbEntity
  8
0
100
AcDbLine
 62
7
  6
CONTINUOUS
 10
180.229668242
 20
47.6037012287
 11
184.2916012267
 21
49.632479743
  0
LINE
  5
296
100
AcDbEntity
  8
0
100
AcDbLine
 62
7
  6
CONTINUOUS
 10
179.5221309727
 20
47.1952570348
 11
183.5840639574
 21
49.2240355491
  0
ENDSEC
  0
SECTION
  2
OBJECTS
  0
DICTIONARY
  5
C
100
AcDbDictionary
280
0
281
1
  3
ACAD_GROUP
350
D
  3
ACAD_MLINESTYLE
350
17
  3
ACAD_LAYOUT
350
1A
  3
ACAD_PLOTSETTINGS
350
19
  3
ACAD_PLOTSTYLENAME
350
E
  0
DICTIONARY
  5
D
102
{ACAD_REACTORS
330
C
102
}
100
AcDbDictionary
280
0
281
1
  0
ACDBDICTIONARYWDFLT
  5
E
102
{ACAD_REACTORS
330
C
102
}
100
AcDbDictionary
281
1
  3
Normal
350
F
100
AcDbDictionaryWithDefault
340
F
  0
DICTIONARY
  5
17
102
{ACAD_REACTORS
330
C
102
}
100
AcDbDictionary
280
0
281
1
  3
Standard
350
18
  0
DICTIONARY
  5
19
102
{ACAD_REACTORS
330
C
102
}
100
AcDbDictionary
281
1
  0
DICTIONARY
  5
1A
102
{ACAD_REACTORS
330
C
102
}
100
AcDbDictionary
281
1
  3
Model
350
297
  3
Layout1
350
298
  0
ACDBPLACEHOLDER
  5
F
102
{ACAD_REACTORS
330
E
102
}
  0
MLINESTYLE
  5
18
102
{ACAD_REACTORS
330
17
102
}
100
AcDbMlineStyle
  2
STANDARD
 70
0
  3

 62
256
 51
90.0
 52
90.0
 71
2
 49
0.5
 62
256
  6
BYLAYER
 49
-0.5
 62
256
  6
BYLAYER
  0
LAYOUT
  5
297
102
{ACAD_REACTORS
330
1A
102
}
100
AcDbPlotSettings
  1

  2
none_device
  4
ISO_A4_(297.00_x_210.00_MM)
  6

 40
0.0
 41
0.0
 42
0.0
 43
0.0
 44
297.0
 45
210.0
 46
0.0
 47
0.0
 48
0.0
 49
0.0
140
0.0
141
0.0
142
1.0
143
1.0
 70
1024
 72
1
 73
0
 74
0
  7

 75
0
147
1.0
148
0.0
149
0.0
100
AcDbLayout
  1
Model
 70
0
 71
0
 10
0.0
 20
0.0
 11
297.0
 21
210.0
 12
0.0
 22
0.0
 32
0.0
 14
0.0
 24
0.0
 34
0.0
 15
0.0
 25
0.0
 35
0.0
146
0.0
 13
0.0
 23
0.0
 33
0.0
 16
1.0
 26
0.0
 36
0.0
 17
0.0
 27
1.0
 37
0.0
 76
0
330
21E
345
0
346
0
  0
LAYOUT
  5
298
102
{ACAD_REACTORS
330
1A
102
}
100
AcDbPlotSettings
  1

  2
none_device
  4
ISO_A4_(297.00_x_210.00_MM)
  6

 40
0.0
 41
0.0
 42
0.0
 43
0.0
 44
297.0
 45
210.0
 46
0.0
 47
0.0
 48
0.0
 49
0.0
140
0.0
141
0.0
142
1.0
143
1.0
 70
0
 72
1
 73
0
 74
0
  7

 75
0
147
1.0
148
0.0
149
0.0
100
AcDbLayout
  1
Layout1
 70
0
 71
1
 10
0.0
 20
0.0
 11
297.0
 21
210.0
 12
0.0
 22
0.0
 32
0.0
 14
0.0
 24
0.0
 34
0.0
 15
0.0
 25
0.0
 35
0.0
146
0.0
 13
0.0
 23
0.0
 33
0.0
 16
1.0
 26
0.0
 36
0.0
 17
0.0
 27
1.0
 37
0.0
 76
0
330
21F
345
0
346
0
  0
ENDSEC
  0
EOF
