  0
SECTION
  2
HEADER
  9
$ACADVER
  1
AC1024
  9
$DWGCODEPAGE
  3
ANSI_1252
  9
$EXTMAX
 10
297.0
 20
210.0
 30
0.0
  9
$EXTMIN
 10
0.0
 20
0.0
 30
0.0
  9
$LIMMIN
 10
0.0
 20
0.0
  9
$LIMMAX
 10
297.0
 20
210.0
  9
$VIEWCTR
 10
148.5
 20
105.0
  9
$VIEWSIZE
 40
210.0
  9
$CLAYER
  8
0
  9
$LTSCALE
 40
16.335
  9
$CELTYPE
  6
BYLAYER
  9
$DIMSCALE
 40
1.0
  9
$DIMASZ
 40
3.0
  9
$DIMEXO
 40
0.5
  9
$DIMDLI
 40
11.286
  9
$DIMEXE
 40
1.5
  9
$DIMCEN
 40
2.673
  9
$DIMLFAC
 40
1.0
  9
$DIMBLK
  1
_FILLED
  9
$DIMALT
 70
0
  9
$DIMALTF
 40
0.0393700787
  9
$DIMTXT
 40
3.0
  9
$DIMTOL
 70
1
  9
$DIMLIM
 70
0
  9
$DIMTFAC
 40
1.0
  9
$DIMTP
 40
0.01
  9
$DIMTM
 40
0.01
  9
$DIMGAP
 40
0.625
  9
$DIMDSEP
 70
44
  9
$AUNITS
 70
0
  9
$PDMODE
 70
3
  9
$PDSIZE
 40
3.0
  9
$HANDSEED
  5
3EC
  9
$TILEMODE
 70
1
  9
$MEASUREMENT
 70
1
  9
$INSUNITS
 70
4
  0
ENDSEC
  0
SECTION
  2
CLASSES
  0
CLASS
  1
ACDBDICTIONARYWDFLT
  2
AcDbDictionaryWithDefault
  3
AutoCAD 2000
 90
0
 91
1
280
0
281
0
  0
CLASS
  1
ACDBPLACEHOLDER
  2
AcDbPlaceHolder
  3
AutoCAD 2000
 90
0
 91
1
280
0
281
0
  0
CLASS
  1
LAYOUT
  2
AcDbLayout
  3
AutoCAD 2000
 90
0
 91
0
280
0
281
0
  0
ENDSEC
  0
SECTION
  2
TABLES
  0
TABLE
  2
VPORT
  5
8
100
AcDbSymbolTable
 70
2
  0
VPORT
  5
1F4
100
AcDbSymbolTableRecord
100
AcDbViewportTableRecord
  2
*ACTIVE
 70
0
 10
0.0
 20
0.0
 11
1.0
 21
1.0
 12
148.5
 22
105.0
 13
0.0
 23
0.0
 14
1.0
 24
1.0
 15
0.0
 25
0.0
 16
0.0
 26
0.0
 36
1.0
 17
0.0
 27
0.0
 37
0.0
 40
210.0
 41
1.4142857143
 42
50.0
 43
0.0
 44
0.0
 50
0.0
 51
0.0
 71
0
 72
100
 73
1
 74
1
 75
0
 76
0
 77
0
 78
0
  0
ENDTAB
  0
TABLE
  2
LTYPE
  5
5
100
AcDbSymbolTable
 70
6
  0
LTYPE
  5
14
100
AcDbSymbolTableRecord
100
AcDbLinetypeTableRecord
  2
BYBLOCK
 70
0
  3

 72
65
 73
0
 40
0.0
  0
LTYPE
  5
15
100
AcDbSymbolTableRecord
100
AcDbLinetypeTableRecord
  2
BYLAYER
 70
0
  3

 72
65
 73
0
 40
0.0
  0
LTYPE
  5
16
100
AcDbSymbolTableRecord
100
AcDbLinetypeTableRecord
  2
CONTINUOUS
 70
64
  3
Solid line
 72
65
 73
0
 40
0.0
  0
LTYPE
  5
1F5
100
AcDbSymbolTableRecord
100
AcDbLinetypeTableRecord
  2
CENTER
 70
64
  3
____ _ ____ _ ____ _ ____ _ ____ _ ____ _ ____
 72
65
 73
4
 40
0.6
 49
0.375
 74
0
 49
-0.075
 74
0
 49
0.075
 74
0
 49
-0.075
 74
0
  0
LTYPE
  5
1F6
100
AcDbSymbolTableRecord
100
AcDbLinetypeTableRecord
  2
HIDDEN
 70
64
  3
- - - - - - - - - - - - - - - - - - - -
 72
65
 73
2
 40
0.2
 49
0.1
 74
0
 49
-0.1
 74
0
  0
LTYPE
  5
1F7
100
AcDbSymbolTableRecord
100
AcDbLinetypeTableRecord
  2
PHANTOM
 70
64
  3
_____ _ _ _____ _ _ _____ _ _ _____
 72
65
 73
6
 40
0.8
 49
0.45
 74
0
 49
-0.05
 74
0
 49
0.1
 74
0
 49
-0.05
 74
0
 49
0.1
 74
0
 49
-0.05
 74
0
  0
LTYPE
  5
1F8
100
AcDbSymbolTableRecord
100
AcDbLinetypeTableRecord
  2
DOT
 70
64
  3
. . . . . . . . . . . . . . . . . . . .
 72
65
 73
2
 40
0.2
 49
0.1
 74
0
 49
-0.1
 74
0
  0
LTYPE
  5
1F9
100
AcDbSymbolTableRecord
100
AcDbLinetypeTableRecord
  2
DASHED
 70
64
  3
- - - - - - - - - - - - - - - - - - - -
 72
65
 73
2
 40
0.2
 49
0.1
 74
0
 49
-0.1
 74
0
  0
ENDTAB
  0
TABLE
  2
LAYER
  5
2
100
AcDbSymbolTable
 70
36
  0
LAYER
  5
10
100
AcDbSymbolTableRecord
100
AcDbLayerTableRecord
  2
0
 70
0
 62
7
  6
CONTINUOUS
370
-3
390
F
  0
LAYER
  5
1FA
100
AcDbSymbolTableRecord
100
AcDbLayerTableRecord
  2
DEFAULT_1
 70
0
 62
7
  6
CENTER
370
-3
390
F
  0
LAYER
  5
1FB
100
AcDbSymbolTableRecord
100
AcDbLayerTableRecord
  2
DEFAULT_2
 70
0
 62
7
  6
HIDDEN
370
-3
390
F
  0
LAYER
  5
1FC
100
AcDbSymbolTableRecord
100
AcDbLayerTableRecord
  2
DEFAULT_3
 70
0
 62
7
  6
PHANTOM
370
-3
390
F
  0
LAYER
  5
1FD
100
AcDbSymbolTableRecord
100
AcDbLayerTableRecord
  2
ASSI
 70
0
 62
7
  6
CONTINUOUS
370
-3
390
F
  0
LAYER
  5
1FE
100
AcDbSymbolTableRecord
100
AcDbLayerTableRecord
  2
COORDINATE
 70
0
 62
7
  6
CONTINUOUS
370
-3
390
F
  0
LAYER
  5
1FF
100
AcDbSymbolTableRecord
100
AcDbLayerTableRecord
  2
COORD_ORIGINE
 70
0
 62
7
  6
CONTINUOUS
370
-3
390
F
  0
LAYER
  5
200
100
AcDbSymbolTableRecord
100
AcDbLayerTableRecord
  2
COPY_PUBLISH
 70
0
 62
7
  6
CONTINUOUS
370
-3
390
F
  0
LAYER
  5
201
100
AcDbSymbolTableRecord
100
AcDbLayerTableRecord
  2
COSMETIC
 70
0
 62
7
  6
CONTINUOUS
370
-3
390
F
  0
LAYER
  5
202
100
AcDbSymbolTableRecord
100
AcDbLayerTableRecord
  2
COSMETICI
 70
0
 62
7
  6
CONTINUOUS
370
-3
390
F
  0
LAYER
  5
203
100
AcDbSymbolTableRecord
100
AcDbLayerTableRecord
  2
CURVE
 70
0
 62
7
  6
CONTINUOUS
370
-3
390
F
  0
LAYER
  5
204
100
AcDbSymbolTableRecord
100
AcDbLayerTableRecord
  2
CURVE_COSTRUZIONE
 70
0
 62
7
  6
CONTINUOUS
370
-3
390
F
  0
LAYER
  5
205
100
AcDbSymbolTableRecord
100
AcDbLayerTableRecord
  2
CURVE_TASSELLI
 70
0
 62
7
  6
CONTINUOUS
370
-3
390
F
  0
LAYER
  5
206
100
AcDbSymbolTableRecord
100
AcDbLayerTableRecord
  2
DRAFT
 70
0
 62
7
  6
CONTINUOUS
370
-3
390
F
  0
LAYER
  5
207
100
AcDbSymbolTableRecord
100
AcDbLayerTableRecord
  2
IMPORT_IGES
 70
0
 62
7
  6
CONTINUOUS
370
-3
390
F
  0
LAYER
  5
208
100
AcDbSymbolTableRecord
100
AcDbLayerTableRecord
  2
INTFCLR_2
 70
0
 62
7
  6
CONTINUOUS
370
-3
390
F
  0
LAYER
  5
209
100
AcDbSymbolTableRecord
100
AcDbLayerTableRecord
  2
INTF_1
 70
0
 62
7
  6
CONTINUOUS
370
-3
390
F
  0
LAYER
  5
20A
100
AcDbSymbolTableRecord
100
AcDbLayerTableRecord
  2
INTF_6
 70
0
 62
7
  6
CONTINUOUS
370
-3
390
F
  0
LAYER
  5
20B
100
AcDbSymbolTableRecord
100
AcDbLayerTableRecord
  2
INTF_7
 70
0
 62
7
  6
CONTINUOUS
370
-3
390
F
  0
LAYER
  5
20C
100
AcDbSymbolTableRecord
100
AcDbLayerTableRecord
  2
INTF_CYAN
 70
0
 62
7
  6
CONTINUOUS
370
-3
390
F
  0
LAYER
  5
20D
100
AcDbSymbolTableRecord
100
AcDbLayerTableRecord
  2
LIVELLO_1
 70
0
 62
7
  6
CONTINUOUS
370
-3
390
F
  0
LAYER
  5
20E
100
AcDbSymbolTableRecord
100
AcDbLayerTableRecord
  2
NOTE
 70
0
 62
7
  6
CONTINUOUS
370
-3
390
F
  0
LAYER
  5
20F
100
AcDbSymbolTableRecord
100
AcDbLayerTableRecord
  2
PIANI
 70
0
 62
7
  6
CONTINUOUS
370
-3
390
F
  0
LAYER
  5
210
100
AcDbSymbolTableRecord
100
AcDbLayerTableRecord
  2
PIANI_ORIGINE
 70
0
 62
7
  6
CONTINUOUS
370
-3
390
F
  0
LAYER
  5
211
100
AcDbSymbolTableRecord
100
AcDbLayerTableRecord
  2
PIANI_RIFERIMENTO
 70
0
 62
7
  6
CONTINUOUS
370
-3
390
F
  0
LAYER
  5
212
100
AcDbSymbolTableRecord
100
AcDbLayerTableRecord
  2
PUNTI
 70
0
 62
7
  6
CONTINUOUS
370
-3
390
F
  0
LAYER
  5
213
100
AcDbSymbolTableRecord
100
AcDbLayerTableRecord
  2
RACCORDO
 70
0
 62
7
  6
CONTINUOUS
370
-3
390
F
  0
LAYER
  5
214
100
AcDbSymbolTableRecord
100
AcDbLayerTableRecord
  2
RGB__255__255__255__
 70
0
 62
7
  6
CONTINUOUS
370
-3
390
F
  0
LAYER
  5
215
100
AcDbSymbolTableRecord
100
AcDbLayerTableRecord
  2
RGB____0____0____0__
 70
0
 62
7
  6
CONTINUOUS
370
-3
390
F
  0
LAYER
  5
216
100
AcDbSymbolTableRecord
100
AcDbLayerTableRecord
  2
SIMBOLI
 70
0
 62
7
  6
CONTINUOUS
370
-3
390
F
  0
LAYER
  5
217
100
AcDbSymbolTableRecord
100
AcDbLayerTableRecord
  2
SMUSSO
 70
0
 62
7
  6
CONTINUOUS
370
-3
390
F
  0
LAYER
  5
218
100
AcDbSymbolTableRecord
100
AcDbLayerTableRecord
  2
SUPERFICI
 70
0
 62
7
  6
CONTINUOUS
370
-3
390
F
  0
LAYER
  5
219
100
AcDbSymbolTableRecord
100
AcDbLayerTableRecord
  2
TRASH
 70
0
 62
7
  6
CONTINUOUS
370
-3
390
F
  0
LAYER
  5
21A
100
AcDbSymbolTableRecord
100
AcDbLayerTableRecord
  2
WHITE
 70
0
 62
7
  6
CONTINUOUS
370
-3
390
F
  0
LAYER
  5
21B
100
AcDbSymbolTableRecord
100
AcDbLayerTableRecord
  2
XSEC_DATUMS
 70
0
 62
7
  6
CONTINUOUS
370
-3
390
F
  0
ENDTAB
  0
TABLE
  2
STYLE
  5
3
100
AcDbSymbolTable
 70
1
  0
STYLE
  5
11
100
AcDbSymbolTableRecord
100
AcDbTextStyleTableRecord
  2
STANDARD
 70
0
 40
0.0
 41
0.8
 50
0.0
 71
0
 42
0.2
  3
txt
  4

  0
STYLE
  5
21C
100
AcDbSymbolTableRecord
100
AcDbTextStyleTableRecord
  2
TEXTSTYLE_1
 70
0
 40
0.0
 41
0.8
 50
0.0
 71
0
 42
0.2
  3
gdt
  4

  0
ENDTAB
  0
TABLE
  2
VIEW
  5
6
100
AcDbSymbolTable
 70
0
  0
ENDTAB
  0
TABLE
  2
UCS
  5
7
100
AcDbSymbolTable
 70
0
  0
ENDTAB
  0
TABLE
  2
APPID
  5
9
100
AcDbSymbolTable
 70
1
  0
APPID
  5
21D
100
AcDbSymbolTableRecord
100
AcDbRegAppTableRecord
  2
ACAD
 70
0
  0
ENDTAB
  0
TABLE
  2
BLOCK_RECORD
  5
1
100
AcDbSymbolTable
 70
0
  0
BLOCK_RECORD
  5
21E
100
AcDbSymbolTableRecord
100
AcDbBlockTableRecord
  2
*Model_Space
  0
BLOCK_RECORD
  5
21F
100
AcDbSymbolTableRecord
100
AcDbBlockTableRecord
  2
*Paper_Space
  0
BLOCK_RECORD
  5
220
100
AcDbSymbolTableRecord
100
AcDbBlockTableRecord
  2
_FILLED
  0
ENDTAB
  0
TABLE
  2
DIMSTYLE
  5
A
100
AcDbSymbolTable
 70
1
100
AcDbDimStyleTable
 71
0
  0
DIMSTYLE
105
221
100
AcDbSymbolTableRecord
100
AcDbDimStyleTableRecord
  2
STANDARD
 70
0
  3

  4

 40
1.0
 41
3.0
 42
0.5
 43
0.38
 44
1.5
 45
0.0
 46
0.0
 47
0.01
 48
0.01
140
3.0
141
0.09
142
0.0
143
25.4
144
1.0
145
0.0
146
1.0
147
0.625
 71
1
 72
0
 73
0
 74
0
 75
0
 76
0
 77
1
 78
8
 79
2
170
0
171
1
172
0
173
0
174
0
175
0
176
0
177
0
178
0
270
2
179
2
271
2
272
2
273
2
274
2
275
0
280
0
281
0
282
0
283
1
284
8
285
0
286
0
287
3
288
0
340
11
278
44
341
220
342
220
343
220
344
220
  0
ENDTAB
  0
ENDSEC
  0
SECTION
  2
BLOCKS
  0
BLOCK
  5
20
100
AcDbEntity
  8
0
100
AcDbBlockBegin
  2
*Model_Space
 70
0
 10
0.0
 20
0.0
 30
0.0
  3
*Model_Space
  1

  0
ENDBLK
  5
21
100
AcDbEntity
  8
0
100
AcDbBlockEnd
  0
BLOCK
  5
1C
100
AcDbEntity
  8
0
100
AcDbBlockBegin
  2
*Paper_Space
 70
0
 10
0.0
 20
0.0
 30
0.0
  3
*Paper_Space
  1

  0
ENDBLK
  5
1D
100
AcDbEntity
  8
0
100
AcDbBlockEnd
  0
BLOCK
  5
222
100
AcDbEntity
  8
0
100
AcDbBlockBegin
  2
_FILLED
 70
64
 10
0.0
 20
0.0
  3
_FILLED
  1

  0
SOLID
  5
223
100
AcDbEntity
  8
0
  6
BYBLOCK
 62
0
100
AcDbTrace
 10
0.0
 20
0.0
 11
-1.0
 21
0.3166666667
 12
-1.0
 22
-0.3166666667
 13
-1.0
 23
-0.3166666667
  0
ENDBLK
  5
224
100
AcDbEntity
  8
0
  6
BYBLOCK
 62
0
100
AcDbBlockEnd
  0
ENDSEC
  0
SECTION
  2
ENTITIES
  0
LINE
  5
225
100
AcDbEntity
  8
0
100
AcDbLine
 62
7
  6
CONTINUOUS
 10
-33.713712047
 20
52.8073741756
 11
-29.9258982598
 21
55.3109410669
  0
LINE
  5
226
100
AcDbEntity
  8
ASSI
100
AcDbLine
 62
7
  6
CONTINUOUS
 10
-33.713712047
 20
52.8073741756
 11
-29.9258982598
 21
55.3109410669
  0
LINE
  5
227
100
AcDbEntity
  8
0
100
AcDbLine
 62
7
  6
CONTINUOUS
 10
-33.0061747777
 20
53.2158183695
 11
-29.2183609905
 21
55.7193852608
  0
LINE
  5
228
100
AcDbEntity
  8
ASSI
100
AcDbLine
 62
7
  6
CONTINUOUS
 10
-33.0061747777
 20
53.2158183695
 11
-29.2183609905
 21
55.7193852608
  0
LINE
  5
229
100
AcDbEntity
  8
0
100
AcDbLine
 62
7
  6
CONTINUOUS
 10
-33.0269383918
 20
53.2029790185
 11
-33.0061747777
 21
53.2158183695
  0
LINE
  5
22A
100
AcDbEntity
  8
ASSI
100
AcDbLine
 62
7
  6
CONTINUOUS
 10
-33.0269383918
 20
53.2029790185
 11
-33.0061747777
 21
53.2158183695
  0
LINE
  5
22B
100
AcDbEntity
  8
0
100
AcDbLine
 62
7
  6
CONTINUOUS
 10
-29.9258982598
 20
55.3109410669
 11
-29.2183609905
 21
55.7193852608
  0
LINE
  5
22C
100
AcDbEntity
  8
ASSI
100
AcDbLine
 62
7
  6
CONTINUOUS
 10
-29.9258982598
 20
55.3109410669
 11
-29.2183609905
 21
55.7193852608
  0
LINE
  5
22D
100
AcDbEntity
  8
0
100
AcDbLine
 62
7
  6
CONTINUOUS
 10
-33.0269383918
 20
53.2029790185
 11
-33.7133367395
 21
52.8067378141
  0
LINE
  5
22E
100
AcDbEntity
  8
ASSI
100
AcDbLine
 62
7
  6
CONTINUOUS
 10
-33.0269383918
 20
53.2029790185
 11
-33.7133367395
 21
52.8067378141
  0
LINE
  5
22F
100
AcDbEntity
  8
0
100
AcDbLine
 62
7
  6
CONTINUOUS
 10
-33.4096276917
 20
51.7877505801
 11
-33.6886036258
 21
51.6267045045
  0
LINE
  5
230
100
AcDbEntity
  8
ASSI
100
AcDbLine
 62
7
  6
CONTINUOUS
 10
-33.4096276917
 20
51.7877505801
 11
-33.6886036258
 21
51.6267045045
  0
LINE
  5
231
100
AcDbEntity
  8
CURVE
100
AcDbLine
 62
250
  6
CONTINUOUS
 10
32.0411322287
 20
-48.8463758992
 11
30.7827314074
 21
-49.1229986991
  0
LINE
  5
232
100
AcDbEntity
  8
CURVE
100
AcDbLine
 62
250
  6
CONTINUOUS
 10
30.7827314074
 20
-48.6972617039
 11
32.6109225841
 21
-48.3689685114
  0
LINE
  5
233
100
AcDbEntity
  8
CURVE
100
AcDbLine
 62
250
  6
CONTINUOUS
 10
31.2850719363
 20
-44.6382971314
 11
31.9635370636
 21
-44.4851225515
  0
LINE
  5
234
100
AcDbEntity
  8
CURVE
100
AcDbLine
 62
250
  6
CONTINUOUS
 10
32.2459507582
 20
-44.4202106124
 11
32.6109225841
 21
-44.3412594007
  0
LINE
  5
235
100
AcDbEntity
  8
CURVE
100
AcDbLine
 62
250
  6
CONTINUOUS
 10
32.6109225841
 20
-44.7626650212
 11
30.7827314074
 21
-45.1068295793
  0
LINE
  5
236
100
AcDbEntity
  8
CURVE
100
AcDbLine
 62
250
  6
CONTINUOUS
 10
31.7977486871
 20
-46.3057887178
 11
30.7827314074
 21
-46.4262684078
  0
LINE
  5
237
100
AcDbEntity
  8
CURVE
100
AcDbLine
 62
250
  6
CONTINUOUS
 10
31.4221246946
 20
-45.9739366547
 11
32.6109225841
 21
-45.8404082359
  0
LINE
  5
238
100
AcDbEntity
  8
0
100
AcDbLine
 62
7
  6
CONTINUOUS
 10
-33.4096276917
 20
51.7877505801
 11
-33.0269383918
 21
53.2029790185
  0
LINE
  5
239
100
AcDbEntity
  8
ASSI
100
AcDbLine
 62
7
  6
CONTINUOUS
 10
-33.4096276917
 20
51.7877505801
 11
-33.0269383918
 21
53.2029790185
  0
LINE
  5
23A
100
AcDbEntity
  8
0
100
AcDbLine
 62
7
  6
CONTINUOUS
 10
28.2133185794
 20
-54.9463231628
 11
29.6302777103
 21
-55.3225026187
  0
LINE
  5
23B
100
AcDbEntity
  8
ASSI
100
AcDbLine
 62
7
  6
CONTINUOUS
 10
28.2133185794
 20
-54.9463231628
 11
29.6302777103
 21
-55.3225026187
  0
LINE
  5
23C
100
AcDbEntity
  8
0
100
AcDbLine
 62
7
  6
CONTINUOUS
 10
-33.6886036258
 20
-19.2049290948
 11
-33.4096276917
 21
-19.6881295863
  0
LINE
  5
23D
100
AcDbEntity
  8
ASSI
100
AcDbLine
 62
7
  6
CONTINUOUS
 10
-33.6886036258
 20
-19.2049290948
 11
-33.4096276917
 21
-19.6881295863
  0
LINE
  5
23E
100
AcDbEntity
  8
0
100
AcDbLine
 62
7
  6
CONTINUOUS
 10
-33.6886036258
 20
-19.2049290948
 11
-33.7133367395
 21
-18.7486935173
  0
LINE
  5
23F
100
AcDbEntity
  8
ASSI
100
AcDbLine
 62
7
  6
CONTINUOUS
 10
-33.6886036258
 20
-19.2049290948
 11
-33.7133367395
 21
-18.7486935173
  0
LINE
  5
240
100
AcDbEntity
  8
0
100
AcDbLine
 62
7
  6
CONTINUOUS
 10
-33.4096276917
 20
-19.6881295863
 11
-33.0269383918
 21
-19.9375703284
  0
LINE
  5
241
100
AcDbEntity
  8
ASSI
100
AcDbLine
 62
7
  6
CONTINUOUS
 10
-33.4096276917
 20
-19.6881295863
 11
-33.0269383918
 21
-19.9375703284
  0
LINE
  5
242
100
AcDbEntity
  8
0
100
AcDbLine
 62
7
  6
CONTINUOUS
 10
-33.6886036258
 20
51.6267045045
 11
-33.7133367395
 21
52.8067378141
  0
LINE
  5
243
100
AcDbEntity
  8
ASSI
100
AcDbLine
 62
7
  6
CONTINUOUS
 10
-33.6886036258
 20
51.6267045045
 11
-33.7133367395
 21
52.8067378141
  0
LINE
  5
244
100
AcDbEntity
  8
0
100
AcDbLine
 62
7
  6
CONTINUOUS
 10
-33.7133367395
 20
-18.7486935173
 11
-33.713712047
 21
-18.7245006566
  0
LINE
  5
245
100
AcDbEntity
  8
ASSI
100
AcDbLine
 62
7
  6
CONTINUOUS
 10
-33.7133367395
 20
-18.7486935173
 11
-33.713712047
 21
-18.7245006566
  0
LINE
  5
246
100
AcDbEntity
  8
0
100
AcDbLine
 62
7
  6
CONTINUOUS
 10
-33.713712047
 20
52.8073741756
 11
-33.713712047
 21
-18.7245006566
  0
LINE
  5
247
100
AcDbEntity
  8
ASSI
100
AcDbLine
 62
7
  6
CONTINUOUS
 10
-33.713712047
 20
52.8073741756
 11
-33.713712047
 21
-18.7245006566
  0
LINE
  5
248
100
AcDbEntity
  8
0
100
AcDbLine
 62
7
  6
CONTINUOUS
 10
-33.6886036258
 20
51.6267045045
 11
-33.6886036258
 21
-19.2049290948
  0
LINE
  5
249
100
AcDbEntity
  8
ASSI
100
AcDbLine
 62
7
  6
CONTINUOUS
 10
-33.6886036258
 20
51.6267045045
 11
-33.6886036258
 21
-19.2049290948
  0
LINE
  5
24A
100
AcDbEntity
  8
0
100
AcDbLine
 62
7
  6
CONTINUOUS
 10
-33.0061747777
 20
-19.949991154
 11
28.9442417929
 21
-55.7193852608
  0
LINE
  5
24B
100
AcDbEntity
  8
ASSI
100
AcDbLine
 62
7
  6
CONTINUOUS
 10
-33.0061747777
 20
-19.949991154
 11
28.9442417929
 21
-55.7193852608
  0
LINE
  5
24C
100
AcDbEntity
  8
0
100
AcDbLine
 62
7
  6
CONTINUOUS
 10
-33.4096276917
 20
-19.6881295863
 11
27.9343426453
 21
-55.1073692384
  0
LINE
  5
24D
100
AcDbEntity
  8
ASSI
100
AcDbLine
 62
7
  6
CONTINUOUS
 10
-33.4096276917
 20
-19.6881295863
 11
27.9343426453
 21
-55.1073692384
  0
LINE
  5
24E
100
AcDbEntity
  8
0
100
AcDbLine
 62
7
  6
CONTINUOUS
 10
-33.0061747777
 20
-19.949991154
 11
-33.0269383918
 21
-19.9375703284
  0
LINE
  5
24F
100
AcDbEntity
  8
ASSI
100
AcDbLine
 62
7
  6
CONTINUOUS
 10
-33.0061747777
 20
-19.949991154
 11
-33.0269383918
 21
-19.9375703284
  0
LINE
  5
250
100
AcDbEntity
  8
0
100
AcDbLine
 62
7
  6
CONTINUOUS
 10
27.9343426453
 20
-55.1073692384
 11
28.9438793627
 21
-55.7187438231
  0
LINE
  5
251
100
AcDbEntity
  8
ASSI
100
AcDbLine
 62
7
  6
CONTINUOUS
 10
27.9343426453
 20
-55.1073692384
 11
28.9438793627
 21
-55.7187438231
  0
LINE
  5
252
100
AcDbEntity
  8
0
100
AcDbLine
 62
250
  6
CONTINUOUS
 10
-23.4993617351
 20
17.0236468971
 11
-23.7387139244
 21
16.5078813779
  0
LINE
  5
253
100
AcDbEntity
  8
ASSI
100
AcDbLine
 62
250
  6
CONTINUOUS
 10
-23.4993617351
 20
17.0236468971
 11
-23.7387139244
 21
16.5078813779
  0
LINE
  5
254
100
AcDbEntity
  8
0
100
AcDbLine
 62
250
  6
CONTINUOUS
 10
-23.8801352807
 20
16.4262264592
 11
-23.7387139244
 21
16.5078813779
  0
LINE
  5
255
100
AcDbEntity
  8
ASSI
100
AcDbLine
 62
250
  6
CONTINUOUS
 10
-23.8801352807
 20
16.4262264592
 11
-23.7387139244
 21
16.5078813779
  0
LINE
  5
256
100
AcDbEntity
  8
0
100
AcDbLine
 62
7
  6
CONTINUOUS
 10
-24.5872420619
 20
5.4855247502
 11
-24.5872420619
 21
16.4262264592
  0
LINE
  5
257
100
AcDbEntity
  8
ASSI
100
AcDbLine
 62
7
  6
CONTINUOUS
 10
-24.5872420619
 20
5.4855247502
 11
-24.5872420619
 21
16.4262264592
  0
LINE
  5
258
100
AcDbEntity
  8
0
100
AcDbLine
 62
7
  6
CONTINUOUS
 10
-23.8801352807
 20
5.4855247502
 11
-23.8801352807
 21
16.4262264592
  0
LINE
  5
259
100
AcDbEntity
  8
ASSI
100
AcDbLine
 62
7
  6
CONTINUOUS
 10
-23.8801352807
 20
5.4855247502
 11
-23.8801352807
 21
16.4262264592
  0
LINE
  5
25A
100
AcDbEntity
  8
0
100
AcDbLine
 62
7
  6
CONTINUOUS
 10
-23.7387139244
 20
16.5078813779
 11
-23.7387139244
 21
5.5671796688
  0
LINE
  5
25B
100
AcDbEntity
  8
ASSI
100
AcDbLine
 62
7
  6
CONTINUOUS
 10
-23.7387139244
 20
16.5078813779
 11
-23.7387139244
 21
5.5671796688
  0
LINE
  5
25C
100
AcDbEntity
  8
0
100
AcDbLine
 62
7
  6
CONTINUOUS
 10
-23.3800837356
 20
17.0302570883
 11
-23.3800837356
 21
6.3399701165
  0
LINE
  5
25D
100
AcDbEntity
  8
ASSI
100
AcDbLine
 62
7
  6
CONTINUOUS
 10
-23.3800837356
 20
17.0302570883
 11
-23.3800837356
 21
6.3399701165
  0
LINE
  5
25E
100
AcDbEntity
  8
0
100
AcDbLine
 62
250
  6
CONTINUOUS
 10
-23.3800837356
 20
6.3399701165
 11
-23.7387139244
 21
5.5671796688
  0
LINE
  5
25F
100
AcDbEntity
  8
ASSI
100
AcDbLine
 62
250
  6
CONTINUOUS
 10
-23.3800837356
 20
6.3399701165
 11
-23.7387139244
 21
5.5671796688
  0
LINE
  5
260
100
AcDbEntity
  8
0
100
AcDbLine
 62
250
  6
CONTINUOUS
 10
-23.3851605339
 20
3.403458471
 11
-23.0316071433
 21
4.015830906
  0
LINE
  5
261
100
AcDbEntity
  8
ASSI
100
AcDbLine
 62
250
  6
CONTINUOUS
 10
-23.3851605339
 20
3.403458471
 11
-23.0316071433
 21
4.015830906
  0
LINE
  5
262
100
AcDbEntity
  8
0
100
AcDbLine
 62
250
  6
CONTINUOUS
 10
18.9713141513
 20
-19.7963117047
 11
18.4048502343
 21
-19.7457504257
  0
LINE
  5
263
100
AcDbEntity
  8
ASSI
100
AcDbLine
 62
250
  6
CONTINUOUS
 10
18.9713141513
 20
-19.7963117047
 11
18.4048502343
 21
-19.7457504257
  0
LINE
  5
264
100
AcDbEntity
  8
0
100
AcDbLine
 62
7
  6
CONTINUOUS
 10
-12.7078481379
 20
9.5672132913
 11
-12.7078481379
 21
-1.3734884177
  0
LINE
  5
265
100
AcDbEntity
  8
ASSI
100
AcDbLine
 62
7
  6
CONTINUOUS
 10
-12.7078481379
 20
9.5672132913
 11
-12.7078481379
 21
-1.3734884177
  0
LINE
  5
266
100
AcDbEntity
  8
0
100
AcDbLine
 62
250
  6
CONTINUOUS
 10
-23.8801352807
 20
5.4855247502
 11
-23.7387139244
 21
5.5671796688
  0
LINE
  5
267
100
AcDbEntity
  8
ASSI
100
AcDbLine
 62
250
  6
CONTINUOUS
 10
-23.8801352807
 20
5.4855247502
 11
-23.7387139244
 21
5.5671796688
  0
LINE
  5
268
100
AcDbEntity
  8
0
100
AcDbLine
 62
250
  6
CONTINUOUS
 10
-23.0316071433
 20
4.015830906
 11
-22.890185787
 21
4.0974858247
  0
LINE
  5
269
100
AcDbEntity
  8
ASSI
100
AcDbLine
 62
250
  6
CONTINUOUS
 10
-23.0316071433
 20
4.015830906
 11
-22.890185787
 21
4.0974858247
  0
LINE
  5
26A
100
AcDbEntity
  8
0
100
AcDbLine
 62
250
  6
CONTINUOUS
 10
7.2325630915
 20
-12.8868319496
 11
7.9396698727
 21
-12.8868319496
  0
LINE
  5
26B
100
AcDbEntity
  8
ASSI
100
AcDbLine
 62
250
  6
CONTINUOUS
 10
7.2325630915
 20
-12.8868319496
 11
7.9396698727
 21
-12.8868319496
  0
LINE
  5
26C
100
AcDbEntity
  8
0
100
AcDbLine
 62
250
  6
CONTINUOUS
 10
9.7781475038
 20
-14.350608564
 11
8.9296193664
 21
-14.2748708751
  0
LINE
  5
26D
100
AcDbEntity
  8
ASSI
100
AcDbLine
 62
250
  6
CONTINUOUS
 10
9.7781475038
 20
-14.350608564
 11
8.9296193664
 21
-14.2748708751
  0
LINE
  5
26E
100
AcDbEntity
  8
0
100
AcDbLine
 62
7
  6
CONTINUOUS
 10
-8.6773394852
 20
-3.7006535997
 11
-8.6773394852
 21
7.2400481093
  0
LINE
  5
26F
100
AcDbEntity
  8
ASSI
100
AcDbLine
 62
7
  6
CONTINUOUS
 10
-8.6773394852
 20
-3.7006535997
 11
-8.6773394852
 21
7.2400481093
  0
LINE
  5
270
100
AcDbEntity
  8
0
100
AcDbLine
 62
250
  6
CONTINUOUS
 10
-7.5894591584
 20
7.8374685472
 11
-7.8288113477
 21
7.321703028
  0
LINE
  5
271
100
AcDbEntity
  8
ASSI
100
AcDbLine
 62
250
  6
CONTINUOUS
 10
-7.5894591584
 20
7.8374685472
 11
-7.8288113477
 21
7.321703028
  0
LINE
  5
272
100
AcDbEntity
  8
0
100
AcDbLine
 62
250
  6
CONTINUOUS
 10
-13.909929666
 20
-2.0674210796
 11
-13.5563762754
 21
-1.4550486446
  0
LINE
  5
273
100
AcDbEntity
  8
ASSI
100
AcDbLine
 62
250
  6
CONTINUOUS
 10
-13.909929666
 20
-2.0674210796
 11
-13.5563762754
 21
-1.4550486446
  0
LINE
  5
274
100
AcDbEntity
  8
0
100
AcDbLine
 62
250
  6
CONTINUOUS
 10
-7.970232704
 20
7.2400481093
 11
-7.8288113477
 21
7.321703028
  0
LINE
  5
275
100
AcDbEntity
  8
ASSI
100
AcDbLine
 62
250
  6
CONTINUOUS
 10
-7.970232704
 20
7.2400481093
 11
-7.8288113477
 21
7.321703028
  0
LINE
  5
276
100
AcDbEntity
  8
0
100
AcDbLine
 62
250
  6
CONTINUOUS
 10
3.0614115746
 20
-10.6101333548
 11
2.4949476576
 21
-10.5595720758
  0
LINE
  5
277
100
AcDbEntity
  8
ASSI
100
AcDbLine
 62
250
  6
CONTINUOUS
 10
3.0614115746
 20
-10.6101333548
 11
2.4949476576
 21
-10.5595720758
  0
LINE
  5
278
100
AcDbEntity
  8
0
100
AcDbLine
 62
7
  6
CONTINUOUS
 10
17.9098754874
 20
-20.4397777794
 11
8.4346446195
 21
-14.9688982288
  0
LINE
  5
279
100
AcDbEntity
  8
ASSI
100
AcDbLine
 62
7
  6
CONTINUOUS
 10
17.9098754874
 20
-20.4397777794
 11
8.4346446195
 21
-14.9688982288
  0
LINE
  5
27A
100
AcDbEntity
  8
0
100
AcDbLine
 62
7
  6
CONTINUOUS
 10
1.9999729107
 20
-11.2535994295
 11
-7.4752579572
 21
-5.7827198789
  0
LINE
  5
27B
100
AcDbEntity
  8
ASSI
100
AcDbLine
 62
7
  6
CONTINUOUS
 10
1.9999729107
 20
-11.2535994295
 11
-7.4752579572
 21
-5.7827198789
  0
LINE
  5
27C
100
AcDbEntity
  8
0
100
AcDbLine
 62
7
  6
CONTINUOUS
 10
-13.909929666
 20
-2.0674210796
 11
-23.3851605339
 21
3.403458471
  0
LINE
  5
27D
100
AcDbEntity
  8
ASSI
100
AcDbLine
 62
7
  6
CONTINUOUS
 10
-13.909929666
 20
-2.0674210796
 11
-23.3851605339
 21
3.403458471
  0
LINE
  5
27E
100
AcDbEntity
  8
0
100
AcDbLine
 62
7
  6
CONTINUOUS
 10
-7.970232704
 20
-3.7006535997
 11
-7.970232704
 21
7.2400481093
  0
LINE
  5
27F
100
AcDbEntity
  8
ASSI
100
AcDbLine
 62
7
  6
CONTINUOUS
 10
-7.970232704
 20
-3.7006535997
 11
-7.970232704
 21
7.2400481093
  0
LINE
  5
280
100
AcDbEntity
  8
0
100
AcDbLine
 62
7
  6
CONTINUOUS
 10
-7.8288113477
 20
7.321703028
 11
-7.8288113477
 21
-3.618998681
  0
LINE
  5
281
100
AcDbEntity
  8
ASSI
100
AcDbLine
 62
7
  6
CONTINUOUS
 10
-7.8288113477
 20
7.321703028
 11
-7.8288113477
 21
-3.618998681
  0
LINE
  5
282
100
AcDbEntity
  8
0
100
AcDbLine
 62
7
  6
CONTINUOUS
 10
-7.4701811589
 20
7.8440787384
 11
-7.4701811589
 21
-2.8462082334
  0
LINE
  5
283
100
AcDbEntity
  8
ASSI
100
AcDbLine
 62
7
  6
CONTINUOUS
 10
-7.4701811589
 20
7.8440787384
 11
-7.4701811589
 21
-2.8462082334
  0
LINE
  5
284
100
AcDbEntity
  8
0
100
AcDbLine
 62
250
  6
CONTINUOUS
 10
-7.4701811589
 20
-2.8462082334
 11
-7.8288113477
 21
-3.618998681
  0
LINE
  5
285
100
AcDbEntity
  8
ASSI
100
AcDbLine
 62
250
  6
CONTINUOUS
 10
-7.4701811589
 20
-2.8462082334
 11
-7.8288113477
 21
-3.618998681
  0
LINE
  5
286
100
AcDbEntity
  8
0
100
AcDbLine
 62
250
  6
CONTINUOUS
 10
-13.5563762754
 20
-1.4550486446
 11
-13.4149549191
 21
-1.3733937259
  0
LINE
  5
287
100
AcDbEntity
  8
ASSI
100
AcDbLine
 62
250
  6
CONTINUOUS
 10
-13.5563762754
 20
-1.4550486446
 11
-13.4149549191
 21
-1.3733937259
  0
LINE
  5
288
100
AcDbEntity
  8
0
100
AcDbLine
 62
250
  6
CONTINUOUS
 10
-6.1317550729
 20
-5.1644302141
 11
-6.9802832103
 21
-5.0886925252
  0
LINE
  5
289
100
AcDbEntity
  8
ASSI
100
AcDbLine
 62
250
  6
CONTINUOUS
 10
-6.1317550729
 20
-5.1644302141
 11
-6.9802832103
 21
-5.0886925252
  0
LINE
  5
28A
100
AcDbEntity
  8
0
100
AcDbLine
 62
7
  6
CONTINUOUS
 10
18.263428878
 20
-19.8274053443
 11
8.7881980101
 21
-14.3565257937
  0
LINE
  5
28B
100
AcDbEntity
  8
ASSI
100
AcDbLine
 62
7
  6
CONTINUOUS
 10
18.263428878
 20
-19.8274053443
 11
8.7881980101
 21
-14.3565257937
  0
LINE
  5
28C
100
AcDbEntity
  8
0
100
AcDbLine
 62
7
  6
CONTINUOUS
 10
2.3535263013
 20
-10.6412269944
 11
-7.1217045666
 21
-5.1703474439
  0
LINE
  5
28D
100
AcDbEntity
  8
ASSI
100
AcDbLine
 62
7
  6
CONTINUOUS
 10
2.3535263013
 20
-10.6412269944
 11
-7.1217045666
 21
-5.1703474439
  0
LINE
  5
28E
100
AcDbEntity
  8
0
100
AcDbLine
 62
7
  6
CONTINUOUS
 10
-13.5563762754
 20
-1.4550486446
 11
-23.0316071433
 21
4.015830906
  0
LINE
  5
28F
100
AcDbEntity
  8
ASSI
100
AcDbLine
 62
7
  6
CONTINUOUS
 10
-13.5563762754
 20
-1.4550486446
 11
-23.0316071433
 21
4.015830906
  0
LINE
  5
290
100
AcDbEntity
  8
0
100
AcDbLine
 62
7
  6
CONTINUOUS
 10
-22.890185787
 20
4.0974858247
 11
-13.4149549191
 21
-1.3733937259
  0
LINE
  5
291
100
AcDbEntity
  8
ASSI
100
AcDbLine
 62
7
  6
CONTINUOUS
 10
-22.890185787
 20
4.0974858247
 11
-13.4149549191
 21
-1.3733937259
  0
LINE
  5
292
100
AcDbEntity
  8
0
100
AcDbLine
 62
7
  6
CONTINUOUS
 10
-6.9802832103
 20
-5.0886925252
 11
2.4949476576
 21
-10.5595720758
  0
LINE
  5
293
100
AcDbEntity
  8
ASSI
100
AcDbLine
 62
7
  6
CONTINUOUS
 10
-6.9802832103
 20
-5.0886925252
 11
2.4949476576
 21
-10.5595720758
  0
LINE
  5
294
100
AcDbEntity
  8
0
100
AcDbLine
 62
7
  6
CONTINUOUS
 10
8.9296193664
 20
-14.2748708751
 11
18.4048502343
 21
-19.7457504257
  0
LINE
  5
295
100
AcDbEntity
  8
ASSI
100
AcDbLine
 62
7
  6
CONTINUOUS
 10
8.9296193664
 20
-14.2748708751
 11
18.4048502343
 21
-19.7457504257
  0
LINE
  5
296
100
AcDbEntity
  8
0
100
AcDbLine
 62
7
  6
CONTINUOUS
 10
-22.0416576496
 20
4.0217481358
 11
-12.7831602746
 21
-1.3239922123
  0
LINE
  5
297
100
AcDbEntity
  8
ASSI
100
AcDbLine
 62
7
  6
CONTINUOUS
 10
-22.0416576496
 20
4.0217481358
 11
-12.7831602746
 21
-1.3239922123
  0
LINE
  5
298
100
AcDbEntity
  8
0
100
AcDbLine
 62
7
  6
CONTINUOUS
 10
-6.1317550729
 20
-5.1644302141
 11
3.1267423021
 21
-10.5101705622
  0
LINE
  5
299
100
AcDbEntity
  8
ASSI
100
AcDbLine
 62
7
  6
CONTINUOUS
 10
-6.1317550729
 20
-5.1644302141
 11
3.1267423021
 21
-10.5101705622
  0
LINE
  5
29A
100
AcDbEntity
  8
0
100
AcDbLine
 62
7
  6
CONTINUOUS
 10
9.7781475038
 20
-14.350608564
 11
19.0366448788
 21
-19.6963489121
  0
LINE
  5
29B
100
AcDbEntity
  8
ASSI
100
AcDbLine
 62
7
  6
CONTINUOUS
 10
9.7781475038
 20
-14.350608564
 11
19.0366448788
 21
-19.6963489121
  0
LINE
  5
29C
100
AcDbEntity
  8
0
100
AcDbLine
 62
250
  6
CONTINUOUS
 10
-7.4752579572
 20
-5.7827198789
 11
-7.1217045666
 21
-5.1703474439
  0
LINE
  5
29D
100
AcDbEntity
  8
ASSI
100
AcDbLine
 62
250
  6
CONTINUOUS
 10
-7.4752579572
 20
-5.7827198789
 11
-7.1217045666
 21
-5.1703474439
  0
LINE
  5
29E
100
AcDbEntity
  8
0
100
AcDbLine
 62
250
  6
CONTINUOUS
 10
-7.970232704
 20
-3.7006535997
 11
-7.8288113477
 21
-3.618998681
  0
LINE
  5
29F
100
AcDbEntity
  8
ASSI
100
AcDbLine
 62
250
  6
CONTINUOUS
 10
-7.970232704
 20
-3.7006535997
 11
-7.8288113477
 21
-3.618998681
  0
LINE
  5
2A0
100
AcDbEntity
  8
0
100
AcDbLine
 62
7
  6
CONTINUOUS
 10
28.9442417929
 20
17.4464242627
 11
33.0061747777
 21
19.7917181648
  0
LINE
  5
2A1
100
AcDbEntity
  8
ASSI
100
AcDbLine
 62
7
  6
CONTINUOUS
 10
28.9442417929
 20
17.4464242627
 11
33.0061747777
 21
19.7917181648
  0
LINE
  5
2A2
100
AcDbEntity
  8
0
100
AcDbLine
 62
250
  6
CONTINUOUS
 10
-8.6773394852
 20
-3.7006535997
 11
-7.970232704
 21
-3.7006535997
  0
LINE
  5
2A3
100
AcDbEntity
  8
ASSI
100
AcDbLine
 62
250
  6
CONTINUOUS
 10
-8.6773394852
 20
-3.7006535997
 11
-7.970232704
 21
-3.7006535997
  0
LINE
  5
2A4
100
AcDbEntity
  8
0
100
AcDbLine
 62
250
  6
CONTINUOUS
 10
7.2325630915
 20
-1.9461302406
 11
7.9396698727
 21
-1.9461302406
  0
LINE
  5
2A5
100
AcDbEntity
  8
ASSI
100
AcDbLine
 62
250
  6
CONTINUOUS
 10
7.2325630915
 20
-1.9461302406
 11
7.9396698727
 21
-1.9461302406
  0
LINE
  5
2A6
100
AcDbEntity
  8
0
100
AcDbLine
 62
250
  6
CONTINUOUS
 10
-12.8484910021
 20
-1.4239550049
 11
-13.4149549191
 21
-1.3733937259
  0
LINE
  5
2A7
100
AcDbEntity
  8
ASSI
100
AcDbLine
 62
250
  6
CONTINUOUS
 10
-12.8484910021
 20
-1.4239550049
 11
-13.4149549191
 21
-1.3733937259
  0
LINE
  5
2A8
100
AcDbEntity
  8
0
100
AcDbLine
 62
7
  6
CONTINUOUS
 10
-33.713712047
 20
52.8073741756
 11
-33.7133367395
 21
52.8067378141
  0
LINE
  5
2A9
100
AcDbEntity
  8
ASSI
100
AcDbLine
 62
7
  6
CONTINUOUS
 10
-33.713712047
 20
52.8073741756
 11
-33.7133367395
 21
52.8067378141
  0
LINE
  5
2AA
100
AcDbEntity
  8
0
100
AcDbLine
 62
7
  6
CONTINUOUS
 10
28.9438793627
 20
-55.7187438231
 11
28.9442417929
 21
-55.7193852608
  0
LINE
  5
2AB
100
AcDbEntity
  8
ASSI
100
AcDbLine
 62
7
  6
CONTINUOUS
 10
28.9438793627
 20
-55.7187438231
 11
28.9442417929
 21
-55.7193852608
  0
LINE
  5
2AC
100
AcDbEntity
  8
0
100
AcDbLine
 62
7
  6
CONTINUOUS
 10
3.2020544388
 20
0.3810349414
 11
3.2020544388
 21
-10.5596667676
  0
LINE
  5
2AD
100
AcDbEntity
  8
ASSI
100
AcDbLine
 62
7
  6
CONTINUOUS
 10
3.2020544388
 20
0.3810349414
 11
3.2020544388
 21
-10.5596667676
  0
LINE
  5
2AE
100
AcDbEntity
  8
0
100
AcDbLine
 62
7
  6
CONTINUOUS
 10
29.6517790622
 20
16.2209337653
 11
33.713712047
 21
18.5662276674
  0
LINE
  5
2AF
100
AcDbEntity
  8
ASSI
100
AcDbLine
 62
7
  6
CONTINUOUS
 10
29.6517790622
 20
16.2209337653
 11
33.713712047
 21
18.5662276674
  0
LINE
  5
2B0
100
AcDbEntity
  8
0
100
AcDbLine
 62
250
  6
CONTINUOUS
 10
-7.1217045666
 20
-5.1703474439
 11
-6.9802832103
 21
-5.0886925252
  0
LINE
  5
2B1
100
AcDbEntity
  8
ASSI
100
AcDbLine
 62
250
  6
CONTINUOUS
 10
-7.1217045666
 20
-5.1703474439
 11
-6.9802832103
 21
-5.0886925252
  0
LINE
  5
2B2
100
AcDbEntity
  8
0
100
AcDbLine
 62
250
  6
CONTINUOUS
 10
-22.0416576496
 20
4.0217481358
 11
-22.890185787
 21
4.0974858247
  0
LINE
  5
2B3
100
AcDbEntity
  8
ASSI
100
AcDbLine
 62
250
  6
CONTINUOUS
 10
-22.0416576496
 20
4.0217481358
 11
-22.890185787
 21
4.0974858247
  0
LINE
  5
2B4
100
AcDbEntity
  8
0
100
AcDbLine
 62
7
  6
CONTINUOUS
 10
-23.3851605339
 20
17.1201591211
 11
-13.909929666
 21
11.6492795705
  0
LINE
  5
2B5
100
AcDbEntity
  8
ASSI
100
AcDbLine
 62
7
  6
CONTINUOUS
 10
-23.3851605339
 20
17.1201591211
 11
-13.909929666
 21
11.6492795705
  0
LINE
  5
2B6
100
AcDbEntity
  8
0
100
AcDbLine
 62
7
  6
CONTINUOUS
 10
-7.4752579572
 20
7.9339807712
 11
1.9999729107
 21
2.4631012206
  0
LINE
  5
2B7
100
AcDbEntity
  8
ASSI
100
AcDbLine
 62
7
  6
CONTINUOUS
 10
-7.4752579572
 20
7.9339807712
 11
1.9999729107
 21
2.4631012206
  0
LINE
  5
2B8
100
AcDbEntity
  8
0
100
AcDbLine
 62
7
  6
CONTINUOUS
 10
8.4346446195
 20
-1.2521975787
 11
17.9098754874
 21
-6.7230771293
  0
LINE
  5
2B9
100
AcDbEntity
  8
ASSI
100
AcDbLine
 62
7
  6
CONTINUOUS
 10
8.4346446195
 20
-1.2521975787
 11
17.9098754874
 21
-6.7230771293
  0
LINE
  5
2BA
100
AcDbEntity
  8
0
100
AcDbLine
 62
7
  6
CONTINUOUS
 10
7.2325630915
 20
-12.8868319496
 11
7.2325630915
 21
-1.9461302406
  0
LINE
  5
2BB
100
AcDbEntity
  8
ASSI
100
AcDbLine
 62
7
  6
CONTINUOUS
 10
7.2325630915
 20
-12.8868319496
 11
7.2325630915
 21
-1.9461302406
  0
LINE
  5
2BC
100
AcDbEntity
  8
0
100
AcDbLine
 62
7
  6
CONTINUOUS
 10
7.9396698727
 20
-12.8868319496
 11
7.9396698727
 21
-1.9461302406
  0
LINE
  5
2BD
100
AcDbEntity
  8
ASSI
100
AcDbLine
 62
7
  6
CONTINUOUS
 10
7.9396698727
 20
-12.8868319496
 11
7.9396698727
 21
-1.9461302406
  0
LINE
  5
2BE
100
AcDbEntity
  8
0
100
AcDbLine
 62
7
  6
CONTINUOUS
 10
8.081091229
 20
-1.8644753219
 11
8.081091229
 21
-12.8051770309
  0
LINE
  5
2BF
100
AcDbEntity
  8
ASSI
100
AcDbLine
 62
7
  6
CONTINUOUS
 10
8.081091229
 20
-1.8644753219
 11
8.081091229
 21
-12.8051770309
  0
LINE
  5
2C0
100
AcDbEntity
  8
0
100
AcDbLine
 62
7
  6
CONTINUOUS
 10
8.4397214178
 20
-1.3420996115
 11
8.4397214178
 21
-12.0323865833
  0
LINE
  5
2C1
100
AcDbEntity
  8
ASSI
100
AcDbLine
 62
7
  6
CONTINUOUS
 10
8.4397214178
 20
-1.3420996115
 11
8.4397214178
 21
-12.0323865833
  0
LINE
  5
2C2
100
AcDbEntity
  8
0
100
AcDbLine
 62
250
  6
CONTINUOUS
 10
8.3204434183
 20
-1.3487098027
 11
8.081091229
 21
-1.8644753219
  0
LINE
  5
2C3
100
AcDbEntity
  8
ASSI
100
AcDbLine
 62
250
  6
CONTINUOUS
 10
8.3204434183
 20
-1.3487098027
 11
8.081091229
 21
-1.8644753219
  0
LINE
  5
2C4
100
AcDbEntity
  8
0
100
AcDbLine
 62
250
  6
CONTINUOUS
 10
1.9999729107
 20
-11.2535994295
 11
2.3535263013
 21
-10.6412269944
  0
LINE
  5
2C5
100
AcDbEntity
  8
ASSI
100
AcDbLine
 62
250
  6
CONTINUOUS
 10
1.9999729107
 20
-11.2535994295
 11
2.3535263013
 21
-10.6412269944
  0
LINE
  5
2C6
100
AcDbEntity
  8
0
100
AcDbLine
 62
7
  6
CONTINUOUS
 10
27.9343426453
 20
16.368510928
 11
28.9438793627
 21
17.4218055238
  0
LINE
  5
2C7
100
AcDbEntity
  8
ASSI
100
AcDbLine
 62
7
  6
CONTINUOUS
 10
27.9343426453
 20
16.368510928
 11
28.9438793627
 21
17.4218055238
  0
LINE
  5
2C8
100
AcDbEntity
  8
0
100
AcDbLine
 62
250
  6
CONTINUOUS
 10
7.9396698727
 20
-1.9461302406
 11
8.081091229
 21
-1.8644753219
  0
LINE
  5
2C9
100
AcDbEntity
  8
ASSI
100
AcDbLine
 62
250
  6
CONTINUOUS
 10
7.9396698727
 20
-1.9461302406
 11
8.081091229
 21
-1.8644753219
  0
LINE
  5
2CA
100
AcDbEntity
  8
0
100
AcDbLine
 62
7
  6
CONTINUOUS
 10
28.2133185794
 20
15.8853104365
 11
29.6302777103
 21
16.2329287127
  0
LINE
  5
2CB
100
AcDbEntity
  8
ASSI
100
AcDbLine
 62
7
  6
CONTINUOUS
 10
28.2133185794
 20
15.8853104365
 11
29.6302777103
 21
16.2329287127
  0
LINE
  5
2CC
100
AcDbEntity
  8
0
100
AcDbLine
 62
250
  6
CONTINUOUS
 10
-24.5872420619
 20
5.4855247502
 11
-23.8801352807
 21
5.4855247502
  0
LINE
  5
2CD
100
AcDbEntity
  8
ASSI
100
AcDbLine
 62
250
  6
CONTINUOUS
 10
-24.5872420619
 20
5.4855247502
 11
-23.8801352807
 21
5.4855247502
  0
LINE
  5
2CE
100
AcDbEntity
  8
0
100
AcDbLine
 62
250
  6
CONTINUOUS
 10
-8.6773394852
 20
7.2400481093
 11
-7.970232704
 21
7.2400481093
  0
LINE
  5
2CF
100
AcDbEntity
  8
ASSI
100
AcDbLine
 62
250
  6
CONTINUOUS
 10
-8.6773394852
 20
7.2400481093
 11
-7.970232704
 21
7.2400481093
  0
LINE
  5
2D0
100
AcDbEntity
  8
0
100
AcDbLine
 62
250
  6
CONTINUOUS
 10
8.4397214178
 20
-12.0323865833
 11
8.081091229
 21
-12.8051770309
  0
LINE
  5
2D1
100
AcDbEntity
  8
ASSI
100
AcDbLine
 62
250
  6
CONTINUOUS
 10
8.4397214178
 20
-12.0323865833
 11
8.081091229
 21
-12.8051770309
  0
LINE
  5
2D2
100
AcDbEntity
  8
0
100
AcDbLine
 62
250
  6
CONTINUOUS
 10
2.3535263013
 20
-10.6412269944
 11
2.4949476576
 21
-10.5595720758
  0
LINE
  5
2D3
100
AcDbEntity
  8
ASSI
100
AcDbLine
 62
250
  6
CONTINUOUS
 10
2.3535263013
 20
-10.6412269944
 11
2.4949476576
 21
-10.5595720758
  0
LINE
  5
2D4
100
AcDbEntity
  8
0
100
AcDbLine
 62
250
  6
CONTINUOUS
 10
8.4346446195
 20
-14.9688982288
 11
8.7881980101
 21
-14.3565257937
  0
LINE
  5
2D5
100
AcDbEntity
  8
ASSI
100
AcDbLine
 62
250
  6
CONTINUOUS
 10
8.4346446195
 20
-14.9688982288
 11
8.7881980101
 21
-14.3565257937
  0
LINE
  5
2D6
100
AcDbEntity
  8
0
100
AcDbLine
 62
250
  6
CONTINUOUS
 10
7.9396698727
 20
-12.8868319496
 11
8.081091229
 21
-12.8051770309
  0
LINE
  5
2D7
100
AcDbEntity
  8
ASSI
100
AcDbLine
 62
250
  6
CONTINUOUS
 10
7.9396698727
 20
-12.8868319496
 11
8.081091229
 21
-12.8051770309
  0
LINE
  5
2D8
100
AcDbEntity
  8
0
100
AcDbLine
 62
250
  6
CONTINUOUS
 10
8.7881980101
 20
-14.3565257937
 11
8.9296193664
 21
-14.2748708751
  0
LINE
  5
2D9
100
AcDbEntity
  8
ASSI
100
AcDbLine
 62
250
  6
CONTINUOUS
 10
8.7881980101
 20
-14.3565257937
 11
8.9296193664
 21
-14.2748708751
  0
LINE
  5
2DA
100
AcDbEntity
  8
0
100
AcDbLine
 62
250
  6
CONTINUOUS
 10
-24.5872420619
 20
16.4262264592
 11
-23.8801352807
 21
16.4262264592
  0
LINE
  5
2DB
100
AcDbEntity
  8
ASSI
100
AcDbLine
 62
250
  6
CONTINUOUS
 10
-24.5872420619
 20
16.4262264592
 11
-23.8801352807
 21
16.4262264592
  0
LINE
  5
2DC
100
AcDbEntity
  8
0
100
AcDbLine
 62
7
  6
CONTINUOUS
 10
19.1119570155
 20
-8.8051434085
 11
19.1119570155
 21
-19.7458451175
  0
LINE
  5
2DD
100
AcDbEntity
  8
ASSI
100
AcDbLine
 62
7
  6
CONTINUOUS
 10
19.1119570155
 20
-8.8051434085
 11
19.1119570155
 21
-19.7458451175
  0
LINE
  5
2DE
100
AcDbEntity
  8
0
100
AcDbLine
 62
250
  6
CONTINUOUS
 10
17.9098754874
 20
-20.4397777794
 11
18.263428878
 21
-19.8274053443
  0
LINE
  5
2DF
100
AcDbEntity
  8
ASSI
100
AcDbLine
 62
250
  6
CONTINUOUS
 10
17.9098754874
 20
-20.4397777794
 11
18.263428878
 21
-19.8274053443
  0
LINE
  5
2E0
100
AcDbEntity
  8
0
100
AcDbLine
 62
250
  6
CONTINUOUS
 10
18.263428878
 20
-19.8274053443
 11
18.4048502343
 21
-19.7457504257
  0
LINE
  5
2E1
100
AcDbEntity
  8
ASSI
100
AcDbLine
 62
250
  6
CONTINUOUS
 10
18.263428878
 20
-19.8274053443
 11
18.4048502343
 21
-19.7457504257
  0
LINE
  5
2E2
100
AcDbEntity
  8
0
100
AcDbLine
 62
7
  6
CONTINUOUS
 10
28.2133185794
 20
-54.9463231628
 11
28.2133185794
 21
15.8853104365
  0
LINE
  5
2E3
100
AcDbEntity
  8
ASSI
100
AcDbLine
 62
7
  6
CONTINUOUS
 10
28.2133185794
 20
-54.9463231628
 11
28.2133185794
 21
15.8853104365
  0
LINE
  5
2E4
100
AcDbEntity
  8
0
100
AcDbLine
 62
7
  6
CONTINUOUS
 10
29.6517790622
 20
-55.3109410669
 11
29.6517790622
 21
16.2209337653
  0
LINE
  5
2E5
100
AcDbEntity
  8
ASSI
100
AcDbLine
 62
7
  6
CONTINUOUS
 10
29.6517790622
 20
-55.3109410669
 11
29.6517790622
 21
16.2209337653
  0
LINE
  5
2E6
100
AcDbEntity
  8
CURVE
100
AcDbLine
 62
250
  6
CONTINUOUS
 10
30.7826224357
 20
-48.1131914136
 11
30.7826224357
 21
-48.5392198888
  0
LINE
  5
2E7
100
AcDbEntity
  8
CURVE
100
AcDbLine
 62
250
  6
CONTINUOUS
 10
30.7827314074
 20
-50.3757694636
 11
30.7827314074
 21
-49.9129712496
  0
LINE
  5
2E8
100
AcDbEntity
  8
CURVE
100
AcDbLine
 62
250
  6
CONTINUOUS
 10
30.7827314074
 20
-49.1229986991
 11
30.7827314074
 21
-48.6972617039
  0
LINE
  5
2E9
100
AcDbEntity
  8
CURVE
100
AcDbLine
 62
250
  6
CONTINUOUS
 10
30.7827314074
 20
-47.6995015504
 11
30.7827314074
 21
-47.2738257904
  0
LINE
  5
2EA
100
AcDbEntity
  8
CURVE
100
AcDbLine
 62
250
  6
CONTINUOUS
 10
30.7827314074
 20
-46.4262684078
 11
30.7827314074
 21
-46.0047550133
  0
LINE
  5
2EB
100
AcDbEntity
  8
CURVE
100
AcDbLine
 62
250
  6
CONTINUOUS
 10
30.7827314074
 20
-45.1068295793
 11
30.7827314074
 21
-44.6946982448
  0
LINE
  5
2EC
100
AcDbEntity
  8
0
100
AcDbLine
 62
7
  6
CONTINUOUS
 10
28.9442417929
 20
17.4464242627
 11
28.9438793627
 21
17.4218055238
  0
LINE
  5
2ED
100
AcDbEntity
  8
ASSI
100
AcDbLine
 62
7
  6
CONTINUOUS
 10
28.9442417929
 20
17.4464242627
 11
28.9438793627
 21
17.4218055238
  0
LINE
  5
2EE
100
AcDbEntity
  8
0
100
AcDbLine
 62
7
  6
CONTINUOUS
 10
29.6302777103
 20
16.2329287127
 11
29.6517790622
 21
16.2209337653
  0
LINE
  5
2EF
100
AcDbEntity
  8
ASSI
100
AcDbLine
 62
7
  6
CONTINUOUS
 10
29.6302777103
 20
16.2329287127
 11
29.6517790622
 21
16.2209337653
  0
LINE
  5
2F0
100
AcDbEntity
  8
0
100
AcDbLine
 62
7
  6
CONTINUOUS
 10
27.9343426453
 20
16.368510928
 11
-33.4096276917
 21
51.7877505801
  0
LINE
  5
2F1
100
AcDbEntity
  8
ASSI
100
AcDbLine
 62
7
  6
CONTINUOUS
 10
27.9343426453
 20
16.368510928
 11
-33.4096276917
 21
51.7877505801
  0
LINE
  5
2F2
100
AcDbEntity
  8
0
100
AcDbLine
 62
7
  6
CONTINUOUS
 10
28.9442417929
 20
17.4464242627
 11
-33.0061747777
 21
53.2158183695
  0
LINE
  5
2F3
100
AcDbEntity
  8
ASSI
100
AcDbLine
 62
7
  6
CONTINUOUS
 10
28.9442417929
 20
17.4464242627
 11
-33.0061747777
 21
53.2158183695
  0
LINE
  5
2F4
100
AcDbEntity
  8
CURVE
100
AcDbLine
 62
250
  6
CONTINUOUS
 10
31.5960561922
 20
-42.8518072462
 11
31.5960561922
 21
-43.0952782374
  0
LINE
  5
2F5
100
AcDbEntity
  8
CURVE
100
AcDbLine
 62
250
  6
CONTINUOUS
 10
31.89546968
 20
-42.9199408118
 11
31.89546968
 21
-42.691514577
  0
LINE
  5
2F6
100
AcDbEntity
  8
CURVE
100
AcDbLine
 62
250
  6
CONTINUOUS
 10
31.9635370636
 20
-44.4851225515
 11
31.9635370636
 21
-44.0772303306
  0
LINE
  5
2F7
100
AcDbEntity
  8
CURVE
100
AcDbLine
 62
250
  6
CONTINUOUS
 10
32.2459507582
 20
-43.840030916
 11
32.2459507582
 21
-44.4202106124
  0
LINE
  5
2F8
100
AcDbEntity
  8
CURVE
100
AcDbLine
 62
250
  6
CONTINUOUS
 10
32.6109225841
 20
-47.554821909
 11
32.6109225841
 21
-47.1287934339
  0
LINE
  5
2F9
100
AcDbEntity
  8
CURVE
100
AcDbLine
 62
250
  6
CONTINUOUS
 10
32.6109225961
 20
-42.9590390136
 11
32.6109225961
 21
-42.5347248472
  0
LINE
  5
2FA
100
AcDbEntity
  8
CURVE
100
AcDbLine
 62
250
  6
CONTINUOUS
 10
32.6109225961
 20
-41.8823211546
 11
32.6109225961
 21
-41.4725313766
  0
LINE
  5
2FB
100
AcDbEntity
  8
CURVE
100
AcDbLine
 62
250
  6
CONTINUOUS
 10
32.6109225841
 20
-43.0841417485
 11
32.6109225841
 21
-43.5331579443
  0
LINE
  5
2FC
100
AcDbEntity
  8
CURVE
100
AcDbLine
 62
250
  6
CONTINUOUS
 10
32.6109225841
 20
-44.3412594007
 11
32.6109225841
 21
-44.7626650212
  0
LINE
  5
2FD
100
AcDbEntity
  8
CURVE
100
AcDbLine
 62
250
  6
CONTINUOUS
 10
32.6109225841
 20
-44.8295633298
 11
32.6109225841
 21
-45.2463322155
  0
LINE
  5
2FE
100
AcDbEntity
  8
CURVE
100
AcDbLine
 62
250
  6
CONTINUOUS
 10
32.6109225841
 20
-45.8404082359
 11
32.6109225841
 21
-45.9001591637
  0
LINE
  5
2FF
100
AcDbEntity
  8
CURVE
100
AcDbLine
 62
250
  6
CONTINUOUS
 10
32.6109225841
 20
-46.491878851
 11
32.6109225841
 21
-46.8994493826
  0
LINE
  5
300
100
AcDbEntity
  8
CURVE
100
AcDbLine
 62
250
  6
CONTINUOUS
 10
32.6109225841
 20
-48.3689685114
 11
32.6109225841
 21
-48.7444060388
  0
LINE
  5
301
100
AcDbEntity
  8
0
100
AcDbLine
 62
7
  6
CONTINUOUS
 10
33.713712047
 20
-53.2821625527
 11
33.713712047
 21
18.5662276674
  0
LINE
  5
302
100
AcDbEntity
  8
ASSI
100
AcDbLine
 62
7
  6
CONTINUOUS
 10
33.713712047
 20
-53.2821625527
 11
33.713712047
 21
18.5662276674
  0
LINE
  5
303
100
AcDbEntity
  8
0
100
AcDbLine
 62
7
  6
CONTINUOUS
 10
33.0061747777
 20
19.7917181648
 11
-29.2183609905
 21
55.7193852608
  0
LINE
  5
304
100
AcDbEntity
  8
ASSI
100
AcDbLine
 62
7
  6
CONTINUOUS
 10
33.0061747777
 20
19.7917181648
 11
-29.2183609905
 21
55.7193852608
  0
LINE
  5
305
100
AcDbEntity
  8
0
100
AcDbLine
 62
7
  6
CONTINUOUS
 10
28.2133185794
 20
15.8853104365
 11
27.9343426453
 21
16.368510928
  0
LINE
  5
306
100
AcDbEntity
  8
ASSI
100
AcDbLine
 62
7
  6
CONTINUOUS
 10
28.2133185794
 20
15.8853104365
 11
27.9343426453
 21
16.368510928
  0
LINE
  5
307
100
AcDbEntity
  8
0
100
AcDbLine
 62
7
  6
CONTINUOUS
 10
29.6302777103
 20
16.2329287127
 11
28.9438793627
 21
17.4218055238
  0
LINE
  5
308
100
AcDbEntity
  8
ASSI
100
AcDbLine
 62
7
  6
CONTINUOUS
 10
29.6302777103
 20
16.2329287127
 11
28.9438793627
 21
17.4218055238
  0
LINE
  5
309
100
AcDbEntity
  8
0
100
AcDbLine
 62
7
  6
CONTINUOUS
 10
33.0061747777
 20
19.7917181648
 11
33.713712047
 21
18.5662276674
  0
LINE
  5
30A
100
AcDbEntity
  8
ASSI
100
AcDbLine
 62
7
  6
CONTINUOUS
 10
33.0061747777
 20
19.7917181648
 11
33.713712047
 21
18.5662276674
  0
LINE
  5
30B
100
AcDbEntity
  8
CURVE
100
AcDbLine
 62
7
  6
CONTINUOUS
 10
30.8822956562
 20
-42.72311303
 11
31.3465999758
 21
-42.2588087103
  0
LINE
  5
30C
100
AcDbEntity
  8
CURVE
100
AcDbLine
 62
7
  6
CONTINUOUS
 10
30.7896677817
 20
-43.0257516185
 11
31.5957149166
 21
-42.2197044836
  0
LINE
  5
30D
100
AcDbEntity
  8
CURVE
100
AcDbLine
 62
7
  6
CONTINUOUS
 10
30.7657007161
 20
-43.2597293981
 11
31.1151979809
 21
-42.9102321332
  0
LINE
  5
30E
100
AcDbEntity
  8
CURVE
100
AcDbLine
 62
7
  6
CONTINUOUS
 10
31.3818572895
 20
-42.6435728247
 11
31.7296934554
 21
-42.2957366588
  0
LINE
  5
30F
100
AcDbEntity
  8
CURVE
100
AcDbLine
 62
7
  6
CONTINUOUS
 10
31.8003745207
 20
-42.2250555935
 11
32.2663772494
 21
-41.7590528648
  0
LINE
  5
310
100
AcDbEntity
  8
CURVE
100
AcDbLine
 62
7
  6
CONTINUOUS
 10
30.7624675046
 20
-43.4729733236
 11
31.0771917578
 21
-43.1582490703
  0
LINE
  5
311
100
AcDbEntity
  8
CURVE
100
AcDbLine
 62
7
  6
CONTINUOUS
 10
31.5562295428
 20
-42.6792112854
 11
32.6109225961
 21
-41.6245182321
  0
LINE
  5
312
100
AcDbEntity
  8
CURVE
100
AcDbLine
 62
7
  6
CONTINUOUS
 10
30.7739592057
 20
-43.6714923365
 11
31.0922808036
 21
-43.3531707386
  0
LINE
  5
313
100
AcDbEntity
  8
CURVE
100
AcDbLine
 62
7
  6
CONTINUOUS
 10
31.5959648425
 20
-42.8494866997
 11
31.9613301396
 21
-42.4841214026
  0
LINE
  5
314
100
AcDbEntity
  8
CURVE
100
AcDbLine
 62
7
  6
CONTINUOUS
 10
32.265645735
 20
-42.1798058072
 11
32.6109225961
 21
-41.8345289461
  0
LINE
  5
315
100
AcDbEntity
  8
CURVE
100
AcDbLine
 62
250
  6
CONTINUOUS
 10
31.7575393183
 20
-42.3232217351
 11
31.7467363042
 21
-42.3290383212
  0
LINE
  5
316
100
AcDbEntity
  8
CURVE
100
AcDbLine
 62
7
  6
CONTINUOUS
 10
30.794681222
 20
-43.8607810343
 11
31.5183397193
 21
-43.1371225369
  0
LINE
  5
317
100
AcDbEntity
  8
CURVE
100
AcDbLine
 62
7
  6
CONTINUOUS
 10
31.5960561922
 20
-43.059406064
 11
31.89546968
 21
-42.7599925762
  0
LINE
  5
318
100
AcDbEntity
  8
CURVE
100
AcDbLine
 62
7
  6
CONTINUOUS
 10
31.0846595622
 20
-43.780813408
 11
32.0039292149
 21
-42.8615437553
  0
LINE
  5
319
100
AcDbEntity
  8
CURVE
100
AcDbLine
 62
7
  6
CONTINUOUS
 10
31.5396443151
 20
-43.5358393692
 11
32.4589139677
 21
-42.6165697165
  0
LINE
  5
31A
100
AcDbEntity
  8
CURVE
100
AcDbLine
 62
7
  6
CONTINUOUS
 10
31.9946290679
 20
-43.2908653304
 11
32.6109225961
 21
-42.6745718021
  0
LINE
  5
31B
100
AcDbEntity
  8
CURVE
100
AcDbLine
 62
7
  6
CONTINUOUS
 10
30.7827314074
 20
-44.7127737049
 11
30.9345702439
 21
-44.5609348684
  0
LINE
  5
31C
100
AcDbEntity
  8
CURVE
100
AcDbLine
 62
7
  6
CONTINUOUS
 10
32.4496138207
 20
-43.0458912916
 11
32.6109225961
 21
-42.8845825162
  0
LINE
  5
31D
100
AcDbEntity
  8
CURVE
100
AcDbLine
 62
7
  6
CONTINUOUS
 10
30.7827314074
 20
-44.9227844189
 11
32.6109225841
 21
-43.0945932422
  0
LINE
  5
31E
100
AcDbEntity
  8
CURVE
100
AcDbLine
 62
7
  6
CONTINUOUS
 10
30.8147187015
 20
-45.1008078388
 11
32.6109225841
 21
-43.3046039562
  0
LINE
  5
31F
100
AcDbEntity
  8
CURVE
100
AcDbLine
 62
7
  6
CONTINUOUS
 10
31.0734335585
 20
-45.0521036958
 11
31.5461923108
 21
-44.5793449435
  0
LINE
  5
320
100
AcDbEntity
  8
CURVE
100
AcDbLine
 62
7
  6
CONTINUOUS
 10
31.9635370636
 20
-44.1620001907
 11
32.2459507582
 21
-43.8795864961
  0
LINE
  5
321
100
AcDbEntity
  8
CURVE
100
AcDbLine
 62
7
  6
CONTINUOUS
 10
32.4944353884
 20
-43.6311018659
 11
32.6109225841
 21
-43.5146146703
  0
LINE
  5
322
100
AcDbEntity
  8
CURVE
100
AcDbLine
 62
7
  6
CONTINUOUS
 10
31.3321484155
 20
-45.0033995529
 11
31.8174420915
 21
-44.5181058768
  0
LINE
  5
323
100
AcDbEntity
  8
CURVE
100
AcDbLine
 62
7
  6
CONTINUOUS
 10
31.9635370636
 20
-44.3720109047
 11
32.2459507582
 21
-44.0895972101
  0
LINE
  5
324
100
AcDbEntity
  8
CURVE
100
AcDbLine
 62
7
  6
CONTINUOUS
 10
31.5908632724
 20
-44.9546954099
 11
32.2459507582
 21
-44.2996079241
  0
LINE
  5
325
100
AcDbEntity
  8
CURVE
100
AcDbLine
 62
7
  6
CONTINUOUS
 10
31.8495781294
 20
-44.9059912669
 11
32.3600383756
 21
-44.3955310207
  0
LINE
  5
326
100
AcDbEntity
  8
CURVE
100
AcDbLine
 62
7
  6
CONTINUOUS
 10
30.7827314074
 20
-46.182848703
 11
31.2813371728
 21
-45.6842429376
  0
LINE
  5
327
100
AcDbEntity
  8
CURVE
100
AcDbLine
 62
7
  6
CONTINUOUS
 10
32.1082929864
 20
-44.8572871239
 11
32.6109225841
 21
-44.3546575263
  0
LINE
  5
328
100
AcDbEntity
  8
CURVE
100
AcDbLine
 62
7
  6
CONTINUOUS
 10
30.7827314074
 20
-46.392859417
 11
31.8693004689
 21
-45.3062903555
  0
LINE
  5
329
100
AcDbEntity
  8
CURVE
100
AcDbLine
 62
7
  6
CONTINUOUS
 10
32.3670078434
 20
-44.808582981
 11
32.6109225841
 21
-44.5646682403
  0
LINE
  5
32A
100
AcDbEntity
  8
CURVE
100
AcDbLine
 62
7
  6
CONTINUOUS
 10
30.9831185155
 20
-46.4024830229
 11
32.4572637651
 21
-44.9283377733
  0
LINE
  5
32B
100
AcDbEntity
  8
CURVE
100
AcDbLine
 62
7
  6
CONTINUOUS
 10
31.221414263
 20
-46.3741979894
 11
31.6469257516
 21
-45.9486865008
  0
LINE
  5
32C
100
AcDbEntity
  8
CURVE
100
AcDbLine
 62
7
  6
CONTINUOUS
 10
31.9364982016
 20
-45.6591140508
 11
32.6109225841
 21
-44.9846896683
  0
LINE
  5
32D
100
AcDbEntity
  8
CURVE
100
AcDbLine
 62
7
  6
CONTINUOUS
 10
31.4597100106
 20
-46.3459129558
 11
31.8835101506
 21
-45.9221128158
  0
LINE
  5
32E
100
AcDbEntity
  8
CURVE
100
AcDbLine
 62
7
  6
CONTINUOUS
 10
32.4778334991
 20
-45.3277894673
 11
32.6109225841
 21
-45.1947003824
  0
LINE
  5
32F
100
AcDbEntity
  8
CURVE
100
AcDbLine
 62
7
  6
CONTINUOUS
 10
31.6980057581
 20
-46.3176279223
 11
32.1200945497
 21
-45.8955391307
  0
LINE
  5
330
100
AcDbEntity
  8
CURVE
100
AcDbLine
 62
7
  6
CONTINUOUS
 10
30.7827314074
 20
-47.442912987
 11
32.3566789488
 21
-45.8689654456
  0
LINE
  5
331
100
AcDbEntity
  8
CURVE
100
AcDbLine
 62
7
  6
CONTINUOUS
 10
30.7827314074
 20
-47.6529237011
 11
32.5932633479
 21
-45.8423917606
  0
LINE
  5
332
100
AcDbEntity
  8
CURVE
100
AcDbLine
 62
7
  6
CONTINUOUS
 10
31.0733404774
 20
-47.5723253451
 11
31.7621608549
 21
-46.8835049676
  0
LINE
  5
333
100
AcDbEntity
  8
CURVE
100
AcDbLine
 62
7
  6
CONTINUOUS
 10
31.4467722129
 20
-47.4089043236
 11
32.1520868459
 21
-46.7035896905
  0
LINE
  5
334
100
AcDbEntity
  8
CURVE
100
AcDbLine
 62
7
  6
CONTINUOUS
 10
30.7826224357
 20
-48.2830648148
 11
31.1506503613
 21
-47.9150368892
  0
LINE
  5
335
100
AcDbEntity
  8
CURVE
100
AcDbLine
 62
7
  6
CONTINUOUS
 10
31.8202039483
 20
-47.2454833022
 11
32.5420128369
 21
-46.5236744135
  0
LINE
  5
336
100
AcDbEntity
  8
CURVE
100
AcDbLine
 62
7
  6
CONTINUOUS
 10
30.7826224357
 20
-48.4930755288
 11
31.6056351141
 21
-47.6700628504
  0
LINE
  5
337
100
AcDbEntity
  8
CURVE
100
AcDbLine
 62
7
  6
CONTINUOUS
 10
32.1936356838
 20
-47.0820622807
 11
32.6109225841
 21
-46.6647753804
  0
LINE
  5
338
100
AcDbEntity
  8
CURVE
100
AcDbLine
 62
7
  6
CONTINUOUS
 10
30.7827314074
 20
-48.7029772711
 11
30.7896979809
 21
-48.6960106976
  0
LINE
  5
339
100
AcDbEntity
  8
CURVE
100
AcDbLine
 62
7
  6
CONTINUOUS
 10
31.1376361926
 20
-48.3480724859
 11
32.0606198669
 21
-47.4250888116
  0
LINE
  5
33A
100
AcDbEntity
  8
CURVE
100
AcDbLine
 62
7
  6
CONTINUOUS
 10
32.5670674192
 20
-46.9186412593
 11
32.6109225841
 21
-46.8747860945
  0
LINE
  5
33B
100
AcDbEntity
  8
CURVE
100
AcDbLine
 62
7
  6
CONTINUOUS
 10
30.7827314074
 20
-48.9129879851
 11
31.045675213
 21
-48.6500441796
  0
LINE
  5
33C
100
AcDbEntity
  8
CURVE
100
AcDbLine
 62
7
  6
CONTINUOUS
 10
31.5926209455
 20
-48.1030984471
 11
32.5156046197
 21
-47.1801147728
  0
LINE
  5
33D
100
AcDbEntity
  8
CURVE
100
AcDbLine
 62
7
  6
CONTINUOUS
 10
30.7827314074
 20
-49.1229986991
 11
31.301652445
 21
-48.6040776615
  0
LINE
  5
33E
100
AcDbEntity
  8
CURVE
100
AcDbLine
 62
7
  6
CONTINUOUS
 10
32.0476056983
 20
-47.8581244083
 11
32.6109225841
 21
-47.2948075225
  0
LINE
  5
33F
100
AcDbEntity
  8
CURVE
100
AcDbLine
 62
7
  6
CONTINUOUS
 10
31.0519141037
 20
-49.0638267168
 11
31.5576296771
 21
-48.5581111435
  0
LINE
  5
340
100
AcDbEntity
  8
CURVE
100
AcDbLine
 62
7
  6
CONTINUOUS
 10
32.5025904511
 20
-47.6131503695
 11
32.6109225841
 21
-47.5048182365
  0
LINE
  5
341
100
AcDbEntity
  8
CURVE
100
AcDbLine
 62
7
  6
CONTINUOUS
 10
31.3210968001
 20
-49.0046547345
 11
31.8136069091
 21
-48.5121446254
  0
LINE
  5
342
100
AcDbEntity
  8
CURVE
100
AcDbLine
 62
7
  6
CONTINUOUS
 10
31.5902794964
 20
-48.9454827521
 11
32.0695841412
 21
-48.4661781074
  0
LINE
  5
343
100
AcDbEntity
  8
CURVE
100
AcDbLine
 62
250
  6
CONTINUOUS
 10
32.6109225841
 20
-45.9001591637
 11
31.417148564
 21
-47.0426966689
  0
LINE
  5
344
100
AcDbEntity
  8
CURVE
100
AcDbLine
 62
250
  6
CONTINUOUS
 10
30.7827314074
 20
-47.2738257904
 11
31.7977486871
 21
-46.3057887178
  0
LINE
  5
345
100
AcDbEntity
  8
CURVE
100
AcDbLine
 62
250
  6
CONTINUOUS
 10
30.7827314074
 20
-44.6946982448
 11
32.6109225841
 21
-43.0841417485
  0
LINE
  5
346
100
AcDbEntity
  8
CURVE
100
AcDbLine
 62
250
  6
CONTINUOUS
 10
32.6109225841
 20
-43.5331579443
 11
32.2459507582
 21
-43.840030916
  0
LINE
  5
347
100
AcDbEntity
  8
CURVE
100
AcDbLine
 62
250
  6
CONTINUOUS
 10
31.9635370636
 20
-44.0772303306
 11
31.2850719363
 21
-44.6382971314
  0
LINE
  5
348
100
AcDbEntity
  8
CURVE
100
AcDbLine
 62
250
  6
CONTINUOUS
 10
30.7827314074
 20
-46.0047550133
 11
32.6109225841
 21
-44.8295633298
  0
LINE
  5
349
100
AcDbEntity
  8
CURVE
100
AcDbLine
 62
250
  6
CONTINUOUS
 10
32.6109225841
 20
-45.2463322155
 11
31.4221246946
 21
-45.9739366547
  0
LINE
  5
34A
100
AcDbEntity
  8
CURVE
100
AcDbLine
 62
250
  6
CONTINUOUS
 10
32.6109225961
 20
-42.5347248472
 11
31.89546968
 21
-42.9199408118
  0
LINE
  5
34B
100
AcDbEntity
  8
CURVE
100
AcDbLine
 62
250
  6
CONTINUOUS
 10
31.5960561922
 20
-43.0952782374
 11
31.0941821556
 21
-43.3654985228
  0
LINE
  5
34C
100
AcDbEntity
  8
CURVE
100
AcDbLine
 62
250
  6
CONTINUOUS
 10
30.8040910657
 20
-43.9318778059
 11
32.6109225961
 21
-42.9590390136
  0
LINE
  5
34D
100
AcDbEntity
  8
CURVE
100
AcDbLine
 62
250
  6
CONTINUOUS
 10
32.6109225841
 20
-47.1287934339
 11
30.7826224357
 21
-48.1131914136
  0
LINE
  5
34E
100
AcDbEntity
  8
CURVE
100
AcDbLine
 62
250
  6
CONTINUOUS
 10
31.417148564
 20
-47.0426966689
 11
32.6109225841
 21
-46.491878851
  0
LINE
  5
34F
100
AcDbEntity
  8
CURVE
100
AcDbLine
 62
250
  6
CONTINUOUS
 10
32.6109225841
 20
-46.8994493826
 11
30.7827314074
 21
-47.6995015504
  0
LINE
  5
350
100
AcDbEntity
  8
CURVE
100
AcDbLine
 62
7
  6
CONTINUOUS
 10
30.7827314074
 20
-49.9630415552
 11
31.111233579
 21
-49.6345393836
  0
LINE
  5
351
100
AcDbEntity
  8
CURVE
100
AcDbLine
 62
7
  6
CONTINUOUS
 10
31.8594621928
 20
-48.8863107698
 11
32.3255613732
 21
-48.4202115893
  0
LINE
  5
352
100
AcDbEntity
  8
CURVE
100
AcDbLine
 62
7
  6
CONTINUOUS
 10
30.7827314074
 20
-50.1730522692
 11
32.5815386053
 21
-48.3742450713
  0
LINE
  5
353
100
AcDbEntity
  8
CURVE
100
AcDbLine
 62
7
  6
CONTINUOUS
 10
30.850475656
 20
-50.3153187346
 11
32.6109225841
 21
-48.5548718066
  0
LINE
  5
354
100
AcDbEntity
  8
CURVE
100
AcDbLine
 62
250
  6
CONTINUOUS
 10
32.6109225841
 20
-48.7444060388
 11
30.7827314074
 21
-50.3757694636
  0
LINE
  5
355
100
AcDbEntity
  8
CURVE
100
AcDbLine
 62
250
  6
CONTINUOUS
 10
30.7827314074
 20
-49.9129712496
 11
32.0411322287
 21
-48.8463758992
  0
LINE
  5
356
100
AcDbEntity
  8
0
100
AcDbLine
 62
7
  6
CONTINUOUS
 10
27.9343426453
 20
-55.1073692384
 11
28.2133185794
 21
-54.9463231628
  0
LINE
  5
357
100
AcDbEntity
  8
ASSI
100
AcDbLine
 62
7
  6
CONTINUOUS
 10
27.9343426453
 20
-55.1073692384
 11
28.2133185794
 21
-54.9463231628
  0
LINE
  5
358
100
AcDbEntity
  8
0
100
AcDbLine
 62
7
  6
CONTINUOUS
 10
28.9438793627
 20
-55.7187438231
 11
29.6302777103
 21
-55.3225026187
  0
LINE
  5
359
100
AcDbEntity
  8
ASSI
100
AcDbLine
 62
7
  6
CONTINUOUS
 10
28.9438793627
 20
-55.7187438231
 11
29.6302777103
 21
-55.3225026187
  0
LINE
  5
35A
100
AcDbEntity
  8
0
100
AcDbLine
 62
7
  6
CONTINUOUS
 10
33.713712047
 20
-53.2821625527
 11
33.0061747777
 21
-53.6906067465
  0
LINE
  5
35B
100
AcDbEntity
  8
ASSI
100
AcDbLine
 62
7
  6
CONTINUOUS
 10
33.713712047
 20
-53.2821625527
 11
33.0061747777
 21
-53.6906067465
  0
LINE
  5
35C
100
AcDbEntity
  8
CURVE
100
AcDbLine
 62
250
  6
CONTINUOUS
 10
30.7826224357
 20
-48.5392198888
 11
32.6109225841
 21
-47.554821909
  0
LINE
  5
35D
100
AcDbEntity
  8
0
100
AcDbLine
 62
7
  6
CONTINUOUS
 10
29.6517790622
 20
-55.3109410669
 11
29.6302777103
 21
-55.3225026187
  0
LINE
  5
35E
100
AcDbEntity
  8
ASSI
100
AcDbLine
 62
7
  6
CONTINUOUS
 10
29.6517790622
 20
-55.3109410669
 11
29.6302777103
 21
-55.3225026187
  0
LINE
  5
35F
100
AcDbEntity
  8
0
100
AcDbLine
 62
7
  6
CONTINUOUS
 10
29.6517790622
 20
-55.3109410669
 11
33.713712047
 21
-53.2821625527
  0
LINE
  5
360
100
AcDbEntity
  8
ASSI
100
AcDbLine
 62
7
  6
CONTINUOUS
 10
29.6517790622
 20
-55.3109410669
 11
33.713712047
 21
-53.2821625527
  0
LINE
  5
361
100
AcDbEntity
  8
0
100
AcDbLine
 62
7
  6
CONTINUOUS
 10
28.9442417929
 20
-55.7193852608
 11
33.0061747777
 21
-53.6906067465
  0
LINE
  5
362
100
AcDbEntity
  8
ASSI
100
AcDbLine
 62
7
  6
CONTINUOUS
 10
28.9442417929
 20
-55.7193852608
 11
33.0061747777
 21
-53.6906067465
  0
ARC
  5
363
100
AcDbEntity
  8
0
100
AcDbCircle
 62
7
  6
CONTINUOUS
 10
-13.1600007123
 20
-1.1606486586
 40
0.4082696614
100
AcDbArc
 50
287.1177534332
 51
299.9220202196
  0
ARC
  5
364
100
AcDbEntity
  8
0
100
AcDbCircle
 62
7
  6
CONTINUOUS
 10
2.7499018644
 20
-10.3468270085
 40
0.4082696614
100
AcDbArc
 50
287.1177534332
 51
299.9220202196
  0
ARC
  5
365
100
AcDbEntity
  8
0
100
AcDbCircle
 62
7
  6
CONTINUOUS
 10
18.6598044411
 20
-19.5330053584
 40
0.4082696614
100
AcDbArc
 50
287.1177534332
 51
299.9220202196
  0
ARC
  5
366
100
AcDbEntity
  8
ASSI
100
AcDbCircle
 62
7
  6
CONTINUOUS
 10
-13.1600007123
 20
-1.1606486586
 40
0.4082696614
100
AcDbArc
 50
287.1177534332
 51
299.9220202196
  0
ARC
  5
367
100
AcDbEntity
  8
ASSI
100
AcDbCircle
 62
7
  6
CONTINUOUS
 10
2.7499018644
 20
-10.3468270085
 40
0.4082696614
100
AcDbArc
 50
287.1177534332
 51
299.9220202196
  0
ARC
  5
368
100
AcDbEntity
  8
ASSI
100
AcDbCircle
 62
7
  6
CONTINUOUS
 10
18.6598044411
 20
-19.5330053584
 40
0.4082696614
100
AcDbArc
 50
287.1177534332
 51
299.9220202196
  0
ARC
  5
369
100
AcDbEntity
  8
0
100
AcDbCircle
 62
7
  6
CONTINUOUS
 10
-23.4270069437
 20
16.6222372746
 40
0.4082587586
100
AcDbArc
 50
120.081029099
 51
132.876238877
  0
ARC
  5
36A
100
AcDbEntity
  8
0
100
AcDbCircle
 62
7
  6
CONTINUOUS
 10
-7.517104367
 20
7.4360589247
 40
0.4082587586
100
AcDbArc
 50
120.081029099
 51
132.8762388771
  0
ARC
  5
36B
100
AcDbEntity
  8
0
100
AcDbCircle
 62
7
  6
CONTINUOUS
 10
8.3927982097
 20
-1.7501194252
 40
0.4082587586
100
AcDbArc
 50
120.081029099
 51
132.876238877
  0
ARC
  5
36C
100
AcDbEntity
  8
ASSI
100
AcDbCircle
 62
7
  6
CONTINUOUS
 10
8.3927982097
 20
-1.7501194252
 40
0.4082587586
100
AcDbArc
 50
120.081029099
 51
132.876238877
  0
ARC
  5
36D
100
AcDbEntity
  8
ASSI
100
AcDbCircle
 62
7
  6
CONTINUOUS
 10
-23.4270069437
 20
16.6222372746
 40
0.4082587586
100
AcDbArc
 50
120.081029099
 51
132.876238877
  0
ARC
  5
36E
100
AcDbEntity
  8
ASSI
100
AcDbCircle
 62
7
  6
CONTINUOUS
 10
-7.517104367
 20
7.4360589247
 40
0.4082587586
100
AcDbArc
 50
120.081029099
 51
132.8762388771
  0
SPLINE
  5
36F
100
AcDbEntity
  8
0
100
AcDbSpline
 62
7
  6
CONTINUOUS
 70
0
 71
3
 72
9
 73
5
 74
0
 42
0.0000001
 43
0.0000001
 44
0.0000000001
 40
0.0
 40
0.0
 40
0.0
 40
0.0
 40
0.5163282132
 40
1.0
 40
1.0
 40
1.0
 40
1.0
 10
-13.1121257764
 20
-1.4837238367
 30
0.0
 10
-13.0753753768
 20
-1.4887314255
 30
0.0
 10
-13.0030778936
 20
-1.492024514
 30
0.0
 10
-12.9315946152
 20
-1.4794225542
 30
0.0
 10
-12.8983965464
 20
-1.4691734484
 30
0.0
  0
SPLINE
  5
370
100
AcDbEntity
  8
0
100
AcDbSpline
 62
7
  6
CONTINUOUS
 70
0
 71
3
 72
9
 73
5
 74
0
 42
0.0000001
 43
0.0000001
 44
0.0000000001
 40
0.0
 40
0.0
 40
0.0
 40
0.0
 40
0.2403057122
 40
1.0
 40
1.0
 40
1.0
 40
1.0
 10
17.9098754874
 20
-6.7230771293
 30
0.0
 10
17.9334964109
 20
-6.7367155543
 30
0.0
 10
18.0303300313
 20
-6.7959882495
 30
0.0
 10
18.1213339232
 20
-6.8645926598
 30
0.0
 10
18.1870028697
 20
-6.9204750969
 30
0.0
  0
SPLINE
  5
371
100
AcDbEntity
  8
0
100
AcDbSpline
 62
7
  6
CONTINUOUS
 70
0
 71
3
 72
11
 73
7
 74
0
 42
0.0000001
 43
0.0000001
 44
0.0000000001
 40
0.0
 40
0.0
 40
0.0
 40
0.0
 40
0.2436409567
 40
0.5000042266
 40
0.7563652941
 40
1.0
 40
1.0
 40
1.0
 40
1.0
 10
18.1870028697
 20
-6.9204750969
 30
0.0
 10
18.2992837313
 20
-7.0160229701
 30
0.0
 10
18.5103246573
 20
-7.2355014625
 30
0.0
 10
18.7703806585
 20
-7.6143219219
 30
0.0
 10
18.9684203125
 20
-8.0289433118
 30
0.0
 10
19.0529716476
 20
-8.3214448405
 30
0.0
 10
19.0795759597
 20
-8.4664534031
 30
0.0
  0
SPLINE
  5
372
100
AcDbEntity
  8
0
100
AcDbSpline
 62
7
  6
CONTINUOUS
 70
0
 71
3
 72
9
 73
5
 74
0
 42
0.0000001
 43
0.0000001
 44
0.0000000001
 40
0.0
 40
0.0
 40
0.0
 40
0.0
 40
0.2594910627
 40
1.0
 40
1.0
 40
1.0
 40
1.0
 10
19.0795759597
 20
-8.4664534031
 30
0.0
 10
19.084890595
 20
-8.4954211743
 30
0.0
 10
19.1030914705
 20
-8.6074461161
 30
0.0
 10
19.1119570138
 20
-8.7210984088
 30
0.0
 10
19.1119570155
 20
-8.8051434085
 30
0.0
  0
SPLINE
  5
373
100
AcDbEntity
  8
0
100
AcDbSpline
 62
7
  6
CONTINUOUS
 70
0
 71
3
 72
9
 73
5
 74
0
 42
0.0000001
 43
0.0000001
 44
0.0000000001
 40
0.0
 40
0.0
 40
0.0
 40
0.0
 40
0.2403057122
 40
1.0
 40
1.0
 40
1.0
 40
1.0
 10
1.9999729107
 20
2.4631012206
 30
0.0
 10
2.0235938342
 20
2.4494627956
 30
0.0
 10
2.1204274546
 20
2.3901901003
 30
0.0
 10
2.2114313465
 20
2.32158569
 30
0.0
 10
2.277100293
 20
2.265703253
 30
0.0
  0
SPLINE
  5
374
100
AcDbEntity
  8
0
100
AcDbSpline
 62
7
  6
CONTINUOUS
 70
0
 71
3
 72
11
 73
7
 74
0
 42
0.0000001
 43
0.0000001
 44
0.0000000001
 40
0.0
 40
0.0
 40
0.0
 40
0.0
 40
0.2436409567
 40
0.5000042266
 40
0.7563652941
 40
1.0
 40
1.0
 40
1.0
 40
1.0
 10
2.277100293
 20
2.265703253
 30
0.0
 10
2.3893811546
 20
2.1701553798
 30
0.0
 10
2.6004220806
 20
1.9506768874
 30
0.0
 10
2.8604780818
 20
1.571856428
 30
0.0
 10
3.0585177359
 20
1.1572350381
 30
0.0
 10
3.1430690709
 20
0.8647335094
 30
0.0
 10
3.169673383
 20
0.7197249467
 30
0.0
  0
SPLINE
  5
375
100
AcDbEntity
  8
0
100
AcDbSpline
 62
7
  6
CONTINUOUS
 70
0
 71
3
 72
9
 73
5
 74
0
 42
0.0000001
 43
0.0000001
 44
0.0000000001
 40
0.0
 40
0.0
 40
0.0
 40
0.0
 40
0.2594910627
 40
1.0
 40
1.0
 40
1.0
 40
1.0
 10
3.169673383
 20
0.7197249467
 30
0.0
 10
3.1749880183
 20
0.6907571756
 30
0.0
 10
3.1931888938
 20
0.5787322337
 30
0.0
 10
3.2020544371
 20
0.4650799411
 30
0.0
 10
3.2020544388
 20
0.3810349414
 30
0.0
  0
SPLINE
  5
376
100
AcDbEntity
  8
0
100
AcDbSpline
 62
7
  6
CONTINUOUS
 70
0
 71
3
 72
9
 73
5
 74
0
 42
0.0000001
 43
0.0000001
 44
0.0000000001
 40
0.0
 40
0.0
 40
0.0
 40
0.0
 40
0.2403057122
 40
1.0
 40
1.0
 40
1.0
 40
1.0
 10
-13.909929666
 20
11.6492795705
 30
0.0
 10
-13.8863087425
 20
11.6356411454
 30
0.0
 10
-13.7894751221
 20
11.5763684502
 30
0.0
 10
-13.6984712302
 20
11.5077640399
 30
0.0
 10
-13.6328022837
 20
11.4518816029
 30
0.0
  0
SPLINE
  5
377
100
AcDbEntity
  8
0
100
AcDbSpline
 62
7
  6
CONTINUOUS
 70
0
 71
3
 72
11
 73
7
 74
0
 42
0.0000001
 43
0.0000001
 44
0.0000000001
 40
0.0
 40
0.0
 40
0.0
 40
0.0
 40
0.2436409567
 40
0.5000042266
 40
0.7563652941
 40
1.0
 40
1.0
 40
1.0
 40
1.0
 10
-13.6328022837
 20
11.4518816029
 30
0.0
 10
-13.5205214221
 20
11.3563337296
 30
0.0
 10
-13.3094804961
 20
11.1368552372
 30
0.0
 10
-13.0494244949
 20
10.7580347779
 30
0.0
 10
-12.8513848408
 20
10.343413388
 30
0.0
 10
-12.7668335058
 20
10.0509118593
 30
0.0
 10
-12.7402291937
 20
9.9059032966
 30
0.0
  0
SPLINE
  5
378
100
AcDbEntity
  8
0
100
AcDbSpline
 62
7
  6
CONTINUOUS
 70
0
 71
3
 72
9
 73
5
 74
0
 42
0.0000001
 43
0.0000001
 44
0.0000000001
 40
0.0
 40
0.0
 40
0.0
 40
0.0
 40
0.2594910627
 40
1.0
 40
1.0
 40
1.0
 40
1.0
 10
-12.7402291937
 20
9.9059032966
 30
0.0
 10
-12.7349145584
 20
9.8769355254
 30
0.0
 10
-12.7167136829
 20
9.7649105836
 30
0.0
 10
-12.7078481396
 20
9.6512582909
 30
0.0
 10
-12.7078481379
 20
9.5672132913
 30
0.0
  0
SPLINE
  5
379
100
AcDbEntity
  8
0
100
AcDbSpline
 62
7
  6
CONTINUOUS
 70
0
 71
3
 72
9
 73
5
 74
0
 42
0.0000001
 43
0.0000001
 44
0.0000000001
 40
0.0
 40
0.0
 40
0.0
 40
0.0
 40
0.5163282132
 40
1.0
 40
1.0
 40
1.0
 40
1.0
 10
2.7977768003
 20
-10.6699021865
 30
0.0
 10
2.8345271999
 20
-10.6749097754
 30
0.0
 10
2.9068246831
 20
-10.6782028639
 30
0.0
 10
2.9783079615
 20
-10.6656009041
 30
0.0
 10
3.0115060303
 20
-10.6553517983
 30
0.0
  0
SPLINE
  5
37A
100
AcDbEntity
  8
0
100
AcDbSpline
 62
7
  6
CONTINUOUS
 70
0
 71
3
 72
9
 73
5
 74
0
 42
0.0000001
 43
0.0000001
 44
0.0000000001
 40
0.0
 40
0.0
 40
0.0
 40
0.0
 40
0.5163282132
 40
1.0
 40
1.0
 40
1.0
 40
1.0
 10
18.7076793769
 20
-19.8560805364
 30
0.0
 10
18.7444297766
 20
-19.8610881253
 30
0.0
 10
18.8167272598
 20
-19.8643812138
 30
0.0
 10
18.8882105382
 20
-19.8517792539
 30
0.0
 10
18.921408607
 20
-19.8415301482
 30
0.0
  0
SPLINE
  5
37B
100
AcDbEntity
  8
0
100
AcDbSpline
 62
7
  6
CONTINUOUS
 70
0
 71
3
 72
9
 73
5
 74
0
 42
0.0000001
 43
0.0000001
 44
0.0000000001
 40
0.0
 40
0.0
 40
0.0
 40
0.0
 40
0.2434727928
 40
1.0
 40
1.0
 40
1.0
 40
1.0
 10
-23.563360236
 20
17.0030851982
 30
0.0
 10
-23.5718687487
 20
16.9951959816
 30
0.0
 10
-23.6054764478
 20
16.9613583705
 30
0.0
 10
-23.6334195895
 20
16.9220569833
 30
0.0
 10
-23.6512023581
 20
16.8906936708
 30
0.0
  0
SPLINE
  5
37C
100
AcDbEntity
  8
0
100
AcDbSpline
 62
7
  6
CONTINUOUS
 70
0
 71
3
 72
9
 73
5
 74
0
 42
0.0000001
 43
0.0000001
 44
0.0000000001
 40
0.0
 40
0.0
 40
0.0
 40
0.0
 40
0.245444348
 40
1.0
 40
1.0
 40
1.0
 40
1.0
 10
-23.6512023581
 20
16.8906936708
 30
0.0
 10
-23.6541385785
 20
16.8855150848
 30
0.0
 10
-23.6657463902
 20
16.8642161316
 30
0.0
 10
-23.675939708
 20
16.8421526156
 30
0.0
 10
-23.6828657384
 20
16.8252125903
 30
0.0
  0
SPLINE
  5
37D
100
AcDbEntity
  8
0
100
AcDbSpline
 62
7
  6
CONTINUOUS
 70
0
 71
3
 72
11
 73
7
 74
0
 42
0.0000001
 43
0.0000001
 44
0.0000000001
 40
0.0
 40
0.0
 40
0.0
 40
0.0
 40
0.2177671718
 40
0.4509440387
 40
0.7101952376
 40
1.0
 40
1.0
 40
1.0
 40
1.0
 10
-23.6316361354
 20
16.9755106926
 30
0.0
 10
-23.5920537981
 20
16.9983650513
 30
0.0
 10
-23.5010978155
 20
17.0313995019
 30
0.0
 10
-23.350041624
 20
17.0351792804
 30
0.0
 10
-23.1890200491
 20
16.9963426951
 30
0.0
 10
-23.0842833643
 20
16.9464758678
 30
0.0
 10
-23.0316071433
 20
16.9160612793
 30
0.0
  0
SPLINE
  5
37E
100
AcDbEntity
  8
0
100
AcDbSpline
 62
7
  6
CONTINUOUS
 70
0
 71
3
 72
9
 73
5
 74
0
 42
0.0000001
 43
0.0000001
 44
0.0000000001
 40
0.0
 40
0.0
 40
0.0
 40
0.0
 40
0.2434727928
 40
1.0
 40
1.0
 40
1.0
 40
1.0
 10
-7.6534576593
 20
7.8169068483
 30
0.0
 10
-7.661966172
 20
7.8090176317
 30
0.0
 10
-7.6955738711
 20
7.7751800206
 30
0.0
 10
-7.7235170128
 20
7.7358786335
 30
0.0
 10
-7.7412997814
 20
7.704515321
 30
0.0
  0
SPLINE
  5
37F
100
AcDbEntity
  8
0
100
AcDbSpline
 62
7
  6
CONTINUOUS
 70
0
 71
3
 72
9
 73
5
 74
0
 42
0.0000001
 43
0.0000001
 44
0.0000000001
 40
0.0
 40
0.0
 40
0.0
 40
0.0
 40
0.245444348
 40
1.0
 40
1.0
 40
1.0
 40
1.0
 10
-7.7412997814
 20
7.704515321
 30
0.0
 10
-7.7442360018
 20
7.699336735
 30
0.0
 10
-7.7558438135
 20
7.6780377817
 30
0.0
 10
-7.7660371313
 20
7.6559742657
 30
0.0
 10
-7.7729631617
 20
7.6390342405
 30
0.0
  0
SPLINE
  5
380
100
AcDbEntity
  8
0
100
AcDbSpline
 62
7
  6
CONTINUOUS
 70
0
 71
3
 72
11
 73
7
 74
0
 42
0.0000001
 43
0.0000001
 44
0.0000000001
 40
0.0
 40
0.0
 40
0.0
 40
0.0
 40
0.2177671718
 40
0.4509440387
 40
0.7101952376
 40
1.0
 40
1.0
 40
1.0
 40
1.0
 10
-7.7217335587
 20
7.7893323427
 30
0.0
 10
-7.6821512214
 20
7.8121867015
 30
0.0
 10
-7.5911952389
 20
7.845221152
 30
0.0
 10
-7.4401390473
 20
7.8490009305
 30
0.0
 10
-7.2791174724
 20
7.8101643453
 30
0.0
 10
-7.1743807876
 20
7.7602975179
 30
0.0
 10
-7.1217045666
 20
7.7298829295
 30
0.0
  0
SPLINE
  5
381
100
AcDbEntity
  8
0
100
AcDbSpline
 62
7
  6
CONTINUOUS
 70
0
 71
3
 72
9
 73
5
 74
0
 42
0.0000001
 43
0.0000001
 44
0.0000000001
 40
0.0
 40
0.0
 40
0.0
 40
0.0
 40
0.2434727928
 40
1.0
 40
1.0
 40
1.0
 40
1.0
 10
8.2564449174
 20
-1.3692715016
 30
0.0
 10
8.2479364047
 20
-1.3771607182
 30
0.0
 10
8.2143287056
 20
-1.4109983293
 30
0.0
 10
8.1863855639
 20
-1.4502997164
 30
0.0
 10
8.1686027953
 20
-1.4816630289
 30
0.0
  0
SPLINE
  5
382
100
AcDbEntity
  8
0
100
AcDbSpline
 62
7
  6
CONTINUOUS
 70
0
 71
3
 72
9
 73
5
 74
0
 42
0.0000001
 43
0.0000001
 44
0.0000000001
 40
0.0
 40
0.0
 40
0.0
 40
0.0
 40
0.245444348
 40
1.0
 40
1.0
 40
1.0
 40
1.0
 10
8.1686027953
 20
-1.4816630289
 30
0.0
 10
8.1656665749
 20
-1.4868416149
 30
0.0
 10
8.1540587631
 20
-1.5081405681
 30
0.0
 10
8.1438654454
 20
-1.5302040842
 30
0.0
 10
8.136939415
 20
-1.5471441094
 30
0.0
  0
SPLINE
  5
383
100
AcDbEntity
  8
0
100
AcDbSpline
 62
7
  6
CONTINUOUS
 70
0
 71
3
 72
11
 73
7
 74
0
 42
0.0000001
 43
0.0000001
 44
0.0000000001
 40
0.0
 40
0.0
 40
0.0
 40
0.0
 40
0.2177671718
 40
0.4509440387
 40
0.7101952376
 40
1.0
 40
1.0
 40
1.0
 40
1.0
 10
8.188169018
 20
-1.3968460072
 30
0.0
 10
8.2277513553
 20
-1.3739916484
 30
0.0
 10
8.3187073378
 20
-1.3409571979
 30
0.0
 10
8.4697635294
 20
-1.3371774194
 30
0.0
 10
8.6307851043
 20
-1.3760140046
 30
0.0
 10
8.7355217891
 20
-1.425880832
 30
0.0
 10
8.7881980101
 20
-1.4562954204
 30
0.0
  0
SPLINE
  5
384
100
AcDbEntity
  8
0
100
AcDbSpline
 62
7
  6
CONTINUOUS
 70
0
 71
3
 72
15
 73
11
 74
0
 42
0.0000001
 43
0.0000001
 44
0.0000000001
 40
0.0
 40
0.0
 40
0.0
 40
0.0
 40
0.1141547262
 40
0.2373197603
 40
0.3669701463
 40
0.4999939469
 40
0.63301859
 40
0.7626714346
 40
0.8858403421
 40
1.0
 40
1.0
 40
1.0
 40
1.0
 10
8.4397214178
 20
-12.0323865833
 30
0.0
 10
8.4397214179
 20
-12.1381867066
 30
0.0
 10
8.4590978312
 20
-12.3583437081
 30
0.0
 10
8.5363579949
 20
-12.6904764348
 30
0.0
 10
8.6601085883
 20
-13.0269043836
 30
0.0
 10
8.8257456398
 20
-13.3549769941
 30
0.0
 10
9.0270476819
 20
-13.6624610164
 30
0.0
 10
9.2565310722
 20
-13.9378517908
 30
0.0
 10
9.5055419317
 20
-14.1708366443
 30
0.0
 10
9.686519427
 20
-14.2977036604
 30
0.0
 10
9.7781475038
 20
-14.350608564
 30
0.0
  0
SPLINE
  5
385
100
AcDbEntity
  8
0
100
AcDbSpline
 62
7
  6
CONTINUOUS
 70
0
 71
3
 72
15
 73
11
 74
0
 42
0.0000001
 43
0.0000001
 44
0.0000000001
 40
0.0
 40
0.0
 40
0.0
 40
0.0
 40
0.1141547262
 40
0.2373197603
 40
0.3669701463
 40
0.4999939469
 40
0.63301859
 40
0.7626714346
 40
0.8858403421
 40
1.0
 40
1.0
 40
1.0
 40
1.0
 10
-7.4701811589
 20
-2.8462082334
 30
0.0
 10
-7.4701811588
 20
-2.9520083567
 30
0.0
 10
-7.4508047455
 20
-3.1721653582
 30
0.0
 10
-7.3735445818
 20
-3.504298085
 30
0.0
 10
-7.2497939884
 20
-3.8407260337
 30
0.0
 10
-7.0841569369
 20
-4.1687986442
 30
0.0
 10
-6.8828548948
 20
-4.4762826665
 30
0.0
 10
-6.6533715045
 20
-4.7516734409
 30
0.0
 10
-6.404360645
 20
-4.9846582944
 30
0.0
 10
-6.2233831497
 20
-5.1115253105
 30
0.0
 10
-6.1317550729
 20
-5.1644302141
 30
0.0
  0
SPLINE
  5
386
100
AcDbEntity
  8
0
100
AcDbSpline
 62
7
  6
CONTINUOUS
 70
0
 71
3
 72
15
 73
11
 74
0
 42
0.0000001
 43
0.0000001
 44
0.0000000001
 40
0.0
 40
0.0
 40
0.0
 40
0.0
 40
0.1141547262
 40
0.2373197603
 40
0.3669701463
 40
0.4999939469
 40
0.63301859
 40
0.7626714346
 40
0.8858403421
 40
1.0
 40
1.0
 40
1.0
 40
1.0
 10
-23.3800837356
 20
6.3399701165
 30
0.0
 10
-23.3800837355
 20
6.2341699932
 30
0.0
 10
-23.3607073222
 20
6.0140129916
 30
0.0
 10
-23.2834471585
 20
5.6818802649
 30
0.0
 10
-23.1596965651
 20
5.3454523162
 30
0.0
 10
-22.9940595136
 20
5.0173797057
 30
0.0
 10
-22.7927574715
 20
4.7098956834
 30
0.0
 10
-22.5632740812
 20
4.434504909
 30
0.0
 10
-22.3142632217
 20
4.2015200554
 30
0.0
 10
-22.1332857264
 20
4.0746530393
 30
0.0
 10
-22.0416576496
 20
4.0217481358
 30
0.0
  0
SPLINE
  5
387
100
AcDbEntity
  8
0
100
AcDbSpline
 62
7
  6
CONTINUOUS
 70
0
 71
3
 72
9
 73
5
 74
0
 42
0.0000001
 43
0.0000001
 44
0.0000000001
 40
0.0
 40
0.0
 40
0.0
 40
0.0
 40
0.2715325905
 40
1.0
 40
1.0
 40
1.0
 40
1.0
 10
-12.7078481379
 20
-0.9652138244
 30
0.0
 10
-12.7078481378
 20
-0.9964493803
 30
0.0
 10
-12.7125852303
 20
-1.1112626101
 30
0.0
 10
-12.7378850069
 20
-1.2264936297
 30
0.0
 10
-12.772429889
 20
-1.3028407134
 30
0.0
  0
SPLINE
  5
388
100
AcDbEntity
  8
0
100
AcDbSpline
 62
7
  6
CONTINUOUS
 70
0
 71
3
 72
9
 73
5
 74
0
 42
0.0000001
 43
0.0000001
 44
0.0000000001
 40
0.0
 40
0.0
 40
0.0
 40
0.0
 40
0.5170824752
 40
1.0
 40
1.0
 40
1.0
 40
1.0
 10
-12.772429889
 20
-1.3028407134
 30
0.0
 10
-12.7926023697
 20
-1.3474235857
 30
0.0
 10
-12.8427244042
 20
-1.4294560382
 30
0.0
 10
-12.9167696594
 20
-1.4916464206
 30
0.0
 10
-12.9563472832
 20
-1.5144980578
 30
0.0
  0
SPLINE
  5
389
100
AcDbEntity
  8
0
100
AcDbSpline
 62
7
  6
CONTINUOUS
 70
0
 71
3
 72
9
 73
5
 74
0
 42
0.0000001
 43
0.0000001
 44
0.0000000001
 40
0.0
 40
0.0
 40
0.0
 40
0.0
 40
0.2715325905
 40
1.0
 40
1.0
 40
1.0
 40
1.0
 10
3.2020544388
 20
-10.1513921743
 30
0.0
 10
3.2020544389
 20
-10.1826277302
 30
0.0
 10
3.1973173464
 20
-10.29744096
 30
0.0
 10
3.1720175698
 20
-10.4126719796
 30
0.0
 10
3.1374726877
 20
-10.4890190633
 30
0.0
  0
SPLINE
  5
38A
100
AcDbEntity
  8
0
100
AcDbSpline
 62
7
  6
CONTINUOUS
 70
0
 71
3
 72
9
 73
5
 74
0
 42
0.0000001
 43
0.0000001
 44
0.0000000001
 40
0.0
 40
0.0
 40
0.0
 40
0.0
 40
0.5170824752
 40
1.0
 40
1.0
 40
1.0
 40
1.0
 10
3.1374726877
 20
-10.4890190633
 30
0.0
 10
3.117300207
 20
-10.5336019355
 30
0.0
 10
3.0671781725
 20
-10.615634388
 30
0.0
 10
2.9931329173
 20
-10.6778247704
 30
0.0
 10
2.9535552935
 20
-10.7006764077
 30
0.0
  0
SPLINE
  5
38B
100
AcDbEntity
  8
0
100
AcDbSpline
 62
7
  6
CONTINUOUS
 70
0
 71
3
 72
9
 73
5
 74
0
 42
0.0000001
 43
0.0000001
 44
0.0000000001
 40
0.0
 40
0.0
 40
0.0
 40
0.0
 40
0.2715325905
 40
1.0
 40
1.0
 40
1.0
 40
1.0
 10
19.1119570155
 20
-19.3375705242
 30
0.0
 10
19.1119570156
 20
-19.3688060801
 30
0.0
 10
19.1072199231
 20
-19.4836193099
 30
0.0
 10
19.0819201465
 20
-19.5988503294
 30
0.0
 10
19.0473752643
 20
-19.6751974131
 30
0.0
  0
SPLINE
  5
38C
100
AcDbEntity
  8
0
100
AcDbSpline
 62
7
  6
CONTINUOUS
 70
0
 71
3
 72
9
 73
5
 74
0
 42
0.0000001
 43
0.0000001
 44
0.0000000001
 40
0.0
 40
0.0
 40
0.0
 40
0.0
 40
0.5170824752
 40
1.0
 40
1.0
 40
1.0
 40
1.0
 10
19.0473752643
 20
-19.6751974131
 30
0.0
 10
19.0272027837
 20
-19.7197802854
 30
0.0
 10
18.9770807491
 20
-19.8018127379
 30
0.0
 10
18.903035494
 20
-19.8640031203
 30
0.0
 10
18.8634578702
 20
-19.8868547575
 30
0.0
  0
SPLINE
  5
38D
100
AcDbEntity
  8
0
100
AcDbSpline
 62
7
  6
CONTINUOUS
 70
0
 71
3
 72
15
 73
11
 74
0
 42
0.0000001
 43
0.0000001
 44
0.0000000001
 40
0.0
 40
0.0
 40
0.0
 40
0.0
 40
0.1449018606
 40
0.274517057
 40
0.3911053392
 40
0.4999889011
 40
0.6088744758
 40
0.7254681141
 40
0.8550905238
 40
1.0
 40
1.0
 40
1.0
 40
1.0
 10
-8.6773394852
 20
7.2400481093
 30
0.0
 10
-8.6773394855
 20
7.3262116374
 30
0.0
 10
-8.6643190256
 20
7.490020181
 30
0.0
 10
-8.5979442244
 20
7.7150262371
 30
0.0
 10
-8.4861732435
 20
7.8977356979
 30
0.0
 10
-8.3310237905
 20
8.0282150234
 30
0.0
 10
-8.1404399959
 20
8.0973179061
 30
0.0
 10
-7.9263148379
 20
8.1027408943
 30
0.0
 10
-7.6982583982
 20
8.0477040382
 30
0.0
 10
-7.549880482
 20
7.9770668798
 30
0.0
 10
-7.4752579572
 20
7.9339807712
 30
0.0
  0
SPLINE
  5
38E
100
AcDbEntity
  8
0
100
AcDbSpline
 62
7
  6
CONTINUOUS
 70
0
 71
3
 72
13
 73
9
 74
0
 42
0.0000001
 43
0.0000001
 44
0.0000000001
 40
0.0
 40
0.0
 40
0.0
 40
0.0
 40
0.1142615975
 40
0.2375404836
 40
0.5000060625
 40
0.7624683192
 40
0.885743332
 40
1.0
 40
1.0
 40
1.0
 40
1.0
 10
-7.4752579572
 20
-5.7827198789
 30
0.0
 10
-7.5575519518
 20
-5.7352043581
 30
0.0
 10
-7.7201137141
 20
-5.6212634727
 30
0.0
 10
-8.0244184991
 20
-5.3364018259
 30
0.0
 10
-8.3458976259
 20
-4.8973245392
 30
0.0
 10
-8.5654097721
 20
-4.3993797671
 30
0.0
 10
-8.6599490667
 20
-3.993422177
 30
0.0
 10
-8.6773394833
 20
-3.7956759505
 30
0.0
 10
-8.6773394852
 20
-3.7006535997
 30
0.0
  0
SPLINE
  5
38F
100
AcDbEntity
  8
0
100
AcDbSpline
 62
7
  6
CONTINUOUS
 70
0
 71
3
 72
15
 73
11
 74
0
 42
0.0000001
 43
0.0000001
 44
0.0000000001
 40
0.0
 40
0.0
 40
0.0
 40
0.0
 40
0.1449018606
 40
0.274517057
 40
0.3911053392
 40
0.4999889011
 40
0.6088744758
 40
0.7254681141
 40
0.8550905238
 40
1.0
 40
1.0
 40
1.0
 40
1.0
 10
3.2020544388
 20
-10.5596667676
 30
0.0
 10
3.2020544391
 20
-10.6458302957
 30
0.0
 10
3.1890339791
 20
-10.8096388393
 30
0.0
 10
3.122659178
 20
-11.0346448954
 30
0.0
 10
3.0108881971
 20
-11.2173543562
 30
0.0
 10
2.8557387441
 20
-11.3478336817
 30
0.0
 10
2.6651549495
 20
-11.4169365644
 30
0.0
 10
2.4510297915
 20
-11.4223595526
 30
0.0
 10
2.2229733518
 20
-11.3673226965
 30
0.0
 10
2.0745954356
 20
-11.2966855381
 30
0.0
 10
1.9999729107
 20
-11.2535994295
 30
0.0
  0
SPLINE
  5
390
100
AcDbEntity
  8
0
100
AcDbSpline
 62
7
  6
CONTINUOUS
 70
0
 71
3
 72
15
 73
11
 74
0
 42
0.0000001
 43
0.0000001
 44
0.0000000001
 40
0.0
 40
0.0
 40
0.0
 40
0.0
 40
0.1449018606
 40
0.274517057
 40
0.3911053392
 40
0.4999889011
 40
0.6088744758
 40
0.7254681141
 40
0.8550905238
 40
1.0
 40
1.0
 40
1.0
 40
1.0
 10
-24.5872420619
 20
16.4262264592
 30
0.0
 10
-24.5872420622
 20
16.5123899873
 30
0.0
 10
-24.5742216023
 20
16.6761985308
 30
0.0
 10
-24.5078468011
 20
16.901204587
 30
0.0
 10
-24.3960758202
 20
17.0839140478
 30
0.0
 10
-24.2409263672
 20
17.2143933733
 30
0.0
 10
-24.0503425726
 20
17.2834962559
 30
0.0
 10
-23.8362174146
 20
17.2889192442
 30
0.0
 10
-23.6081609749
 20
17.2338823881
 30
0.0
 10
-23.4597830587
 20
17.1632452297
 30
0.0
 10
-23.3851605339
 20
17.1201591211
 30
0.0
  0
SPLINE
  5
391
100
AcDbEntity
  8
0
100
AcDbSpline
 62
7
  6
CONTINUOUS
 70
0
 71
3
 72
13
 73
9
 74
0
 42
0.0000001
 43
0.0000001
 44
0.0000000001
 40
0.0
 40
0.0
 40
0.0
 40
0.0
 40
0.1142615975
 40
0.2375404836
 40
0.5000060625
 40
0.7624683192
 40
0.885743332
 40
1.0
 40
1.0
 40
1.0
 40
1.0
 10
-23.3851605339
 20
3.403458471
 30
0.0
 10
-23.4674545285
 20
3.4509739917
 30
0.0
 10
-23.6300162908
 20
3.5649148772
 30
0.0
 10
-23.9343210758
 20
3.849776524
 30
0.0
 10
-24.2558002026
 20
4.2888538107
 30
0.0
 10
-24.4753123488
 20
4.7867985827
 30
0.0
 10
-24.5698516434
 20
5.1927561728
 30
0.0
 10
-24.58724206
 20
5.3905023994
 30
0.0
 10
-24.5872420619
 20
5.4855247502
 30
0.0
  0
SPLINE
  5
392
100
AcDbEntity
  8
0
100
AcDbSpline
 62
7
  6
CONTINUOUS
 70
0
 71
3
 72
15
 73
11
 74
0
 42
0.0000001
 43
0.0000001
 44
0.0000000001
 40
0.0
 40
0.0
 40
0.0
 40
0.0
 40
0.1449018606
 40
0.274517057
 40
0.3911053392
 40
0.4999889011
 40
0.6088744758
 40
0.7254681141
 40
0.8550905238
 40
1.0
 40
1.0
 40
1.0
 40
1.0
 10
-12.7078481379
 20
-1.3734884177
 30
0.0
 10
-12.7078481376
 20
-1.4596519459
 30
0.0
 10
-12.7208685975
 20
-1.6234604894
 30
0.0
 10
-12.7872433987
 20
-1.8484665455
 30
0.0
 10
-12.8990143796
 20
-2.0311760063
 30
0.0
 10
-13.0541638326
 20
-2.1616553319
 30
0.0
 10
-13.2447476272
 20
-2.2307582145
 30
0.0
 10
-13.4588727852
 20
-2.2361812027
 30
0.0
 10
-13.6869292249
 20
-2.1811443467
 30
0.0
 10
-13.8353071411
 20
-2.1105071883
 30
0.0
 10
-13.909929666
 20
-2.0674210796
 30
0.0
  0
SPLINE
  5
393
100
AcDbEntity
  8
0
100
AcDbSpline
 62
7
  6
CONTINUOUS
 70
0
 71
3
 72
9
 73
5
 74
0
 42
0.0000001
 43
0.0000001
 44
0.0000000001
 40
0.0
 40
0.0
 40
0.0
 40
0.0
 40
0.2314181732
 40
1.0
 40
1.0
 40
1.0
 40
1.0
 10
-23.6828657384
 20
16.8252125903
 30
0.0
 10
-23.692306557
 20
16.8021217724
 30
0.0
 10
-23.7270295661
 20
16.6998534448
 30
0.0
 10
-23.738713924
 20
16.5907323788
 30
0.0
 10
-23.7387139244
 20
16.5078813779
 30
0.0
  0
SPLINE
  5
394
100
AcDbEntity
  8
0
100
AcDbSpline
 62
7
  6
CONTINUOUS
 70
0
 71
3
 72
15
 73
11
 74
0
 42
0.0000001
 43
0.0000001
 44
0.0000000001
 40
0.0
 40
0.0
 40
0.0
 40
0.0
 40
0.1449018606
 40
0.274517057
 40
0.3911053392
 40
0.4999889011
 40
0.6088744758
 40
0.7254681141
 40
0.8550905238
 40
1.0
 40
1.0
 40
1.0
 40
1.0
 10
7.2325630915
 20
-1.9461302406
 30
0.0
 10
7.2325630912
 20
-1.8599667125
 30
0.0
 10
7.2455835511
 20
-1.6961581689
 30
0.0
 10
7.3119583523
 20
-1.4711521128
 30
0.0
 10
7.4237293332
 20
-1.288442652
 30
0.0
 10
7.5788787862
 20
-1.1579633265
 30
0.0
 10
7.7694625808
 20
-1.0888604438
 30
0.0
 10
7.9835877388
 20
-1.0834374556
 30
0.0
 10
8.2116441785
 20
-1.1384743116
 30
0.0
 10
8.3600220947
 20
-1.20911147
 30
0.0
 10
8.4346446195
 20
-1.2521975787
 30
0.0
  0
SPLINE
  5
395
100
AcDbEntity
  8
0
100
AcDbSpline
 62
7
  6
CONTINUOUS
 70
0
 71
3
 72
9
 73
5
 74
0
 42
0.0000001
 43
0.0000001
 44
0.0000000001
 40
0.0
 40
0.0
 40
0.0
 40
0.0
 40
0.2314181732
 40
1.0
 40
1.0
 40
1.0
 40
1.0
 10
8.136939415
 20
-1.5471441094
 30
0.0
 10
8.1274985964
 20
-1.5702349273
 30
0.0
 10
8.0927755873
 20
-1.6725032549
 30
0.0
 10
8.0810912294
 20
-1.7816243209
 30
0.0
 10
8.081091229
 20
-1.8644753219
 30
0.0
  0
SPLINE
  5
396
100
AcDbEntity
  8
0
100
AcDbSpline
 62
7
  6
CONTINUOUS
 70
0
 71
3
 72
13
 73
9
 74
0
 42
0.0000001
 43
0.0000001
 44
0.0000000001
 40
0.0
 40
0.0
 40
0.0
 40
0.0
 40
0.1142615975
 40
0.2375404836
 40
0.5000060625
 40
0.7624683192
 40
0.885743332
 40
1.0
 40
1.0
 40
1.0
 40
1.0
 10
8.4346446195
 20
-14.9688982288
 30
0.0
 10
8.3523506249
 20
-14.921382708
 30
0.0
 10
8.1897888626
 20
-14.8074418225
 30
0.0
 10
7.8854840776
 20
-14.5225801758
 30
0.0
 10
7.5640049508
 20
-14.0835028891
 30
0.0
 10
7.3444928046
 20
-13.585558117
 30
0.0
 10
7.24995351
 20
-13.1796005269
 30
0.0
 10
7.2325630934
 20
-12.9818543004
 30
0.0
 10
7.2325630915
 20
-12.8868319496
 30
0.0
  0
SPLINE
  5
397
100
AcDbEntity
  8
0
100
AcDbSpline
 62
7
  6
CONTINUOUS
 70
0
 71
3
 72
11
 73
7
 74
0
 42
0.0000001
 43
0.0000001
 44
0.0000000001
 40
0.0
 40
0.0
 40
0.0
 40
0.0
 40
0.2191409981
 40
0.4557653171
 40
0.7154233258
 40
1.0
 40
1.0
 40
1.0
 40
1.0
 10
-13.0398320616
 20
-1.550832733
 30
0.0
 10
-13.0774714989
 20
-1.5624515541
 30
0.0
 10
-13.1594833671
 20
-1.5754718695
 30
0.0
 10
-13.2885939946
 20
-1.5642174896
 30
0.0
 10
-13.4238725766
 20
-1.5239455628
 30
0.0
 10
-13.5120759855
 20
-1.4806270779
 30
0.0
 10
-13.5563762754
 20
-1.4550486446
 30
0.0
  0
SPLINE
  5
398
100
AcDbEntity
  8
0
100
AcDbSpline
 62
7
  6
CONTINUOUS
 70
0
 71
3
 72
11
 73
7
 74
0
 42
0.0000001
 43
0.0000001
 44
0.0000000001
 40
0.0
 40
0.0
 40
0.0
 40
0.0
 40
0.2372223247
 40
0.5000061052
 40
0.7627865602
 40
1.0
 40
1.0
 40
1.0
 40
1.0
 10
-23.0316071433
 20
4.015830906
 30
0.0
 10
-23.1520630537
 20
4.0853806396
 30
0.0
 10
-23.3800340285
 20
4.2772453899
 30
0.0
 10
-23.6461145419
 20
4.6408515889
 30
0.0
 10
-23.8279650244
 20
5.0530820957
 30
0.0
 10
-23.8801352835
 20
5.3464372144
 30
0.0
 10
-23.8801352807
 20
5.4855247502
 30
0.0
  0
SPLINE
  5
399
100
AcDbEntity
  8
0
100
AcDbSpline
 62
7
  6
CONTINUOUS
 70
0
 71
3
 72
11
 73
7
 74
0
 42
0.0000001
 43
0.0000001
 44
0.0000000001
 40
0.0
 40
0.0
 40
0.0
 40
0.0
 40
0.2372134857
 40
0.4999938933
 40
0.7627776251
 40
1.0
 40
1.0
 40
1.0
 40
1.0
 10
-23.7387139244
 20
5.5671796688
 30
0.0
 10
-23.7387139242
 20
5.4280921062
 30
0.0
 10
-23.6865436618
 20
5.1347369879
 30
0.0
 10
-23.5046931812
 20
4.7225065139
 30
0.0
 10
-23.2386126946
 20
4.3589003317
 30
0.0
 10
-23.0106417228
 20
4.1670355732
 30
0.0
 10
-22.890185787
 20
4.0974858247
 30
0.0
  0
SPLINE
  5
39A
100
AcDbEntity
  8
0
100
AcDbSpline
 62
7
  6
CONTINUOUS
 70
0
 71
3
 72
9
 73
5
 74
0
 42
0.0000001
 43
0.0000001
 44
0.0000000001
 40
0.0
 40
0.0
 40
0.0
 40
0.0
 40
0.2698109577
 40
1.0
 40
1.0
 40
1.0
 40
1.0
 10
-13.4149549191
 20
-1.3733937259
 30
0.0
 10
-13.3897689701
 20
-1.3879357772
 30
0.0
 10
-13.2944925888
 20
-1.4381609772
 30
0.0
 10
-13.1901116046
 20
-1.4730975314
 30
0.0
 10
-13.1121257764
 20
-1.4837238367
 30
0.0
  0
SPLINE
  5
39B
100
AcDbEntity
  8
0
100
AcDbSpline
 62
7
  6
CONTINUOUS
 70
0
 71
3
 72
11
 73
7
 74
0
 42
0.0000001
 43
0.0000001
 44
0.0000000001
 40
0.0
 40
0.0
 40
0.0
 40
0.0
 40
0.2845759374
 40
0.5442323343
 40
0.7808561232
 40
1.0
 40
1.0
 40
1.0
 40
1.0
 10
-23.8801352807
 20
16.4262264592
 30
0.0
 10
-23.8801352805
 20
16.4773780792
 30
0.0
 10
-23.8735455205
 20
16.5754180949
 30
0.0
 10
-23.8407773799
 20
16.7126996174
 30
0.0
 10
-23.7859625665
 20
16.8301300693
 30
0.0
 10
-23.733676723
 20
16.8946362761
 30
0.0
 10
-23.7047931507
 20
16.9214195554
 30
0.0
  0
SPLINE
  5
39C
100
AcDbEntity
  8
0
100
AcDbSpline
 62
7
  6
CONTINUOUS
 70
0
 71
3
 72
15
 73
11
 74
0
 42
0.0000001
 43
0.0000001
 44
0.0000000001
 40
0.0
 40
0.0
 40
0.0
 40
0.0
 40
0.1449018606
 40
0.274517057
 40
0.3911053392
 40
0.4999889011
 40
0.6088744758
 40
0.7254681141
 40
0.8550905238
 40
1.0
 40
1.0
 40
1.0
 40
1.0
 10
19.1119570155
 20
-19.7458451175
 30
0.0
 10
19.1119570158
 20
-19.8320086456
 30
0.0
 10
19.0989365558
 20
-19.9958171891
 30
0.0
 10
19.0325617547
 20
-20.2208232453
 30
0.0
 10
18.9207907738
 20
-20.4035327061
 30
0.0
 10
18.7656413208
 20
-20.5340120316
 30
0.0
 10
18.5750575262
 20
-20.6031149142
 30
0.0
 10
18.3609323681
 20
-20.6085379025
 30
0.0
 10
18.1328759284
 20
-20.5535010464
 30
0.0
 10
17.9844980123
 20
-20.482863888
 30
0.0
 10
17.9098754874
 20
-20.4397777794
 30
0.0
  0
SPLINE
  5
39D
100
AcDbEntity
  8
0
100
AcDbSpline
 62
7
  6
CONTINUOUS
 70
0
 71
3
 72
11
 73
7
 74
0
 42
0.0000001
 43
0.0000001
 44
0.0000000001
 40
0.0
 40
0.0
 40
0.0
 40
0.0
 40
0.2372223247
 40
0.5000061052
 40
0.7627865602
 40
1.0
 40
1.0
 40
1.0
 40
1.0
 10
-7.1217045666
 20
-5.1703474439
 30
0.0
 10
-7.242160477
 20
-5.1007977103
 30
0.0
 10
-7.4701314518
 20
-4.90893296
 30
0.0
 10
-7.7362119652
 20
-4.545326761
 30
0.0
 10
-7.9180624477
 20
-4.1330962542
 30
0.0
 10
-7.9702327068
 20
-3.8397411355
 30
0.0
 10
-7.970232704
 20
-3.7006535997
 30
0.0
  0
SPLINE
  5
39E
100
AcDbEntity
  8
0
100
AcDbSpline
 62
7
  6
CONTINUOUS
 70
0
 71
3
 72
11
 73
7
 74
0
 42
0.0000001
 43
0.0000001
 44
0.0000000001
 40
0.0
 40
0.0
 40
0.0
 40
0.0
 40
0.2372134857
 40
0.4999938933
 40
0.7627776251
 40
1.0
 40
1.0
 40
1.0
 40
1.0
 10
-7.8288113477
 20
-3.618998681
 30
0.0
 10
-7.8288113475
 20
-3.7580862437
 30
0.0
 10
-7.7766410851
 20
-4.051441362
 30
0.0
 10
-7.5947906045
 20
-4.4636718359
 30
0.0
 10
-7.3287101179
 20
-4.8272780182
 30
0.0
 10
-7.1007391461
 20
-5.0191427766
 30
0.0
 10
-6.9802832103
 20
-5.0886925252
 30
0.0
  0
SPLINE
  5
39F
100
AcDbEntity
  8
0
100
AcDbSpline
 62
7
  6
CONTINUOUS
 70
0
 71
3
 72
9
 73
5
 74
0
 42
0.0000001
 43
0.0000001
 44
0.0000000001
 40
0.0
 40
0.0
 40
0.0
 40
0.0
 40
0.2698109577
 40
1.0
 40
1.0
 40
1.0
 40
1.0
 10
2.4949476576
 20
-10.5595720758
 30
0.0
 10
2.5201336066
 20
-10.574114127
 30
0.0
 10
2.6154099879
 20
-10.6243393271
 30
0.0
 10
2.7197909721
 20
-10.6592758813
 30
0.0
 10
2.7977768003
 20
-10.6699021865
 30
0.0
  0
SPLINE
  5
3A0
100
AcDbEntity
  8
0
100
AcDbSpline
 62
7
  6
CONTINUOUS
 70
0
 71
3
 72
11
 73
7
 74
0
 42
0.0000001
 43
0.0000001
 44
0.0000000001
 40
0.0
 40
0.0
 40
0.0
 40
0.0
 40
0.2845759374
 40
0.5442323343
 40
0.7808561232
 40
1.0
 40
1.0
 40
1.0
 40
1.0
 10
-7.970232704
 20
7.2400481093
 30
0.0
 10
-7.9702327038
 20
7.2911997293
 30
0.0
 10
-7.9636429438
 20
7.389239745
 30
0.0
 10
-7.9308748032
 20
7.5265212676
 30
0.0
 10
-7.8760599898
 20
7.6439517194
 30
0.0
 10
-7.8237741463
 20
7.7084579262
 30
0.0
 10
-7.794890574
 20
7.7352412056
 30
0.0
  0
SPLINE
  5
3A1
100
AcDbEntity
  8
0
100
AcDbSpline
 62
7
  6
CONTINUOUS
 70
0
 71
3
 72
11
 73
7
 74
0
 42
0.0000001
 43
0.0000001
 44
0.0000000001
 40
0.0
 40
0.0
 40
0.0
 40
0.0
 40
0.2191409981
 40
0.4557653171
 40
0.7154233258
 40
1.0
 40
1.0
 40
1.0
 40
1.0
 10
2.8700705151
 20
-10.7370110828
 30
0.0
 10
2.8324310778
 20
-10.748629904
 30
0.0
 10
2.7504192096
 20
-10.7616502194
 30
0.0
 10
2.6213085821
 20
-10.7503958395
 30
0.0
 10
2.4860300001
 20
-10.7101239127
 30
0.0
 10
2.3978265912
 20
-10.6668054278
 30
0.0
 10
2.3535263013
 20
-10.6412269944
 30
0.0
  0
SPLINE
  5
3A2
100
AcDbEntity
  8
0
100
AcDbSpline
 62
7
  6
CONTINUOUS
 70
0
 71
3
 72
9
 73
5
 74
0
 42
0.0000001
 43
0.0000001
 44
0.0000000001
 40
0.0
 40
0.0
 40
0.0
 40
0.0
 40
0.2314181732
 40
1.0
 40
1.0
 40
1.0
 40
1.0
 10
-7.7729631617
 20
7.6390342405
 30
0.0
 10
-7.7824039803
 20
7.6159434226
 30
0.0
 10
-7.8171269894
 20
7.513675095
 30
0.0
 10
-7.8288113473
 20
7.404554029
 30
0.0
 10
-7.8288113477
 20
7.321703028
 30
0.0
  0
SPLINE
  5
3A3
100
AcDbEntity
  8
0
100
AcDbSpline
 62
7
  6
CONTINUOUS
 70
0
 71
3
 72
11
 73
7
 74
0
 42
0.0000001
 43
0.0000001
 44
0.0000000001
 40
0.0
 40
0.0
 40
0.0
 40
0.0
 40
0.2372223247
 40
0.5000061052
 40
0.7627865602
 40
1.0
 40
1.0
 40
1.0
 40
1.0
 10
8.7881980101
 20
-14.3565257937
 30
0.0
 10
8.6677420997
 20
-14.2869760602
 30
0.0
 10
8.4397711249
 20
-14.0951113098
 30
0.0
 10
8.1736906115
 20
-13.7315051108
 30
0.0
 10
7.991840129
 20
-13.3192746041
 30
0.0
 10
7.9396698699
 20
-13.0259194853
 30
0.0
 10
7.9396698727
 20
-12.8868319496
 30
0.0
  0
SPLINE
  5
3A4
100
AcDbEntity
  8
0
100
AcDbSpline
 62
7
  6
CONTINUOUS
 70
0
 71
3
 72
11
 73
7
 74
0
 42
0.0000001
 43
0.0000001
 44
0.0000000001
 40
0.0
 40
0.0
 40
0.0
 40
0.0
 40
0.2372134857
 40
0.4999938933
 40
0.7627776251
 40
1.0
 40
1.0
 40
1.0
 40
1.0
 10
8.081091229
 20
-12.8051770309
 30
0.0
 10
8.0810912292
 20
-12.9442645936
 30
0.0
 10
8.1332614916
 20
-13.2376197119
 30
0.0
 10
8.3151119722
 20
-13.6498501858
 30
0.0
 10
8.5811924588
 20
-14.0134563681
 30
0.0
 10
8.8091634306
 20
-14.2053211265
 30
0.0
 10
8.9296193664
 20
-14.2748708751
 30
0.0
  0
SPLINE
  5
3A5
100
AcDbEntity
  8
0
100
AcDbSpline
 62
7
  6
CONTINUOUS
 70
0
 71
3
 72
9
 73
5
 74
0
 42
0.0000001
 43
0.0000001
 44
0.0000000001
 40
0.0
 40
0.0
 40
0.0
 40
0.0
 40
0.2698109577
 40
1.0
 40
1.0
 40
1.0
 40
1.0
 10
18.4048502343
 20
-19.7457504257
 30
0.0
 10
18.4300361833
 20
-19.7602924769
 30
0.0
 10
18.5253125646
 20
-19.810517677
 30
0.0
 10
18.6296935488
 20
-19.8454542312
 30
0.0
 10
18.7076793769
 20
-19.8560805364
 30
0.0
  0
SPLINE
  5
3A6
100
AcDbEntity
  8
0
100
AcDbSpline
 62
7
  6
CONTINUOUS
 70
0
 71
3
 72
11
 73
7
 74
0
 42
0.0000001
 43
0.0000001
 44
0.0000000001
 40
0.0
 40
0.0
 40
0.0
 40
0.0
 40
0.2845759374
 40
0.5442323343
 40
0.7808561232
 40
1.0
 40
1.0
 40
1.0
 40
1.0
 10
7.9396698727
 20
-1.9461302406
 30
0.0
 10
7.9396698729
 20
-1.8949786206
 30
0.0
 10
7.9462596329
 20
-1.7969386049
 30
0.0
 10
7.9790277735
 20
-1.6596570823
 30
0.0
 10
8.0338425869
 20
-1.5422266305
 30
0.0
 10
8.0861284304
 20
-1.4777204237
 30
0.0
 10
8.1150120027
 20
-1.4509371443
 30
0.0
  0
SPLINE
  5
3A7
100
AcDbEntity
  8
0
100
AcDbSpline
 62
7
  6
CONTINUOUS
 70
0
 71
3
 72
11
 73
7
 74
0
 42
0.0000001
 43
0.0000001
 44
0.0000000001
 40
0.0
 40
0.0
 40
0.0
 40
0.0
 40
0.2191409981
 40
0.4557653171
 40
0.7154233258
 40
1.0
 40
1.0
 40
1.0
 40
1.0
 10
18.7799730918
 20
-19.9231894327
 30
0.0
 10
18.7423336545
 20
-19.9348082538
 30
0.0
 10
18.6603217863
 20
-19.9478285693
 30
0.0
 10
18.5312111588
 20
-19.9365741894
 30
0.0
 10
18.3959325768
 20
-19.8963022626
 30
0.0
 10
18.3077291679
 20
-19.8529837777
 30
0.0
 10
18.263428878
 20
-19.8274053443
 30
0.0
  0
SPLINE
  5
3A8
100
AcDbEntity
  8
ASSI
100
AcDbSpline
 62
7
  6
CONTINUOUS
 70
0
 71
3
 72
9
 73
5
 74
0
 42
0.0000001
 43
0.0000001
 44
0.0000000001
 40
0.0
 40
0.0
 40
0.0
 40
0.0
 40
0.2403057122
 40
1.0
 40
1.0
 40
1.0
 40
1.0
 10
17.9098754874
 20
-6.7230771293
 30
0.0
 10
17.9334964109
 20
-6.7367155543
 30
0.0
 10
18.0303300313
 20
-6.7959882495
 30
0.0
 10
18.1213339232
 20
-6.8645926598
 30
0.0
 10
18.1870028697
 20
-6.9204750969
 30
0.0
  0
SPLINE
  5
3A9
100
AcDbEntity
  8
ASSI
100
AcDbSpline
 62
7
  6
CONTINUOUS
 70
0
 71
3
 72
11
 73
7
 74
0
 42
0.0000001
 43
0.0000001
 44
0.0000000001
 40
0.0
 40
0.0
 40
0.0
 40
0.0
 40
0.2436409567
 40
0.5000042266
 40
0.7563652941
 40
1.0
 40
1.0
 40
1.0
 40
1.0
 10
18.1870028697
 20
-6.9204750969
 30
0.0
 10
18.2992837313
 20
-7.0160229701
 30
0.0
 10
18.5103246573
 20
-7.2355014625
 30
0.0
 10
18.7703806585
 20
-7.6143219219
 30
0.0
 10
18.9684203125
 20
-8.0289433118
 30
0.0
 10
19.0529716476
 20
-8.3214448405
 30
0.0
 10
19.0795759597
 20
-8.4664534031
 30
0.0
  0
SPLINE
  5
3AA
100
AcDbEntity
  8
ASSI
100
AcDbSpline
 62
7
  6
CONTINUOUS
 70
0
 71
3
 72
9
 73
5
 74
0
 42
0.0000001
 43
0.0000001
 44
0.0000000001
 40
0.0
 40
0.0
 40
0.0
 40
0.0
 40
0.2594910627
 40
1.0
 40
1.0
 40
1.0
 40
1.0
 10
19.0795759597
 20
-8.4664534031
 30
0.0
 10
19.084890595
 20
-8.4954211743
 30
0.0
 10
19.1030914705
 20
-8.6074461161
 30
0.0
 10
19.1119570138
 20
-8.7210984088
 30
0.0
 10
19.1119570155
 20
-8.8051434085
 30
0.0
  0
SPLINE
  5
3AB
100
AcDbEntity
  8
ASSI
100
AcDbSpline
 62
7
  6
CONTINUOUS
 70
0
 71
3
 72
9
 73
5
 74
0
 42
0.0000001
 43
0.0000001
 44
0.0000000001
 40
0.0
 40
0.0
 40
0.0
 40
0.0
 40
0.2403057122
 40
1.0
 40
1.0
 40
1.0
 40
1.0
 10
1.9999729107
 20
2.4631012206
 30
0.0
 10
2.0235938342
 20
2.4494627956
 30
0.0
 10
2.1204274546
 20
2.3901901003
 30
0.0
 10
2.2114313465
 20
2.32158569
 30
0.0
 10
2.277100293
 20
2.265703253
 30
0.0
  0
SPLINE
  5
3AC
100
AcDbEntity
  8
ASSI
100
AcDbSpline
 62
7
  6
CONTINUOUS
 70
0
 71
3
 72
11
 73
7
 74
0
 42
0.0000001
 43
0.0000001
 44
0.0000000001
 40
0.0
 40
0.0
 40
0.0
 40
0.0
 40
0.2436409567
 40
0.5000042266
 40
0.7563652941
 40
1.0
 40
1.0
 40
1.0
 40
1.0
 10
2.277100293
 20
2.265703253
 30
0.0
 10
2.3893811546
 20
2.1701553798
 30
0.0
 10
2.6004220806
 20
1.9506768874
 30
0.0
 10
2.8604780818
 20
1.571856428
 30
0.0
 10
3.0585177359
 20
1.1572350381
 30
0.0
 10
3.1430690709
 20
0.8647335094
 30
0.0
 10
3.169673383
 20
0.7197249467
 30
0.0
  0
SPLINE
  5
3AD
100
AcDbEntity
  8
ASSI
100
AcDbSpline
 62
7
  6
CONTINUOUS
 70
0
 71
3
 72
9
 73
5
 74
0
 42
0.0000001
 43
0.0000001
 44
0.0000000001
 40
0.0
 40
0.0
 40
0.0
 40
0.0
 40
0.2594910627
 40
1.0
 40
1.0
 40
1.0
 40
1.0
 10
3.169673383
 20
0.7197249467
 30
0.0
 10
3.1749880183
 20
0.6907571756
 30
0.0
 10
3.1931888938
 20
0.5787322337
 30
0.0
 10
3.2020544371
 20
0.4650799411
 30
0.0
 10
3.2020544388
 20
0.3810349414
 30
0.0
  0
SPLINE
  5
3AE
100
AcDbEntity
  8
ASSI
100
AcDbSpline
 62
7
  6
CONTINUOUS
 70
0
 71
3
 72
9
 73
5
 74
0
 42
0.0000001
 43
0.0000001
 44
0.0000000001
 40
0.0
 40
0.0
 40
0.0
 40
0.0
 40
0.2403057122
 40
1.0
 40
1.0
 40
1.0
 40
1.0
 10
-13.909929666
 20
11.6492795705
 30
0.0
 10
-13.8863087425
 20
11.6356411454
 30
0.0
 10
-13.7894751221
 20
11.5763684502
 30
0.0
 10
-13.6984712302
 20
11.5077640399
 30
0.0
 10
-13.6328022837
 20
11.4518816029
 30
0.0
  0
SPLINE
  5
3AF
100
AcDbEntity
  8
ASSI
100
AcDbSpline
 62
7
  6
CONTINUOUS
 70
0
 71
3
 72
11
 73
7
 74
0
 42
0.0000001
 43
0.0000001
 44
0.0000000001
 40
0.0
 40
0.0
 40
0.0
 40
0.0
 40
0.2436409567
 40
0.5000042266
 40
0.7563652941
 40
1.0
 40
1.0
 40
1.0
 40
1.0
 10
-13.6328022837
 20
11.4518816029
 30
0.0
 10
-13.5205214221
 20
11.3563337296
 30
0.0
 10
-13.3094804961
 20
11.1368552372
 30
0.0
 10
-13.0494244949
 20
10.7580347779
 30
0.0
 10
-12.8513848408
 20
10.343413388
 30
0.0
 10
-12.7668335058
 20
10.0509118593
 30
0.0
 10
-12.7402291937
 20
9.9059032966
 30
0.0
  0
SPLINE
  5
3B0
100
AcDbEntity
  8
ASSI
100
AcDbSpline
 62
7
  6
CONTINUOUS
 70
0
 71
3
 72
9
 73
5
 74
0
 42
0.0000001
 43
0.0000001
 44
0.0000000001
 40
0.0
 40
0.0
 40
0.0
 40
0.0
 40
0.2594910627
 40
1.0
 40
1.0
 40
1.0
 40
1.0
 10
-12.7402291937
 20
9.9059032966
 30
0.0
 10
-12.7349145584
 20
9.8769355254
 30
0.0
 10
-12.7167136829
 20
9.7649105836
 30
0.0
 10
-12.7078481396
 20
9.6512582909
 30
0.0
 10
-12.7078481379
 20
9.5672132913
 30
0.0
  0
SPLINE
  5
3B1
100
AcDbEntity
  8
ASSI
100
AcDbSpline
 62
7
  6
CONTINUOUS
 70
0
 71
3
 72
15
 73
11
 74
0
 42
0.0000001
 43
0.0000001
 44
0.0000000001
 40
0.0
 40
0.0
 40
0.0
 40
0.0
 40
0.1141547262
 40
0.2373197603
 40
0.3669701463
 40
0.4999939469
 40
0.63301859
 40
0.7626714346
 40
0.8858403421
 40
1.0
 40
1.0
 40
1.0
 40
1.0
 10
8.4397214178
 20
-12.0323865833
 30
0.0
 10
8.4397214179
 20
-12.1381867066
 30
0.0
 10
8.4590978312
 20
-12.3583437081
 30
0.0
 10
8.5363579949
 20
-12.6904764348
 30
0.0
 10
8.6601085883
 20
-13.0269043836
 30
0.0
 10
8.8257456398
 20
-13.3549769941
 30
0.0
 10
9.0270476819
 20
-13.6624610164
 30
0.0
 10
9.2565310722
 20
-13.9378517908
 30
0.0
 10
9.5055419317
 20
-14.1708366443
 30
0.0
 10
9.686519427
 20
-14.2977036604
 30
0.0
 10
9.7781475038
 20
-14.350608564
 30
0.0
  0
SPLINE
  5
3B2
100
AcDbEntity
  8
ASSI
100
AcDbSpline
 62
7
  6
CONTINUOUS
 70
0
 71
3
 72
15
 73
11
 74
0
 42
0.0000001
 43
0.0000001
 44
0.0000000001
 40
0.0
 40
0.0
 40
0.0
 40
0.0
 40
0.1141547262
 40
0.2373197603
 40
0.3669701463
 40
0.4999939469
 40
0.63301859
 40
0.7626714346
 40
0.8858403421
 40
1.0
 40
1.0
 40
1.0
 40
1.0
 10
-7.4701811589
 20
-2.8462082334
 30
0.0
 10
-7.4701811588
 20
-2.9520083567
 30
0.0
 10
-7.4508047455
 20
-3.1721653582
 30
0.0
 10
-7.3735445818
 20
-3.504298085
 30
0.0
 10
-7.2497939884
 20
-3.8407260337
 30
0.0
 10
-7.0841569369
 20
-4.1687986442
 30
0.0
 10
-6.8828548948
 20
-4.4762826665
 30
0.0
 10
-6.6533715045
 20
-4.7516734409
 30
0.0
 10
-6.404360645
 20
-4.9846582944
 30
0.0
 10
-6.2233831497
 20
-5.1115253105
 30
0.0
 10
-6.1317550729
 20
-5.1644302141
 30
0.0
  0
SPLINE
  5
3B3
100
AcDbEntity
  8
ASSI
100
AcDbSpline
 62
7
  6
CONTINUOUS
 70
0
 71
3
 72
15
 73
11
 74
0
 42
0.0000001
 43
0.0000001
 44
0.0000000001
 40
0.0
 40
0.0
 40
0.0
 40
0.0
 40
0.1141547262
 40
0.2373197603
 40
0.3669701463
 40
0.4999939469
 40
0.63301859
 40
0.7626714346
 40
0.8858403421
 40
1.0
 40
1.0
 40
1.0
 40
1.0
 10
-23.3800837356
 20
6.3399701165
 30
0.0
 10
-23.3800837355
 20
6.2341699932
 30
0.0
 10
-23.3607073222
 20
6.0140129916
 30
0.0
 10
-23.2834471585
 20
5.6818802649
 30
0.0
 10
-23.1596965651
 20
5.3454523162
 30
0.0
 10
-22.9940595136
 20
5.0173797057
 30
0.0
 10
-22.7927574715
 20
4.7098956834
 30
0.0
 10
-22.5632740812
 20
4.434504909
 30
0.0
 10
-22.3142632217
 20
4.2015200554
 30
0.0
 10
-22.1332857264
 20
4.0746530393
 30
0.0
 10
-22.0416576496
 20
4.0217481358
 30
0.0
  0
SPLINE
  5
3B4
100
AcDbEntity
  8
ASSI
100
AcDbSpline
 62
7
  6
CONTINUOUS
 70
0
 71
3
 72
9
 73
5
 74
0
 42
0.0000001
 43
0.0000001
 44
0.0000000001
 40
0.0
 40
0.0
 40
0.0
 40
0.0
 40
0.5163282132
 40
1.0
 40
1.0
 40
1.0
 40
1.0
 10
-13.1121257764
 20
-1.4837238367
 30
0.0
 10
-13.0753753768
 20
-1.4887314255
 30
0.0
 10
-13.0030778936
 20
-1.492024514
 30
0.0
 10
-12.9315946152
 20
-1.4794225542
 30
0.0
 10
-12.8983965464
 20
-1.4691734484
 30
0.0
  0
SPLINE
  5
3B5
100
AcDbEntity
  8
ASSI
100
AcDbSpline
 62
7
  6
CONTINUOUS
 70
0
 71
3
 72
9
 73
5
 74
0
 42
0.0000001
 43
0.0000001
 44
0.0000000001
 40
0.0
 40
0.0
 40
0.0
 40
0.0
 40
0.5163282132
 40
1.0
 40
1.0
 40
1.0
 40
1.0
 10
2.7977768003
 20
-10.6699021865
 30
0.0
 10
2.8345271999
 20
-10.6749097754
 30
0.0
 10
2.9068246831
 20
-10.6782028639
 30
0.0
 10
2.9783079615
 20
-10.6656009041
 30
0.0
 10
3.0115060303
 20
-10.6553517983
 30
0.0
  0
SPLINE
  5
3B6
100
AcDbEntity
  8
ASSI
100
AcDbSpline
 62
7
  6
CONTINUOUS
 70
0
 71
3
 72
9
 73
5
 74
0
 42
0.0000001
 43
0.0000001
 44
0.0000000001
 40
0.0
 40
0.0
 40
0.0
 40
0.0
 40
0.5163282132
 40
1.0
 40
1.0
 40
1.0
 40
1.0
 10
18.7076793769
 20
-19.8560805364
 30
0.0
 10
18.7444297766
 20
-19.8610881253
 30
0.0
 10
18.8167272598
 20
-19.8643812138
 30
0.0
 10
18.8882105382
 20
-19.8517792539
 30
0.0
 10
18.921408607
 20
-19.8415301482
 30
0.0
  0
SPLINE
  5
3B7
100
AcDbEntity
  8
ASSI
100
AcDbSpline
 62
7
  6
CONTINUOUS
 70
0
 71
3
 72
9
 73
5
 74
0
 42
0.0000001
 43
0.0000001
 44
0.0000000001
 40
0.0
 40
0.0
 40
0.0
 40
0.0
 40
0.2434727928
 40
1.0
 40
1.0
 40
1.0
 40
1.0
 10
-23.563360236
 20
17.0030851982
 30
0.0
 10
-23.5718687487
 20
16.9951959816
 30
0.0
 10
-23.6054764478
 20
16.9613583705
 30
0.0
 10
-23.6334195895
 20
16.9220569833
 30
0.0
 10
-23.6512023581
 20
16.8906936708
 30
0.0
  0
SPLINE
  5
3B8
100
AcDbEntity
  8
ASSI
100
AcDbSpline
 62
7
  6
CONTINUOUS
 70
0
 71
3
 72
9
 73
5
 74
0
 42
0.0000001
 43
0.0000001
 44
0.0000000001
 40
0.0
 40
0.0
 40
0.0
 40
0.0
 40
0.245444348
 40
1.0
 40
1.0
 40
1.0
 40
1.0
 10
-23.6512023581
 20
16.8906936708
 30
0.0
 10
-23.6541385785
 20
16.8855150848
 30
0.0
 10
-23.6657463902
 20
16.8642161316
 30
0.0
 10
-23.675939708
 20
16.8421526156
 30
0.0
 10
-23.6828657384
 20
16.8252125903
 30
0.0
  0
SPLINE
  5
3B9
100
AcDbEntity
  8
ASSI
100
AcDbSpline
 62
7
  6
CONTINUOUS
 70
0
 71
3
 72
11
 73
7
 74
0
 42
0.0000001
 43
0.0000001
 44
0.0000000001
 40
0.0
 40
0.0
 40
0.0
 40
0.0
 40
0.2177671718
 40
0.4509440387
 40
0.7101952376
 40
1.0
 40
1.0
 40
1.0
 40
1.0
 10
-23.6316361354
 20
16.9755106926
 30
0.0
 10
-23.5920537981
 20
16.9983650513
 30
0.0
 10
-23.5010978155
 20
17.0313995019
 30
0.0
 10
-23.350041624
 20
17.0351792804
 30
0.0
 10
-23.1890200491
 20
16.9963426951
 30
0.0
 10
-23.0842833643
 20
16.9464758678
 30
0.0
 10
-23.0316071433
 20
16.9160612793
 30
0.0
  0
SPLINE
  5
3BA
100
AcDbEntity
  8
ASSI
100
AcDbSpline
 62
7
  6
CONTINUOUS
 70
0
 71
3
 72
9
 73
5
 74
0
 42
0.0000001
 43
0.0000001
 44
0.0000000001
 40
0.0
 40
0.0
 40
0.0
 40
0.0
 40
0.2434727928
 40
1.0
 40
1.0
 40
1.0
 40
1.0
 10
-7.6534576593
 20
7.8169068483
 30
0.0
 10
-7.661966172
 20
7.8090176317
 30
0.0
 10
-7.6955738711
 20
7.7751800206
 30
0.0
 10
-7.7235170128
 20
7.7358786335
 30
0.0
 10
-7.7412997814
 20
7.704515321
 30
0.0
  0
SPLINE
  5
3BB
100
AcDbEntity
  8
ASSI
100
AcDbSpline
 62
7
  6
CONTINUOUS
 70
0
 71
3
 72
9
 73
5
 74
0
 42
0.0000001
 43
0.0000001
 44
0.0000000001
 40
0.0
 40
0.0
 40
0.0
 40
0.0
 40
0.245444348
 40
1.0
 40
1.0
 40
1.0
 40
1.0
 10
-7.7412997814
 20
7.704515321
 30
0.0
 10
-7.7442360018
 20
7.699336735
 30
0.0
 10
-7.7558438135
 20
7.6780377817
 30
0.0
 10
-7.7660371313
 20
7.6559742657
 30
0.0
 10
-7.7729631617
 20
7.6390342405
 30
0.0
  0
SPLINE
  5
3BC
100
AcDbEntity
  8
ASSI
100
AcDbSpline
 62
7
  6
CONTINUOUS
 70
0
 71
3
 72
11
 73
7
 74
0
 42
0.0000001
 43
0.0000001
 44
0.0000000001
 40
0.0
 40
0.0
 40
0.0
 40
0.0
 40
0.2177671718
 40
0.4509440387
 40
0.7101952376
 40
1.0
 40
1.0
 40
1.0
 40
1.0
 10
-7.7217335587
 20
7.7893323427
 30
0.0
 10
-7.6821512214
 20
7.8121867015
 30
0.0
 10
-7.5911952389
 20
7.845221152
 30
0.0
 10
-7.4401390473
 20
7.8490009305
 30
0.0
 10
-7.2791174724
 20
7.8101643453
 30
0.0
 10
-7.1743807876
 20
7.7602975179
 30
0.0
 10
-7.1217045666
 20
7.7298829295
 30
0.0
  0
SPLINE
  5
3BD
100
AcDbEntity
  8
ASSI
100
AcDbSpline
 62
7
  6
CONTINUOUS
 70
0
 71
3
 72
9
 73
5
 74
0
 42
0.0000001
 43
0.0000001
 44
0.0000000001
 40
0.0
 40
0.0
 40
0.0
 40
0.0
 40
0.2434727928
 40
1.0
 40
1.0
 40
1.0
 40
1.0
 10
8.2564449174
 20
-1.3692715016
 30
0.0
 10
8.2479364047
 20
-1.3771607182
 30
0.0
 10
8.2143287056
 20
-1.4109983293
 30
0.0
 10
8.1863855639
 20
-1.4502997164
 30
0.0
 10
8.1686027953
 20
-1.4816630289
 30
0.0
  0
SPLINE
  5
3BE
100
AcDbEntity
  8
ASSI
100
AcDbSpline
 62
7
  6
CONTINUOUS
 70
0
 71
3
 72
9
 73
5
 74
0
 42
0.0000001
 43
0.0000001
 44
0.0000000001
 40
0.0
 40
0.0
 40
0.0
 40
0.0
 40
0.245444348
 40
1.0
 40
1.0
 40
1.0
 40
1.0
 10
8.1686027953
 20
-1.4816630289
 30
0.0
 10
8.1656665749
 20
-1.4868416149
 30
0.0
 10
8.1540587631
 20
-1.5081405681
 30
0.0
 10
8.1438654454
 20
-1.5302040842
 30
0.0
 10
8.136939415
 20
-1.5471441094
 30
0.0
  0
SPLINE
  5
3BF
100
AcDbEntity
  8
ASSI
100
AcDbSpline
 62
7
  6
CONTINUOUS
 70
0
 71
3
 72
11
 73
7
 74
0
 42
0.0000001
 43
0.0000001
 44
0.0000000001
 40
0.0
 40
0.0
 40
0.0
 40
0.0
 40
0.2177671718
 40
0.4509440387
 40
0.7101952376
 40
1.0
 40
1.0
 40
1.0
 40
1.0
 10
8.188169018
 20
-1.3968460072
 30
0.0
 10
8.2277513553
 20
-1.3739916484
 30
0.0
 10
8.3187073378
 20
-1.3409571979
 30
0.0
 10
8.4697635294
 20
-1.3371774194
 30
0.0
 10
8.6307851043
 20
-1.3760140046
 30
0.0
 10
8.7355217891
 20
-1.425880832
 30
0.0
 10
8.7881980101
 20
-1.4562954204
 30
0.0
  0
SPLINE
  5
3C0
100
AcDbEntity
  8
ASSI
100
AcDbSpline
 62
7
  6
CONTINUOUS
 70
0
 71
3
 72
9
 73
5
 74
0
 42
0.0000001
 43
0.0000001
 44
0.0000000001
 40
0.0
 40
0.0
 40
0.0
 40
0.0
 40
0.2715325905
 40
1.0
 40
1.0
 40
1.0
 40
1.0
 10
19.1119570155
 20
-19.3375705242
 30
0.0
 10
19.1119570156
 20
-19.3688060801
 30
0.0
 10
19.1072199231
 20
-19.4836193099
 30
0.0
 10
19.0819201465
 20
-19.5988503294
 30
0.0
 10
19.0473752643
 20
-19.6751974131
 30
0.0
  0
SPLINE
  5
3C1
100
AcDbEntity
  8
ASSI
100
AcDbSpline
 62
7
  6
CONTINUOUS
 70
0
 71
3
 72
9
 73
5
 74
0
 42
0.0000001
 43
0.0000001
 44
0.0000000001
 40
0.0
 40
0.0
 40
0.0
 40
0.0
 40
0.5170824752
 40
1.0
 40
1.0
 40
1.0
 40
1.0
 10
19.0473752643
 20
-19.6751974131
 30
0.0
 10
19.0272027837
 20
-19.7197802854
 30
0.0
 10
18.9770807491
 20
-19.8018127379
 30
0.0
 10
18.903035494
 20
-19.8640031203
 30
0.0
 10
18.8634578702
 20
-19.8868547575
 30
0.0
  0
SPLINE
  5
3C2
100
AcDbEntity
  8
ASSI
100
AcDbSpline
 62
7
  6
CONTINUOUS
 70
0
 71
3
 72
9
 73
5
 74
0
 42
0.0000001
 43
0.0000001
 44
0.0000000001
 40
0.0
 40
0.0
 40
0.0
 40
0.0
 40
0.2715325905
 40
1.0
 40
1.0
 40
1.0
 40
1.0
 10
-12.7078481379
 20
-0.9652138244
 30
0.0
 10
-12.7078481378
 20
-0.9964493803
 30
0.0
 10
-12.7125852303
 20
-1.1112626101
 30
0.0
 10
-12.7378850069
 20
-1.2264936297
 30
0.0
 10
-12.772429889
 20
-1.3028407134
 30
0.0
  0
SPLINE
  5
3C3
100
AcDbEntity
  8
ASSI
100
AcDbSpline
 62
7
  6
CONTINUOUS
 70
0
 71
3
 72
9
 73
5
 74
0
 42
0.0000001
 43
0.0000001
 44
0.0000000001
 40
0.0
 40
0.0
 40
0.0
 40
0.0
 40
0.5170824752
 40
1.0
 40
1.0
 40
1.0
 40
1.0
 10
-12.772429889
 20
-1.3028407134
 30
0.0
 10
-12.7926023697
 20
-1.3474235857
 30
0.0
 10
-12.8427244042
 20
-1.4294560382
 30
0.0
 10
-12.9167696594
 20
-1.4916464206
 30
0.0
 10
-12.9563472832
 20
-1.5144980578
 30
0.0
  0
SPLINE
  5
3C4
100
AcDbEntity
  8
ASSI
100
AcDbSpline
 62
7
  6
CONTINUOUS
 70
0
 71
3
 72
9
 73
5
 74
0
 42
0.0000001
 43
0.0000001
 44
0.0000000001
 40
0.0
 40
0.0
 40
0.0
 40
0.0
 40
0.2715325905
 40
1.0
 40
1.0
 40
1.0
 40
1.0
 10
3.2020544388
 20
-10.1513921743
 30
0.0
 10
3.2020544389
 20
-10.1826277302
 30
0.0
 10
3.1973173464
 20
-10.29744096
 30
0.0
 10
3.1720175698
 20
-10.4126719796
 30
0.0
 10
3.1374726877
 20
-10.4890190633
 30
0.0
  0
SPLINE
  5
3C5
100
AcDbEntity
  8
ASSI
100
AcDbSpline
 62
7
  6
CONTINUOUS
 70
0
 71
3
 72
9
 73
5
 74
0
 42
0.0000001
 43
0.0000001
 44
0.0000000001
 40
0.0
 40
0.0
 40
0.0
 40
0.0
 40
0.5170824752
 40
1.0
 40
1.0
 40
1.0
 40
1.0
 10
3.1374726877
 20
-10.4890190633
 30
0.0
 10
3.117300207
 20
-10.5336019355
 30
0.0
 10
3.0671781725
 20
-10.615634388
 30
0.0
 10
2.9931329173
 20
-10.6778247704
 30
0.0
 10
2.9535552935
 20
-10.7006764077
 30
0.0
  0
SPLINE
  5
3C6
100
AcDbEntity
  8
ASSI
100
AcDbSpline
 62
7
  6
CONTINUOUS
 70
0
 71
3
 72
9
 73
5
 74
0
 42
0.0000001
 43
0.0000001
 44
0.0000000001
 40
0.0
 40
0.0
 40
0.0
 40
0.0
 40
0.2314181732
 40
1.0
 40
1.0
 40
1.0
 40
1.0
 10
-7.7729631617
 20
7.6390342405
 30
0.0
 10
-7.7824039803
 20
7.6159434226
 30
0.0
 10
-7.8171269894
 20
7.513675095
 30
0.0
 10
-7.8288113473
 20
7.404554029
 30
0.0
 10
-7.8288113477
 20
7.321703028
 30
0.0
  0
SPLINE
  5
3C7
100
AcDbEntity
  8
ASSI
100
AcDbSpline
 62
7
  6
CONTINUOUS
 70
0
 71
3
 72
15
 73
11
 74
0
 42
0.0000001
 43
0.0000001
 44
0.0000000001
 40
0.0
 40
0.0
 40
0.0
 40
0.0
 40
0.1449018606
 40
0.274517057
 40
0.3911053392
 40
0.4999889011
 40
0.6088744758
 40
0.7254681141
 40
0.8550905238
 40
1.0
 40
1.0
 40
1.0
 40
1.0
 10
-24.5872420619
 20
16.4262264592
 30
0.0
 10
-24.5872420622
 20
16.5123899873
 30
0.0
 10
-24.5742216023
 20
16.6761985308
 30
0.0
 10
-24.5078468011
 20
16.901204587
 30
0.0
 10
-24.3960758202
 20
17.0839140478
 30
0.0
 10
-24.2409263672
 20
17.2143933733
 30
0.0
 10
-24.0503425726
 20
17.2834962559
 30
0.0
 10
-23.8362174146
 20
17.2889192442
 30
0.0
 10
-23.6081609749
 20
17.2338823881
 30
0.0
 10
-23.4597830587
 20
17.1632452297
 30
0.0
 10
-23.3851605339
 20
17.1201591211
 30
0.0
  0
SPLINE
  5
3C8
100
AcDbEntity
  8
ASSI
100
AcDbSpline
 62
7
  6
CONTINUOUS
 70
0
 71
3
 72
9
 73
5
 74
0
 42
0.0000001
 43
0.0000001
 44
0.0000000001
 40
0.0
 40
0.0
 40
0.0
 40
0.0
 40
0.2314181732
 40
1.0
 40
1.0
 40
1.0
 40
1.0
 10
8.136939415
 20
-1.5471441094
 30
0.0
 10
8.1274985964
 20
-1.5702349273
 30
0.0
 10
8.0927755873
 20
-1.6725032549
 30
0.0
 10
8.0810912294
 20
-1.7816243209
 30
0.0
 10
8.081091229
 20
-1.8644753219
 30
0.0
  0
SPLINE
  5
3C9
100
AcDbEntity
  8
ASSI
100
AcDbSpline
 62
7
  6
CONTINUOUS
 70
0
 71
3
 72
13
 73
9
 74
0
 42
0.0000001
 43
0.0000001
 44
0.0000000001
 40
0.0
 40
0.0
 40
0.0
 40
0.0
 40
0.1142615975
 40
0.2375404836
 40
0.5000060625
 40
0.7624683192
 40
0.885743332
 40
1.0
 40
1.0
 40
1.0
 40
1.0
 10
-23.3851605339
 20
3.403458471
 30
0.0
 10
-23.4674545285
 20
3.4509739917
 30
0.0
 10
-23.6300162908
 20
3.5649148772
 30
0.0
 10
-23.9343210758
 20
3.849776524
 30
0.0
 10
-24.2558002026
 20
4.2888538107
 30
0.0
 10
-24.4753123488
 20
4.7867985827
 30
0.0
 10
-24.5698516434
 20
5.1927561728
 30
0.0
 10
-24.58724206
 20
5.3905023994
 30
0.0
 10
-24.5872420619
 20
5.4855247502
 30
0.0
  0
SPLINE
  5
3CA
100
AcDbEntity
  8
ASSI
100
AcDbSpline
 62
7
  6
CONTINUOUS
 70
0
 71
3
 72
11
 73
7
 74
0
 42
0.0000001
 43
0.0000001
 44
0.0000000001
 40
0.0
 40
0.0
 40
0.0
 40
0.0
 40
0.2191409981
 40
0.4557653171
 40
0.7154233258
 40
1.0
 40
1.0
 40
1.0
 40
1.0
 10
-13.0398320616
 20
-1.550832733
 30
0.0
 10
-13.0774714989
 20
-1.5624515541
 30
0.0
 10
-13.1594833671
 20
-1.5754718695
 30
0.0
 10
-13.2885939946
 20
-1.5642174896
 30
0.0
 10
-13.4238725766
 20
-1.5239455628
 30
0.0
 10
-13.5120759855
 20
-1.4806270779
 30
0.0
 10
-13.5563762754
 20
-1.4550486446
 30
0.0
  0
SPLINE
  5
3CB
100
AcDbEntity
  8
ASSI
100
AcDbSpline
 62
7
  6
CONTINUOUS
 70
0
 71
3
 72
15
 73
11
 74
0
 42
0.0000001
 43
0.0000001
 44
0.0000000001
 40
0.0
 40
0.0
 40
0.0
 40
0.0
 40
0.1449018606
 40
0.274517057
 40
0.3911053392
 40
0.4999889011
 40
0.6088744758
 40
0.7254681141
 40
0.8550905238
 40
1.0
 40
1.0
 40
1.0
 40
1.0
 10
-12.7078481379
 20
-1.3734884177
 30
0.0
 10
-12.7078481376
 20
-1.4596519459
 30
0.0
 10
-12.7208685975
 20
-1.6234604894
 30
0.0
 10
-12.7872433987
 20
-1.8484665455
 30
0.0
 10
-12.8990143796
 20
-2.0311760063
 30
0.0
 10
-13.0541638326
 20
-2.1616553319
 30
0.0
 10
-13.2447476272
 20
-2.2307582145
 30
0.0
 10
-13.4588727852
 20
-2.2361812027
 30
0.0
 10
-13.6869292249
 20
-2.1811443467
 30
0.0
 10
-13.8353071411
 20
-2.1105071883
 30
0.0
 10
-13.909929666
 20
-2.0674210796
 30
0.0
  0
SPLINE
  5
3CC
100
AcDbEntity
  8
ASSI
100
AcDbSpline
 62
7
  6
CONTINUOUS
 70
0
 71
3
 72
11
 73
7
 74
0
 42
0.0000001
 43
0.0000001
 44
0.0000000001
 40
0.0
 40
0.0
 40
0.0
 40
0.0
 40
0.2191409981
 40
0.4557653171
 40
0.7154233258
 40
1.0
 40
1.0
 40
1.0
 40
1.0
 10
2.8700705151
 20
-10.7370110828
 30
0.0
 10
2.8324310778
 20
-10.748629904
 30
0.0
 10
2.7504192096
 20
-10.7616502194
 30
0.0
 10
2.6213085821
 20
-10.7503958395
 30
0.0
 10
2.4860300001
 20
-10.7101239127
 30
0.0
 10
2.3978265912
 20
-10.6668054278
 30
0.0
 10
2.3535263013
 20
-10.6412269944
 30
0.0
  0
SPLINE
  5
3CD
100
AcDbEntity
  8
ASSI
100
AcDbSpline
 62
7
  6
CONTINUOUS
 70
0
 71
3
 72
15
 73
11
 74
0
 42
0.0000001
 43
0.0000001
 44
0.0000000001
 40
0.0
 40
0.0
 40
0.0
 40
0.0
 40
0.1449018606
 40
0.274517057
 40
0.3911053392
 40
0.4999889011
 40
0.6088744758
 40
0.7254681141
 40
0.8550905238
 40
1.0
 40
1.0
 40
1.0
 40
1.0
 10
7.2325630915
 20
-1.9461302406
 30
0.0
 10
7.2325630912
 20
-1.8599667125
 30
0.0
 10
7.2455835511
 20
-1.6961581689
 30
0.0
 10
7.3119583523
 20
-1.4711521128
 30
0.0
 10
7.4237293332
 20
-1.288442652
 30
0.0
 10
7.5788787862
 20
-1.1579633265
 30
0.0
 10
7.7694625808
 20
-1.0888604438
 30
0.0
 10
7.9835877388
 20
-1.0834374556
 30
0.0
 10
8.2116441785
 20
-1.1384743116
 30
0.0
 10
8.3600220947
 20
-1.20911147
 30
0.0
 10
8.4346446195
 20
-1.2521975787
 30
0.0
  0
SPLINE
  5
3CE
100
AcDbEntity
  8
ASSI
100
AcDbSpline
 62
7
  6
CONTINUOUS
 70
0
 71
3
 72
13
 73
9
 74
0
 42
0.0000001
 43
0.0000001
 44
0.0000000001
 40
0.0
 40
0.0
 40
0.0
 40
0.0
 40
0.1142615975
 40
0.2375404836
 40
0.5000060625
 40
0.7624683192
 40
0.885743332
 40
1.0
 40
1.0
 40
1.0
 40
1.0
 10
8.4346446195
 20
-14.9688982288
 30
0.0
 10
8.3523506249
 20
-14.921382708
 30
0.0
 10
8.1897888626
 20
-14.8074418225
 30
0.0
 10
7.8854840776
 20
-14.5225801758
 30
0.0
 10
7.5640049508
 20
-14.0835028891
 30
0.0
 10
7.3444928046
 20
-13.585558117
 30
0.0
 10
7.24995351
 20
-13.1796005269
 30
0.0
 10
7.2325630934
 20
-12.9818543004
 30
0.0
 10
7.2325630915
 20
-12.8868319496
 30
0.0
  0
SPLINE
  5
3CF
100
AcDbEntity
  8
ASSI
100
AcDbSpline
 62
7
  6
CONTINUOUS
 70
0
 71
3
 72
15
 73
11
 74
0
 42
0.0000001
 43
0.0000001
 44
0.0000000001
 40
0.0
 40
0.0
 40
0.0
 40
0.0
 40
0.1449018606
 40
0.274517057
 40
0.3911053392
 40
0.4999889011
 40
0.6088744758
 40
0.7254681141
 40
0.8550905238
 40
1.0
 40
1.0
 40
1.0
 40
1.0
 10
19.1119570155
 20
-19.7458451175
 30
0.0
 10
19.1119570158
 20
-19.8320086456
 30
0.0
 10
19.0989365558
 20
-19.9958171891
 30
0.0
 10
19.0325617547
 20
-20.2208232453
 30
0.0
 10
18.9207907738
 20
-20.4035327061
 30
0.0
 10
18.7656413208
 20
-20.5340120316
 30
0.0
 10
18.5750575262
 20
-20.6031149142
 30
0.0
 10
18.3609323681
 20
-20.6085379025
 30
0.0
 10
18.1328759284
 20
-20.5535010464
 30
0.0
 10
17.9844980123
 20
-20.482863888
 30
0.0
 10
17.9098754874
 20
-20.4397777794
 30
0.0
  0
SPLINE
  5
3D0
100
AcDbEntity
  8
ASSI
100
AcDbSpline
 62
7
  6
CONTINUOUS
 70
0
 71
3
 72
11
 73
7
 74
0
 42
0.0000001
 43
0.0000001
 44
0.0000000001
 40
0.0
 40
0.0
 40
0.0
 40
0.0
 40
0.2191409981
 40
0.4557653171
 40
0.7154233258
 40
1.0
 40
1.0
 40
1.0
 40
1.0
 10
18.7799730918
 20
-19.9231894327
 30
0.0
 10
18.7423336545
 20
-19.9348082538
 30
0.0
 10
18.6603217863
 20
-19.9478285693
 30
0.0
 10
18.5312111588
 20
-19.9365741894
 30
0.0
 10
18.3959325768
 20
-19.8963022626
 30
0.0
 10
18.3077291679
 20
-19.8529837777
 30
0.0
 10
18.263428878
 20
-19.8274053443
 30
0.0
  0
SPLINE
  5
3D1
100
AcDbEntity
  8
ASSI
100
AcDbSpline
 62
7
  6
CONTINUOUS
 70
0
 71
3
 72
15
 73
11
 74
0
 42
0.0000001
 43
0.0000001
 44
0.0000000001
 40
0.0
 40
0.0
 40
0.0
 40
0.0
 40
0.1449018606
 40
0.274517057
 40
0.3911053392
 40
0.4999889011
 40
0.6088744758
 40
0.7254681141
 40
0.8550905238
 40
1.0
 40
1.0
 40
1.0
 40
1.0
 10
-8.6773394852
 20
7.2400481093
 30
0.0
 10
-8.6773394855
 20
7.3262116374
 30
0.0
 10
-8.6643190256
 20
7.490020181
 30
0.0
 10
-8.5979442244
 20
7.7150262371
 30
0.0
 10
-8.4861732435
 20
7.8977356979
 30
0.0
 10
-8.3310237905
 20
8.0282150234
 30
0.0
 10
-8.1404399959
 20
8.0973179061
 30
0.0
 10
-7.9263148379
 20
8.1027408943
 30
0.0
 10
-7.6982583982
 20
8.0477040382
 30
0.0
 10
-7.549880482
 20
7.9770668798
 30
0.0
 10
-7.4752579572
 20
7.9339807712
 30
0.0
  0
SPLINE
  5
3D2
100
AcDbEntity
  8
ASSI
100
AcDbSpline
 62
7
  6
CONTINUOUS
 70
0
 71
3
 72
13
 73
9
 74
0
 42
0.0000001
 43
0.0000001
 44
0.0000000001
 40
0.0
 40
0.0
 40
0.0
 40
0.0
 40
0.1142615975
 40
0.2375404836
 40
0.5000060625
 40
0.7624683192
 40
0.885743332
 40
1.0
 40
1.0
 40
1.0
 40
1.0
 10
-7.4752579572
 20
-5.7827198789
 30
0.0
 10
-7.5575519518
 20
-5.7352043581
 30
0.0
 10
-7.7201137141
 20
-5.6212634727
 30
0.0
 10
-8.0244184991
 20
-5.3364018259
 30
0.0
 10
-8.3458976259
 20
-4.8973245392
 30
0.0
 10
-8.5654097721
 20
-4.3993797671
 30
0.0
 10
-8.6599490667
 20
-3.993422177
 30
0.0
 10
-8.6773394833
 20
-3.7956759505
 30
0.0
 10
-8.6773394852
 20
-3.7006535997
 30
0.0
  0
SPLINE
  5
3D3
100
AcDbEntity
  8
ASSI
100
AcDbSpline
 62
7
  6
CONTINUOUS
 70
0
 71
3
 72
15
 73
11
 74
0
 42
0.0000001
 43
0.0000001
 44
0.0000000001
 40
0.0
 40
0.0
 40
0.0
 40
0.0
 40
0.1449018606
 40
0.274517057
 40
0.3911053392
 40
0.4999889011
 40
0.6088744758
 40
0.7254681141
 40
0.8550905238
 40
1.0
 40
1.0
 40
1.0
 40
1.0
 10
3.2020544388
 20
-10.5596667676
 30
0.0
 10
3.2020544391
 20
-10.6458302957
 30
0.0
 10
3.1890339791
 20
-10.8096388393
 30
0.0
 10
3.122659178
 20
-11.0346448954
 30
0.0
 10
3.0108881971
 20
-11.2173543562
 30
0.0
 10
2.8557387441
 20
-11.3478336817
 30
0.0
 10
2.6651549495
 20
-11.4169365644
 30
0.0
 10
2.4510297915
 20
-11.4223595526
 30
0.0
 10
2.2229733518
 20
-11.3673226965
 30
0.0
 10
2.0745954356
 20
-11.2966855381
 30
0.0
 10
1.9999729107
 20
-11.2535994295
 30
0.0
  0
SPLINE
  5
3D4
100
AcDbEntity
  8
ASSI
100
AcDbSpline
 62
7
  6
CONTINUOUS
 70
0
 71
3
 72
9
 73
5
 74
0
 42
0.0000001
 43
0.0000001
 44
0.0000000001
 40
0.0
 40
0.0
 40
0.0
 40
0.0
 40
0.2314181732
 40
1.0
 40
1.0
 40
1.0
 40
1.0
 10
-23.6828657384
 20
16.8252125903
 30
0.0
 10
-23.692306557
 20
16.8021217724
 30
0.0
 10
-23.7270295661
 20
16.6998534448
 30
0.0
 10
-23.738713924
 20
16.5907323788
 30
0.0
 10
-23.7387139244
 20
16.5078813779
 30
0.0
  0
SPLINE
  5
3D5
100
AcDbEntity
  8
ASSI
100
AcDbSpline
 62
7
  6
CONTINUOUS
 70
0
 71
3
 72
11
 73
7
 74
0
 42
0.0000001
 43
0.0000001
 44
0.0000000001
 40
0.0
 40
0.0
 40
0.0
 40
0.0
 40
0.2845759374
 40
0.5442323343
 40
0.7808561232
 40
1.0
 40
1.0
 40
1.0
 40
1.0
 10
7.9396698727
 20
-1.9461302406
 30
0.0
 10
7.9396698729
 20
-1.8949786206
 30
0.0
 10
7.9462596329
 20
-1.7969386049
 30
0.0
 10
7.9790277735
 20
-1.6596570823
 30
0.0
 10
8.0338425869
 20
-1.5422266305
 30
0.0
 10
8.0861284304
 20
-1.4777204237
 30
0.0
 10
8.1150120027
 20
-1.4509371443
 30
0.0
  0
SPLINE
  5
3D6
100
AcDbEntity
  8
ASSI
100
AcDbSpline
 62
7
  6
CONTINUOUS
 70
0
 71
3
 72
9
 73
5
 74
0
 42
0.0000001
 43
0.0000001
 44
0.0000000001
 40
0.0
 40
0.0
 40
0.0
 40
0.0
 40
0.2698109577
 40
1.0
 40
1.0
 40
1.0
 40
1.0
 10
18.4048502343
 20
-19.7457504257
 30
0.0
 10
18.4300361833
 20
-19.7602924769
 30
0.0
 10
18.5253125646
 20
-19.810517677
 30
0.0
 10
18.6296935488
 20
-19.8454542312
 30
0.0
 10
18.7076793769
 20
-19.8560805364
 30
0.0
  0
SPLINE
  5
3D7
100
AcDbEntity
  8
ASSI
100
AcDbSpline
 62
7
  6
CONTINUOUS
 70
0
 71
3
 72
11
 73
7
 74
0
 42
0.0000001
 43
0.0000001
 44
0.0000000001
 40
0.0
 40
0.0
 40
0.0
 40
0.0
 40
0.2372134857
 40
0.4999938933
 40
0.7627776251
 40
1.0
 40
1.0
 40
1.0
 40
1.0
 10
8.081091229
 20
-12.8051770309
 30
0.0
 10
8.0810912292
 20
-12.9442645936
 30
0.0
 10
8.1332614916
 20
-13.2376197119
 30
0.0
 10
8.3151119722
 20
-13.6498501858
 30
0.0
 10
8.5811924588
 20
-14.0134563681
 30
0.0
 10
8.8091634306
 20
-14.2053211265
 30
0.0
 10
8.9296193664
 20
-14.2748708751
 30
0.0
  0
SPLINE
  5
3D8
100
AcDbEntity
  8
ASSI
100
AcDbSpline
 62
7
  6
CONTINUOUS
 70
0
 71
3
 72
11
 73
7
 74
0
 42
0.0000001
 43
0.0000001
 44
0.0000000001
 40
0.0
 40
0.0
 40
0.0
 40
0.0
 40
0.2372223247
 40
0.5000061052
 40
0.7627865602
 40
1.0
 40
1.0
 40
1.0
 40
1.0
 10
8.7881980101
 20
-14.3565257937
 30
0.0
 10
8.6677420997
 20
-14.2869760602
 30
0.0
 10
8.4397711249
 20
-14.0951113098
 30
0.0
 10
8.1736906115
 20
-13.7315051108
 30
0.0
 10
7.991840129
 20
-13.3192746041
 30
0.0
 10
7.9396698699
 20
-13.0259194853
 30
0.0
 10
7.9396698727
 20
-12.8868319496
 30
0.0
  0
SPLINE
  5
3D9
100
AcDbEntity
  8
ASSI
100
AcDbSpline
 62
7
  6
CONTINUOUS
 70
0
 71
3
 72
11
 73
7
 74
0
 42
0.0000001
 43
0.0000001
 44
0.0000000001
 40
0.0
 40
0.0
 40
0.0
 40
0.0
 40
0.2372223247
 40
0.5000061052
 40
0.7627865602
 40
1.0
 40
1.0
 40
1.0
 40
1.0
 10
-23.0316071433
 20
4.015830906
 30
0.0
 10
-23.1520630537
 20
4.0853806396
 30
0.0
 10
-23.3800340285
 20
4.2772453899
 30
0.0
 10
-23.6461145419
 20
4.6408515889
 30
0.0
 10
-23.8279650244
 20
5.0530820957
 30
0.0
 10
-23.8801352835
 20
5.3464372144
 30
0.0
 10
-23.8801352807
 20
5.4855247502
 30
0.0
  0
SPLINE
  5
3DA
100
AcDbEntity
  8
ASSI
100
AcDbSpline
 62
7
  6
CONTINUOUS
 70
0
 71
3
 72
11
 73
7
 74
0
 42
0.0000001
 43
0.0000001
 44
0.0000000001
 40
0.0
 40
0.0
 40
0.0
 40
0.0
 40
0.2372134857
 40
0.4999938933
 40
0.7627776251
 40
1.0
 40
1.0
 40
1.0
 40
1.0
 10
-23.7387139244
 20
5.5671796688
 30
0.0
 10
-23.7387139242
 20
5.4280921062
 30
0.0
 10
-23.6865436618
 20
5.1347369879
 30
0.0
 10
-23.5046931812
 20
4.7225065139
 30
0.0
 10
-23.2386126946
 20
4.3589003317
 30
0.0
 10
-23.0106417228
 20
4.1670355732
 30
0.0
 10
-22.890185787
 20
4.0974858247
 30
0.0
  0
SPLINE
  5
3DB
100
AcDbEntity
  8
ASSI
100
AcDbSpline
 62
7
  6
CONTINUOUS
 70
0
 71
3
 72
9
 73
5
 74
0
 42
0.0000001
 43
0.0000001
 44
0.0000000001
 40
0.0
 40
0.0
 40
0.0
 40
0.0
 40
0.2698109577
 40
1.0
 40
1.0
 40
1.0
 40
1.0
 10
-13.4149549191
 20
-1.3733937259
 30
0.0
 10
-13.3897689701
 20
-1.3879357772
 30
0.0
 10
-13.2944925888
 20
-1.4381609772
 30
0.0
 10
-13.1901116046
 20
-1.4730975314
 30
0.0
 10
-13.1121257764
 20
-1.4837238367
 30
0.0
  0
SPLINE
  5
3DC
100
AcDbEntity
  8
ASSI
100
AcDbSpline
 62
7
  6
CONTINUOUS
 70
0
 71
3
 72
11
 73
7
 74
0
 42
0.0000001
 43
0.0000001
 44
0.0000000001
 40
0.0
 40
0.0
 40
0.0
 40
0.0
 40
0.2845759374
 40
0.5442323343
 40
0.7808561232
 40
1.0
 40
1.0
 40
1.0
 40
1.0
 10
-23.8801352807
 20
16.4262264592
 30
0.0
 10
-23.8801352805
 20
16.4773780792
 30
0.0
 10
-23.8735455205
 20
16.5754180949
 30
0.0
 10
-23.8407773799
 20
16.7126996174
 30
0.0
 10
-23.7859625665
 20
16.8301300693
 30
0.0
 10
-23.733676723
 20
16.8946362761
 30
0.0
 10
-23.7047931507
 20
16.9214195554
 30
0.0
  0
SPLINE
  5
3DD
100
AcDbEntity
  8
ASSI
100
AcDbSpline
 62
7
  6
CONTINUOUS
 70
0
 71
3
 72
11
 73
7
 74
0
 42
0.0000001
 43
0.0000001
 44
0.0000000001
 40
0.0
 40
0.0
 40
0.0
 40
0.0
 40
0.2845759374
 40
0.5442323343
 40
0.7808561232
 40
1.0
 40
1.0
 40
1.0
 40
1.0
 10
-7.970232704
 20
7.2400481093
 30
0.0
 10
-7.9702327038
 20
7.2911997293
 30
0.0
 10
-7.9636429438
 20
7.389239745
 30
0.0
 10
-7.9308748032
 20
7.5265212676
 30
0.0
 10
-7.8760599898
 20
7.6439517194
 30
0.0
 10
-7.8237741463
 20
7.7084579262
 30
0.0
 10
-7.794890574
 20
7.7352412056
 30
0.0
  0
SPLINE
  5
3DE
100
AcDbEntity
  8
ASSI
100
AcDbSpline
 62
7
  6
CONTINUOUS
 70
0
 71
3
 72
9
 73
5
 74
0
 42
0.0000001
 43
0.0000001
 44
0.0000000001
 40
0.0
 40
0.0
 40
0.0
 40
0.0
 40
0.2698109577
 40
1.0
 40
1.0
 40
1.0
 40
1.0
 10
2.4949476576
 20
-10.5595720758
 30
0.0
 10
2.5201336066
 20
-10.574114127
 30
0.0
 10
2.6154099879
 20
-10.6243393271
 30
0.0
 10
2.7197909721
 20
-10.6592758813
 30
0.0
 10
2.7977768003
 20
-10.6699021865
 30
0.0
  0
SPLINE
  5
3DF
100
AcDbEntity
  8
ASSI
100
AcDbSpline
 62
7
  6
CONTINUOUS
 70
0
 71
3
 72
11
 73
7
 74
0
 42
0.0000001
 43
0.0000001
 44
0.0000000001
 40
0.0
 40
0.0
 40
0.0
 40
0.0
 40
0.2372134857
 40
0.4999938933
 40
0.7627776251
 40
1.0
 40
1.0
 40
1.0
 40
1.0
 10
-7.8288113477
 20
-3.618998681
 30
0.0
 10
-7.8288113475
 20
-3.7580862437
 30
0.0
 10
-7.7766410851
 20
-4.051441362
 30
0.0
 10
-7.5947906045
 20
-4.4636718359
 30
0.0
 10
-7.3287101179
 20
-4.8272780182
 30
0.0
 10
-7.1007391461
 20
-5.0191427766
 30
0.0
 10
-6.9802832103
 20
-5.0886925252
 30
0.0
  0
SPLINE
  5
3E0
100
AcDbEntity
  8
ASSI
100
AcDbSpline
 62
7
  6
CONTINUOUS
 70
0
 71
3
 72
11
 73
7
 74
0
 42
0.0000001
 43
0.0000001
 44
0.0000000001
 40
0.0
 40
0.0
 40
0.0
 40
0.0
 40
0.2372223247
 40
0.5000061052
 40
0.7627865602
 40
1.0
 40
1.0
 40
1.0
 40
1.0
 10
-7.1217045666
 20
-5.1703474439
 30
0.0
 10
-7.242160477
 20
-5.1007977103
 30
0.0
 10
-7.4701314518
 20
-4.90893296
 30
0.0
 10
-7.7362119652
 20
-4.545326761
 30
0.0
 10
-7.9180624477
 20
-4.1330962542
 30
0.0
 10
-7.9702327068
 20
-3.8397411355
 30
0.0
 10
-7.970232704
 20
-3.7006535997
 30
0.0
  0
SPLINE
  5
3E1
100
AcDbEntity
  8
CURVE
100
AcDbSpline
 62
250
  6
CONTINUOUS
 70
0
 71
3
 72
9
 73
5
 74
0
 42
0.0000001
 43
0.0000001
 44
0.0000000001
 40
0.0
 40
0.0
 40
0.0
 40
0.0
 40
0.5206208722
 40
1.0
 40
1.0
 40
1.0
 40
1.0
 10
31.311956114
 20
-42.673834402
 30
0.0
 10
31.3909898517
 20
-42.6299194129
 30
0.0
 10
31.5636382742
 20
-42.5992931402
 30
0.0
 10
31.5944309669
 20
-42.7714504488
 30
0.0
 10
31.5960561922
 20
-42.8518072462
 30
0.0
  0
SPLINE
  5
3E2
100
AcDbEntity
  8
CURVE
100
AcDbSpline
 62
250
  6
CONTINUOUS
 70
0
 71
3
 72
9
 73
5
 74
0
 42
0.0000001
 43
0.0000001
 44
0.0000000001
 40
0.0
 40
0.0
 40
0.0
 40
0.0
 40
0.5013510385
 40
1.0
 40
1.0
 40
1.0
 40
1.0
 10
31.0834202697
 20
-43.0375381302
 30
0.0
 10
31.0899137386
 20
-42.9716025595
 30
0.0
 10
31.1391682954
 20
-42.818791936
 30
0.0
 10
31.2559606702
 20
-42.7049613334
 30
0.0
 10
31.311956114
 20
-42.673834402
 30
0.0
  0
SPLINE
  5
3E3
100
AcDbEntity
  8
CURVE
100
AcDbSpline
 62
250
  6
CONTINUOUS
 70
0
 71
3
 72
9
 73
5
 74
0
 42
0.0000001
 43
0.0000001
 44
0.0000000001
 40
0.0
 40
0.0
 40
0.0
 40
0.0
 40
0.2703953699
 40
1.0
 40
1.0
 40
1.0
 40
1.0
 10
31.0941821556
 20
-43.3654985228
 30
0.0
 10
31.0896372916
 20
-43.3382106368
 30
0.0
 10
31.0746895961
 20
-43.2359463649
 30
0.0
 10
31.0750140937
 20
-43.1229144926
 30
0.0
 10
31.0834202697
 20
-43.0375381302
 30
0.0
  0
SPLINE
  5
3E4
100
AcDbEntity
  8
CURVE
100
AcDbSpline
 62
250
  6
CONTINUOUS
 70
0
 71
3
 72
9
 73
5
 74
0
 42
0.0000001
 43
0.0000001
 44
0.0000000001
 40
0.0
 40
0.0
 40
0.0
 40
0.0
 40
0.2957417834
 40
1.0
 40
1.0
 40
1.0
 40
1.0
 10
30.8233390757
 20
-42.8701413661
 30
0.0
 10
30.791578571
 20
-42.9853850522
 30
0.0
 10
30.7398070553
 20
-43.3660250887
 30
0.0
 10
30.7716930226
 20
-43.7034724693
 30
0.0
 10
30.8040910657
 20
-43.9318778059
 30
0.0
  0
SPLINE
  5
3E5
100
AcDbEntity
  8
CURVE
100
AcDbSpline
 62
250
  6
CONTINUOUS
 70
0
 71
3
 72
17
 73
13
 74
0
 42
0.0000001
 43
0.0000001
 44
0.0000000001
 40
0.0
 40
0.0
 40
0.0
 40
0.0
 40
0.0559780952
 40
0.1687540387
 40
0.321006234
 40
0.4122750837
 40
0.516613223
 40
0.6013931059
 40
0.6776022439
 40
0.8103422694
 40
0.9200404832
 40
1.0
 40
1.0
 40
1.0
 40
1.0
 10
31.7467363042
 20
-42.3290383212
 30
0.0
 10
31.7440165647
 20
-42.3069716071
 30
0.0
 10
31.7018199754
 20
-42.2698782308
 30
0.0
 10
31.6213815043
 20
-42.2139952678
 30
0.0
 10
31.4975589668
 20
-42.2076265337
 30
0.0
 10
31.3683840331
 20
-42.2446406605
 30
0.0
 10
31.2611715346
 20
-42.2993095393
 30
0.0
 10
31.1610359307
 20
-42.3693341917
 30
0.0
 10
31.05463404
 20
-42.4656669913
 30
0.0
 10
30.9503578674
 20
-42.5951435492
 30
0.0
 10
30.8688111613
 20
-42.7425890946
 30
0.0
 10
30.8336408138
 20
-42.8327150808
 30
0.0
 10
30.8233390757
 20
-42.8701413661
 30
0.0
  0
SPLINE
  5
3E6
100
AcDbEntity
  8
CURVE
100
AcDbSpline
 62
250
  6
CONTINUOUS
 70
0
 71
3
 72
9
 73
5
 74
0
 42
0.0000001
 43
0.0000001
 44
0.0000000001
 40
0.0
 40
0.0
 40
0.0
 40
0.0
 40
0.2426586216
 40
1.0
 40
1.0
 40
1.0
 40
1.0
 10
32.116108905
 20
-41.8845920253
 30
0.0
 10
32.0828876024
 20
-41.9125829217
 30
0.0
 10
31.9487318869
 20
-42.0234103325
 30
0.0
 10
31.7973424778
 20
-42.1903537264
 30
0.0
 10
31.7575393183
 20
-42.3232217351
 30
0.0
  0
SPLINE
  5
3E7
100
AcDbEntity
  8
CURVE
100
AcDbSpline
 62
250
  6
CONTINUOUS
 70
0
 71
3
 72
9
 73
5
 74
0
 42
0.0000001
 43
0.0000001
 44
0.0000000001
 40
0.0
 40
0.0
 40
0.0
 40
0.0
 40
0.1980141723
 40
1.0
 40
1.0
 40
1.0
 40
1.0
 10
32.6109225961
 20
-41.4725313766
 30
0.0
 10
32.578327284
 20
-41.4999645292
 30
0.0
 10
32.4133462758
 20
-41.6371673779
 30
0.0
 10
32.2480962628
 20
-41.773382783
 30
0.0
 10
32.116108905
 20
-41.8845920253
 30
0.0
  0
SPLINE
  5
3E8
100
AcDbEntity
  8
CURVE
100
AcDbSpline
 62
250
  6
CONTINUOUS
 70
0
 71
3
 72
9
 73
5
 74
0
 42
0.0000001
 43
0.0000001
 44
0.0000000001
 40
0.0
 40
0.0
 40
0.0
 40
0.0
 40
0.5586214172
 40
1.0
 40
1.0
 40
1.0
 40
1.0
 10
32.0565552332
 20
-42.3670967632
 30
0.0
 10
32.1574741181
 20
-42.2704334397
 30
0.0
 10
32.3443474061
 20
-42.1141537748
 30
0.0
 10
32.5290591845
 20
-41.952673498
 30
0.0
 10
32.6109225961
 20
-41.8823211546
 30
0.0
  0
SPLINE
  5
3E9
100
AcDbEntity
  8
CURVE
100
AcDbSpline
 62
250
  6
CONTINUOUS
 70
0
 71
3
 72
9
 73
5
 74
0
 42
0.0000001
 43
0.0000001
 44
0.0000000001
 40
0.0
 40
0.0
 40
0.0
 40
0.0
 40
0.3559141631
 40
1.0
 40
1.0
 40
1.0
 40
1.0
 10
31.89546968
 20
-42.691514577
 30
0.0
 10
31.89546968
 20
-42.6543892781
 30
0.0
 10
31.9156066418
 20
-42.5367475552
 30
0.0
 10
32.0002118442
 20
-42.4210392042
 30
0.0
 10
32.0565552332
 20
-42.3670967632
 30
0.0
  0
ENDSEC
  0
SECTION
  2
OBJECTS
  0
DICTIONARY
  5
C
100
AcDbDictionary
280
0
281
1
  3
ACAD_GROUP
350
D
  3
ACAD_MLINESTYLE
350
17
  3
ACAD_LAYOUT
350
1A
  3
ACAD_PLOTSETTINGS
350
19
  3
ACAD_PLOTSTYLENAME
350
E
  0
DICTIONARY
  5
D
102
{ACAD_REACTORS
330
C
102
}
100
AcDbDictionary
280
0
281
1
  0
ACDBDICTIONARYWDFLT
  5
E
102
{ACAD_REACTORS
330
C
102
}
100
AcDbDictionary
281
1
  3
Normal
350
F
100
AcDbDictionaryWithDefault
340
F
  0
DICTIONARY
  5
17
102
{ACAD_REACTORS
330
C
102
}
100
AcDbDictionary
280
0
281
1
  3
Standard
350
18
  0
DICTIONARY
  5
19
102
{ACAD_REACTORS
330
C
102
}
100
AcDbDictionary
281
1
  0
DICTIONARY
  5
1A
102
{ACAD_REACTORS
330
C
102
}
100
AcDbDictionary
281
1
  3
Model
350
3EA
  3
Layout1
350
3EB
  0
ACDBPLACEHOLDER
  5
F
102
{ACAD_REACTORS
330
E
102
}
  0
MLINESTYLE
  5
18
102
{ACAD_REACTORS
330
17
102
}
100
AcDbMlineStyle
  2
STANDARD
 70
0
  3

 62
256
 51
90.0
 52
90.0
 71
2
 49
0.5
 62
256
  6
BYLAYER
 49
-0.5
 62
256
  6
BYLAYER
  0
LAYOUT
  5
3EA
102
{ACAD_REACTORS
330
1A
102
}
100
AcDbPlotSettings
  1

  2
none_device
  4
ISO_A4_(297.00_x_210.00_MM)
  6

 40
0.0
 41
0.0
 42
0.0
 43
0.0
 44
297.0
 45
210.0
 46
0.0
 47
0.0
 48
0.0
 49
0.0
140
0.0
141
0.0
142
1.0
143
1.0
 70
1024
 72
1
 73
0
 74
0
  7

 75
0
147
1.0
148
0.0
149
0.0
100
AcDbLayout
  1
Model
 70
0
 71
0
 10
0.0
 20
0.0
 11
297.0
 21
210.0
 12
0.0
 22
0.0
 32
0.0
 14
0.0
 24
0.0
 34
0.0
 15
0.0
 25
0.0
 35
0.0
146
0.0
 13
0.0
 23
0.0
 33
0.0
 16
1.0
 26
0.0
 36
0.0
 17
0.0
 27
1.0
 37
0.0
 76
0
330
21E
345
0
346
0
  0
LAYOUT
  5
3EB
102
{ACAD_REACTORS
330
1A
102
}
100
AcDbPlotSettings
  1

  2
none_device
  4
ISO_A4_(297.00_x_210.00_MM)
  6

 40
0.0
 41
0.0
 42
0.0
 43
0.0
 44
297.0
 45
210.0
 46
0.0
 47
0.0
 48
0.0
 49
0.0
140
0.0
141
0.0
142
1.0
143
1.0
 70
0
 72
1
 73
0
 74
0
  7

 75
0
147
1.0
148
0.0
149
0.0
100
AcDbLayout
  1
Layout1
 70
0
 71
1
 10
0.0
 20
0.0
 11
297.0
 21
210.0
 12
0.0
 22
0.0
 32
0.0
 14
0.0
 24
0.0
 34
0.0
 15
0.0
 25
0.0
 35
0.0
146
0.0
 13
0.0
 23
0.0
 33
0.0
 16
1.0
 26
0.0
 36
0.0
 17
0.0
 27
1.0
 37
0.0
 76
0
330
21F
345
0
346
0
  0
ENDSEC
  0
EOF
