  0
SECTION
  2
HEADER
  9
$ACADVER
  1
AC1024
  9
$DWGCODEPAGE
  3
ANSI_1252
  9
$EXTMAX
 10
297.0
 20
210.0
 30
0.0
  9
$EXTMIN
 10
0.0
 20
0.0
 30
0.0
  9
$LIMMIN
 10
0.0
 20
0.0
  9
$LIMMAX
 10
297.0
 20
210.0
  9
$VIEWCTR
 10
148.5
 20
105.0
  9
$VIEWSIZE
 40
210.0
  9
$CLAYER
  8
0
  9
$LTSCALE
 40
16.335
  9
$CELTYPE
  6
BYLAYER
  9
$DIMSCALE
 40
1.0
  9
$DIMASZ
 40
3.0
  9
$DIMEXO
 40
0.5
  9
$DIMDLI
 40
11.286
  9
$DIMEXE
 40
1.5
  9
$DIMCEN
 40
2.673
  9
$DIMLFAC
 40
1.0
  9
$DIMBLK
  1
_FILLED
  9
$DIMALT
 70
0
  9
$DIMALTF
 40
0.0393700787
  9
$DIMTXT
 40
3.0
  9
$DIMTOL
 70
1
  9
$DIMLIM
 70
0
  9
$DIMTFAC
 40
1.0
  9
$DIMTP
 40
0.01
  9
$DIMTM
 40
0.01
  9
$DIMGAP
 40
0.625
  9
$DIMDSEP
 70
44
  9
$AUNITS
 70
0
  9
$PDMODE
 70
3
  9
$PDSIZE
 40
3.0
  9
$HANDSEED
  5
3E9
  9
$TILEMODE
 70
1
  9
$MEASUREMENT
 70
1
  9
$INSUNITS
 70
4
  0
ENDSEC
  0
SECTION
  2
CLASSES
  0
CLASS
  1
ACDBDICTIONARYWDFLT
  2
AcDbDictionaryWithDefault
  3
AutoCAD 2000
 90
0
 91
1
280
0
281
0
  0
CLASS
  1
ACDBPLACEHOLDER
  2
AcDbPlaceHolder
  3
AutoCAD 2000
 90
0
 91
1
280
0
281
0
  0
CLASS
  1
LAYOUT
  2
AcDbLayout
  3
AutoCAD 2000
 90
0
 91
0
280
0
281
0
  0
ENDSEC
  0
SECTION
  2
TABLES
  0
TABLE
  2
VPORT
  5
8
100
AcDbSymbolTable
 70
2
  0
VPORT
  5
1F4
100
AcDbSymbolTableRecord
100
AcDbViewportTableRecord
  2
*ACTIVE
 70
0
 10
0.0
 20
0.0
 11
1.0
 21
1.0
 12
148.5
 22
105.0
 13
0.0
 23
0.0
 14
1.0
 24
1.0
 15
0.0
 25
0.0
 16
0.0
 26
0.0
 36
1.0
 17
0.0
 27
0.0
 37
0.0
 40
210.0
 41
1.4142857143
 42
50.0
 43
0.0
 44
0.0
 50
0.0
 51
0.0
 71
0
 72
100
 73
1
 74
1
 75
0
 76
0
 77
0
 78
0
  0
ENDTAB
  0
TABLE
  2
LTYPE
  5
5
100
AcDbSymbolTable
 70
6
  0
LTYPE
  5
14
100
AcDbSymbolTableRecord
100
AcDbLinetypeTableRecord
  2
BYBLOCK
 70
0
  3

 72
65
 73
0
 40
0.0
  0
LTYPE
  5
15
100
AcDbSymbolTableRecord
100
AcDbLinetypeTableRecord
  2
BYLAYER
 70
0
  3

 72
65
 73
0
 40
0.0
  0
LTYPE
  5
16
100
AcDbSymbolTableRecord
100
AcDbLinetypeTableRecord
  2
CONTINUOUS
 70
64
  3
Solid line
 72
65
 73
0
 40
0.0
  0
LTYPE
  5
1F5
100
AcDbSymbolTableRecord
100
AcDbLinetypeTableRecord
  2
CENTER
 70
64
  3
____ _ ____ _ ____ _ ____ _ ____ _ ____ _ ____
 72
65
 73
4
 40
0.6
 49
0.375
 74
0
 49
-0.075
 74
0
 49
0.075
 74
0
 49
-0.075
 74
0
  0
LTYPE
  5
1F6
100
AcDbSymbolTableRecord
100
AcDbLinetypeTableRecord
  2
HIDDEN
 70
64
  3
- - - - - - - - - - - - - - - - - - - -
 72
65
 73
2
 40
0.2
 49
0.1
 74
0
 49
-0.1
 74
0
  0
LTYPE
  5
1F7
100
AcDbSymbolTableRecord
100
AcDbLinetypeTableRecord
  2
PHANTOM
 70
64
  3
_____ _ _ _____ _ _ _____ _ _ _____
 72
65
 73
6
 40
0.8
 49
0.45
 74
0
 49
-0.05
 74
0
 49
0.1
 74
0
 49
-0.05
 74
0
 49
0.1
 74
0
 49
-0.05
 74
0
  0
LTYPE
  5
1F8
100
AcDbSymbolTableRecord
100
AcDbLinetypeTableRecord
  2
DOT
 70
64
  3
. . . . . . . . . . . . . . . . . . . .
 72
65
 73
2
 40
0.2
 49
0.1
 74
0
 49
-0.1
 74
0
  0
LTYPE
  5
1F9
100
AcDbSymbolTableRecord
100
AcDbLinetypeTableRecord
  2
DASHED
 70
64
  3
- - - - - - - - - - - - - - - - - - - -
 72
65
 73
2
 40
0.2
 49
0.1
 74
0
 49
-0.1
 74
0
  0
ENDTAB
  0
TABLE
  2
LAYER
  5
2
100
AcDbSymbolTable
 70
36
  0
LAYER
  5
10
100
AcDbSymbolTableRecord
100
AcDbLayerTableRecord
  2
0
 70
0
 62
7
  6
CONTINUOUS
370
-3
390
F
  0
LAYER
  5
1FA
100
AcDbSymbolTableRecord
100
AcDbLayerTableRecord
  2
DEFAULT_1
 70
0
 62
7
  6
CENTER
370
-3
390
F
  0
LAYER
  5
1FB
100
AcDbSymbolTableRecord
100
AcDbLayerTableRecord
  2
DEFAULT_2
 70
0
 62
7
  6
HIDDEN
370
-3
390
F
  0
LAYER
  5
1FC
100
AcDbSymbolTableRecord
100
AcDbLayerTableRecord
  2
DEFAULT_3
 70
0
 62
7
  6
PHANTOM
370
-3
390
F
  0
LAYER
  5
1FD
100
AcDbSymbolTableRecord
100
AcDbLayerTableRecord
  2
ASSI
 70
0
 62
7
  6
CONTINUOUS
370
-3
390
F
  0
LAYER
  5
1FE
100
AcDbSymbolTableRecord
100
AcDbLayerTableRecord
  2
COORDINATE
 70
0
 62
7
  6
CONTINUOUS
370
-3
390
F
  0
LAYER
  5
1FF
100
AcDbSymbolTableRecord
100
AcDbLayerTableRecord
  2
COORD_ORIGINE
 70
0
 62
7
  6
CONTINUOUS
370
-3
390
F
  0
LAYER
  5
200
100
AcDbSymbolTableRecord
100
AcDbLayerTableRecord
  2
COPY_PUBLISH
 70
0
 62
7
  6
CONTINUOUS
370
-3
390
F
  0
LAYER
  5
201
100
AcDbSymbolTableRecord
100
AcDbLayerTableRecord
  2
COSMETIC
 70
0
 62
7
  6
CONTINUOUS
370
-3
390
F
  0
LAYER
  5
202
100
AcDbSymbolTableRecord
100
AcDbLayerTableRecord
  2
COSMETICI
 70
0
 62
7
  6
CONTINUOUS
370
-3
390
F
  0
LAYER
  5
203
100
AcDbSymbolTableRecord
100
AcDbLayerTableRecord
  2
CURVE
 70
0
 62
7
  6
CONTINUOUS
370
-3
390
F
  0
LAYER
  5
204
100
AcDbSymbolTableRecord
100
AcDbLayerTableRecord
  2
CURVE_COSTRUZIONE
 70
0
 62
7
  6
CONTINUOUS
370
-3
390
F
  0
LAYER
  5
205
100
AcDbSymbolTableRecord
100
AcDbLayerTableRecord
  2
CURVE_TASSELLI
 70
0
 62
7
  6
CONTINUOUS
370
-3
390
F
  0
LAYER
  5
206
100
AcDbSymbolTableRecord
100
AcDbLayerTableRecord
  2
DRAFT
 70
0
 62
7
  6
CONTINUOUS
370
-3
390
F
  0
LAYER
  5
207
100
AcDbSymbolTableRecord
100
AcDbLayerTableRecord
  2
IMPORT_IGES
 70
0
 62
7
  6
CONTINUOUS
370
-3
390
F
  0
LAYER
  5
208
100
AcDbSymbolTableRecord
100
AcDbLayerTableRecord
  2
INTFCLR_2
 70
0
 62
7
  6
CONTINUOUS
370
-3
390
F
  0
LAYER
  5
209
100
AcDbSymbolTableRecord
100
AcDbLayerTableRecord
  2
INTF_1
 70
0
 62
7
  6
CONTINUOUS
370
-3
390
F
  0
LAYER
  5
20A
100
AcDbSymbolTableRecord
100
AcDbLayerTableRecord
  2
INTF_6
 70
0
 62
7
  6
CONTINUOUS
370
-3
390
F
  0
LAYER
  5
20B
100
AcDbSymbolTableRecord
100
AcDbLayerTableRecord
  2
INTF_7
 70
0
 62
7
  6
CONTINUOUS
370
-3
390
F
  0
LAYER
  5
20C
100
AcDbSymbolTableRecord
100
AcDbLayerTableRecord
  2
INTF_CYAN
 70
0
 62
7
  6
CONTINUOUS
370
-3
390
F
  0
LAYER
  5
20D
100
AcDbSymbolTableRecord
100
AcDbLayerTableRecord
  2
LIVELLO_1
 70
0
 62
7
  6
CONTINUOUS
370
-3
390
F
  0
LAYER
  5
20E
100
AcDbSymbolTableRecord
100
AcDbLayerTableRecord
  2
NOTE
 70
0
 62
7
  6
CONTINUOUS
370
-3
390
F
  0
LAYER
  5
20F
100
AcDbSymbolTableRecord
100
AcDbLayerTableRecord
  2
PIANI
 70
0
 62
7
  6
CONTINUOUS
370
-3
390
F
  0
LAYER
  5
210
100
AcDbSymbolTableRecord
100
AcDbLayerTableRecord
  2
PIANI_ORIGINE
 70
0
 62
7
  6
CONTINUOUS
370
-3
390
F
  0
LAYER
  5
211
100
AcDbSymbolTableRecord
100
AcDbLayerTableRecord
  2
PIANI_RIFERIMENTO
 70
0
 62
7
  6
CONTINUOUS
370
-3
390
F
  0
LAYER
  5
212
100
AcDbSymbolTableRecord
100
AcDbLayerTableRecord
  2
PUNTI
 70
0
 62
7
  6
CONTINUOUS
370
-3
390
F
  0
LAYER
  5
213
100
AcDbSymbolTableRecord
100
AcDbLayerTableRecord
  2
RACCORDO
 70
0
 62
7
  6
CONTINUOUS
370
-3
390
F
  0
LAYER
  5
214
100
AcDbSymbolTableRecord
100
AcDbLayerTableRecord
  2
RGB__255__255__255__
 70
0
 62
7
  6
CONTINUOUS
370
-3
390
F
  0
LAYER
  5
215
100
AcDbSymbolTableRecord
100
AcDbLayerTableRecord
  2
RGB____0____0____0__
 70
0
 62
7
  6
CONTINUOUS
370
-3
390
F
  0
LAYER
  5
216
100
AcDbSymbolTableRecord
100
AcDbLayerTableRecord
  2
SIMBOLI
 70
0
 62
7
  6
CONTINUOUS
370
-3
390
F
  0
LAYER
  5
217
100
AcDbSymbolTableRecord
100
AcDbLayerTableRecord
  2
SMUSSO
 70
0
 62
7
  6
CONTINUOUS
370
-3
390
F
  0
LAYER
  5
218
100
AcDbSymbolTableRecord
100
AcDbLayerTableRecord
  2
SUPERFICI
 70
0
 62
7
  6
CONTINUOUS
370
-3
390
F
  0
LAYER
  5
219
100
AcDbSymbolTableRecord
100
AcDbLayerTableRecord
  2
TRASH
 70
0
 62
7
  6
CONTINUOUS
370
-3
390
F
  0
LAYER
  5
21A
100
AcDbSymbolTableRecord
100
AcDbLayerTableRecord
  2
WHITE
 70
0
 62
7
  6
CONTINUOUS
370
-3
390
F
  0
LAYER
  5
21B
100
AcDbSymbolTableRecord
100
AcDbLayerTableRecord
  2
XSEC_DATUMS
 70
0
 62
7
  6
CONTINUOUS
370
-3
390
F
  0
ENDTAB
  0
TABLE
  2
STYLE
  5
3
100
AcDbSymbolTable
 70
1
  0
STYLE
  5
11
100
AcDbSymbolTableRecord
100
AcDbTextStyleTableRecord
  2
STANDARD
 70
0
 40
0.0
 41
0.8
 50
0.0
 71
0
 42
0.2
  3
txt
  4

  0
STYLE
  5
21C
100
AcDbSymbolTableRecord
100
AcDbTextStyleTableRecord
  2
TEXTSTYLE_1
 70
0
 40
0.0
 41
0.8
 50
0.0
 71
0
 42
0.2
  3
gdt
  4

  0
ENDTAB
  0
TABLE
  2
VIEW
  5
6
100
AcDbSymbolTable
 70
0
  0
ENDTAB
  0
TABLE
  2
UCS
  5
7
100
AcDbSymbolTable
 70
0
  0
ENDTAB
  0
TABLE
  2
APPID
  5
9
100
AcDbSymbolTable
 70
1
  0
APPID
  5
21D
100
AcDbSymbolTableRecord
100
AcDbRegAppTableRecord
  2
ACAD
 70
0
  0
ENDTAB
  0
TABLE
  2
BLOCK_RECORD
  5
1
100
AcDbSymbolTable
 70
0
  0
BLOCK_RECORD
  5
21E
100
AcDbSymbolTableRecord
100
AcDbBlockTableRecord
  2
*Model_Space
  0
BLOCK_RECORD
  5
21F
100
AcDbSymbolTableRecord
100
AcDbBlockTableRecord
  2
*Paper_Space
  0
BLOCK_RECORD
  5
220
100
AcDbSymbolTableRecord
100
AcDbBlockTableRecord
  2
_FILLED
  0
ENDTAB
  0
TABLE
  2
DIMSTYLE
  5
A
100
AcDbSymbolTable
 70
1
100
AcDbDimStyleTable
 71
0
  0
DIMSTYLE
105
221
100
AcDbSymbolTableRecord
100
AcDbDimStyleTableRecord
  2
STANDARD
 70
0
  3

  4

 40
1.0
 41
3.0
 42
0.5
 43
0.38
 44
1.5
 45
0.0
 46
0.0
 47
0.01
 48
0.01
140
3.0
141
0.09
142
0.0
143
25.4
144
1.0
145
0.0
146
1.0
147
0.625
 71
1
 72
0
 73
0
 74
0
 75
0
 76
0
 77
1
 78
8
 79
2
170
0
171
1
172
0
173
0
174
0
175
0
176
0
177
0
178
0
270
2
179
2
271
2
272
2
273
2
274
2
275
0
280
0
281
0
282
0
283
1
284
8
285
0
286
0
287
3
288
0
340
11
278
44
341
220
342
220
343
220
344
220
  0
ENDTAB
  0
ENDSEC
  0
SECTION
  2
BLOCKS
  0
BLOCK
  5
20
100
AcDbEntity
  8
0
100
AcDbBlockBegin
  2
*Model_Space
 70
0
 10
0.0
 20
0.0
 30
0.0
  3
*Model_Space
  1

  0
ENDBLK
  5
21
100
AcDbEntity
  8
0
100
AcDbBlockEnd
  0
BLOCK
  5
1C
100
AcDbEntity
  8
0
100
AcDbBlockBegin
  2
*Paper_Space
 70
0
 10
0.0
 20
0.0
 30
0.0
  3
*Paper_Space
  1

  0
ENDBLK
  5
1D
100
AcDbEntity
  8
0
100
AcDbBlockEnd
  0
BLOCK
  5
222
100
AcDbEntity
  8
0
100
AcDbBlockBegin
  2
_FILLED
 70
64
 10
0.0
 20
0.0
  3
_FILLED
  1

  0
SOLID
  5
223
100
AcDbEntity
  8
0
  6
BYBLOCK
 62
0
100
AcDbTrace
 10
0.0
 20
0.0
 11
-1.0
 21
0.3166666667
 12
-1.0
 22
-0.3166666667
 13
-1.0
 23
-0.3166666667
  0
ENDBLK
  5
224
100
AcDbEntity
  8
0
  6
BYBLOCK
 62
0
100
AcDbBlockEnd
  0
ENDSEC
  0
SECTION
  2
ENTITIES
  0
LINE
  5
225
100
AcDbEntity
  8
0
100
AcDbLine
 62
7
  6
CONTINUOUS
 10
96.4863496307
 20
140.3317573993
 11
100.2741634178
 21
142.8353242906
  0
LINE
  5
226
100
AcDbEntity
  8
ASSI
100
AcDbLine
 62
7
  6
CONTINUOUS
 10
96.4863496307
 20
140.3317573993
 11
100.2741634178
 21
142.8353242906
  0
LINE
  5
227
100
AcDbEntity
  8
0
100
AcDbLine
 62
7
  6
CONTINUOUS
 10
97.1938869
 20
140.7402015931
 11
100.9817006871
 21
143.2437684845
  0
LINE
  5
228
100
AcDbEntity
  8
ASSI
100
AcDbLine
 62
7
  6
CONTINUOUS
 10
97.1938869
 20
140.7402015931
 11
100.9817006871
 21
143.2437684845
  0
LINE
  5
229
100
AcDbEntity
  8
0
100
AcDbLine
 62
7
  6
CONTINUOUS
 10
97.1731232858
 20
140.7273622422
 11
97.1938869
 21
140.7402015931
  0
LINE
  5
22A
100
AcDbEntity
  8
ASSI
100
AcDbLine
 62
7
  6
CONTINUOUS
 10
97.1731232858
 20
140.7273622422
 11
97.1938869
 21
140.7402015931
  0
LINE
  5
22B
100
AcDbEntity
  8
0
100
AcDbLine
 62
7
  6
CONTINUOUS
 10
100.2741634178
 20
142.8353242906
 11
100.9817006871
 21
143.2437684845
  0
LINE
  5
22C
100
AcDbEntity
  8
ASSI
100
AcDbLine
 62
7
  6
CONTINUOUS
 10
100.2741634178
 20
142.8353242906
 11
100.9817006871
 21
143.2437684845
  0
LINE
  5
22D
100
AcDbEntity
  8
0
100
AcDbLine
 62
7
  6
CONTINUOUS
 10
97.1731232858
 20
140.7273622422
 11
96.4867249382
 21
140.3311210377
  0
LINE
  5
22E
100
AcDbEntity
  8
ASSI
100
AcDbLine
 62
7
  6
CONTINUOUS
 10
97.1731232858
 20
140.7273622422
 11
96.4867249382
 21
140.3311210377
  0
LINE
  5
22F
100
AcDbEntity
  8
0
100
AcDbLine
 62
7
  6
CONTINUOUS
 10
96.7904339859
 20
139.3121338038
 11
96.5114580518
 21
139.1510877282
  0
LINE
  5
230
100
AcDbEntity
  8
ASSI
100
AcDbLine
 62
7
  6
CONTINUOUS
 10
96.7904339859
 20
139.3121338038
 11
96.5114580518
 21
139.1510877282
  0
LINE
  5
231
100
AcDbEntity
  8
0
100
AcDbLine
 62
7
  6
CONTINUOUS
 10
96.7904339859
 20
139.3121338038
 11
97.1731232858
 21
140.7273622422
  0
LINE
  5
232
100
AcDbEntity
  8
ASSI
100
AcDbLine
 62
7
  6
CONTINUOUS
 10
96.7904339859
 20
139.3121338038
 11
97.1731232858
 21
140.7273622422
  0
LINE
  5
233
100
AcDbEntity
  8
0
100
AcDbLine
 62
7
  6
CONTINUOUS
 10
158.4133802571
 20
32.5780600608
 11
159.830339388
 21
32.201880605
  0
LINE
  5
234
100
AcDbEntity
  8
ASSI
100
AcDbLine
 62
7
  6
CONTINUOUS
 10
158.4133802571
 20
32.5780600608
 11
159.830339388
 21
32.201880605
  0
LWPOLYLINE
  5
235
100
AcDbEntity
  8
CURVE
100
AcDbPolyline
 62
250
  6
CONTINUOUS
 90
73
 70
0
 10
155.9626090871
 20
36.9757313828
 10
155.9662812862
 20
36.9744651519
 10
155.9698428379
 20
36.9737757703
 10
155.9733129667
 20
36.9735283715
 10
155.9767108971
 20
36.9735880892
 10
155.9800558536
 20
36.9738200569
 10
155.9903797258
 20
36.9748819968
 10
156.0003986142
 20
36.9764029947
 10
156.0101432608
 20
36.97847023
 10
156.0199865097
 20
36.9812571983
 10
156.0295701973
 20
36.98466088
 10
156.0388966233
 20
36.9886168092
 10
156.0479680873
 20
36.9930605199
 10
156.0587245731
 20
36.9990883209
 10
156.0690929876
 20
37.0057501422
 10
156.0790637192
 20
37.0130459254
 10
156.0886271562
 20
37.0209756121
 10
156.0970912375
 20
37.0288622033
 10
156.1051909146
 20
37.0372782764
 10
156.1129175563
 20
37.0462124123
 10
156.1202625318
 20
37.0556531915
 10
156.1272172099
 20
37.0655891946
 10
156.1345809308
 20
37.0773717712
 10
156.1414310262
 20
37.0897509114
 10
156.1477610447
 20
37.1027080979
 10
156.1535645352
 20
37.1162248131
 10
156.1588350466
 20
37.1302825397
 10
156.16329492
 20
37.1439586164
 10
156.1672824786
 20
37.1580721643
 10
156.1708011166
 20
37.1725998811
 10
156.1738542283
 20
37.1875184647
 10
156.1764452082
 20
37.202804613
 10
156.1785774503
 20
37.2184350238
 10
156.1804042271
 20
37.236056368
 10
156.1816937036
 20
37.2540417914
 10
156.1824631099
 20
37.272364498
 10
156.1827274191
 20
37.2923948826
 10
156.182417937
 20
37.3127574443
 10
156.1815412053
 20
37.3334260231
 10
156.1804217508
 20
37.3503064014
 10
156.1789213365
 20
37.3673636935
 10
156.177023911
 20
37.3845926822
 10
156.1748546851
 20
37.4010135658
 10
156.1723116702
 20
37.4175742345
 10
156.169389377
 20
37.4342660352
 10
156.1656974595
 20
37.4529269919
 10
156.1615299165
 20
37.4717162019
 10
156.1568847794
 20
37.4906111445
 10
156.1517600794
 20
37.5095892991
 10
156.1461538478
 20
37.5286281449
 10
156.1406242135
 20
37.5460144314
 10
156.1346987254
 20
37.5634137434
 10
156.1283831831
 20
37.5808073974
 10
156.1216833857
 20
37.5981767097
 10
156.1146051327
 20
37.6155029969
 10
156.1060351012
 20
37.6352847152
 10
156.0969881283
 20
37.6549591447
 10
156.0874768113
 20
37.6745000599
 10
156.0775137471
 20
37.6938812355
 10
156.0672793948
 20
37.7127758322
 10
156.0566347271
 20
37.7314679625
 10
156.0455948401
 20
37.7499353074
 10
156.03417483
 20
37.7681555478
 10
156.0223897933
 20
37.7861063645
 10
156.010254826
 20
37.8037654385
 10
155.9977850245
 20
37.8211104508
 10
155.988492319
 20
37.8335377912
 10
155.979029078
 20
37.845748773
 10
155.9693946432
 20
37.8577057576
 10
155.9595883563
 20
37.869371106
 10
155.9496095592
 20
37.8807071795
 10
155.9394575936
 20
37.8916763393
 10
155.9291318012
 20
37.9022409466
  0
LINE
  5
236
100
AcDbEntity
  8
0
100
AcDbLine
 62
7
  6
CONTINUOUS
 10
96.5114580518
 20
68.3194541289
 11
96.7904339859
 21
67.8362536374
  0
LINE
  5
237
100
AcDbEntity
  8
ASSI
100
AcDbLine
 62
7
  6
CONTINUOUS
 10
96.5114580518
 20
68.3194541289
 11
96.7904339859
 21
67.8362536374
  0
LINE
  5
238
100
AcDbEntity
  8
0
100
AcDbLine
 62
7
  6
CONTINUOUS
 10
96.5114580518
 20
68.3194541289
 11
96.4867249382
 21
68.7756897064
  0
LINE
  5
239
100
AcDbEntity
  8
ASSI
100
AcDbLine
 62
7
  6
CONTINUOUS
 10
96.5114580518
 20
68.3194541289
 11
96.4867249382
 21
68.7756897064
  0
LWPOLYLINE
  5
23A
100
AcDbEntity
  8
CURVE
100
AcDbPolyline
 62
250
  6
CONTINUOUS
 90
23
 70
0
 10
155.4404567433
 20
37.9183093629
 10
155.4522664394
 20
37.9137619543
 10
155.4640970631
 20
37.9090880989
 10
155.4759474096
 20
37.9042768675
 10
155.4878162739
 20
37.8993173309
 10
155.499702451
 20
37.8941985598
 10
155.5116047359
 20
37.8889096249
 10
155.5235219238
 20
37.883439597
 10
155.5354528095
 20
37.8777775469
 10
155.5473961882
 20
37.8719125452
 10
155.5593508549
 20
37.8658336627
 10
155.5713156047
 20
37.8595299702
 10
155.5825579151
 20
37.8533991616
 10
155.5938053904
 20
37.8470666618
 10
155.6050553683
 20
37.8405386203
 10
155.6163051864
 20
37.8338211868
 10
155.6275521821
 20
37.8269205109
 10
155.6387936932
 20
37.8198427422
 10
155.6500270572
 20
37.8125940303
 10
155.6612496116
 20
37.8051805248
 10
155.6724586941
 20
37.7976083754
 10
155.6836516422
 20
37.7898837316
 10
155.6948257935
 20
37.7820127432
  0
LINE
  5
23B
100
AcDbEntity
  8
0
100
AcDbLine
 62
7
  6
CONTINUOUS
 10
96.7904339859
 20
67.8362536374
 11
97.1731232858
 21
67.5868128953
  0
LINE
  5
23C
100
AcDbEntity
  8
ASSI
100
AcDbLine
 62
7
  6
CONTINUOUS
 10
96.7904339859
 20
67.8362536374
 11
97.1731232858
 21
67.5868128953
  0
LINE
  5
23D
100
AcDbEntity
  8
0
100
AcDbLine
 62
7
  6
CONTINUOUS
 10
96.5114580518
 20
139.1510877282
 11
96.4867249382
 21
140.3311210377
  0
LINE
  5
23E
100
AcDbEntity
  8
ASSI
100
AcDbLine
 62
7
  6
CONTINUOUS
 10
96.5114580518
 20
139.1510877282
 11
96.4867249382
 21
140.3311210377
  0
LINE
  5
23F
100
AcDbEntity
  8
0
100
AcDbLine
 62
7
  6
CONTINUOUS
 10
96.4867249382
 20
68.7756897064
 11
96.4863496307
 21
68.7998825671
  0
LINE
  5
240
100
AcDbEntity
  8
ASSI
100
AcDbLine
 62
7
  6
CONTINUOUS
 10
96.4867249382
 20
68.7756897064
 11
96.4863496307
 21
68.7998825671
  0
LINE
  5
241
100
AcDbEntity
  8
0
100
AcDbLine
 62
7
  6
CONTINUOUS
 10
96.4863496307
 20
140.3317573993
 11
96.4863496307
 21
68.7998825671
  0
LINE
  5
242
100
AcDbEntity
  8
ASSI
100
AcDbLine
 62
7
  6
CONTINUOUS
 10
96.4863496307
 20
140.3317573993
 11
96.4863496307
 21
68.7998825671
  0
LINE
  5
243
100
AcDbEntity
  8
0
100
AcDbLine
 62
7
  6
CONTINUOUS
 10
96.5114580518
 20
139.1510877282
 11
96.5114580518
 21
68.3194541289
  0
LINE
  5
244
100
AcDbEntity
  8
ASSI
100
AcDbLine
 62
7
  6
CONTINUOUS
 10
96.5114580518
 20
139.1510877282
 11
96.5114580518
 21
68.3194541289
  0
LINE
  5
245
100
AcDbEntity
  8
0
100
AcDbLine
 62
7
  6
CONTINUOUS
 10
97.1938869
 20
67.5743920697
 11
159.1443034706
 21
31.8049979629
  0
LINE
  5
246
100
AcDbEntity
  8
ASSI
100
AcDbLine
 62
7
  6
CONTINUOUS
 10
97.1938869
 20
67.5743920697
 11
159.1443034706
 21
31.8049979629
  0
LINE
  5
247
100
AcDbEntity
  8
0
100
AcDbLine
 62
7
  6
CONTINUOUS
 10
96.7904339859
 20
67.8362536374
 11
158.1344043229
 21
32.4170139853
  0
LINE
  5
248
100
AcDbEntity
  8
ASSI
100
AcDbLine
 62
7
  6
CONTINUOUS
 10
96.7904339859
 20
67.8362536374
 11
158.1344043229
 21
32.4170139853
  0
LINE
  5
249
100
AcDbEntity
  8
CURVE
100
AcDbLine
 62
250
  6
CONTINUOUS
 10
155.1278348828
 20
36.6087104008
 11
155.4512231318
 21
36.4219900788
  0
LINE
  5
24A
100
AcDbEntity
  8
CURVE
100
AcDbLine
 62
250
  6
CONTINUOUS
 10
155.9484483118
 20
36.1348984916
 11
156.2607668938
 21
35.9545696566
  0
LINE
  5
24B
100
AcDbEntity
  8
CURVE
100
AcDbLine
 62
250
  6
CONTINUOUS
 10
155.0324886333
 20
36.6637624705
 11
154.6902741532
 21
36.8613528224
  0
LINE
  5
24C
100
AcDbEntity
  8
CURVE
100
AcDbLine
 62
250
  6
CONTINUOUS
 10
154.0743849829
 20
37.2169595104
 11
153.7532130569
 21
37.4024001552
  0
LINE
  5
24D
100
AcDbEntity
  8
CURVE
100
AcDbLine
 62
250
  6
CONTINUOUS
 10
153.7022274951
 20
37.4318385796
 11
153.3845898233
 21
37.6152385904
  0
LINE
  5
24E
100
AcDbEntity
  8
CURVE
100
AcDbLine
 62
250
  6
CONTINUOUS
 10
152.9318178562
 20
37.8766634496
 11
152.8862799795
 21
37.9029564489
  0
LINE
  5
24F
100
AcDbEntity
  8
CURVE
100
AcDbLine
 62
250
  6
CONTINUOUS
 10
152.4353044002
 20
38.1633440963
 11
152.1246774561
 21
38.3426962008
  0
LINE
  5
250
100
AcDbEntity
  8
CURVE
100
AcDbLine
 62
250
  6
CONTINUOUS
 10
151.0046929619
 20
38.989361211
 11
150.7185554142
 21
39.1545734449
  0
LINE
  5
251
100
AcDbEntity
  8
CURVE
100
AcDbLine
 62
250
  6
CONTINUOUS
 10
151.6251890337
 20
38.6310945558
 11
151.9498841023
 21
38.4436196926
  0
LINE
  5
252
100
AcDbEntity
  8
CURVE
100
AcDbLine
 62
250
  6
CONTINUOUS
 10
154.606160977
 20
37.2684804864
 11
154.1639806608
 21
37.5237898591
  0
LINE
  5
253
100
AcDbEntity
  8
CURVE
100
AcDbLine
 62
250
  6
CONTINUOUS
 10
154.230398861
 20
37.762894906
 11
154.5412710028
 21
37.5834012275
  0
LINE
  5
254
100
AcDbEntity
  8
CURVE
100
AcDbLine
 62
250
  6
CONTINUOUS
 10
155.4512231318
 20
37.1248779567
 11
155.6253166831
 21
37.0243585221
  0
LINE
  5
255
100
AcDbEntity
  8
CURVE
100
AcDbLine
 62
250
  6
CONTINUOUS
 10
155.6260165567
 20
37.3181095057
 11
155.4404567433
 21
37.4252494163
  0
LINE
  5
256
100
AcDbEntity
  8
CURVE
100
AcDbLine
 62
250
  6
CONTINUOUS
 10
150.2254302791
 20
41.235380848
 11
150.5781489983
 21
41.0317254801
  0
LINE
  5
257
100
AcDbEntity
  8
CURVE
100
AcDbLine
 62
250
  6
CONTINUOUS
 10
151.180221168
 20
40.6840965551
 11
151.5046947438
 21
40.496749579
  0
LINE
  5
258
100
AcDbEntity
  8
CURVE
100
AcDbLine
 62
250
  6
CONTINUOUS
 10
152.2651305411
 20
40.0576834802
 11
152.589556707
 21
39.870363878
  0
LINE
  5
259
100
AcDbEntity
  8
CURVE
100
AcDbLine
 62
250
  6
CONTINUOUS
 10
153.2355170397
 20
39.4973944777
 11
153.5567704514
 21
39.311906784
  0
LINE
  5
25A
100
AcDbEntity
  8
CURVE
100
AcDbLine
 62
250
  6
CONTINUOUS
 10
154.2411186667
 20
38.9167727014
 11
154.5552213435
 21
38.7354137525
  0
LINE
  5
25B
100
AcDbEntity
  8
CURVE
100
AcDbLine
 62
250
  6
CONTINUOUS
 10
151.9498841023
 20
40.2398105971
 11
151.6251890337
 21
40.4272854603
  0
LWPOLYLINE
  5
25C
100
AcDbEntity
  8
CURVE
100
AcDbPolyline
 62
250
  6
CONTINUOUS
 90
46
 70
0
 10
155.6253166831
 20
37.0243585221
 10
155.6306281285
 20
37.0212053688
 10
155.6359479903
 20
37.0178745845
 10
155.6412703833
 20
37.0143695842
 10
155.6465894222
 20
37.0106937827
 10
155.6518992218
 20
37.0068505949
 10
155.6571938967
 20
37.0028434359
 10
155.6624675618
 20
36.9986757204
 10
155.6677143318
 20
36.9943508634
 10
155.6729283214
 20
36.9898722798
 10
155.6781036454
 20
36.9852433846
 10
155.6832344184
 20
36.9804675925
 10
155.6883147553
 20
36.9755483187
 10
155.6933387708
 20
36.9704889778
 10
155.6983005796
 20
36.9652929849
 10
155.7031942965
 20
36.9599637549
 10
155.7080140361
 20
36.9545047027
 10
155.7126342183
 20
36.9490640878
 10
155.7171762266
 20
36.94350907
 10
155.721637716
 20
36.9378452693
 10
155.7260163412
 20
36.9320783052
 10
155.7303097572
 20
36.9262137976
 10
155.7345156188
 20
36.9202573663
 10
155.7386315808
 20
36.9142146308
 10
155.7426552981
 20
36.9080912112
 10
155.7465844254
 20
36.9018927269
 10
155.7504166178
 20
36.895624798
 10
155.7541495299
 20
36.8892930439
 10
155.7577808166
 20
36.8829030846
 10
155.7613081329
 20
36.8764605398
 10
155.764995345
 20
36.869456608
 10
155.7685602861
 20
36.862403401
 10
155.7720044497
 20
36.8553063178
 10
155.775329329
 20
36.8481707569
 10
155.7785364175
 20
36.8410021172
 10
155.7816272084
 20
36.8338057974
 10
155.7846031952
 20
36.8265871962
 10
155.7874658712
 20
36.8193517125
 10
155.7902167297
 20
36.8121047449
 10
155.7928572642
 20
36.8048516922
 10
155.7953889679
 20
36.7975979531
 10
155.7978133343
 20
36.7903489265
 10
155.8001318566
 20
36.783110011
 10
155.8023460282
 20
36.7758866054
 10
155.8044573426
 20
36.7686841084
 10
155.8064672929
 20
36.7615079189
  0
LINE
  5
25D
100
AcDbEntity
  8
0
100
AcDbLine
 62
7
  6
CONTINUOUS
 10
97.1938869
 20
67.5743920697
 11
97.1731232858
 21
67.5868128953
  0
LINE
  5
25E
100
AcDbEntity
  8
ASSI
100
AcDbLine
 62
7
  6
CONTINUOUS
 10
97.1938869
 20
67.5743920697
 11
97.1731232858
 21
67.5868128953
  0
LINE
  5
25F
100
AcDbEntity
  8
0
100
AcDbLine
 62
7
  6
CONTINUOUS
 10
158.1344043229
 20
32.4170139853
 11
159.1439410403
 21
31.8056394006
  0
LINE
  5
260
100
AcDbEntity
  8
ASSI
100
AcDbLine
 62
7
  6
CONTINUOUS
 10
158.1344043229
 20
32.4170139853
 11
159.1439410403
 21
31.8056394006
  0
LWPOLYLINE
  5
261
100
AcDbEntity
  8
0
100
AcDbPolyline
 62
7
  6
CONTINUOUS
 90
7
 70
0
 10
106.5171962717
 20
104.3495954755
 10
106.5063762259
 20
104.3211911051
 10
106.4902567811
 20
104.2691378943
 10
106.4776485624
 20
104.2139753979
 10
106.4686050307
 20
104.1559417202
 10
106.463163898
 20
104.0952847295
 10
106.4613477532
 20
104.0322646015
  0
LWPOLYLINE
  5
262
100
AcDbEntity
  8
ASSI
100
AcDbPolyline
 62
7
  6
CONTINUOUS
 90
7
 70
0
 10
106.5171962717
 20
104.3495954755
 10
106.5063762259
 20
104.3211911051
 10
106.4902567811
 20
104.2691378943
 10
106.4776485624
 20
104.2139753979
 10
106.4686050307
 20
104.1559417202
 10
106.463163898
 20
104.0952847295
 10
106.4613477532
 20
104.0322646015
  0
LINE
  5
263
100
AcDbEntity
  8
0
100
AcDbLine
 62
250
  6
CONTINUOUS
 10
106.7006999426
 20
104.5480301207
 11
106.4613477532
 21
104.0322646015
  0
LINE
  5
264
100
AcDbEntity
  8
ASSI
100
AcDbLine
 62
250
  6
CONTINUOUS
 10
106.7006999426
 20
104.5480301207
 11
106.4613477532
 21
104.0322646015
  0
LWPOLYLINE
  5
265
100
AcDbEntity
  8
0
100
AcDbPolyline
 62
7
  6
CONTINUOUS
 90
3
 70
0
 10
106.5488557294
 20
104.415081012
 10
106.5259371574
 20
104.3699084064
 10
106.5171962717
 20
104.3495954755
  0
LWPOLYLINE
  5
266
100
AcDbEntity
  8
ASSI
100
AcDbPolyline
 62
7
  6
CONTINUOUS
 90
3
 70
0
 10
106.5488557294
 20
104.415081012
 10
106.5259371574
 20
104.3699084064
 10
106.5171962717
 20
104.3495954755
  0
LWPOLYLINE
  5
267
100
AcDbEntity
  8
0
100
AcDbPolyline
 62
7
  6
CONTINUOUS
 90
4
 70
0
 10
106.6366996823
 20
104.5274709967
 10
106.604357606
 20
104.4940326323
 10
106.5750338328
 20
104.4565155796
 10
106.5488557294
 20
104.415081012
  0
LWPOLYLINE
  5
268
100
AcDbEntity
  8
ASSI
100
AcDbPolyline
 62
7
  6
CONTINUOUS
 90
4
 70
0
 10
106.6366996823
 20
104.5274709967
 10
106.604357606
 20
104.4940326323
 10
106.5750338328
 20
104.4565155796
 10
106.5488557294
 20
104.415081012
  0
LWPOLYLINE
  5
269
100
AcDbEntity
  8
0
100
AcDbPolyline
 62
7
  6
CONTINUOUS
 90
3
 70
0
 10
106.4952667656
 20
104.4458053568
 10
106.5304943208
 20
104.4750299885
 10
106.5684255422
 20
104.4998939162
  0
LWPOLYLINE
  5
26A
100
AcDbEntity
  8
ASSI
100
AcDbPolyline
 62
7
  6
CONTINUOUS
 90
3
 70
0
 10
106.4952667656
 20
104.4458053568
 10
106.5304943208
 20
104.4750299885
 10
106.5684255422
 20
104.4998939162
  0
LINE
  5
26B
100
AcDbEntity
  8
0
100
AcDbLine
 62
250
  6
CONTINUOUS
 10
106.319926397
 20
103.9506096829
 11
106.4613477532
 21
104.0322646015
  0
LINE
  5
26C
100
AcDbEntity
  8
ASSI
100
AcDbLine
 62
250
  6
CONTINUOUS
 10
106.319926397
 20
103.9506096829
 11
106.4613477532
 21
104.0322646015
  0
LWPOLYLINE
  5
26D
100
AcDbEntity
  8
0
100
AcDbPolyline
 62
7
  6
CONTINUOUS
 90
13
 70
0
 10
106.5684255422
 20
104.4998939162
 10
106.6089835001
 20
104.520340034
 10
106.651908969
 20
104.5362314057
 10
106.6970465251
 20
104.5475164339
 10
106.7442030266
 20
104.5541468492
 10
106.7931763228
 20
104.5560942464
 10
106.8437559053
 20
104.5533504048
 10
106.8957252975
 20
104.5459272868
 10
106.9488616739
 20
104.5338569328
 10
107.0029359711
 20
104.5171917878
 10
107.0577160457
 20
104.4960040309
 10
107.1129677612
 20
104.470384848
 10
107.1684545344
 20
104.440444503
  0
LWPOLYLINE
  5
26E
100
AcDbEntity
  8
ASSI
100
AcDbPolyline
 62
7
  6
CONTINUOUS
 90
13
 70
0
 10
106.5684255422
 20
104.4998939162
 10
106.6089835001
 20
104.520340034
 10
106.651908969
 20
104.5362314057
 10
106.6970465251
 20
104.5475164339
 10
106.7442030266
 20
104.5541468492
 10
106.7931763228
 20
104.5560942464
 10
106.8437559053
 20
104.5533504048
 10
106.8957252975
 20
104.5459272868
 10
106.9488616739
 20
104.5338569328
 10
107.0029359711
 20
104.5171917878
 10
107.0577160457
 20
104.4960040309
 10
107.1129677612
 20
104.470384848
 10
107.1684545344
 20
104.440444503
  0
LWPOLYLINE
  5
26F
100
AcDbEntity
  8
0
100
AcDbPolyline
 62
7
  6
CONTINUOUS
 90
25
 70
0
 10
106.4613477532
 20
93.0915628925
 10
106.4631639331
 20
93.0264448883
 10
106.468605144
 20
92.9595041923
 10
106.4776487569
 20
92.891027089
 10
106.4902569936
 20
92.8213051404
 10
106.5063763679
 20
92.7506380724
 10
106.5259372192
 20
92.6793326547
 10
106.5488557824
 20
92.6076943097
 10
106.5750339216
 20
92.5360298504
 10
106.6043577271
 20
92.4646503891
 10
106.6366997972
 20
92.3938642459
 10
106.6719222158
 20
92.3239716418
 10
106.7098759322
 20
92.2552677855
 10
106.7503984653
 20
92.1880468058
 10
106.7933163175
 20
92.1225965158
 10
106.8384483245
 20
92.0591936508
 10
106.8856033956
 20
91.9981078178
 10
106.9345782565
 20
91.9396034506
 10
106.9851605344
 20
91.8839346425
 10
107.0371337252
 20
91.831339683
 10
107.0902750818
 20
91.7820439978
 10
107.1443534627
 20
91.7362615705
 10
107.1991359238
 20
91.6941886295
 10
107.2543889404
 20
91.6560035539
 10
107.3098758906
 20
91.6218690484
  0
LWPOLYLINE
  5
270
100
AcDbEntity
  8
ASSI
100
AcDbPolyline
 62
7
  6
CONTINUOUS
 90
25
 70
0
 10
106.4613477532
 20
93.0915628925
 10
106.4631639331
 20
93.0264448883
 10
106.468605144
 20
92.9595041923
 10
106.4776487569
 20
92.891027089
 10
106.4902569936
 20
92.8213051404
 10
106.5063763679
 20
92.7506380724
 10
106.5259372192
 20
92.6793326547
 10
106.5488557824
 20
92.6076943097
 10
106.5750339216
 20
92.5360298504
 10
106.6043577271
 20
92.4646503891
 10
106.6366997972
 20
92.3938642459
 10
106.6719222158
 20
92.3239716418
 10
106.7098759322
 20
92.2552677855
 10
106.7503984653
 20
92.1880468058
 10
106.7933163175
 20
92.1225965158
 10
106.8384483245
 20
92.0591936508
 10
106.8856033956
 20
91.9981078178
 10
106.9345782565
 20
91.9396034506
 10
106.9851605344
 20
91.8839346425
 10
107.0371337252
 20
91.831339683
 10
107.0902750818
 20
91.7820439978
 10
107.1443534627
 20
91.7362615705
 10
107.1991359238
 20
91.6941886295
 10
107.2543889404
 20
91.6560035539
 10
107.3098758906
 20
91.6218690484
  0
LWPOLYLINE
  5
271
100
AcDbEntity
  8
0
100
AcDbPolyline
 62
7
  6
CONTINUOUS
 90
28
 70
0
 10
106.8199779421
 20
93.8643533401
 10
106.8223043549
 20
93.7726639993
 10
106.8290806866
 20
93.6793079096
 10
106.8403069374
 20
93.5842850711
 10
106.8560508416
 20
93.4872628731
 10
106.8762446648
 20
93.3885739263
 10
106.9006852038
 20
93.2892160624
 10
106.9294157378
 20
93.1891825619
 10
106.9623929878
 20
93.0884801443
 10
106.9992839128
 20
92.9881268003
 10
107.0401281285
 20
92.8881264716
 10
107.0848860193
 20
92.7884752165
 10
107.1331056983
 20
92.6901791999
 10
107.1848221794
 20
92.5932522537
 10
107.2400004487
 20
92.497680546
 10
107.2980835782
 20
92.4044287464
 10
107.3591011363
 20
92.3135201755
 10
107.4230235546
 20
92.2249315126
 10
107.4892051999
 20
92.1395574653
 10
107.5576691508
 20
92.0574305448
 10
107.6283923286
 20
91.97851824
 10
107.7006598644
 20
91.9036177244
 10
107.7744876473
 20
91.8327697297
 10
107.8498597881
 20
91.7659335243
 10
107.9260137503
 20
91.7037840867
 10
108.0026953549
 20
91.6465464098
 10
108.0801587808
 20
91.5939955007
 10
108.158404028
 20
91.5461313595
  0
LWPOLYLINE
  5
272
100
AcDbEntity
  8
ASSI
100
AcDbPolyline
 62
7
  6
CONTINUOUS
 90
28
 70
0
 10
106.8199779421
 20
93.8643533401
 10
106.8223043549
 20
93.7726639993
 10
106.8290806866
 20
93.6793079096
 10
106.8403069374
 20
93.5842850711
 10
106.8560508416
 20
93.4872628731
 10
106.8762446648
 20
93.3885739263
 10
106.9006852038
 20
93.2892160624
 10
106.9294157378
 20
93.1891825619
 10
106.9623929878
 20
93.0884801443
 10
106.9992839128
 20
92.9881268003
 10
107.0401281285
 20
92.8881264716
 10
107.0848860193
 20
92.7884752165
 10
107.1331056983
 20
92.6901791999
 10
107.1848221794
 20
92.5932522537
 10
107.2400004487
 20
92.497680546
 10
107.2980835782
 20
92.4044287464
 10
107.3591011363
 20
92.3135201755
 10
107.4230235546
 20
92.2249315126
 10
107.4892051999
 20
92.1395574653
 10
107.5576691508
 20
92.0574305448
 10
107.6283923286
 20
91.97851824
 10
107.7006598644
 20
91.9036177244
 10
107.7744876473
 20
91.8327697297
 10
107.8498597881
 20
91.7659335243
 10
107.9260137503
 20
91.7037840867
 10
108.0026953549
 20
91.6465464098
 10
108.0801587808
 20
91.5939955007
 10
108.158404028
 20
91.5461313595
  0
LINE
  5
273
100
AcDbEntity
  8
0
100
AcDbLine
 62
7
  6
CONTINUOUS
 10
105.6128196158
 20
93.0099079738
 11
105.6128196158
 21
103.9506096829
  0
LINE
  5
274
100
AcDbEntity
  8
ASSI
100
AcDbLine
 62
7
  6
CONTINUOUS
 10
105.6128196158
 20
93.0099079738
 11
105.6128196158
 21
103.9506096829
  0
LINE
  5
275
100
AcDbEntity
  8
0
100
AcDbLine
 62
7
  6
CONTINUOUS
 10
106.319926397
 20
93.0099079738
 11
106.319926397
 21
103.9506096829
  0
LINE
  5
276
100
AcDbEntity
  8
ASSI
100
AcDbLine
 62
7
  6
CONTINUOUS
 10
106.319926397
 20
93.0099079738
 11
106.319926397
 21
103.9506096829
  0
LINE
  5
277
100
AcDbEntity
  8
0
100
AcDbLine
 62
7
  6
CONTINUOUS
 10
106.4613477532
 20
104.0322646015
 11
106.4613477532
 21
93.0915628925
  0
LINE
  5
278
100
AcDbEntity
  8
ASSI
100
AcDbLine
 62
7
  6
CONTINUOUS
 10
106.4613477532
 20
104.0322646015
 11
106.4613477532
 21
93.0915628925
  0
LINE
  5
279
100
AcDbEntity
  8
0
100
AcDbLine
 62
7
  6
CONTINUOUS
 10
106.8199779421
 20
104.554640312
 11
106.8199779421
 21
93.8643533401
  0
LINE
  5
27A
100
AcDbEntity
  8
ASSI
100
AcDbLine
 62
7
  6
CONTINUOUS
 10
106.8199779421
 20
104.554640312
 11
106.8199779421
 21
93.8643533401
  0
LWPOLYLINE
  5
27B
100
AcDbEntity
  8
0
100
AcDbPolyline
 62
7
  6
CONTINUOUS
 90
28
 70
0
 10
105.6128196158
 20
103.9506096829
 10
105.6149094333
 20
104.0305500034
 10
105.6209960155
 20
104.1073712633
 10
105.6310793622
 20
104.1810734626
 10
105.6452204226
 20
104.2518850208
 10
105.6633582476
 20
104.3195775183
 10
105.6853099896
 20
104.3834656972
 10
105.7111144852
 20
104.4435106264
 10
105.7407328978
 20
104.4997512369
 10
105.7738658702
 20
104.5516190635
 10
105.8105489917
 20
104.599069502
 10
105.850746673
 20
104.6421471565
 10
105.8940527886
 20
104.6804173743
 10
105.9404984392
 20
104.7138313527
 10
105.990052524
 20
104.7424378943
 10
106.0422156153
 20
104.7659487545
 10
106.097014325
 20
104.784312611
 10
106.1544220413
 20
104.797580786
 10
106.2138595001
 20
104.805619002
 10
106.2753475851
 20
104.8083741975
 10
106.3388654126
 20
104.805899434
 10
106.4037710687
 20
104.7982196176
 10
106.4700788942
 20
104.7852816459
 10
106.5377745484
 20
104.7671386214
 10
106.6061730941
 20
104.7439747576
 10
106.675046219
 20
104.7158514592
 10
106.7446222356
 20
104.6827073216
 10
106.8149011438
 20
104.6445423448
  0
LWPOLYLINE
  5
27C
100
AcDbEntity
  8
ASSI
100
AcDbPolyline
 62
7
  6
CONTINUOUS
 90
28
 70
0
 10
105.6128196158
 20
103.9506096829
 10
105.6149094333
 20
104.0305500034
 10
105.6209960155
 20
104.1073712633
 10
105.6310793622
 20
104.1810734626
 10
105.6452204226
 20
104.2518850208
 10
105.6633582476
 20
104.3195775183
 10
105.6853099896
 20
104.3834656972
 10
105.7111144852
 20
104.4435106264
 10
105.7407328978
 20
104.4997512369
 10
105.7738658702
 20
104.5516190635
 10
105.8105489917
 20
104.599069502
 10
105.850746673
 20
104.6421471565
 10
105.8940527886
 20
104.6804173743
 10
105.9404984392
 20
104.7138313527
 10
105.990052524
 20
104.7424378943
 10
106.0422156153
 20
104.7659487545
 10
106.097014325
 20
104.784312611
 10
106.1544220413
 20
104.797580786
 10
106.2138595001
 20
104.805619002
 10
106.2753475851
 20
104.8083741975
 10
106.3388654126
 20
104.805899434
 10
106.4037710687
 20
104.7982196176
 10
106.4700788942
 20
104.7852816459
 10
106.5377745484
 20
104.7671386214
 10
106.6061730941
 20
104.7439747576
 10
106.675046219
 20
104.7158514592
 10
106.7446222356
 20
104.6827073216
 10
106.8149011438
 20
104.6445423448
  0
LWPOLYLINE
  5
27D
100
AcDbEntity
  8
0
100
AcDbPolyline
 62
7
  6
CONTINUOUS
 90
11
 70
0
 10
106.319926397
 20
103.9506096829
 10
106.3217424853
 20
104.0136288483
 10
106.3271833201
 20
104.0742838978
 10
106.3362261226
 20
104.1323148144
 10
106.3488328206
 20
104.1874732561
 10
106.3649498688
 20
104.2395220622
 10
106.3845081481
 20
104.2882365718
 10
106.4074240069
 20
104.3334078064
 10
106.4335995658
 20
104.3748422946
 10
106.4629223902
 20
104.4123617656
 10
106.4952667656
 20
104.4458053568
  0
LWPOLYLINE
  5
27E
100
AcDbEntity
  8
ASSI
100
AcDbPolyline
 62
7
  6
CONTINUOUS
 90
11
 70
0
 10
106.319926397
 20
103.9506096829
 10
106.3217424853
 20
104.0136288483
 10
106.3271833201
 20
104.0742838978
 10
106.3362261226
 20
104.1323148144
 10
106.3488328206
 20
104.1874732561
 10
106.3649498688
 20
104.2395220622
 10
106.3845081481
 20
104.2882365718
 10
106.4074240069
 20
104.3334078064
 10
106.4335995658
 20
104.3748422946
 10
106.4629223902
 20
104.4123617656
 10
106.4952667656
 20
104.4458053568
  0
LINE
  5
27F
100
AcDbEntity
  8
0
100
AcDbLine
 62
250
  6
CONTINUOUS
 10
106.8199779421
 20
93.8643533401
 11
106.4613477532
 21
93.0915628925
  0
LINE
  5
280
100
AcDbEntity
  8
ASSI
100
AcDbLine
 62
250
  6
CONTINUOUS
 10
106.8199779421
 20
93.8643533401
 11
106.4613477532
 21
93.0915628925
  0
LINE
  5
281
100
AcDbEntity
  8
0
100
AcDbLine
 62
250
  6
CONTINUOUS
 10
106.8149011438
 20
90.9278416946
 11
107.1684545344
 21
91.5402141297
  0
LINE
  5
282
100
AcDbEntity
  8
ASSI
100
AcDbLine
 62
250
  6
CONTINUOUS
 10
106.8149011438
 20
90.9278416946
 11
107.1684545344
 21
91.5402141297
  0
LWPOLYLINE
  5
283
100
AcDbEntity
  8
0
100
AcDbPolyline
 62
7
  6
CONTINUOUS
 90
11
 70
0
 10
148.9800361211
 20
67.6011909767
 10
148.9348985649
 20
67.5899059485
 10
148.8877420634
 20
67.5832755332
 10
148.8387687673
 20
67.581328136
 10
148.7881891847
 20
67.5840719776
 10
148.7362197925
 20
67.5914950956
 10
148.6830834161
 20
67.6035654496
 10
148.6290091189
 20
67.6202305946
 10
148.5742290443
 20
67.6414183515
 10
148.5189773289
 20
67.6670375344
 10
148.4634905557
 20
67.6969778794
  0
LWPOLYLINE
  5
284
100
AcDbEntity
  8
ASSI
100
AcDbPolyline
 62
7
  6
CONTINUOUS
 90
11
 70
0
 10
148.9800361211
 20
67.6011909767
 10
148.9348985649
 20
67.5899059485
 10
148.8877420634
 20
67.5832755332
 10
148.8387687673
 20
67.581328136
 10
148.7881891847
 20
67.5840719776
 10
148.7362197925
 20
67.5914950956
 10
148.6830834161
 20
67.6035654496
 10
148.6290091189
 20
67.6202305946
 10
148.5742290443
 20
67.6414183515
 10
148.5189773289
 20
67.6670375344
 10
148.4634905557
 20
67.6969778794
  0
LWPOLYLINE
  5
285
100
AcDbEntity
  8
CURVE
100
AcDbPolyline
 62
250
  6
CONTINUOUS
 90
49
 70
0
 10
155.6948257935
 20
37.7820127432
 10
155.7007766477
 20
37.7776863243
 10
155.7067279077
 20
37.7731739359
 10
155.7126730189
 20
37.7684798845
 10
155.7186054268
 20
37.7636084769
 10
155.7245185769
 20
37.7585640197
 10
155.7304059147
 20
37.7533508194
 10
155.7362608857
 20
37.7479731828
 10
155.7420769353
 20
37.7424354165
 10
155.7478475092
 20
37.7367418271
 10
155.7535660527
 20
37.7308967212
 10
155.7592260113
 20
37.7249044056
 10
155.7648208306
 20
37.7187691867
 10
155.7703439561
 20
37.7124953713
 10
155.7757888332
 20
37.706087266
 10
155.7811489075
 20
37.6995491774
 10
155.7864176244
 20
37.6928854121
 10
155.7915884294
 20
37.6861002769
 10
155.796654768
 20
37.6791980783
 10
155.8016100858
 20
37.672183123
 10
155.8064478281
 20
37.6650597175
 10
155.8111614406
 20
37.6578321687
 10
155.8157443687
 20
37.6505047829
 10
155.8201900578
 20
37.643081867
 10
155.8244919536
 20
37.6355677276
 10
155.8286223019
 20
37.6280086909
 10
155.8326020355
 20
37.6203728761
 10
155.8364292714
 20
37.6126694877
 10
155.8401021264
 20
37.6049077299
 10
155.8436187174
 20
37.5970968074
 10
155.8469771615
 20
37.5892459244
 10
155.8501755755
 20
37.5813642854
 10
155.8532120765
 20
37.5734610949
 10
155.8560847812
 20
37.5655455573
 10
155.8587918067
 20
37.557626877
 10
155.8613312699
 20
37.5497142585
 10
155.8637012878
 20
37.5418169061
 10
155.8658999772
 20
37.5339440243
 10
155.8679254551
 20
37.5261048175
 10
155.8697758385
 20
37.5183084901
 10
155.8714492442
 20
37.5105642467
 10
155.8729437892
 20
37.5028812916
 10
155.8742575905
 20
37.4952688292
 10
155.875388765
 20
37.487736064
 10
155.8763354296
 20
37.4802922003
 10
155.8770957012
 20
37.4729464428
 10
155.8776676969
 20
37.4657079956
 10
155.8780495334
 20
37.4585860634
 10
155.8782393279
 20
37.4515898504
  0
LINE
  5
286
100
AcDbEntity
  8
0
100
AcDbLine
 62
250
  6
CONTINUOUS
 10
149.1713758289
 20
67.728071519
 11
148.6049119119
 21
67.778632798
  0
LINE
  5
287
100
AcDbEntity
  8
ASSI
100
AcDbLine
 62
250
  6
CONTINUOUS
 10
149.1713758289
 20
67.728071519
 11
148.6049119119
 21
67.778632798
  0
LWPOLYLINE
  5
288
100
AcDbEntity
  8
0
100
AcDbPolyline
 62
7
  6
CONTINUOUS
 90
6
 70
0
 10
148.9077409274
 20
67.6683031451
 10
148.9296274173
 20
67.6657252233
 10
148.9802096536
 20
67.6629828988
 10
149.0291845608
 20
67.6649323387
 10
149.0763396593
 20
67.6715646991
 10
149.1214716347
 20
67.6828502646
  0
LWPOLYLINE
  5
289
100
AcDbEntity
  8
ASSI
100
AcDbPolyline
 62
7
  6
CONTINUOUS
 90
6
 70
0
 10
148.9077409274
 20
67.6683031451
 10
148.9296274173
 20
67.6657252233
 10
148.9802096536
 20
67.6629828988
 10
149.0291845608
 20
67.6649323387
 10
149.0763396593
 20
67.6715646991
 10
149.1214716347
 20
67.6828502646
  0
LWPOLYLINE
  5
28A
100
AcDbEntity
  8
CURVE
100
AcDbPolyline
 62
250
  6
CONTINUOUS
 90
30
 70
0
 10
155.9291318012
 20
37.9022409466
 10
155.9103352151
 20
37.9205683931
 10
155.8913561069
 20
37.9383677609
 10
155.8722111045
 20
37.955657689
 10
155.852916836
 20
37.9724568162
 10
155.8334899296
 20
37.9887837815
 10
155.8139470133
 20
38.0046572237
 10
155.7943047151
 20
38.0200957818
 10
155.7745796631
 20
38.0351180947
 10
155.7547884854
 20
38.0497428012
 10
155.7349478101
 20
38.0639885403
 10
155.7150742651
 20
38.0778739509
 10
155.6951844787
 20
38.0914176718
 10
155.665949924
 20
38.1107381933
 10
155.6367174341
 20
38.1294004378
 10
155.6074882388
 20
38.1474438934
 10
155.5782635678
 20
38.1649080484
 10
155.5490446511
 20
38.1818323909
 10
155.5198327185
 20
38.1982564093
 10
155.4906289997
 20
38.2142195917
 10
155.4614347247
 20
38.2297614264
 10
155.4242328592
 20
38.24901691
 10
155.3870532776
 20
38.2676775477
 10
155.3499009172
 20
38.2857690942
 10
155.3127807151
 20
38.3033173041
 10
155.2756976087
 20
38.3203479318
 10
155.238656535
 20
38.3368867321
 10
155.2016624313
 20
38.3529594596
 10
155.1647202348
 20
38.3685918687
 10
155.1278348828
 20
38.3838097142
  0
LINE
  5
28B
100
AcDbEntity
  8
0
100
AcDbLine
 62
7
  6
CONTINUOUS
 10
117.4922135397
 20
97.091596515
 11
117.4922135397
 21
86.1508948059
  0
LINE
  5
28C
100
AcDbEntity
  8
ASSI
100
AcDbLine
 62
7
  6
CONTINUOUS
 10
117.4922135397
 20
97.091596515
 11
117.4922135397
 21
86.1508948059
  0
LWPOLYLINE
  5
28D
100
AcDbEntity
  8
0
100
AcDbPolyline
 62
7
  6
CONTINUOUS
 90
28
 70
0
 10
117.4922135397
 20
86.1508948059
 10
117.4901237221
 20
86.0709544854
 10
117.48403714
 20
85.9941332255
 10
117.4739537933
 20
85.9204310262
 10
117.4598127329
 20
85.849619468
 10
117.4416749079
 20
85.7819269705
 10
117.4197231659
 20
85.7180387916
 10
117.3939186703
 20
85.6579938624
 10
117.3643002577
 20
85.6017532519
 10
117.3311672853
 20
85.5498854253
 10
117.2944841637
 20
85.5024349868
 10
117.2542864824
 20
85.4593573323
 10
117.2109803668
 20
85.4210871145
 10
117.1645347163
 20
85.3876731361
 10
117.1149806315
 20
85.3590665945
 10
117.0628175402
 20
85.3355557343
 10
117.0080188304
 20
85.3171918778
 10
116.9506111142
 20
85.3039237028
 10
116.8911736553
 20
85.2958854869
 10
116.8296855704
 20
85.2931302913
 10
116.7661677429
 20
85.2956050548
 10
116.7012620868
 20
85.3032848712
 10
116.6349542612
 20
85.3162228429
 10
116.5672586071
 20
85.3343658674
 10
116.4988600614
 20
85.3575297312
 10
116.4299869364
 20
85.3856530296
 10
116.3604109198
 20
85.4187971672
 10
116.2901320117
 20
85.4569621441
  0
LWPOLYLINE
  5
28E
100
AcDbEntity
  8
ASSI
100
AcDbPolyline
 62
7
  6
CONTINUOUS
 90
28
 70
0
 10
117.4922135397
 20
86.1508948059
 10
117.4901237221
 20
86.0709544854
 10
117.48403714
 20
85.9941332255
 10
117.4739537933
 20
85.9204310262
 10
117.4598127329
 20
85.849619468
 10
117.4416749079
 20
85.7819269705
 10
117.4197231659
 20
85.7180387916
 10
117.3939186703
 20
85.6579938624
 10
117.3643002577
 20
85.6017532519
 10
117.3311672853
 20
85.5498854253
 10
117.2944841637
 20
85.5024349868
 10
117.2542864824
 20
85.4593573323
 10
117.2109803668
 20
85.4210871145
 10
117.1645347163
 20
85.3876731361
 10
117.1149806315
 20
85.3590665945
 10
117.0628175402
 20
85.3355557343
 10
117.0080188304
 20
85.3171918778
 10
116.9506111142
 20
85.3039237028
 10
116.8911736553
 20
85.2958854869
 10
116.8296855704
 20
85.2931302913
 10
116.7661677429
 20
85.2956050548
 10
116.7012620868
 20
85.3032848712
 10
116.6349542612
 20
85.3162228429
 10
116.5672586071
 20
85.3343658674
 10
116.4988600614
 20
85.3575297312
 10
116.4299869364
 20
85.3856530296
 10
116.3604109198
 20
85.4187971672
 10
116.2901320117
 20
85.4569621441
  0
LWPOLYLINE
  5
28F
100
AcDbEntity
  8
0
100
AcDbPolyline
 62
7
  6
CONTINUOUS
 90
7
 70
0
 10
117.4922135397
 20
86.5591693993
 10
117.4903974513
 20
86.4961502339
 10
117.4849566166
 20
86.4354951843
 10
117.475913814
 20
86.3774642677
 10
117.463307116
 20
86.322305826
 10
117.4471900678
 20
86.2702570199
 10
117.4276317886
 20
86.2215425103
  0
LWPOLYLINE
  5
290
100
AcDbEntity
  8
ASSI
100
AcDbPolyline
 62
7
  6
CONTINUOUS
 90
7
 70
0
 10
117.4922135397
 20
86.5591693993
 10
117.4903974513
 20
86.4961502339
 10
117.4849566166
 20
86.4354951843
 10
117.475913814
 20
86.3774642677
 10
117.463307116
 20
86.322305826
 10
117.4471900678
 20
86.2702570199
 10
117.4276317886
 20
86.2215425103
  0
LINE
  5
291
100
AcDbEntity
  8
0
100
AcDbLine
 62
250
  6
CONTINUOUS
 10
106.319926397
 20
93.0099079738
 11
106.4613477532
 21
93.0915628925
  0
LINE
  5
292
100
AcDbEntity
  8
ASSI
100
AcDbLine
 62
250
  6
CONTINUOUS
 10
106.319926397
 20
93.0099079738
 11
106.4613477532
 21
93.0915628925
  0
LINE
  5
293
100
AcDbEntity
  8
0
100
AcDbLine
 62
250
  6
CONTINUOUS
 10
107.1684545344
 20
91.5402141297
 11
107.3098758906
 21
91.6218690484
  0
LINE
  5
294
100
AcDbEntity
  8
ASSI
100
AcDbLine
 62
250
  6
CONTINUOUS
 10
107.1684545344
 20
91.5402141297
 11
107.3098758906
 21
91.6218690484
  0
LINE
  5
295
100
AcDbEntity
  8
0
100
AcDbLine
 62
250
  6
CONTINUOUS
 10
137.4326247692
 20
74.6375512741
 11
138.1397315503
 21
74.6375512741
  0
LINE
  5
296
100
AcDbEntity
  8
ASSI
100
AcDbLine
 62
250
  6
CONTINUOUS
 10
137.4326247692
 20
74.6375512741
 11
138.1397315503
 21
74.6375512741
  0
LINE
  5
297
100
AcDbEntity
  8
0
100
AcDbLine
 62
250
  6
CONTINUOUS
 10
139.9782091814
 20
73.1737746597
 11
139.129681044
 21
73.2495123486
  0
LINE
  5
298
100
AcDbEntity
  8
ASSI
100
AcDbLine
 62
250
  6
CONTINUOUS
 10
139.9782091814
 20
73.1737746597
 11
139.129681044
 21
73.2495123486
  0
LINE
  5
299
100
AcDbEntity
  8
0
100
AcDbLine
 62
7
  6
CONTINUOUS
 10
121.5227221925
 20
83.823729624
 11
121.5227221925
 21
94.764431333
  0
LINE
  5
29A
100
AcDbEntity
  8
ASSI
100
AcDbLine
 62
7
  6
CONTINUOUS
 10
121.5227221925
 20
83.823729624
 11
121.5227221925
 21
94.764431333
  0
LWPOLYLINE
  5
29B
100
AcDbEntity
  8
0
100
AcDbPolyline
 62
7
  6
CONTINUOUS
 90
28
 70
0
 10
121.5227221925
 20
94.764431333
 10
121.52481201
 20
94.8443716535
 10
121.5308985922
 20
94.9211929134
 10
121.5409819389
 20
94.9948951128
 10
121.5551229993
 20
95.0657066709
 10
121.5732608243
 20
95.1333991685
 10
121.5952125663
 20
95.1972873473
 10
121.6210170619
 20
95.2573322765
 10
121.6506354745
 20
95.313572887
 10
121.6837684469
 20
95.3654407136
 10
121.7204515684
 20
95.4128911521
 10
121.7606492497
 20
95.4559688066
 10
121.8039553653
 20
95.4942390245
 10
121.8504010159
 20
95.5276530028
 10
121.8999551007
 20
95.5562595445
 10
121.952118192
 20
95.5797704047
 10
122.0069169017
 20
95.5981342611
 10
122.064324618
 20
95.6114024361
 10
122.1237620768
 20
95.6194406521
 10
122.1852501618
 20
95.6221958476
 10
122.2487679893
 20
95.6197210841
 10
122.3136736454
 20
95.6120412677
 10
122.3799814709
 20
95.599103296
 10
122.4476771251
 20
95.5809602715
 10
122.5160756708
 20
95.5577964077
 10
122.5849487957
 20
95.5296731093
 10
122.6545248123
 20
95.4965289717
 10
122.7248037205
 20
95.4583639949
  0
LWPOLYLINE
  5
29C
100
AcDbEntity
  8
ASSI
100
AcDbPolyline
 62
7
  6
CONTINUOUS
 90
28
 70
0
 10
121.5227221925
 20
94.764431333
 10
121.52481201
 20
94.8443716535
 10
121.5308985922
 20
94.9211929134
 10
121.5409819389
 20
94.9948951128
 10
121.5551229993
 20
95.0657066709
 10
121.5732608243
 20
95.1333991685
 10
121.5952125663
 20
95.1972873473
 10
121.6210170619
 20
95.2573322765
 10
121.6506354745
 20
95.313572887
 10
121.6837684469
 20
95.3654407136
 10
121.7204515684
 20
95.4128911521
 10
121.7606492497
 20
95.4559688066
 10
121.8039553653
 20
95.4942390245
 10
121.8504010159
 20
95.5276530028
 10
121.8999551007
 20
95.5562595445
 10
121.952118192
 20
95.5797704047
 10
122.0069169017
 20
95.5981342611
 10
122.064324618
 20
95.6114024361
 10
122.1237620768
 20
95.6194406521
 10
122.1852501618
 20
95.6221958476
 10
122.2487679893
 20
95.6197210841
 10
122.3136736454
 20
95.6120412677
 10
122.3799814709
 20
95.599103296
 10
122.4476771251
 20
95.5809602715
 10
122.5160756708
 20
95.5577964077
 10
122.5849487957
 20
95.5296731093
 10
122.6545248123
 20
95.4965289717
 10
122.7248037205
 20
95.4583639949
  0
LWPOLYLINE
  5
29D
100
AcDbEntity
  8
0
100
AcDbPolyline
 62
7
  6
CONTINUOUS
 90
11
 70
0
 10
122.2298289736
 20
94.764431333
 10
122.231645062
 20
94.8274504984
 10
122.2370858968
 20
94.8881055479
 10
122.2461286993
 20
94.9461364646
 10
122.2587353973
 20
95.0012949063
 10
122.2748524455
 20
95.0533437123
 10
122.2944107248
 20
95.102058222
 10
122.3173265836
 20
95.1472294566
 10
122.3435021425
 20
95.1886639448
 10
122.3728249669
 20
95.2261834157
 10
122.4051693423
 20
95.259627007
  0
LWPOLYLINE
  5
29E
100
AcDbEntity
  8
ASSI
100
AcDbPolyline
 62
7
  6
CONTINUOUS
 90
11
 70
0
 10
122.2298289736
 20
94.764431333
 10
122.231645062
 20
94.8274504984
 10
122.2370858968
 20
94.8881055479
 10
122.2461286993
 20
94.9461364646
 10
122.2587353973
 20
95.0012949063
 10
122.2748524455
 20
95.0533437123
 10
122.2944107248
 20
95.102058222
 10
122.3173265836
 20
95.1472294566
 10
122.3435021425
 20
95.1886639448
 10
122.3728249669
 20
95.2261834157
 10
122.4051693423
 20
95.259627007
  0
LWPOLYLINE
  5
29F
100
AcDbEntity
  8
0
100
AcDbPolyline
 62
7
  6
CONTINUOUS
 90
7
 70
0
 10
122.4270988484
 20
95.1634171256
 10
122.4162788026
 20
95.1350127552
 10
122.4001593578
 20
95.0829595444
 10
122.3875511391
 20
95.027797048
 10
122.3785076074
 20
94.9697633703
 10
122.3730664747
 20
94.9091063796
 10
122.3712503299
 20
94.8460862517
  0
LWPOLYLINE
  5
2A0
100
AcDbEntity
  8
ASSI
100
AcDbPolyline
 62
7
  6
CONTINUOUS
 90
7
 70
0
 10
122.4270988484
 20
95.1634171256
 10
122.4162788026
 20
95.1350127552
 10
122.4001593578
 20
95.0829595444
 10
122.3875511391
 20
95.027797048
 10
122.3785076074
 20
94.9697633703
 10
122.3730664747
 20
94.9091063796
 10
122.3712503299
 20
94.8460862517
  0
LINE
  5
2A1
100
AcDbEntity
  8
0
100
AcDbLine
 62
250
  6
CONTINUOUS
 10
122.6106025193
 20
95.3618517709
 11
122.3712503299
 21
94.8460862517
  0
LINE
  5
2A2
100
AcDbEntity
  8
ASSI
100
AcDbLine
 62
250
  6
CONTINUOUS
 10
122.6106025193
 20
95.3618517709
 11
122.3712503299
 21
94.8460862517
  0
LWPOLYLINE
  5
2A3
100
AcDbEntity
  8
0
100
AcDbPolyline
 62
7
  6
CONTINUOUS
 90
7
 70
0
 10
117.4276317886
 20
86.2215425103
 10
117.4047159297
 20
86.1763712757
 10
117.3785403708
 20
86.1349367875
 10
117.3492175465
 20
86.0974173166
 10
117.3168731711
 20
86.0639737253
 10
117.2816456159
 20
86.0347490937
 10
117.2437143944
 20
86.0098851659
  0
LWPOLYLINE
  5
2A4
100
AcDbEntity
  8
ASSI
100
AcDbPolyline
 62
7
  6
CONTINUOUS
 90
7
 70
0
 10
117.4276317886
 20
86.2215425103
 10
117.4047159297
 20
86.1763712757
 10
117.3785403708
 20
86.1349367875
 10
117.3492175465
 20
86.0974173166
 10
117.3168731711
 20
86.0639737253
 10
117.2816456159
 20
86.0347490937
 10
117.2437143944
 20
86.0098851659
  0
LWPOLYLINE
  5
2A5
100
AcDbEntity
  8
0
100
AcDbPolyline
 62
7
  6
CONTINUOUS
 90
3
 70
0
 10
122.458758306
 20
95.2289026622
 10
122.4358397341
 20
95.1837300565
 10
122.4270988484
 20
95.1634171256
  0
LWPOLYLINE
  5
2A6
100
AcDbEntity
  8
ASSI
100
AcDbPolyline
 62
7
  6
CONTINUOUS
 90
3
 70
0
 10
122.458758306
 20
95.2289026622
 10
122.4358397341
 20
95.1837300565
 10
122.4270988484
 20
95.1634171256
  0
LINE
  5
2A7
100
AcDbEntity
  8
0
100
AcDbLine
 62
250
  6
CONTINUOUS
 10
116.2901320117
 20
85.4569621441
 11
116.6436854023
 21
86.0693345791
  0
LINE
  5
2A8
100
AcDbEntity
  8
ASSI
100
AcDbLine
 62
250
  6
CONTINUOUS
 10
116.2901320117
 20
85.4569621441
 11
116.6436854023
 21
86.0693345791
  0
LWPOLYLINE
  5
2A9
100
AcDbEntity
  8
0
100
AcDbPolyline
 62
7
  6
CONTINUOUS
 90
4
 70
0
 10
122.546602259
 20
95.3412926468
 10
122.5142601827
 20
95.3078542825
 10
122.4849364095
 20
95.2703372297
 10
122.458758306
 20
95.2289026622
  0
LWPOLYLINE
  5
2AA
100
AcDbEntity
  8
ASSI
100
AcDbPolyline
 62
7
  6
CONTINUOUS
 90
4
 70
0
 10
122.546602259
 20
95.3412926468
 10
122.5142601827
 20
95.3078542825
 10
122.4849364095
 20
95.2703372297
 10
122.458758306
 20
95.2289026622
  0
LWPOLYLINE
  5
2AB
100
AcDbEntity
  8
0
100
AcDbPolyline
 62
7
  6
CONTINUOUS
 90
3
 70
0
 10
122.4051693423
 20
95.259627007
 10
122.4403968975
 20
95.2888516386
 10
122.4783281189
 20
95.3137155664
  0
LWPOLYLINE
  5
2AC
100
AcDbEntity
  8
ASSI
100
AcDbPolyline
 62
7
  6
CONTINUOUS
 90
3
 70
0
 10
122.4051693423
 20
95.259627007
 10
122.4403968975
 20
95.2888516386
 10
122.4783281189
 20
95.3137155664
  0
LINE
  5
2AD
100
AcDbEntity
  8
0
100
AcDbLine
 62
250
  6
CONTINUOUS
 10
122.2298289736
 20
94.764431333
 11
122.3712503299
 21
94.8460862517
  0
LINE
  5
2AE
100
AcDbEntity
  8
ASSI
100
AcDbLine
 62
250
  6
CONTINUOUS
 10
122.2298289736
 20
94.764431333
 11
122.3712503299
 21
94.8460862517
  0
LWPOLYLINE
  5
2AF
100
AcDbEntity
  8
0
100
AcDbPolyline
 62
7
  6
CONTINUOUS
 90
13
 70
0
 10
122.4783281189
 20
95.3137155664
 10
122.5188860768
 20
95.3341616841
 10
122.5618115457
 20
95.3500530558
 10
122.6069491018
 20
95.361338084
 10
122.6541056033
 20
95.3679684994
 10
122.7030788995
 20
95.3699158965
 10
122.753658482
 20
95.3671720549
 10
122.8056278742
 20
95.3597489369
 10
122.8587642506
 20
95.347678583
 10
122.9128385478
 20
95.3310134379
 10
122.9676186224
 20
95.309825681
 10
123.0228703379
 20
95.2842064981
 10
123.0783571111
 20
95.2542661532
  0
LWPOLYLINE
  5
2B0
100
AcDbEntity
  8
ASSI
100
AcDbPolyline
 62
7
  6
CONTINUOUS
 90
13
 70
0
 10
122.4783281189
 20
95.3137155664
 10
122.5188860768
 20
95.3341616841
 10
122.5618115457
 20
95.3500530558
 10
122.6069491018
 20
95.361338084
 10
122.6541056033
 20
95.3679684994
 10
122.7030788995
 20
95.3699158965
 10
122.753658482
 20
95.3671720549
 10
122.8056278742
 20
95.3597489369
 10
122.8587642506
 20
95.347678583
 10
122.9128385478
 20
95.3310134379
 10
122.9676186224
 20
95.309825681
 10
123.0228703379
 20
95.2842064981
 10
123.0783571111
 20
95.2542661532
  0
LWPOLYLINE
  5
2B1
100
AcDbEntity
  8
0
100
AcDbPolyline
 62
7
  6
CONTINUOUS
 90
11
 70
0
 10
133.0701335444
 20
76.7873693266
 10
133.0249959882
 20
76.7760842984
 10
132.9778394867
 20
76.769453883
 10
132.9288661906
 20
76.7675064859
 10
132.878286608
 20
76.7702503274
 10
132.8263172158
 20
76.7776734455
 10
132.7731808395
 20
76.7897437994
 10
132.7191065422
 20
76.8064089445
 10
132.6643264676
 20
76.8275967014
 10
132.6090747522
 20
76.8532158843
 10
132.553587979
 20
76.8831562292
  0
LWPOLYLINE
  5
2B2
100
AcDbEntity
  8
ASSI
100
AcDbPolyline
 62
7
  6
CONTINUOUS
 90
11
 70
0
 10
133.0701335444
 20
76.7873693266
 10
133.0249959882
 20
76.7760842984
 10
132.9778394867
 20
76.769453883
 10
132.9288661906
 20
76.7675064859
 10
132.878286608
 20
76.7702503274
 10
132.8263172158
 20
76.7776734455
 10
132.7731808395
 20
76.7897437994
 10
132.7191065422
 20
76.8064089445
 10
132.6643264676
 20
76.8275967014
 10
132.6090747522
 20
76.8532158843
 10
132.553587979
 20
76.8831562292
  0
LINE
  5
2B3
100
AcDbEntity
  8
0
100
AcDbLine
 62
250
  6
CONTINUOUS
 10
133.2614732522
 20
76.9142498689
 11
132.6950093352
 21
76.9648111479
  0
LINE
  5
2B4
100
AcDbEntity
  8
ASSI
100
AcDbLine
 62
250
  6
CONTINUOUS
 10
133.2614732522
 20
76.9142498689
 11
132.6950093352
 21
76.9648111479
  0
LWPOLYLINE
  5
2B5
100
AcDbEntity
  8
0
100
AcDbPolyline
 62
7
  6
CONTINUOUS
 90
6
 70
0
 10
132.9978383507
 20
76.854481495
 10
133.0197248406
 20
76.8519035732
 10
133.0703070769
 20
76.8491612486
 10
133.1192819841
 20
76.8511106886
 10
133.1664370826
 20
76.8577430489
 10
133.211569058
 20
76.8690286145
  0
LWPOLYLINE
  5
2B6
100
AcDbEntity
  8
ASSI
100
AcDbPolyline
 62
7
  6
CONTINUOUS
 90
6
 70
0
 10
132.9978383507
 20
76.854481495
 10
133.0197248406
 20
76.8519035732
 10
133.0703070769
 20
76.8491612486
 10
133.1192819841
 20
76.8511106886
 10
133.1664370826
 20
76.8577430489
 10
133.211569058
 20
76.8690286145
  0
LWPOLYLINE
  5
2B7
100
AcDbEntity
  8
0
100
AcDbPolyline
 62
7
  6
CONTINUOUS
 90
7
 70
0
 10
148.6049119119
 20
67.778632798
 10
148.6603993969
 20
67.748692096
 10
148.7156527395
 20
67.7230722752
 10
148.7704353176
 20
67.7018838294
 10
148.8245135139
 20
67.6852180253
 10
148.8776544956
 20
67.673147539
 10
148.9077409274
 20
67.6683031451
  0
LWPOLYLINE
  5
2B8
100
AcDbEntity
  8
ASSI
100
AcDbPolyline
 62
7
  6
CONTINUOUS
 90
7
 70
0
 10
148.6049119119
 20
67.778632798
 10
148.6603993969
 20
67.748692096
 10
148.7156527395
 20
67.7230722752
 10
148.7704353176
 20
67.7018838294
 10
148.8245135139
 20
67.6852180253
 10
148.8776544956
 20
67.673147539
 10
148.9077409274
 20
67.6683031451
  0
LWPOLYLINE
  5
2B9
100
AcDbEntity
  8
0
100
AcDbPolyline
 62
7
  6
CONTINUOUS
 90
7
 70
0
 10
132.6950093352
 20
76.9648111479
 10
132.7504968202
 20
76.9348704458
 10
132.8057501628
 20
76.9092506251
 10
132.860532741
 20
76.8880621792
 10
132.9146109372
 20
76.8713963752
 10
132.9677519189
 20
76.8593258889
 10
132.9978383507
 20
76.854481495
  0
LWPOLYLINE
  5
2BA
100
AcDbEntity
  8
ASSI
100
AcDbPolyline
 62
7
  6
CONTINUOUS
 90
7
 70
0
 10
132.6950093352
 20
76.9648111479
 10
132.7504968202
 20
76.9348704458
 10
132.8057501628
 20
76.9092506251
 10
132.860532741
 20
76.8880621792
 10
132.9146109372
 20
76.8713963752
 10
132.9677519189
 20
76.8593258889
 10
132.9978383507
 20
76.854481495
  0
LINE
  5
2BB
100
AcDbEntity
  8
0
100
AcDbLine
 62
7
  6
CONTINUOUS
 10
148.1099371651
 20
67.0846054443
 11
138.6347062972
 21
72.5554849949
  0
LINE
  5
2BC
100
AcDbEntity
  8
ASSI
100
AcDbLine
 62
7
  6
CONTINUOUS
 10
148.1099371651
 20
67.0846054443
 11
138.6347062972
 21
72.5554849949
  0
LINE
  5
2BD
100
AcDbEntity
  8
0
100
AcDbLine
 62
7
  6
CONTINUOUS
 10
132.2000345884
 20
76.2707837942
 11
122.7248037205
 21
81.7416633448
  0
LINE
  5
2BE
100
AcDbEntity
  8
ASSI
100
AcDbLine
 62
7
  6
CONTINUOUS
 10
132.2000345884
 20
76.2707837942
 11
122.7248037205
 21
81.7416633448
  0
LINE
  5
2BF
100
AcDbEntity
  8
0
100
AcDbLine
 62
7
  6
CONTINUOUS
 10
116.2901320117
 20
85.4569621441
 11
106.8149011438
 21
90.9278416946
  0
LINE
  5
2C0
100
AcDbEntity
  8
ASSI
100
AcDbLine
 62
7
  6
CONTINUOUS
 10
116.2901320117
 20
85.4569621441
 11
106.8149011438
 21
90.9278416946
  0
LWPOLYLINE
  5
2C1
100
AcDbEntity
  8
0
100
AcDbPolyline
 62
7
  6
CONTINUOUS
 90
28
 70
0
 10
106.8149011438
 20
90.9278416946
 10
106.7446235553
 20
90.9708321292
 10
106.6750486641
 20
91.0180317526
 10
106.6061764702
 20
91.069440565
 10
106.5377786727
 20
91.1252607601
 10
106.4700835725
 20
91.1852901441
 10
106.4037760723
 20
91.2489221354
 10
106.3388704682
 20
91.3161933228
 10
106.275352464
 20
91.3870671175
 10
106.2138640741
 20
91.4608271717
 10
106.1544261317
 20
91.5375025503
 10
106.0970178034
 20
91.6170641885
 10
106.0422186043
 20
91.6987085433
 10
105.9900552482
 20
91.7824561013
 10
105.9405010213
 20
91.8682863759
 10
105.8940552967
 20
91.9553343642
 10
105.8507492152
 20
92.0436128141
 10
105.8105516361
 20
92.1331089778
 10
105.773868511
 20
92.2229196092
 10
105.740735351
 20
92.313048318
 10
105.7111166449
 20
92.4034914944
 10
105.6853118107
 20
92.4933350638
 10
105.6633596668
 20
92.5825731719
 10
105.6452213948
 20
92.6712116728
 10
105.6310799574
 20
92.7583540547
 10
105.6209963422
 20
92.8437014801
 10
105.6149095617
 20
92.9275527865
 10
105.6128196158
 20
93.0099079738
  0
LWPOLYLINE
  5
2C2
100
AcDbEntity
  8
ASSI
100
AcDbPolyline
 62
7
  6
CONTINUOUS
 90
28
 70
0
 10
106.8149011438
 20
90.9278416946
 10
106.7446235553
 20
90.9708321292
 10
106.6750486641
 20
91.0180317526
 10
106.6061764702
 20
91.069440565
 10
106.5377786727
 20
91.1252607601
 10
106.4700835725
 20
91.1852901441
 10
106.4037760723
 20
91.2489221354
 10
106.3388704682
 20
91.3161933228
 10
106.275352464
 20
91.3870671175
 10
106.2138640741
 20
91.4608271717
 10
106.1544261317
 20
91.5375025503
 10
106.0970178034
 20
91.6170641885
 10
106.0422186043
 20
91.6987085433
 10
105.9900552482
 20
91.7824561013
 10
105.9405010213
 20
91.8682863759
 10
105.8940552967
 20
91.9553343642
 10
105.8507492152
 20
92.0436128141
 10
105.8105516361
 20
92.1331089778
 10
105.773868511
 20
92.2229196092
 10
105.740735351
 20
92.313048318
 10
105.7111166449
 20
92.4034914944
 10
105.6853118107
 20
92.4933350638
 10
105.6633596668
 20
92.5825731719
 10
105.6452213948
 20
92.6712116728
 10
105.6310799574
 20
92.7583540547
 10
105.6209963422
 20
92.8437014801
 10
105.6149095617
 20
92.9275527865
 10
105.6128196158
 20
93.0099079738
  0
LWPOLYLINE
  5
2C3
100
AcDbEntity
  8
0
100
AcDbPolyline
 62
7
  6
CONTINUOUS
 90
28
 70
0
 10
122.7248037205
 20
81.7416633448
 10
122.654526132
 20
81.7846537793
 10
122.5849512408
 20
81.8318534028
 10
122.5160790469
 20
81.8832622151
 10
122.4476812494
 20
81.9390824102
 10
122.3799861492
 20
81.9991117942
 10
122.313678649
 20
82.0627437855
 10
122.2487730449
 20
82.1300149729
 10
122.1852550407
 20
82.2008887676
 10
122.1237666508
 20
82.2746488218
 10
122.0643287084
 20
82.3513242005
 10
122.0069203801
 20
82.4308858386
 10
121.952121181
 20
82.5125301934
 10
121.8999578249
 20
82.5962777514
 10
121.850403598
 20
82.682108026
 10
121.8039578734
 20
82.7691560144
 10
121.7606517919
 20
82.8574344643
 10
121.7204542128
 20
82.9469306279
 10
121.6837710876
 20
83.0367412594
 10
121.6506379276
 20
83.1268699681
 10
121.6210192216
 20
83.2173131446
 10
121.5952143874
 20
83.307156714
 10
121.5732622435
 20
83.396394822
 10
121.5551239715
 20
83.4850333229
 10
121.5409825341
 20
83.5721757048
 10
121.5308989189
 20
83.6575231303
 10
121.5248121384
 20
83.7413744366
 10
121.5227221925
 20
83.823729624
  0
LWPOLYLINE
  5
2C4
100
AcDbEntity
  8
ASSI
100
AcDbPolyline
 62
7
  6
CONTINUOUS
 90
28
 70
0
 10
122.7248037205
 20
81.7416633448
 10
122.654526132
 20
81.7846537793
 10
122.5849512408
 20
81.8318534028
 10
122.5160790469
 20
81.8832622151
 10
122.4476812494
 20
81.9390824102
 10
122.3799861492
 20
81.9991117942
 10
122.313678649
 20
82.0627437855
 10
122.2487730449
 20
82.1300149729
 10
122.1852550407
 20
82.2008887676
 10
122.1237666508
 20
82.2746488218
 10
122.0643287084
 20
82.3513242005
 10
122.0069203801
 20
82.4308858386
 10
121.952121181
 20
82.5125301934
 10
121.8999578249
 20
82.5962777514
 10
121.850403598
 20
82.682108026
 10
121.8039578734
 20
82.7691560144
 10
121.7606517919
 20
82.8574344643
 10
121.7204542128
 20
82.9469306279
 10
121.6837710876
 20
83.0367412594
 10
121.6506379276
 20
83.1268699681
 10
121.6210192216
 20
83.2173131446
 10
121.5952143874
 20
83.307156714
 10
121.5732622435
 20
83.396394822
 10
121.5551239715
 20
83.4850333229
 10
121.5409825341
 20
83.5721757048
 10
121.5308989189
 20
83.6575231303
 10
121.5248121384
 20
83.7413744366
 10
121.5227221925
 20
83.823729624
  0
LWPOLYLINE
  5
2C5
100
AcDbEntity
  8
0
100
AcDbPolyline
 62
7
  6
CONTINUOUS
 90
28
 70
0
 10
138.6347062972
 20
72.5554849949
 10
138.5644287087
 20
72.5984754294
 10
138.4948538175
 20
72.6456750529
 10
138.4259816236
 20
72.6970838652
 10
138.3575838261
 20
72.7529040603
 10
138.2898887259
 20
72.8129334443
 10
138.2235812257
 20
72.8765654356
 10
138.1586756216
 20
72.943836623
 10
138.0951576174
 20
73.0147104177
 10
138.0336692275
 20
73.0884704719
 10
137.974231285
 20
73.1651458506
 10
137.9168229568
 20
73.2447074888
 10
137.8620237577
 20
73.3263518435
 10
137.8098604016
 20
73.4100994015
 10
137.7603061747
 20
73.4959296761
 10
137.7138604501
 20
73.5829776645
 10
137.6705543686
 20
73.6712561144
 10
137.6303567895
 20
73.7607522781
 10
137.5936736643
 20
73.8505629095
 10
137.5605405043
 20
73.9406916182
 10
137.5309217983
 20
74.0311347947
 10
137.5051169641
 20
74.1209783641
 10
137.4831648202
 20
74.2102164721
 10
137.4650265482
 20
74.298854973
 10
137.4508851108
 20
74.3859973549
 10
137.4408014956
 20
74.4713447804
 10
137.4347147151
 20
74.5551960868
 10
137.4326247692
 20
74.6375512741
  0
LWPOLYLINE
  5
2C6
100
AcDbEntity
  8
ASSI
100
AcDbPolyline
 62
7
  6
CONTINUOUS
 90
28
 70
0
 10
138.6347062972
 20
72.5554849949
 10
138.5644287087
 20
72.5984754294
 10
138.4948538175
 20
72.6456750529
 10
138.4259816236
 20
72.6970838652
 10
138.3575838261
 20
72.7529040603
 10
138.2898887259
 20
72.8129334443
 10
138.2235812257
 20
72.8765654356
 10
138.1586756216
 20
72.943836623
 10
138.0951576174
 20
73.0147104177
 10
138.0336692275
 20
73.0884704719
 10
137.974231285
 20
73.1651458506
 10
137.9168229568
 20
73.2447074888
 10
137.8620237577
 20
73.3263518435
 10
137.8098604016
 20
73.4100994015
 10
137.7603061747
 20
73.4959296761
 10
137.7138604501
 20
73.5829776645
 10
137.6705543686
 20
73.6712561144
 10
137.6303567895
 20
73.7607522781
 10
137.5936736643
 20
73.8505629095
 10
137.5605405043
 20
73.9406916182
 10
137.5309217983
 20
74.0311347947
 10
137.5051169641
 20
74.1209783641
 10
137.4831648202
 20
74.2102164721
 10
137.4650265482
 20
74.298854973
 10
137.4508851108
 20
74.3859973549
 10
137.4408014956
 20
74.4713447804
 10
137.4347147151
 20
74.5551960868
 10
137.4326247692
 20
74.6375512741
  0
LWPOLYLINE
  5
2C7
100
AcDbEntity
  8
0
100
AcDbPolyline
 62
7
  6
CONTINUOUS
 90
25
 70
0
 10
107.1684545344
 20
91.5402141297
 10
107.112968446
 20
91.5743480724
 10
107.0577172596
 20
91.6125317474
 10
107.0029375542
 20
91.6546022553
 10
106.9488634453
 20
91.7003804601
 10
106.8957271019
 20
91.7496704835
 10
106.8437576551
 20
91.8022602187
 10
106.7931779213
 20
91.8579244252
 10
106.7442044016
 20
91.91642508
 10
106.6970477106
 20
91.9775107526
 10
106.6519100272
 20
92.0409195498
 10
106.6089844585
 20
92.1063802016
 10
106.5684549777
 20
92.173612171
 10
106.5304951612
 20
92.242327516
 10
106.4952675775
 20
92.3122319466
 10
106.4629231823
 20
92.3830258763
 10
106.4336003596
 20
92.4544063901
 10
106.4074247952
 20
92.5260675025
 10
106.3845088728
 20
92.5977012586
 10
106.3649504813
 20
92.6690011807
 10
106.3488332952
 20
92.7396616676
 10
106.3362264375
 20
92.8093783179
 10
106.3271834799
 20
92.8778521521
 10
106.3217425302
 20
92.9447908185
 10
106.319926397
 20
93.0099079738
  0
LWPOLYLINE
  5
2C8
100
AcDbEntity
  8
ASSI
100
AcDbPolyline
 62
7
  6
CONTINUOUS
 90
25
 70
0
 10
107.1684545344
 20
91.5402141297
 10
107.112968446
 20
91.5743480724
 10
107.0577172596
 20
91.6125317474
 10
107.0029375542
 20
91.6546022553
 10
106.9488634453
 20
91.7003804601
 10
106.8957271019
 20
91.7496704835
 10
106.8437576551
 20
91.8022602187
 10
106.7931779213
 20
91.8579244252
 10
106.7442044016
 20
91.91642508
 10
106.6970477106
 20
91.9775107526
 10
106.6519100272
 20
92.0409195498
 10
106.6089844585
 20
92.1063802016
 10
106.5684549777
 20
92.173612171
 10
106.5304951612
 20
92.242327516
 10
106.4952675775
 20
92.3122319466
 10
106.4629231823
 20
92.3830258763
 10
106.4336003596
 20
92.4544063901
 10
106.4074247952
 20
92.5260675025
 10
106.3845088728
 20
92.5977012586
 10
106.3649504813
 20
92.6690011807
 10
106.3488332952
 20
92.7396616676
 10
106.3362264375
 20
92.8093783179
 10
106.3271834799
 20
92.8778521521
 10
106.3217425302
 20
92.9447908185
 10
106.319926397
 20
93.0099079738
  0
LWPOLYLINE
  5
2C9
100
AcDbEntity
  8
0
100
AcDbPolyline
 62
7
  6
CONTINUOUS
 90
25
 70
0
 10
123.0783571111
 20
82.3540357798
 10
123.0228710227
 20
82.3881697225
 10
122.9676198363
 20
82.4263533975
 10
122.9128401309
 20
82.4684239054
 10
122.858766022
 20
82.5142021102
 10
122.8056296786
 20
82.5634921336
 10
122.7536602318
 20
82.6160818689
 10
122.703080498
 20
82.6717460754
 10
122.6541069782
 20
82.7302467301
 10
122.6069502873
 20
82.7913324027
 10
122.5618126039
 20
82.8547411999
 10
122.5188870352
 20
82.9202018518
 10
122.4783575544
 20
82.9874338211
 10
122.4403977379
 20
83.0561491661
 10
122.4051701542
 20
83.1260535967
 10
122.372825759
 20
83.1968475265
 10
122.3435029363
 20
83.2682280402
 10
122.3173273719
 20
83.3398891527
 10
122.2944114495
 20
83.4115229087
 10
122.274853058
 20
83.4828228308
 10
122.2587358719
 20
83.5534833177
 10
122.2461290142
 20
83.623199968
 10
122.2370860566
 20
83.6916738022
 10
122.2316451069
 20
83.7586124686
 10
122.2298289736
 20
83.823729624
  0
LWPOLYLINE
  5
2CA
100
AcDbEntity
  8
ASSI
100
AcDbPolyline
 62
7
  6
CONTINUOUS
 90
25
 70
0
 10
123.0783571111
 20
82.3540357798
 10
123.0228710227
 20
82.3881697225
 10
122.9676198363
 20
82.4263533975
 10
122.9128401309
 20
82.4684239054
 10
122.858766022
 20
82.5142021102
 10
122.8056296786
 20
82.5634921336
 10
122.7536602318
 20
82.6160818689
 10
122.703080498
 20
82.6717460754
 10
122.6541069782
 20
82.7302467301
 10
122.6069502873
 20
82.7913324027
 10
122.5618126039
 20
82.8547411999
 10
122.5188870352
 20
82.9202018518
 10
122.4783575544
 20
82.9874338211
 10
122.4403977379
 20
83.0561491661
 10
122.4051701542
 20
83.1260535967
 10
122.372825759
 20
83.1968475265
 10
122.3435029363
 20
83.2682280402
 10
122.3173273719
 20
83.3398891527
 10
122.2944114495
 20
83.4115229087
 10
122.274853058
 20
83.4828228308
 10
122.2587358719
 20
83.5534833177
 10
122.2461290142
 20
83.623199968
 10
122.2370860566
 20
83.6916738022
 10
122.2316451069
 20
83.7586124686
 10
122.2298289736
 20
83.823729624
  0
LWPOLYLINE
  5
2CB
100
AcDbEntity
  8
0
100
AcDbPolyline
 62
7
  6
CONTINUOUS
 90
5
 70
0
 10
117.4598117606
 20
97.430292816
 10
117.473953198
 20
97.3431504342
 10
117.4840368132
 20
97.2578030087
 10
117.4901235938
 20
97.1739517023
 10
117.4922135397
 20
97.091596515
  0
LWPOLYLINE
  5
2CC
100
AcDbEntity
  8
ASSI
100
AcDbPolyline
 62
7
  6
CONTINUOUS
 90
5
 70
0
 10
117.4598117606
 20
97.430292816
 10
117.473953198
 20
97.3431504342
 10
117.4840368132
 20
97.2578030087
 10
117.4901235938
 20
97.1739517023
 10
117.4922135397
 20
97.091596515
  0
LWPOLYLINE
  5
2CD
100
AcDbEntity
  8
0
100
AcDbPolyline
 62
7
  6
CONTINUOUS
 90
25
 70
0
 10
122.3712503299
 20
83.9053845426
 10
122.3730665098
 20
83.8402665384
 10
122.3785077207
 20
83.7733258424
 10
122.3875513336
 20
83.7048487391
 10
122.4001595703
 20
83.6351267906
 10
122.4162789446
 20
83.5644597225
 10
122.4358397959
 20
83.4931543049
 10
122.4587583591
 20
83.4215159598
 10
122.4849364983
 20
83.3498515005
 10
122.5142603038
 20
83.2784720393
 10
122.5466023739
 20
83.207685896
 10
122.5818247925
 20
83.137793292
 10
122.6197785089
 20
83.0690894357
 10
122.660301042
 20
83.0018684559
 10
122.7032188942
 20
82.9364181659
 10
122.7483509012
 20
82.873015301
 10
122.7955059723
 20
82.8119294679
 10
122.8444808332
 20
82.7534251008
 10
122.8950631111
 20
82.6977562927
 10
122.9470363019
 20
82.6451613332
 10
123.0001776585
 20
82.5958656479
 10
123.0542560394
 20
82.5500832207
 10
123.1090385005
 20
82.5080102797
 10
123.1642915171
 20
82.469825204
 10
123.2197784673
 20
82.4356906985
  0
LWPOLYLINE
  5
2CE
100
AcDbEntity
  8
ASSI
100
AcDbPolyline
 62
7
  6
CONTINUOUS
 90
25
 70
0
 10
122.3712503299
 20
83.9053845426
 10
122.3730665098
 20
83.8402665384
 10
122.3785077207
 20
83.7733258424
 10
122.3875513336
 20
83.7048487391
 10
122.4001595703
 20
83.6351267906
 10
122.4162789446
 20
83.5644597225
 10
122.4358397959
 20
83.4931543049
 10
122.4587583591
 20
83.4215159598
 10
122.4849364983
 20
83.3498515005
 10
122.5142603038
 20
83.2784720393
 10
122.5466023739
 20
83.207685896
 10
122.5818247925
 20
83.137793292
 10
122.6197785089
 20
83.0690894357
 10
122.660301042
 20
83.0018684559
 10
122.7032188942
 20
82.9364181659
 10
122.7483509012
 20
82.873015301
 10
122.7955059723
 20
82.8119294679
 10
122.8444808332
 20
82.7534251008
 10
122.8950631111
 20
82.6977562927
 10
122.9470363019
 20
82.6451613332
 10
123.0001776585
 20
82.5958656479
 10
123.0542560394
 20
82.5500832207
 10
123.1090385005
 20
82.5080102797
 10
123.1642915171
 20
82.469825204
 10
123.2197784673
 20
82.4356906985
  0
LWPOLYLINE
  5
2CF
100
AcDbEntity
  8
0
100
AcDbPolyline
 62
7
  6
CONTINUOUS
 90
28
 70
0
 10
122.7298805188
 20
84.6781749903
 10
122.7322069316
 20
84.5864856494
 10
122.7389832633
 20
84.4931295597
 10
122.7502095141
 20
84.3981067212
 10
122.7659534183
 20
84.3010845232
 10
122.7861472415
 20
84.2023955764
 10
122.8105877805
 20
84.1030377125
 10
122.8393183145
 20
84.003004212
 10
122.8722955645
 20
83.9023017945
 10
122.9091864895
 20
83.8019484504
 10
122.9500307052
 20
83.7019481218
 10
122.994788596
 20
83.6022968666
 10
123.043008275
 20
83.50400085
 10
123.0947247561
 20
83.4070739038
 10
123.1499030254
 20
83.3115021961
 10
123.2079861549
 20
83.2182503965
 10
123.269003713
 20
83.1273418256
 10
123.3329261313
 20
83.0387531627
 10
123.3991077766
 20
82.9533791154
 10
123.4675717275
 20
82.871252195
 10
123.5382949053
 20
82.7923398901
 10
123.6105624411
 20
82.7174393745
 10
123.684390224
 20
82.6465913798
 10
123.7597623648
 20
82.5797551744
 10
123.835916327
 20
82.5176057368
 10
123.9125979316
 20
82.4603680599
 10
123.9900613575
 20
82.4078171508
 10
124.0683066047
 20
82.3599530096
  0
LWPOLYLINE
  5
2D0
100
AcDbEntity
  8
ASSI
100
AcDbPolyline
 62
7
  6
CONTINUOUS
 90
28
 70
0
 10
122.7298805188
 20
84.6781749903
 10
122.7322069316
 20
84.5864856494
 10
122.7389832633
 20
84.4931295597
 10
122.7502095141
 20
84.3981067212
 10
122.7659534183
 20
84.3010845232
 10
122.7861472415
 20
84.2023955764
 10
122.8105877805
 20
84.1030377125
 10
122.8393183145
 20
84.003004212
 10
122.8722955645
 20
83.9023017945
 10
122.9091864895
 20
83.8019484504
 10
122.9500307052
 20
83.7019481218
 10
122.994788596
 20
83.6022968666
 10
123.043008275
 20
83.50400085
 10
123.0947247561
 20
83.4070739038
 10
123.1499030254
 20
83.3115021961
 10
123.2079861549
 20
83.2182503965
 10
123.269003713
 20
83.1273418256
 10
123.3329261313
 20
83.0387531627
 10
123.3991077766
 20
82.9533791154
 10
123.4675717275
 20
82.871252195
 10
123.5382949053
 20
82.7923398901
 10
123.6105624411
 20
82.7174393745
 10
123.684390224
 20
82.6465913798
 10
123.7597623648
 20
82.5797551744
 10
123.835916327
 20
82.5176057368
 10
123.9125979316
 20
82.4603680599
 10
123.9900613575
 20
82.4078171508
 10
124.0683066047
 20
82.3599530096
  0
LINE
  5
2D1
100
AcDbEntity
  8
0
100
AcDbLine
 62
7
  6
CONTINUOUS
 10
122.2298289736
 20
83.823729624
 11
122.2298289736
 21
94.764431333
  0
LINE
  5
2D2
100
AcDbEntity
  8
ASSI
100
AcDbLine
 62
7
  6
CONTINUOUS
 10
122.2298289736
 20
83.823729624
 11
122.2298289736
 21
94.764431333
  0
LINE
  5
2D3
100
AcDbEntity
  8
0
100
AcDbLine
 62
7
  6
CONTINUOUS
 10
122.3712503299
 20
94.8460862517
 11
122.3712503299
 21
83.9053845426
  0
LINE
  5
2D4
100
AcDbEntity
  8
ASSI
100
AcDbLine
 62
7
  6
CONTINUOUS
 10
122.3712503299
 20
94.8460862517
 11
122.3712503299
 21
83.9053845426
  0
LINE
  5
2D5
100
AcDbEntity
  8
0
100
AcDbLine
 62
7
  6
CONTINUOUS
 10
122.7298805188
 20
95.3684619621
 11
122.7298805188
 21
84.6781749903
  0
LINE
  5
2D6
100
AcDbEntity
  8
ASSI
100
AcDbLine
 62
7
  6
CONTINUOUS
 10
122.7298805188
 20
95.3684619621
 11
122.7298805188
 21
84.6781749903
  0
LINE
  5
2D7
100
AcDbEntity
  8
0
100
AcDbLine
 62
250
  6
CONTINUOUS
 10
122.7298805188
 20
84.6781749903
 11
122.3712503299
 21
83.9053845426
  0
LINE
  5
2D8
100
AcDbEntity
  8
ASSI
100
AcDbLine
 62
250
  6
CONTINUOUS
 10
122.7298805188
 20
84.6781749903
 11
122.3712503299
 21
83.9053845426
  0
LINE
  5
2D9
100
AcDbEntity
  8
0
100
AcDbLine
 62
250
  6
CONTINUOUS
 10
116.6436854023
 20
86.0693345791
 11
116.7851067585
 21
86.1509894978
  0
LINE
  5
2DA
100
AcDbEntity
  8
ASSI
100
AcDbLine
 62
250
  6
CONTINUOUS
 10
116.6436854023
 20
86.0693345791
 11
116.7851067585
 21
86.1509894978
  0
LWPOLYLINE
  5
2DB
100
AcDbEntity
  8
0
100
AcDbPolyline
 62
7
  6
CONTINUOUS
 90
3
 70
0
 10
117.2437143944
 20
86.0098851659
 10
117.2031564366
 20
85.9894390481
 10
117.1602309677
 20
85.9735476765
  0
LWPOLYLINE
  5
2DC
100
AcDbEntity
  8
ASSI
100
AcDbPolyline
 62
7
  6
CONTINUOUS
 90
3
 70
0
 10
117.2437143944
 20
86.0098851659
 10
117.2031564366
 20
85.9894390481
 10
117.1602309677
 20
85.9735476765
  0
LINE
  5
2DD
100
AcDbEntity
  8
0
100
AcDbLine
 62
250
  6
CONTINUOUS
 10
124.0683066047
 20
82.3599530096
 11
123.2197784673
 21
82.4356906985
  0
LINE
  5
2DE
100
AcDbEntity
  8
ASSI
100
AcDbLine
 62
250
  6
CONTINUOUS
 10
124.0683066047
 20
82.3599530096
 11
123.2197784673
 21
82.4356906985
  0
LWPOLYLINE
  5
2DF
100
AcDbEntity
  8
0
100
AcDbPolyline
 62
7
  6
CONTINUOUS
 90
7
 70
0
 10
116.7851067585
 20
86.1509894978
 10
116.8405942435
 20
86.1210487957
 10
116.8958475861
 20
86.0954289749
 10
116.9506301643
 20
86.0742405291
 10
117.0047083605
 20
86.057574725
 10
117.0578493422
 20
86.0455042388
 10
117.087935774
 20
86.0406598449
  0
LWPOLYLINE
  5
2E0
100
AcDbEntity
  8
ASSI
100
AcDbPolyline
 62
7
  6
CONTINUOUS
 90
7
 70
0
 10
116.7851067585
 20
86.1509894978
 10
116.8405942435
 20
86.1210487957
 10
116.8958475861
 20
86.0954289749
 10
116.9506301643
 20
86.0742405291
 10
117.0047083605
 20
86.057574725
 10
117.0578493422
 20
86.0455042388
 10
117.087935774
 20
86.0406598449
  0
LINE
  5
2E1
100
AcDbEntity
  8
0
100
AcDbLine
 62
7
  6
CONTINUOUS
 10
148.4634905557
 20
67.6969778794
 11
138.9882596878
 21
73.16785743
  0
LINE
  5
2E2
100
AcDbEntity
  8
ASSI
100
AcDbLine
 62
7
  6
CONTINUOUS
 10
148.4634905557
 20
67.6969778794
 11
138.9882596878
 21
73.16785743
  0
LINE
  5
2E3
100
AcDbEntity
  8
0
100
AcDbLine
 62
7
  6
CONTINUOUS
 10
132.553587979
 20
76.8831562292
 11
123.0783571111
 21
82.3540357798
  0
LINE
  5
2E4
100
AcDbEntity
  8
ASSI
100
AcDbLine
 62
7
  6
CONTINUOUS
 10
132.553587979
 20
76.8831562292
 11
123.0783571111
 21
82.3540357798
  0
LINE
  5
2E5
100
AcDbEntity
  8
0
100
AcDbLine
 62
7
  6
CONTINUOUS
 10
116.6436854023
 20
86.0693345791
 11
107.1684545344
 21
91.5402141297
  0
LINE
  5
2E6
100
AcDbEntity
  8
ASSI
100
AcDbLine
 62
7
  6
CONTINUOUS
 10
116.6436854023
 20
86.0693345791
 11
107.1684545344
 21
91.5402141297
  0
LINE
  5
2E7
100
AcDbEntity
  8
0
100
AcDbLine
 62
7
  6
CONTINUOUS
 10
107.3098758906
 20
91.6218690484
 11
116.7851067585
 21
86.1509894978
  0
LINE
  5
2E8
100
AcDbEntity
  8
ASSI
100
AcDbLine
 62
7
  6
CONTINUOUS
 10
107.3098758906
 20
91.6218690484
 11
116.7851067585
 21
86.1509894978
  0
LINE
  5
2E9
100
AcDbEntity
  8
0
100
AcDbLine
 62
7
  6
CONTINUOUS
 10
123.2197784673
 20
82.4356906985
 11
132.6950093352
 21
76.9648111479
  0
LINE
  5
2EA
100
AcDbEntity
  8
ASSI
100
AcDbLine
 62
7
  6
CONTINUOUS
 10
123.2197784673
 20
82.4356906985
 11
132.6950093352
 21
76.9648111479
  0
LINE
  5
2EB
100
AcDbEntity
  8
0
100
AcDbLine
 62
7
  6
CONTINUOUS
 10
139.129681044
 20
73.2495123486
 11
148.6049119119
 21
67.778632798
  0
LINE
  5
2EC
100
AcDbEntity
  8
ASSI
100
AcDbLine
 62
7
  6
CONTINUOUS
 10
139.129681044
 20
73.2495123486
 11
148.6049119119
 21
67.778632798
  0
LINE
  5
2ED
100
AcDbEntity
  8
0
100
AcDbLine
 62
7
  6
CONTINUOUS
 10
108.158404028
 20
91.5461313595
 11
117.416901403
 21
86.2003910114
  0
LINE
  5
2EE
100
AcDbEntity
  8
ASSI
100
AcDbLine
 62
7
  6
CONTINUOUS
 10
108.158404028
 20
91.5461313595
 11
117.416901403
 21
86.2003910114
  0
LINE
  5
2EF
100
AcDbEntity
  8
0
100
AcDbLine
 62
7
  6
CONTINUOUS
 10
124.0683066047
 20
82.3599530096
 11
133.3268039797
 21
77.0142126615
  0
LINE
  5
2F0
100
AcDbEntity
  8
ASSI
100
AcDbLine
 62
7
  6
CONTINUOUS
 10
124.0683066047
 20
82.3599530096
 11
133.3268039797
 21
77.0142126615
  0
LINE
  5
2F1
100
AcDbEntity
  8
0
100
AcDbLine
 62
7
  6
CONTINUOUS
 10
139.9782091814
 20
73.1737746597
 11
149.2367065564
 21
67.8280343116
  0
LINE
  5
2F2
100
AcDbEntity
  8
ASSI
100
AcDbLine
 62
7
  6
CONTINUOUS
 10
139.9782091814
 20
73.1737746597
 11
149.2367065564
 21
67.8280343116
  0
LWPOLYLINE
  5
2F3
100
AcDbEntity
  8
0
100
AcDbPolyline
 62
7
  6
CONTINUOUS
 90
25
 70
0
 10
138.9882596878
 20
73.16785743
 10
138.9327735994
 20
73.2019913727
 10
138.877522413
 20
73.2401750477
 10
138.8227427076
 20
73.2822455556
 10
138.7686685987
 20
73.3280237603
 10
138.7155322553
 20
73.3773137837
 10
138.6635628085
 20
73.429903519
 10
138.6129830747
 20
73.4855677255
 10
138.5640095549
 20
73.5440683802
 10
138.516852864
 20
73.6051540528
 10
138.4717151806
 20
73.66856285
 10
138.4287896119
 20
73.7340235019
 10
138.3882601311
 20
73.8012554713
 10
138.3503003146
 20
73.8699708162
 10
138.3150727309
 20
73.9398752469
 10
138.2827283357
 20
74.0106691766
 10
138.253405513
 20
74.0820496904
 10
138.2272299486
 20
74.1537108028
 10
138.2043140262
 20
74.2253445589
 10
138.1847556347
 20
74.2966444809
 10
138.1686384486
 20
74.3673049679
 10
138.1560315909
 20
74.4370216181
 10
138.1469886333
 20
74.5054954524
 10
138.1415476836
 20
74.5724341187
 10
138.1397315503
 20
74.6375512741
  0
LWPOLYLINE
  5
2F4
100
AcDbEntity
  8
ASSI
100
AcDbPolyline
 62
7
  6
CONTINUOUS
 90
25
 70
0
 10
138.9882596878
 20
73.16785743
 10
138.9327735994
 20
73.2019913727
 10
138.877522413
 20
73.2401750477
 10
138.8227427076
 20
73.2822455556
 10
138.7686685987
 20
73.3280237603
 10
138.7155322553
 20
73.3773137837
 10
138.6635628085
 20
73.429903519
 10
138.6129830747
 20
73.4855677255
 10
138.5640095549
 20
73.5440683802
 10
138.516852864
 20
73.6051540528
 10
138.4717151806
 20
73.66856285
 10
138.4287896119
 20
73.7340235019
 10
138.3882601311
 20
73.8012554713
 10
138.3503003146
 20
73.8699708162
 10
138.3150727309
 20
73.9398752469
 10
138.2827283357
 20
74.0106691766
 10
138.253405513
 20
74.0820496904
 10
138.2272299486
 20
74.1537108028
 10
138.2043140262
 20
74.2253445589
 10
138.1847556347
 20
74.2966444809
 10
138.1686384486
 20
74.3673049679
 10
138.1560315909
 20
74.4370216181
 10
138.1469886333
 20
74.5054954524
 10
138.1415476836
 20
74.5724341187
 10
138.1397315503
 20
74.6375512741
  0
LINE
  5
2F5
100
AcDbEntity
  8
0
100
AcDbLine
 62
250
  6
CONTINUOUS
 10
122.7248037205
 20
81.7416633448
 11
123.0783571111
 21
82.3540357798
  0
LINE
  5
2F6
100
AcDbEntity
  8
ASSI
100
AcDbLine
 62
250
  6
CONTINUOUS
 10
122.7248037205
 20
81.7416633448
 11
123.0783571111
 21
82.3540357798
  0
LINE
  5
2F7
100
AcDbEntity
  8
0
100
AcDbLine
 62
250
  6
CONTINUOUS
 10
122.2298289736
 20
83.823729624
 11
122.3712503299
 21
83.9053845426
  0
LINE
  5
2F8
100
AcDbEntity
  8
ASSI
100
AcDbLine
 62
250
  6
CONTINUOUS
 10
122.2298289736
 20
83.823729624
 11
122.3712503299
 21
83.9053845426
  0
LINE
  5
2F9
100
AcDbEntity
  8
0
100
AcDbLine
 62
7
  6
CONTINUOUS
 10
159.1443034706
 20
104.9708074863
 11
163.2062364553
 21
107.3161013885
  0
LINE
  5
2FA
100
AcDbEntity
  8
ASSI
100
AcDbLine
 62
7
  6
CONTINUOUS
 10
159.1443034706
 20
104.9708074863
 11
163.2062364553
 21
107.3161013885
  0
LINE
  5
2FB
100
AcDbEntity
  8
0
100
AcDbLine
 62
250
  6
CONTINUOUS
 10
121.5227221925
 20
83.823729624
 11
122.2298289736
 21
83.823729624
  0
LINE
  5
2FC
100
AcDbEntity
  8
ASSI
100
AcDbLine
 62
250
  6
CONTINUOUS
 10
121.5227221925
 20
83.823729624
 11
122.2298289736
 21
83.823729624
  0
LINE
  5
2FD
100
AcDbEntity
  8
0
100
AcDbLine
 62
250
  6
CONTINUOUS
 10
137.4326247692
 20
85.5782529831
 11
138.1397315503
 21
85.5782529831
  0
LINE
  5
2FE
100
AcDbEntity
  8
ASSI
100
AcDbLine
 62
250
  6
CONTINUOUS
 10
137.4326247692
 20
85.5782529831
 11
138.1397315503
 21
85.5782529831
  0
LINE
  5
2FF
100
AcDbEntity
  8
0
100
AcDbLine
 62
250
  6
CONTINUOUS
 10
117.3515706755
 20
86.1004282187
 11
116.7851067585
 21
86.1509894978
  0
LINE
  5
300
100
AcDbEntity
  8
ASSI
100
AcDbLine
 62
250
  6
CONTINUOUS
 10
117.3515706755
 20
86.1004282187
 11
116.7851067585
 21
86.1509894978
  0
LWPOLYLINE
  5
301
100
AcDbEntity
  8
0
100
AcDbPolyline
 62
7
  6
CONTINUOUS
 90
6
 70
0
 10
117.087935774
 20
86.0406598449
 10
117.1098222639
 20
86.0380819231
 10
117.1604045002
 20
86.0353395985
 10
117.2093794074
 20
86.0372890385
 10
117.2565345059
 20
86.0439213988
 10
117.3016664813
 20
86.0552069644
  0
LWPOLYLINE
  5
302
100
AcDbEntity
  8
ASSI
100
AcDbPolyline
 62
7
  6
CONTINUOUS
 90
6
 70
0
 10
117.087935774
 20
86.0406598449
 10
117.1098222639
 20
86.0380819231
 10
117.1604045002
 20
86.0353395985
 10
117.2093794074
 20
86.0372890385
 10
117.2565345059
 20
86.0439213988
 10
117.3016664813
 20
86.0552069644
  0
LWPOLYLINE
  5
303
100
AcDbEntity
  8
0
100
AcDbPolyline
 62
7
  6
CONTINUOUS
 90
20
 70
0
 10
116.5672544828
 20
98.9762437287
 10
116.634949583
 20
98.9162143447
 10
116.7012570832
 20
98.8525823534
 10
116.7661626873
 20
98.785311166
 10
116.8296806914
 20
98.7144373713
 10
116.8911690813
 20
98.6406773171
 10
116.9506070238
 20
98.5640019385
 10
117.008015352
 20
98.4844403003
 10
117.0628145511
 20
98.4027959456
 10
117.1149779072
 20
98.3190483876
 10
117.1645321342
 20
98.233218113
 10
117.2109778587
 20
98.1461701246
 10
117.2542839403
 20
98.0578916747
 10
117.2944815194
 20
97.968395511
 10
117.3311646445
 20
97.8785848796
 10
117.3642978045
 20
97.7884561708
 10
117.3939165106
 20
97.6980129944
 10
117.4197213447
 20
97.608169425
 10
117.4416734886
 20
97.518931317
 10
117.4598117606
 20
97.430292816
  0
LWPOLYLINE
  5
304
100
AcDbEntity
  8
ASSI
100
AcDbPolyline
 62
7
  6
CONTINUOUS
 90
20
 70
0
 10
116.5672544828
 20
98.9762437287
 10
116.634949583
 20
98.9162143447
 10
116.7012570832
 20
98.8525823534
 10
116.7661626873
 20
98.785311166
 10
116.8296806914
 20
98.7144373713
 10
116.8911690813
 20
98.6406773171
 10
116.9506070238
 20
98.5640019385
 10
117.008015352
 20
98.4844403003
 10
117.0628145511
 20
98.4027959456
 10
117.1149779072
 20
98.3190483876
 10
117.1645321342
 20
98.233218113
 10
117.2109778587
 20
98.1461701246
 10
117.2542839403
 20
98.0578916747
 10
117.2944815194
 20
97.968395511
 10
117.3311646445
 20
97.8785848796
 10
117.3642978045
 20
97.7884561708
 10
117.3939165106
 20
97.6980129944
 10
117.4197213447
 20
97.608169425
 10
117.4416734886
 20
97.518931317
 10
117.4598117606
 20
97.430292816
  0
LINE
  5
305
100
AcDbEntity
  8
0
100
AcDbLine
 62
7
  6
CONTINUOUS
 10
96.4863496307
 20
140.3317573993
 11
96.4867249382
 21
140.3311210377
  0
LINE
  5
306
100
AcDbEntity
  8
ASSI
100
AcDbLine
 62
7
  6
CONTINUOUS
 10
96.4863496307
 20
140.3317573993
 11
96.4867249382
 21
140.3311210377
  0
LINE
  5
307
100
AcDbEntity
  8
0
100
AcDbLine
 62
7
  6
CONTINUOUS
 10
159.1439410403
 20
31.8056394006
 11
159.1443034706
 21
31.8049979629
  0
LINE
  5
308
100
AcDbEntity
  8
ASSI
100
AcDbLine
 62
7
  6
CONTINUOUS
 10
159.1439410403
 20
31.8056394006
 11
159.1443034706
 21
31.8049979629
  0
LINE
  5
309
100
AcDbEntity
  8
0
100
AcDbLine
 62
7
  6
CONTINUOUS
 10
133.4021161164
 20
87.9054181651
 11
133.4021161164
 21
76.9647164561
  0
LINE
  5
30A
100
AcDbEntity
  8
ASSI
100
AcDbLine
 62
7
  6
CONTINUOUS
 10
133.4021161164
 20
87.9054181651
 11
133.4021161164
 21
76.9647164561
  0
LWPOLYLINE
  5
30B
100
AcDbEntity
  8
0
100
AcDbPolyline
 62
7
  6
CONTINUOUS
 90
28
 70
0
 10
133.4021161164
 20
76.9647164561
 10
133.4000262988
 20
76.8847761356
 10
133.3939397167
 20
76.8079548757
 10
133.38385637
 20
76.7342526763
 10
133.3697153096
 20
76.6634411182
 10
133.3515774846
 20
76.5957486206
 10
133.3296257426
 20
76.5318604417
 10
133.303821247
 20
76.4718155125
 10
133.2742028344
 20
76.415574902
 10
133.241069862
 20
76.3637070755
 10
133.2043867404
 20
76.316256637
 10
133.1641890591
 20
76.2731789824
 10
133.1208829435
 20
76.2349087646
 10
133.074437293
 20
76.2014947862
 10
133.0248832082
 20
76.1728882446
 10
132.9727201169
 20
76.1493773844
 10
132.9179214071
 20
76.1310135279
 10
132.8605136909
 20
76.1177453529
 10
132.801076232
 20
76.109707137
 10
132.7395881471
 20
76.1069519414
 10
132.6760703196
 20
76.109426705
 10
132.6111646635
 20
76.1171065213
 10
132.5448568379
 20
76.130044493
 10
132.4771611838
 20
76.1481875176
 10
132.4087626381
 20
76.1713513813
 10
132.3398895131
 20
76.1994746797
 10
132.2703134965
 20
76.2326188173
 10
132.2000345884
 20
76.2707837942
  0
LWPOLYLINE
  5
30C
100
AcDbEntity
  8
ASSI
100
AcDbPolyline
 62
7
  6
CONTINUOUS
 90
28
 70
0
 10
133.4021161164
 20
76.9647164561
 10
133.4000262988
 20
76.8847761356
 10
133.3939397167
 20
76.8079548757
 10
133.38385637
 20
76.7342526763
 10
133.3697153096
 20
76.6634411182
 10
133.3515774846
 20
76.5957486206
 10
133.3296257426
 20
76.5318604417
 10
133.303821247
 20
76.4718155125
 10
133.2742028344
 20
76.415574902
 10
133.241069862
 20
76.3637070755
 10
133.2043867404
 20
76.316256637
 10
133.1641890591
 20
76.2731789824
 10
133.1208829435
 20
76.2349087646
 10
133.074437293
 20
76.2014947862
 10
133.0248832082
 20
76.1728882446
 10
132.9727201169
 20
76.1493773844
 10
132.9179214071
 20
76.1310135279
 10
132.8605136909
 20
76.1177453529
 10
132.801076232
 20
76.109707137
 10
132.7395881471
 20
76.1069519414
 10
132.6760703196
 20
76.109426705
 10
132.6111646635
 20
76.1171065213
 10
132.5448568379
 20
76.130044493
 10
132.4771611838
 20
76.1481875176
 10
132.4087626381
 20
76.1713513813
 10
132.3398895131
 20
76.1994746797
 10
132.2703134965
 20
76.2326188173
 10
132.2000345884
 20
76.2707837942
  0
LWPOLYLINE
  5
30D
100
AcDbEntity
  8
0
100
AcDbPolyline
 62
7
  6
CONTINUOUS
 90
7
 70
0
 10
133.4021161164
 20
77.3729910494
 10
133.400300028
 20
77.309971884
 10
133.3948591932
 20
77.2493168344
 10
133.3858163907
 20
77.1912859178
 10
133.3732096927
 20
77.1361274761
 10
133.3570926445
 20
77.0840786701
 10
133.3375343653
 20
77.0353641604
  0
LWPOLYLINE
  5
30E
100
AcDbEntity
  8
ASSI
100
AcDbPolyline
 62
7
  6
CONTINUOUS
 90
7
 70
0
 10
133.4021161164
 20
77.3729910494
 10
133.400300028
 20
77.309971884
 10
133.3948591932
 20
77.2493168344
 10
133.3858163907
 20
77.1912859178
 10
133.3732096927
 20
77.1361274761
 10
133.3570926445
 20
77.0840786701
 10
133.3375343653
 20
77.0353641604
  0
LINE
  5
30F
100
AcDbEntity
  8
0
100
AcDbLine
 62
7
  6
CONTINUOUS
 10
159.8518407399
 20
103.745316989
 11
163.9137737246
 21
106.0906108911
  0
LINE
  5
310
100
AcDbEntity
  8
ASSI
100
AcDbLine
 62
7
  6
CONTINUOUS
 10
159.8518407399
 20
103.745316989
 11
163.9137737246
 21
106.0906108911
  0
LINE
  5
311
100
AcDbEntity
  8
0
100
AcDbLine
 62
250
  6
CONTINUOUS
 10
123.0783571111
 20
82.3540357798
 11
123.2197784673
 21
82.4356906985
  0
LINE
  5
312
100
AcDbEntity
  8
ASSI
100
AcDbLine
 62
250
  6
CONTINUOUS
 10
123.0783571111
 20
82.3540357798
 11
123.2197784673
 21
82.4356906985
  0
LWPOLYLINE
  5
313
100
AcDbEntity
  8
0
100
AcDbPolyline
 62
7
  6
CONTINUOUS
 90
11
 70
0
 10
117.1602309677
 20
85.9735476765
 10
117.1150934115
 20
85.9622626483
 10
117.06793691
 20
85.9556322329
 10
117.0189636139
 20
85.9536848357
 10
116.9683840313
 20
85.9564286773
 10
116.9164146391
 20
85.9638517954
 10
116.8632782628
 20
85.9759221493
 10
116.8092039655
 20
85.9925872944
 10
116.7544238909
 20
86.0137750513
 10
116.6991721755
 20
86.0393942342
 10
116.6436854023
 20
86.0693345791
  0
LWPOLYLINE
  5
314
100
AcDbEntity
  8
ASSI
100
AcDbPolyline
 62
7
  6
CONTINUOUS
 90
11
 70
0
 10
117.1602309677
 20
85.9735476765
 10
117.1150934115
 20
85.9622626483
 10
117.06793691
 20
85.9556322329
 10
117.0189636139
 20
85.9536848357
 10
116.9683840313
 20
85.9564286773
 10
116.9164146391
 20
85.9638517954
 10
116.8632782628
 20
85.9759221493
 10
116.8092039655
 20
85.9925872944
 10
116.7544238909
 20
86.0137750513
 10
116.6991721755
 20
86.0393942342
 10
116.6436854023
 20
86.0693345791
  0
LINE
  5
315
100
AcDbEntity
  8
0
100
AcDbLine
 62
250
  6
CONTINUOUS
 10
108.158404028
 20
91.5461313595
 11
107.3098758906
 21
91.6218690484
  0
LINE
  5
316
100
AcDbEntity
  8
ASSI
100
AcDbLine
 62
250
  6
CONTINUOUS
 10
108.158404028
 20
91.5461313595
 11
107.3098758906
 21
91.6218690484
  0
LINE
  5
317
100
AcDbEntity
  8
0
100
AcDbLine
 62
7
  6
CONTINUOUS
 10
106.8149011438
 20
104.6445423448
 11
116.2901320117
 21
99.1736627942
  0
LINE
  5
318
100
AcDbEntity
  8
ASSI
100
AcDbLine
 62
7
  6
CONTINUOUS
 10
106.8149011438
 20
104.6445423448
 11
116.2901320117
 21
99.1736627942
  0
LINE
  5
319
100
AcDbEntity
  8
0
100
AcDbLine
 62
7
  6
CONTINUOUS
 10
122.7248037205
 20
95.4583639949
 11
132.2000345884
 21
89.9874844443
  0
LINE
  5
31A
100
AcDbEntity
  8
ASSI
100
AcDbLine
 62
7
  6
CONTINUOUS
 10
122.7248037205
 20
95.4583639949
 11
132.2000345884
 21
89.9874844443
  0
LINE
  5
31B
100
AcDbEntity
  8
0
100
AcDbLine
 62
7
  6
CONTINUOUS
 10
138.6347062972
 20
86.272185645
 11
148.1099371651
 21
80.8013060944
  0
LINE
  5
31C
100
AcDbEntity
  8
ASSI
100
AcDbLine
 62
7
  6
CONTINUOUS
 10
138.6347062972
 20
86.272185645
 11
148.1099371651
 21
80.8013060944
  0
LWPOLYLINE
  5
31D
100
AcDbEntity
  8
0
100
AcDbPolyline
 62
7
  6
CONTINUOUS
 90
5
 70
0
 10
116.2901320117
 20
99.1736627942
 10
116.3604096002
 20
99.1306723596
 10
116.4299844914
 20
99.0834727362
 10
116.4988566853
 20
99.0320639238
 10
116.5672544828
 20
98.9762437287
  0
LWPOLYLINE
  5
31E
100
AcDbEntity
  8
ASSI
100
AcDbPolyline
 62
7
  6
CONTINUOUS
 90
5
 70
0
 10
116.2901320117
 20
99.1736627942
 10
116.3604096002
 20
99.1306723596
 10
116.4299844914
 20
99.0834727362
 10
116.4988566853
 20
99.0320639238
 10
116.5672544828
 20
98.9762437287
  0
LWPOLYLINE
  5
31F
100
AcDbEntity
  8
0
100
AcDbPolyline
 62
7
  6
CONTINUOUS
 90
5
 70
0
 10
132.2000345884
 20
89.9874844443
 10
132.2703121769
 20
89.9444940097
 10
132.3398870681
 20
89.8972943863
 10
132.408759262
 20
89.845885574
 10
132.4771570595
 20
89.7900653789
  0
LWPOLYLINE
  5
320
100
AcDbEntity
  8
ASSI
100
AcDbPolyline
 62
7
  6
CONTINUOUS
 90
5
 70
0
 10
132.2000345884
 20
89.9874844443
 10
132.2703121769
 20
89.9444940097
 10
132.3398870681
 20
89.8972943863
 10
132.408759262
 20
89.845885574
 10
132.4771570595
 20
89.7900653789
  0
LWPOLYLINE
  5
321
100
AcDbEntity
  8
0
100
AcDbPolyline
 62
7
  6
CONTINUOUS
 90
5
 70
0
 10
148.1099371651
 20
80.8013060944
 10
148.1802147536
 20
80.7583156599
 10
148.2497896448
 20
80.7111160364
 10
148.3186618387
 20
80.6597072241
 10
148.3870596362
 20
80.603887029
  0
LWPOLYLINE
  5
322
100
AcDbEntity
  8
ASSI
100
AcDbPolyline
 62
7
  6
CONTINUOUS
 90
5
 70
0
 10
148.1099371651
 20
80.8013060944
 10
148.1802147536
 20
80.7583156599
 10
148.2497896448
 20
80.7111160364
 10
148.3186618387
 20
80.6597072241
 10
148.3870596362
 20
80.603887029
  0
LWPOLYLINE
  5
323
100
AcDbEntity
  8
0
100
AcDbPolyline
 62
7
  6
CONTINUOUS
 90
20
 70
0
 10
132.4771570595
 20
89.7900653789
 10
132.5448521597
 20
89.7300359949
 10
132.6111596599
 20
89.6664040035
 10
132.676065264
 20
89.5991328162
 10
132.7395832681
 20
89.5282590215
 10
132.801071658
 20
89.4544989673
 10
132.8605096005
 20
89.3778235886
 10
132.9179179287
 20
89.2982619504
 10
132.9727171278
 20
89.2166175957
 10
133.0248804839
 20
89.1328700377
 10
133.0744347109
 20
89.0470397631
 10
133.1208804354
 20
88.9599917747
 10
133.1641865169
 20
88.8717133248
 10
133.2043840961
 20
88.7822171611
 10
133.2410672212
 20
88.6924065297
 10
133.2742003812
 20
88.602277821
 10
133.3038190873
 20
88.5118346445
 10
133.3296239214
 20
88.4219910751
 10
133.3515760653
 20
88.3327529671
 10
133.3697143373
 20
88.2441144661
  0
LWPOLYLINE
  5
324
100
AcDbEntity
  8
ASSI
100
AcDbPolyline
 62
7
  6
CONTINUOUS
 90
20
 70
0
 10
132.4771570595
 20
89.7900653789
 10
132.5448521597
 20
89.7300359949
 10
132.6111596599
 20
89.6664040035
 10
132.676065264
 20
89.5991328162
 10
132.7395832681
 20
89.5282590215
 10
132.801071658
 20
89.4544989673
 10
132.8605096005
 20
89.3778235886
 10
132.9179179287
 20
89.2982619504
 10
132.9727171278
 20
89.2166175957
 10
133.0248804839
 20
89.1328700377
 10
133.0744347109
 20
89.0470397631
 10
133.1208804354
 20
88.9599917747
 10
133.1641865169
 20
88.8717133248
 10
133.2043840961
 20
88.7822171611
 10
133.2410672212
 20
88.6924065297
 10
133.2742003812
 20
88.602277821
 10
133.3038190873
 20
88.5118346445
 10
133.3296239214
 20
88.4219910751
 10
133.3515760653
 20
88.3327529671
 10
133.3697143373
 20
88.2441144661
  0
LWPOLYLINE
  5
325
100
AcDbEntity
  8
0
100
AcDbPolyline
 62
7
  6
CONTINUOUS
 90
5
 70
0
 10
133.3697143373
 20
88.2441144661
 10
133.3838557747
 20
88.1569720843
 10
133.3939393899
 20
88.0716246588
 10
133.4000261705
 20
87.9877733524
 10
133.4021161164
 20
87.9054181651
  0
LWPOLYLINE
  5
326
100
AcDbEntity
  8
ASSI
100
AcDbPolyline
 62
7
  6
CONTINUOUS
 90
5
 70
0
 10
133.3697143373
 20
88.2441144661
 10
133.3838557747
 20
88.1569720843
 10
133.3939393899
 20
88.0716246588
 10
133.4000261705
 20
87.9877733524
 10
133.4021161164
 20
87.9054181651
  0
LWPOLYLINE
  5
327
100
AcDbEntity
  8
0
100
AcDbPolyline
 62
7
  6
CONTINUOUS
 90
25
 70
0
 10
138.2811529066
 20
74.7192061928
 10
138.2829690865
 20
74.6540881885
 10
138.2884102974
 20
74.5871474926
 10
138.2974539103
 20
74.5186703892
 10
138.310062147
 20
74.4489484407
 10
138.3261815213
 20
74.3782813727
 10
138.3457423726
 20
74.306975955
 10
138.3686609358
 20
74.2353376099
 10
138.394839075
 20
74.1636731506
 10
138.4241628805
 20
74.0922936894
 10
138.4565049506
 20
74.0215075461
 10
138.4917273692
 20
73.9516149421
 10
138.5296810856
 20
73.8829110858
 10
138.5702036187
 20
73.8156901061
 10
138.6131214709
 20
73.750239816
 10
138.6582534779
 20
73.6868369511
 10
138.705408549
 20
73.6257511181
 10
138.7543834099
 20
73.5672467509
 10
138.8049656878
 20
73.5115779428
 10
138.8569388786
 20
73.4589829833
 10
138.9100802352
 20
73.409687298
 10
138.9641586161
 20
73.3639048708
 10
139.0189410772
 20
73.3218319298
 10
139.0741940938
 20
73.2836468542
 10
139.129681044
 20
73.2495123486
  0
LWPOLYLINE
  5
328
100
AcDbEntity
  8
ASSI
100
AcDbPolyline
 62
7
  6
CONTINUOUS
 90
25
 70
0
 10
138.2811529066
 20
74.7192061928
 10
138.2829690865
 20
74.6540881885
 10
138.2884102974
 20
74.5871474926
 10
138.2974539103
 20
74.5186703892
 10
138.310062147
 20
74.4489484407
 10
138.3261815213
 20
74.3782813727
 10
138.3457423726
 20
74.306975955
 10
138.3686609358
 20
74.2353376099
 10
138.394839075
 20
74.1636731506
 10
138.4241628805
 20
74.0922936894
 10
138.4565049506
 20
74.0215075461
 10
138.4917273692
 20
73.9516149421
 10
138.5296810856
 20
73.8829110858
 10
138.5702036187
 20
73.8156901061
 10
138.6131214709
 20
73.750239816
 10
138.6582534779
 20
73.6868369511
 10
138.705408549
 20
73.6257511181
 10
138.7543834099
 20
73.5672467509
 10
138.8049656878
 20
73.5115779428
 10
138.8569388786
 20
73.4589829833
 10
138.9100802352
 20
73.409687298
 10
138.9641586161
 20
73.3639048708
 10
139.0189410772
 20
73.3218319298
 10
139.0741940938
 20
73.2836468542
 10
139.129681044
 20
73.2495123486
  0
LWPOLYLINE
  5
329
100
AcDbEntity
  8
0
100
AcDbPolyline
 62
7
  6
CONTINUOUS
 90
28
 70
0
 10
138.6397830954
 20
75.4919966404
 10
138.6421095082
 20
75.4003072995
 10
138.64888584
 20
75.3069512098
 10
138.6601120908
 20
75.2119283713
 10
138.675855995
 20
75.1149061733
 10
138.6960498182
 20
75.0162172265
 10
138.7204903572
 20
74.9168593627
 10
138.7492208912
 20
74.8168258622
 10
138.7821981412
 20
74.7161234446
 10
138.8190890662
 20
74.6157701006
 10
138.8599332819
 20
74.5157697719
 10
138.9046911727
 20
74.4161185167
 10
138.9529108517
 20
74.3178225001
 10
139.0046273327
 20
74.2208955539
 10
139.0598056021
 20
74.1253238463
 10
139.1178887316
 20
74.0320720467
 10
139.1789062897
 20
73.9411634757
 10
139.242828708
 20
73.8525748128
 10
139.3090103533
 20
73.7672007655
 10
139.3774743042
 20
73.6850738451
 10
139.448197482
 20
73.6061615402
 10
139.5204650178
 20
73.5312610246
 10
139.5942928007
 20
73.46041303
 10
139.6696649415
 20
73.3935768245
 10
139.7458189037
 20
73.3314273869
 10
139.8225005083
 20
73.27418971
 10
139.8999639342
 20
73.2216388009
 10
139.9782091814
 20
73.1737746597
  0
LWPOLYLINE
  5
32A
100
AcDbEntity
  8
ASSI
100
AcDbPolyline
 62
7
  6
CONTINUOUS
 90
28
 70
0
 10
138.6397830954
 20
75.4919966404
 10
138.6421095082
 20
75.4003072995
 10
138.64888584
 20
75.3069512098
 10
138.6601120908
 20
75.2119283713
 10
138.675855995
 20
75.1149061733
 10
138.6960498182
 20
75.0162172265
 10
138.7204903572
 20
74.9168593627
 10
138.7492208912
 20
74.8168258622
 10
138.7821981412
 20
74.7161234446
 10
138.8190890662
 20
74.6157701006
 10
138.8599332819
 20
74.5157697719
 10
138.9046911727
 20
74.4161185167
 10
138.9529108517
 20
74.3178225001
 10
139.0046273327
 20
74.2208955539
 10
139.0598056021
 20
74.1253238463
 10
139.1178887316
 20
74.0320720467
 10
139.1789062897
 20
73.9411634757
 10
139.242828708
 20
73.8525748128
 10
139.3090103533
 20
73.7672007655
 10
139.3774743042
 20
73.6850738451
 10
139.448197482
 20
73.6061615402
 10
139.5204650178
 20
73.5312610246
 10
139.5942928007
 20
73.46041303
 10
139.6696649415
 20
73.3935768245
 10
139.7458189037
 20
73.3314273869
 10
139.8225005083
 20
73.27418971
 10
139.8999639342
 20
73.2216388009
 10
139.9782091814
 20
73.1737746597
  0
LINE
  5
32B
100
AcDbEntity
  8
0
100
AcDbLine
 62
7
  6
CONTINUOUS
 10
137.4326247692
 20
74.6375512741
 11
137.4326247692
 21
85.5782529831
  0
LINE
  5
32C
100
AcDbEntity
  8
ASSI
100
AcDbLine
 62
7
  6
CONTINUOUS
 10
137.4326247692
 20
74.6375512741
 11
137.4326247692
 21
85.5782529831
  0
LINE
  5
32D
100
AcDbEntity
  8
0
100
AcDbLine
 62
7
  6
CONTINUOUS
 10
138.1397315503
 20
74.6375512741
 11
138.1397315503
 21
85.5782529831
  0
LINE
  5
32E
100
AcDbEntity
  8
ASSI
100
AcDbLine
 62
7
  6
CONTINUOUS
 10
138.1397315503
 20
74.6375512741
 11
138.1397315503
 21
85.5782529831
  0
LINE
  5
32F
100
AcDbEntity
  8
0
100
AcDbLine
 62
7
  6
CONTINUOUS
 10
138.2811529066
 20
85.6599079018
 11
138.2811529066
 21
74.7192061928
  0
LINE
  5
330
100
AcDbEntity
  8
ASSI
100
AcDbLine
 62
7
  6
CONTINUOUS
 10
138.2811529066
 20
85.6599079018
 11
138.2811529066
 21
74.7192061928
  0
LINE
  5
331
100
AcDbEntity
  8
0
100
AcDbLine
 62
7
  6
CONTINUOUS
 10
138.6397830954
 20
86.1822836122
 11
138.6397830954
 21
75.4919966404
  0
LINE
  5
332
100
AcDbEntity
  8
ASSI
100
AcDbLine
 62
7
  6
CONTINUOUS
 10
138.6397830954
 20
86.1822836122
 11
138.6397830954
 21
75.4919966404
  0
LWPOLYLINE
  5
333
100
AcDbEntity
  8
0
100
AcDbPolyline
 62
7
  6
CONTINUOUS
 90
28
 70
0
 10
137.4326247692
 20
85.5782529831
 10
137.4347145867
 20
85.6581933036
 10
137.4408011689
 20
85.7350145635
 10
137.4508845156
 20
85.8087167629
 10
137.465025576
 20
85.879528321
 10
137.483163401
 20
85.9472208186
 10
137.505115143
 20
86.0111089975
 10
137.5309196386
 20
86.0711539267
 10
137.5605380512
 20
86.1273945372
 10
137.5936710236
 20
86.1792623637
 10
137.6303541451
 20
86.2267128022
 10
137.6705518264
 20
86.2697904568
 10
137.713857942
 20
86.3080606746
 10
137.7603035926
 20
86.341474653
 10
137.8098576774
 20
86.3700811946
 10
137.8620207687
 20
86.3935920548
 10
137.9168194784
 20
86.4119559112
 10
137.9742271947
 20
86.4252240863
 10
138.0336646535
 20
86.4332623022
 10
138.0951527384
 20
86.4360174978
 10
138.158670566
 20
86.4335427342
 10
138.2235762221
 20
86.4258629178
 10
138.2898840476
 20
86.4129249462
 10
138.3575797018
 20
86.3947819216
 10
138.4259782475
 20
86.3716180579
 10
138.4948513724
 20
86.3434947595
 10
138.564427389
 20
86.3103506218
 10
138.6347062972
 20
86.272185645
  0
LWPOLYLINE
  5
334
100
AcDbEntity
  8
ASSI
100
AcDbPolyline
 62
7
  6
CONTINUOUS
 90
28
 70
0
 10
137.4326247692
 20
85.5782529831
 10
137.4347145867
 20
85.6581933036
 10
137.4408011689
 20
85.7350145635
 10
137.4508845156
 20
85.8087167629
 10
137.465025576
 20
85.879528321
 10
137.483163401
 20
85.9472208186
 10
137.505115143
 20
86.0111089975
 10
137.5309196386
 20
86.0711539267
 10
137.5605380512
 20
86.1273945372
 10
137.5936710236
 20
86.1792623637
 10
137.6303541451
 20
86.2267128022
 10
137.6705518264
 20
86.2697904568
 10
137.713857942
 20
86.3080606746
 10
137.7603035926
 20
86.341474653
 10
137.8098576774
 20
86.3700811946
 10
137.8620207687
 20
86.3935920548
 10
137.9168194784
 20
86.4119559112
 10
137.9742271947
 20
86.4252240863
 10
138.0336646535
 20
86.4332623022
 10
138.0951527384
 20
86.4360174978
 10
138.158670566
 20
86.4335427342
 10
138.2235762221
 20
86.4258629178
 10
138.2898840476
 20
86.4129249462
 10
138.3575797018
 20
86.3947819216
 10
138.4259782475
 20
86.3716180579
 10
138.4948513724
 20
86.3434947595
 10
138.564427389
 20
86.3103506218
 10
138.6347062972
 20
86.272185645
  0
LWPOLYLINE
  5
335
100
AcDbEntity
  8
0
100
AcDbPolyline
 62
7
  6
CONTINUOUS
 90
11
 70
0
 10
138.1397315503
 20
85.5782529831
 10
138.1415476387
 20
85.6412721485
 10
138.1469884735
 20
85.7019271981
 10
138.156031276
 20
85.7599581147
 10
138.168637974
 20
85.8151165564
 10
138.1847550222
 20
85.8671653625
 10
138.2043133015
 20
85.9158798721
 10
138.2272291603
 20
85.9610511067
 10
138.2534047192
 20
86.0024855949
 10
138.2827275436
 20
86.0400050658
 10
138.315071919
 20
86.0734486571
  0
LWPOLYLINE
  5
336
100
AcDbEntity
  8
ASSI
100
AcDbPolyline
 62
7
  6
CONTINUOUS
 90
11
 70
0
 10
138.1397315503
 20
85.5782529831
 10
138.1415476387
 20
85.6412721485
 10
138.1469884735
 20
85.7019271981
 10
138.156031276
 20
85.7599581147
 10
138.168637974
 20
85.8151165564
 10
138.1847550222
 20
85.8671653625
 10
138.2043133015
 20
85.9158798721
 10
138.2272291603
 20
85.9610511067
 10
138.2534047192
 20
86.0024855949
 10
138.2827275436
 20
86.0400050658
 10
138.315071919
 20
86.0734486571
  0
LWPOLYLINE
  5
337
100
AcDbEntity
  8
0
100
AcDbPolyline
 62
7
  6
CONTINUOUS
 90
7
 70
0
 10
138.3370014251
 20
85.9772387757
 10
138.3261813793
 20
85.9488344053
 10
138.3100619344
 20
85.8967811945
 10
138.2974537158
 20
85.8416186981
 10
138.2884101841
 20
85.7835850205
 10
138.2829690514
 20
85.7229280297
 10
138.2811529066
 20
85.6599079018
  0
LWPOLYLINE
  5
338
100
AcDbEntity
  8
ASSI
100
AcDbPolyline
 62
7
  6
CONTINUOUS
 90
7
 70
0
 10
138.3370014251
 20
85.9772387757
 10
138.3261813793
 20
85.9488344053
 10
138.3100619344
 20
85.8967811945
 10
138.2974537158
 20
85.8416186981
 10
138.2884101841
 20
85.7835850205
 10
138.2829690514
 20
85.7229280297
 10
138.2811529066
 20
85.6599079018
  0
LINE
  5
339
100
AcDbEntity
  8
0
100
AcDbLine
 62
250
  6
CONTINUOUS
 10
138.520505096
 20
86.175673421
 11
138.2811529066
 21
85.6599079018
  0
LINE
  5
33A
100
AcDbEntity
  8
ASSI
100
AcDbLine
 62
250
  6
CONTINUOUS
 10
138.520505096
 20
86.175673421
 11
138.2811529066
 21
85.6599079018
  0
LWPOLYLINE
  5
33B
100
AcDbEntity
  8
0
100
AcDbPolyline
 62
7
  6
CONTINUOUS
 90
7
 70
0
 10
133.3375343653
 20
77.0353641604
 10
133.3146185064
 20
76.9901929258
 10
133.2884429475
 20
76.9487584376
 10
133.2591201232
 20
76.9112389667
 10
133.2267757478
 20
76.8777953754
 10
133.1915481926
 20
76.8485707438
 10
133.1536169711
 20
76.823706816
  0
LWPOLYLINE
  5
33C
100
AcDbEntity
  8
ASSI
100
AcDbPolyline
 62
7
  6
CONTINUOUS
 90
7
 70
0
 10
133.3375343653
 20
77.0353641604
 10
133.3146185064
 20
76.9901929258
 10
133.2884429475
 20
76.9487584376
 10
133.2591201232
 20
76.9112389667
 10
133.2267757478
 20
76.8777953754
 10
133.1915481926
 20
76.8485707438
 10
133.1536169711
 20
76.823706816
  0
LWPOLYLINE
  5
33D
100
AcDbEntity
  8
0
100
AcDbPolyline
 62
7
  6
CONTINUOUS
 90
3
 70
0
 10
138.3686608827
 20
86.0427243123
 10
138.3457423108
 20
85.9975517067
 10
138.3370014251
 20
85.9772387757
  0
LWPOLYLINE
  5
33E
100
AcDbEntity
  8
ASSI
100
AcDbPolyline
 62
7
  6
CONTINUOUS
 90
3
 70
0
 10
138.3686608827
 20
86.0427243123
 10
138.3457423108
 20
85.9975517067
 10
138.3370014251
 20
85.9772387757
  0
LINE
  5
33F
100
AcDbEntity
  8
0
100
AcDbLine
 62
250
  6
CONTINUOUS
 10
132.2000345884
 20
76.2707837942
 11
132.553587979
 21
76.8831562292
  0
LINE
  5
340
100
AcDbEntity
  8
ASSI
100
AcDbLine
 62
250
  6
CONTINUOUS
 10
132.2000345884
 20
76.2707837942
 11
132.553587979
 21
76.8831562292
  0
LINE
  5
341
100
AcDbEntity
  8
0
100
AcDbLine
 62
7
  6
CONTINUOUS
 10
158.1344043229
 20
103.8928941517
 11
159.1439410403
 21
104.9461887475
  0
LINE
  5
342
100
AcDbEntity
  8
ASSI
100
AcDbLine
 62
7
  6
CONTINUOUS
 10
158.1344043229
 20
103.8928941517
 11
159.1439410403
 21
104.9461887475
  0
LWPOLYLINE
  5
343
100
AcDbEntity
  8
0
100
AcDbPolyline
 62
7
  6
CONTINUOUS
 90
4
 70
0
 10
138.4565048357
 20
86.1551142969
 10
138.4241627594
 20
86.1216759326
 10
138.3948389862
 20
86.0841588799
 10
138.3686608827
 20
86.0427243123
  0
LWPOLYLINE
  5
344
100
AcDbEntity
  8
ASSI
100
AcDbPolyline
 62
7
  6
CONTINUOUS
 90
4
 70
0
 10
138.4565048357
 20
86.1551142969
 10
138.4241627594
 20
86.1216759326
 10
138.3948389862
 20
86.0841588799
 10
138.3686608827
 20
86.0427243123
  0
LWPOLYLINE
  5
345
100
AcDbEntity
  8
0
100
AcDbPolyline
 62
7
  6
CONTINUOUS
 90
3
 70
0
 10
138.315071919
 20
86.0734486571
 10
138.3502994741
 20
86.1026732887
 10
138.3882306956
 20
86.1275372165
  0
LWPOLYLINE
  5
346
100
AcDbEntity
  8
ASSI
100
AcDbPolyline
 62
7
  6
CONTINUOUS
 90
3
 70
0
 10
138.315071919
 20
86.0734486571
 10
138.3502994741
 20
86.1026732887
 10
138.3882306956
 20
86.1275372165
  0
LINE
  5
347
100
AcDbEntity
  8
0
100
AcDbLine
 62
250
  6
CONTINUOUS
 10
138.1397315503
 20
85.5782529831
 11
138.2811529066
 21
85.6599079018
  0
LINE
  5
348
100
AcDbEntity
  8
ASSI
100
AcDbLine
 62
250
  6
CONTINUOUS
 10
138.1397315503
 20
85.5782529831
 11
138.2811529066
 21
85.6599079018
  0
LWPOLYLINE
  5
349
100
AcDbEntity
  8
0
100
AcDbPolyline
 62
7
  6
CONTINUOUS
 90
13
 70
0
 10
138.3882306956
 20
86.1275372165
 10
138.4287886535
 20
86.1479833343
 10
138.4717141224
 20
86.1638747059
 10
138.5168516785
 20
86.1751597341
 10
138.56400818
 20
86.1817901495
 10
138.6129814762
 20
86.1837375467
 10
138.6635610587
 20
86.1809937051
 10
138.7155304509
 20
86.173570587
 10
138.7686668273
 20
86.1615002331
 10
138.8227411245
 20
86.144835088
 10
138.8775211991
 20
86.1236473311
 10
138.9327729146
 20
86.0980281482
 10
138.9882596878
 20
86.0680878033
  0
LWPOLYLINE
  5
34A
100
AcDbEntity
  8
ASSI
100
AcDbPolyline
 62
7
  6
CONTINUOUS
 90
13
 70
0
 10
138.3882306956
 20
86.1275372165
 10
138.4287886535
 20
86.1479833343
 10
138.4717141224
 20
86.1638747059
 10
138.5168516785
 20
86.1751597341
 10
138.56400818
 20
86.1817901495
 10
138.6129814762
 20
86.1837375467
 10
138.6635610587
 20
86.1809937051
 10
138.7155304509
 20
86.173570587
 10
138.7686668273
 20
86.1615002331
 10
138.8227411245
 20
86.144835088
 10
138.8775211991
 20
86.1236473311
 10
138.9327729146
 20
86.0980281482
 10
138.9882596878
 20
86.0680878033
  0
LINE
  5
34B
100
AcDbEntity
  8
0
100
AcDbLine
 62
7
  6
CONTINUOUS
 10
158.4133802571
 20
103.4096936602
 11
159.830339388
 21
103.7573119364
  0
LINE
  5
34C
100
AcDbEntity
  8
ASSI
100
AcDbLine
 62
7
  6
CONTINUOUS
 10
158.4133802571
 20
103.4096936602
 11
159.830339388
 21
103.7573119364
  0
LINE
  5
34D
100
AcDbEntity
  8
0
100
AcDbLine
 62
250
  6
CONTINUOUS
 10
105.6128196158
 20
93.0099079738
 11
106.319926397
 21
93.0099079738
  0
LINE
  5
34E
100
AcDbEntity
  8
ASSI
100
AcDbLine
 62
250
  6
CONTINUOUS
 10
105.6128196158
 20
93.0099079738
 11
106.319926397
 21
93.0099079738
  0
LINE
  5
34F
100
AcDbEntity
  8
0
100
AcDbLine
 62
250
  6
CONTINUOUS
 10
121.5227221925
 20
94.764431333
 11
122.2298289736
 21
94.764431333
  0
LINE
  5
350
100
AcDbEntity
  8
ASSI
100
AcDbLine
 62
250
  6
CONTINUOUS
 10
121.5227221925
 20
94.764431333
 11
122.2298289736
 21
94.764431333
  0
LWPOLYLINE
  5
351
100
AcDbEntity
  8
0
100
AcDbPolyline
 62
7
  6
CONTINUOUS
 90
20
 70
0
 10
148.3870596362
 20
80.603887029
 10
148.4547547363
 20
80.543857645
 10
148.5210622366
 20
80.4802256537
 10
148.5859678407
 20
80.4129544663
 10
148.6494858448
 20
80.3420806716
 10
148.7109742347
 20
80.2683206174
 10
148.7704121772
 20
80.1916452387
 10
148.8278205054
 20
80.1120836006
 10
148.8826197045
 20
80.0304392458
 10
148.9347830606
 20
79.9466916878
 10
148.9843372876
 20
79.8608614132
 10
149.0307830121
 20
79.7738134248
 10
149.0740890936
 20
79.6855349749
 10
149.1142866728
 20
79.5960388112
 10
149.1509697979
 20
79.5062281798
 10
149.1841029579
 20
79.4160994711
 10
149.213721664
 20
79.3256562946
 10
149.2395264981
 20
79.2358127252
 10
149.261478642
 20
79.1465746172
 10
149.279616914
 20
79.0579361163
  0
LWPOLYLINE
  5
352
100
AcDbEntity
  8
ASSI
100
AcDbPolyline
 62
7
  6
CONTINUOUS
 90
20
 70
0
 10
148.3870596362
 20
80.603887029
 10
148.4547547363
 20
80.543857645
 10
148.5210622366
 20
80.4802256537
 10
148.5859678407
 20
80.4129544663
 10
148.6494858448
 20
80.3420806716
 10
148.7109742347
 20
80.2683206174
 10
148.7704121772
 20
80.1916452387
 10
148.8278205054
 20
80.1120836006
 10
148.8826197045
 20
80.0304392458
 10
148.9347830606
 20
79.9466916878
 10
148.9843372876
 20
79.8608614132
 10
149.0307830121
 20
79.7738134248
 10
149.0740890936
 20
79.6855349749
 10
149.1142866728
 20
79.5960388112
 10
149.1509697979
 20
79.5062281798
 10
149.1841029579
 20
79.4160994711
 10
149.213721664
 20
79.3256562946
 10
149.2395264981
 20
79.2358127252
 10
149.261478642
 20
79.1465746172
 10
149.279616914
 20
79.0579361163
  0
LINE
  5
353
100
AcDbEntity
  8
CURVE
100
AcDbLine
 62
250
  6
CONTINUOUS
 10
152.8862799795
 20
37.9029564489
 11
152.5053738976
 21
39.2956954138
  0
LINE
  5
354
100
AcDbEntity
  8
CURVE
100
AcDbLine
 62
250
  6
CONTINUOUS
 10
152.589556707
 20
39.870363878
 11
152.9108219712
 21
38.6876786235
  0
LINE
  5
355
100
AcDbEntity
  8
CURVE
100
AcDbLine
 62
250
  6
CONTINUOUS
 10
150.7185554142
 20
39.1545734449
 11
150.2254302791
 21
41.235380848
  0
LINE
  5
356
100
AcDbEntity
  8
0
100
AcDbLine
 62
250
  6
CONTINUOUS
 10
138.6397830954
 20
75.4919966404
 11
138.2811529066
 21
74.7192061928
  0
LINE
  5
357
100
AcDbEntity
  8
ASSI
100
AcDbLine
 62
250
  6
CONTINUOUS
 10
138.6397830954
 20
75.4919966404
 11
138.2811529066
 21
74.7192061928
  0
LINE
  5
358
100
AcDbEntity
  8
0
100
AcDbLine
 62
250
  6
CONTINUOUS
 10
132.553587979
 20
76.8831562292
 11
132.6950093352
 21
76.9648111479
  0
LINE
  5
359
100
AcDbEntity
  8
ASSI
100
AcDbLine
 62
250
  6
CONTINUOUS
 10
132.553587979
 20
76.8831562292
 11
132.6950093352
 21
76.9648111479
  0
LWPOLYLINE
  5
35A
100
AcDbEntity
  8
0
100
AcDbPolyline
 62
7
  6
CONTINUOUS
 90
3
 70
0
 10
133.1536169711
 20
76.823706816
 10
133.1130590133
 20
76.8032606983
 10
133.0701335444
 20
76.7873693266
  0
LWPOLYLINE
  5
35B
100
AcDbEntity
  8
ASSI
100
AcDbPolyline
 62
7
  6
CONTINUOUS
 90
3
 70
0
 10
133.1536169711
 20
76.823706816
 10
133.1130590133
 20
76.8032606983
 10
133.0701335444
 20
76.7873693266
  0
LWPOLYLINE
  5
35C
100
AcDbEntity
  8
CURVE
100
AcDbPolyline
 62
250
  6
CONTINUOUS
 90
6
 70
0
 10
155.8064672929
 20
36.7615079189
 10
155.8118232327
 20
36.7414521375
 10
155.8169206751
 20
36.7214406761
 10
155.8218045497
 20
36.7014662623
 10
155.8265197862
 20
36.6815216238
 10
155.8311113139
 20
36.6615994884
  0
LINE
  5
35D
100
AcDbEntity
  8
CURVE
100
AcDbLine
 62
250
  6
CONTINUOUS
 10
154.5552213435
 20
38.7354137525
 11
155.0324886333
 21
36.6637624705
  0
LINE
  5
35E
100
AcDbEntity
  8
CURVE
100
AcDbLine
 62
250
  6
CONTINUOUS
 10
150.5781489983
 20
41.0317254801
 11
150.8746567042
 21
39.6242261767
  0
LINE
  5
35F
100
AcDbEntity
  8
0
100
AcDbLine
 62
250
  6
CONTINUOUS
 10
138.6347062972
 20
72.5554849949
 11
138.9882596878
 21
73.16785743
  0
LINE
  5
360
100
AcDbEntity
  8
ASSI
100
AcDbLine
 62
250
  6
CONTINUOUS
 10
138.6347062972
 20
72.5554849949
 11
138.9882596878
 21
73.16785743
  0
LINE
  5
361
100
AcDbEntity
  8
0
100
AcDbLine
 62
250
  6
CONTINUOUS
 10
138.1397315503
 20
74.6375512741
 11
138.2811529066
 21
74.7192061928
  0
LINE
  5
362
100
AcDbEntity
  8
ASSI
100
AcDbLine
 62
250
  6
CONTINUOUS
 10
138.1397315503
 20
74.6375512741
 11
138.2811529066
 21
74.7192061928
  0
LINE
  5
363
100
AcDbEntity
  8
0
100
AcDbLine
 62
250
  6
CONTINUOUS
 10
138.9882596878
 20
73.16785743
 11
139.129681044
 21
73.2495123486
  0
LINE
  5
364
100
AcDbEntity
  8
ASSI
100
AcDbLine
 62
250
  6
CONTINUOUS
 10
138.9882596878
 20
73.16785743
 11
139.129681044
 21
73.2495123486
  0
LINE
  5
365
100
AcDbEntity
  8
0
100
AcDbLine
 62
250
  6
CONTINUOUS
 10
105.6128196158
 20
103.9506096829
 11
106.319926397
 21
103.9506096829
  0
LINE
  5
366
100
AcDbEntity
  8
ASSI
100
AcDbLine
 62
250
  6
CONTINUOUS
 10
105.6128196158
 20
103.9506096829
 11
106.319926397
 21
103.9506096829
  0
LINE
  5
367
100
AcDbEntity
  8
CURVE
100
AcDbLine
 62
250
  6
CONTINUOUS
 10
155.8311113139
 20
36.6615994884
 11
155.9018901075
 21
36.346963598
  0
LWPOLYLINE
  5
368
100
AcDbEntity
  8
CURVE
100
AcDbPolyline
 62
250
  6
CONTINUOUS
 90
37
 70
0
 10
156.1344620177
 20
36.5773332669
 10
156.1312347146
 20
36.5918966462
 10
156.1279137491
 20
36.6064789657
 10
156.1244827399
 20
36.6210807181
 10
156.1209253057
 20
36.6357023959
 10
156.1172250652
 20
36.6503444918
 10
156.1133656369
 20
36.6650074985
 10
156.1093306396
 20
36.6796919084
 10
156.1051036919
 20
36.6943982142
 10
156.1006684125
 20
36.7091269086
 10
156.0960084201
 20
36.7238784841
 10
156.0911073332
 20
36.7386534333
 10
156.0875981556
 20
36.7487984555
 10
156.083961107
 20
36.7589478346
 10
156.0801894072
 20
36.7690947036
 10
156.0762762762
 20
36.779232195
 10
156.0722149337
 20
36.7893534415
 10
156.0679985996
 20
36.799451576
 10
156.0636204938
 20
36.809519731
 10
156.059073836
 20
36.8195510393
 10
156.0543518462
 20
36.8295386336
 10
156.0494477442
 20
36.8394756466
 10
156.0443547499
 20
36.8493552109
 10
156.039066083
 20
36.8591704594
 10
156.0340464285
 20
36.8680965375
 10
156.0288625555
 20
36.8769479722
 10
156.0235200851
 20
36.8857098363
 10
156.0180246378
 20
36.8943672024
 10
156.0123818345
 20
36.9029051434
 10
156.006597296
 20
36.911308732
 10
156.0006766431
 20
36.9195630409
 10
155.9946254966
 20
36.9276531428
 10
155.9884494772
 20
36.9355641106
 10
155.9821542058
 20
36.943281017
 10
155.9757453031
 20
36.9507889347
 10
155.9692283899
 20
36.9580729365
 10
155.9626090871
 20
36.9651180951
  0
LINE
  5
369
100
AcDbEntity
  8
CURVE
100
AcDbLine
 62
250
  6
CONTINUOUS
 10
155.9018901075
 20
36.346963598
 11
155.9484483118
 21
36.1348984916
  0
LINE
  5
36A
100
AcDbEntity
  8
CURVE
100
AcDbLine
 62
250
  6
CONTINUOUS
 10
156.1407011623
 20
36.5482613588
 11
156.1344620177
 21
36.5773332669
  0
LINE
  5
36B
100
AcDbEntity
  8
CURVE
100
AcDbLine
 62
250
  6
CONTINUOUS
 10
154.6902741532
 20
36.8613528224
 11
154.606160977
 21
37.2684804864
  0
LINE
  5
36C
100
AcDbEntity
  8
CURVE
100
AcDbLine
 62
250
  6
CONTINUOUS
 10
156.1649319437
 20
36.4311514493
 11
156.1407011623
 21
36.5482613588
  0
LINE
  5
36D
100
AcDbEntity
  8
CURVE
100
AcDbLine
 62
250
  6
CONTINUOUS
 10
156.2607668938
 20
35.9545696566
 11
156.2459528981
 21
36.0272465106
  0
LINE
  5
36E
100
AcDbEntity
  8
CURVE
100
AcDbLine
 62
250
  6
CONTINUOUS
 10
156.2459528981
 20
36.0272465106
 11
156.1649319437
 21
36.4311514493
  0
LINE
  5
36F
100
AcDbEntity
  8
CURVE
100
AcDbLine
 62
250
  6
CONTINUOUS
 10
154.5412710028
 20
37.5834012275
 11
154.3920693237
 21
38.3360976815
  0
LWPOLYLINE
  5
370
100
AcDbEntity
  8
0
100
AcDbPolyline
 62
7
  6
CONTINUOUS
 90
5
 70
0
 10
149.279616914
 20
79.0579361163
 10
149.2937583514
 20
78.9707937344
 10
149.3038419666
 20
78.8854463089
 10
149.3099287472
 20
78.8015950025
 10
149.3120186931
 20
78.7192398152
  0
LWPOLYLINE
  5
371
100
AcDbEntity
  8
ASSI
100
AcDbPolyline
 62
7
  6
CONTINUOUS
 90
5
 70
0
 10
149.279616914
 20
79.0579361163
 10
149.2937583514
 20
78.9707937344
 10
149.3038419666
 20
78.8854463089
 10
149.3099287472
 20
78.8015950025
 10
149.3120186931
 20
78.7192398152
  0
LINE
  5
372
100
AcDbEntity
  8
CURVE
100
AcDbLine
 62
250
  6
CONTINUOUS
 10
153.5567704514
 20
39.311906784
 11
153.7022274951
 21
37.4318385796
  0
LINE
  5
373
100
AcDbEntity
  8
CURVE
100
AcDbLine
 62
250
  6
CONTINUOUS
 10
153.3845898233
 20
37.6152385904
 11
153.3178804971
 21
38.821675107
  0
LINE
  5
374
100
AcDbEntity
  8
0
100
AcDbLine
 62
7
  6
CONTINUOUS
 10
149.3120186931
 20
78.7192398152
 11
149.3120186931
 21
67.7785381062
  0
LINE
  5
375
100
AcDbEntity
  8
ASSI
100
AcDbLine
 62
7
  6
CONTINUOUS
 10
149.3120186931
 20
78.7192398152
 11
149.3120186931
 21
67.7785381062
  0
LINE
  5
376
100
AcDbEntity
  8
CURVE
100
AcDbLine
 62
250
  6
CONTINUOUS
 10
151.6251890337
 20
40.4272854603
 11
151.6251890337
 21
38.6310945558
  0
LINE
  5
377
100
AcDbEntity
  8
CURVE
100
AcDbLine
 62
250
  6
CONTINUOUS
 10
151.9498841023
 20
38.4436196926
 11
151.9498841023
 21
40.2398105971
  0
LWPOLYLINE
  5
378
100
AcDbEntity
  8
0
100
AcDbPolyline
 62
7
  6
CONTINUOUS
 90
28
 70
0
 10
149.3120186931
 20
67.7785381062
 10
149.3099288755
 20
67.6985977857
 10
149.3038422934
 20
67.6217765258
 10
149.2937589467
 20
67.5480743264
 10
149.2796178863
 20
67.4772627683
 10
149.2614800613
 20
67.4095702707
 10
149.2395283193
 20
67.3456820919
 10
149.2137238237
 20
67.2856371627
 10
149.1841054111
 20
67.2293965521
 10
149.1509724387
 20
67.1775287256
 10
149.1142893171
 20
67.1300782871
 10
149.0740916358
 20
67.0870006325
 10
149.0307855202
 20
67.0487304147
 10
148.9843398697
 20
67.0153164364
 10
148.9347857849
 20
66.9867098947
 10
148.8826226936
 20
66.9631990345
 10
148.8278239838
 20
66.9448351781
 10
148.7704162676
 20
66.931567003
 10
148.7109788087
 20
66.9235287871
 10
148.6494907238
 20
66.9207735916
 10
148.5859728963
 20
66.9232483551
 10
148.5210672402
 20
66.9309281715
 10
148.4547594146
 20
66.9438661432
 10
148.3870637605
 20
66.9620091677
 10
148.3186652148
 20
66.9851730314
 10
148.2497920898
 20
67.0132963299
 10
148.1802160732
 20
67.0464404675
 10
148.1099371651
 20
67.0846054443
  0
LWPOLYLINE
  5
379
100
AcDbEntity
  8
ASSI
100
AcDbPolyline
 62
7
  6
CONTINUOUS
 90
28
 70
0
 10
149.3120186931
 20
67.7785381062
 10
149.3099288755
 20
67.6985977857
 10
149.3038422934
 20
67.6217765258
 10
149.2937589467
 20
67.5480743264
 10
149.2796178863
 20
67.4772627683
 10
149.2614800613
 20
67.4095702707
 10
149.2395283193
 20
67.3456820919
 10
149.2137238237
 20
67.2856371627
 10
149.1841054111
 20
67.2293965521
 10
149.1509724387
 20
67.1775287256
 10
149.1142893171
 20
67.1300782871
 10
149.0740916358
 20
67.0870006325
 10
149.0307855202
 20
67.0487304147
 10
148.9843398697
 20
67.0153164364
 10
148.9347857849
 20
66.9867098947
 10
148.8826226936
 20
66.9631990345
 10
148.8278239838
 20
66.9448351781
 10
148.7704162676
 20
66.931567003
 10
148.7109788087
 20
66.9235287871
 10
148.6494907238
 20
66.9207735916
 10
148.5859728963
 20
66.9232483551
 10
148.5210672402
 20
66.9309281715
 10
148.4547594146
 20
66.9438661432
 10
148.3870637605
 20
66.9620091677
 10
148.3186652148
 20
66.9851730314
 10
148.2497920898
 20
67.0132963299
 10
148.1802160732
 20
67.0464404675
 10
148.1099371651
 20
67.0846054443
  0
LWPOLYLINE
  5
37A
100
AcDbEntity
  8
0
100
AcDbPolyline
 62
7
  6
CONTINUOUS
 90
7
 70
0
 10
149.3120186931
 20
68.1868126995
 10
149.3102026047
 20
68.1237935341
 10
149.3047617699
 20
68.0631384846
 10
149.2957189674
 20
68.005107568
 10
149.2831122694
 20
67.9499491263
 10
149.2669952212
 20
67.8979003202
 10
149.247436942
 20
67.8491858106
  0
LWPOLYLINE
  5
37B
100
AcDbEntity
  8
ASSI
100
AcDbPolyline
 62
7
  6
CONTINUOUS
 90
7
 70
0
 10
149.3120186931
 20
68.1868126995
 10
149.3102026047
 20
68.1237935341
 10
149.3047617699
 20
68.0631384846
 10
149.2957189674
 20
68.005107568
 10
149.2831122694
 20
67.9499491263
 10
149.2669952212
 20
67.8979003202
 10
149.247436942
 20
67.8491858106
  0
LWPOLYLINE
  5
37C
100
AcDbEntity
  8
CURVE
100
AcDbPolyline
 62
250
  6
CONTINUOUS
 90
58
 70
0
 10
155.8782393279
 20
37.4515898504
 10
155.8782882434
 20
37.4432345104
 10
155.8782074683
 20
37.4349300151
 10
155.8779889561
 20
37.4266899138
 10
155.8776246605
 20
37.4185277556
 10
155.8771065347
 20
37.4104570899
 10
155.8764265325
 20
37.4024914658
 10
155.8755766072
 20
37.3946444326
 10
155.8745487123
 20
37.3869295395
 10
155.8733348015
 20
37.3793603357
 10
155.8719268282
 20
37.3719503706
 10
155.8703167459
 20
37.3647131933
 10
155.8684965081
 20
37.3576623531
 10
155.8664580683
 20
37.3508113992
 10
155.8641933801
 20
37.3441738808
 10
155.8616943968
 20
37.3377633472
 10
155.8589530722
 20
37.3315933476
 10
155.8562255187
 20
37.3261660246
 10
155.8532925308
 20
37.3209586289
 10
155.8501585785
 20
37.3159780852
 10
155.8468281318
 20
37.3112313185
 10
155.8433056608
 20
37.3067252539
 10
155.8395956354
 20
37.3024668161
 10
155.8357025256
 20
37.2984629301
 10
155.8316308015
 20
37.2947205209
 10
155.827384933
 20
37.2912465133
 10
155.8229693903
 20
37.2880478324
 10
155.8183886432
 20
37.2851314029
 10
155.8136471618
 20
37.2825041499
 10
155.8087494161
 20
37.2801729983
 10
155.8036998762
 20
37.2781448729
 10
155.7982725275
 20
37.2763557843
 10
155.7926923571
 20
37.2748951556
 10
155.7869670558
 20
37.2737537494
 10
155.7811043145
 20
37.2729223284
 10
155.7751118237
 20
37.2723916551
 10
155.7689972745
 20
37.2721524922
 10
155.7627683574
 20
37.2721956022
 10
155.7564327632
 20
37.2725117476
 10
155.7499981828
 20
37.2730916912
 10
155.7434723069
 20
37.2739261955
 10
155.7368628263
 20
37.2750060231
 10
155.7301774316
 20
37.2763219365
 10
155.7234238138
 20
37.2778646984
 10
155.7166096635
 20
37.2796250714
 10
155.7097426716
 20
37.281593818
 10
155.7028305287
 20
37.2837617009
 10
155.6958809257
 20
37.2861194826
 10
155.6889015533
 20
37.2886579257
 10
155.6819001024
 20
37.2913677928
 10
155.6748842635
 20
37.2942398466
 10
155.6678617276
 20
37.2972648495
 10
155.6608401854
 20
37.3004335643
 10
155.6538273277
 20
37.3037367534
 10
155.6468308452
 20
37.3071651795
 10
155.6398584287
 20
37.3107096052
 10
155.6329177689
 20
37.3143607931
 10
155.6260165567
 20
37.3181095057
  0
LINE
  5
37D
100
AcDbEntity
  8
CURVE
100
AcDbLine
 62
250
  6
CONTINUOUS
 10
155.1278348828
 20
38.3838097142
 11
155.1278348828
 21
36.6087104008
  0
LINE
  5
37E
100
AcDbEntity
  8
CURVE
100
AcDbLine
 62
250
  6
CONTINUOUS
 10
155.4404567433
 20
37.4252494163
 11
155.4404567433
 21
37.9183093629
  0
LINE
  5
37F
100
AcDbEntity
  8
CURVE
100
AcDbLine
 62
250
  6
CONTINUOUS
 10
155.4512231318
 20
36.4219900788
 11
155.4512231318
 21
37.1248779567
  0
LINE
  5
380
100
AcDbEntity
  8
CURVE
100
AcDbLine
 62
250
  6
CONTINUOUS
 10
155.9626090871
 20
36.9651180951
 11
155.9626090871
 21
36.9757313828
  0
LINE
  5
381
100
AcDbEntity
  8
CURVE
100
AcDbLine
 62
250
  6
CONTINUOUS
 10
152.5053738976
 20
39.2956954138
 11
152.4353044002
 21
38.1633440963
  0
LINE
  5
382
100
AcDbEntity
  8
CURVE
100
AcDbLine
 62
250
  6
CONTINUOUS
 10
152.1246774561
 20
38.3426962008
 11
152.2651305411
 21
40.0576834802
  0
LWPOLYLINE
  5
383
100
AcDbEntity
  8
0
100
AcDbPolyline
 62
7
  6
CONTINUOUS
 90
7
 70
0
 10
149.247436942
 20
67.8491858106
 10
149.2245210831
 20
67.8040145759
 10
149.1983455242
 20
67.7625800878
 10
149.1690226999
 20
67.7250606168
 10
149.1366783245
 20
67.6916170255
 10
149.1014507693
 20
67.6623923939
 10
149.0635195478
 20
67.6375284661
  0
LWPOLYLINE
  5
384
100
AcDbEntity
  8
ASSI
100
AcDbPolyline
 62
7
  6
CONTINUOUS
 90
7
 70
0
 10
149.247436942
 20
67.8491858106
 10
149.2245210831
 20
67.8040145759
 10
149.1983455242
 20
67.7625800878
 10
149.1690226999
 20
67.7250606168
 10
149.1366783245
 20
67.6916170255
 10
149.1014507693
 20
67.6623923939
 10
149.0635195478
 20
67.6375284661
  0
LINE
  5
385
100
AcDbEntity
  8
0
100
AcDbLine
 62
250
  6
CONTINUOUS
 10
148.1099371651
 20
67.0846054443
 11
148.4634905557
 21
67.6969778794
  0
LINE
  5
386
100
AcDbEntity
  8
ASSI
100
AcDbLine
 62
250
  6
CONTINUOUS
 10
148.1099371651
 20
67.0846054443
 11
148.4634905557
 21
67.6969778794
  0
LINE
  5
387
100
AcDbEntity
  8
0
100
AcDbLine
 62
250
  6
CONTINUOUS
 10
148.4634905557
 20
67.6969778794
 11
148.6049119119
 21
67.778632798
  0
LINE
  5
388
100
AcDbEntity
  8
ASSI
100
AcDbLine
 62
250
  6
CONTINUOUS
 10
148.4634905557
 20
67.6969778794
 11
148.6049119119
 21
67.778632798
  0
LWPOLYLINE
  5
389
100
AcDbEntity
  8
0
100
AcDbPolyline
 62
7
  6
CONTINUOUS
 90
3
 70
0
 10
149.0635195478
 20
67.6375284661
 10
149.02296159
 20
67.6170823484
 10
148.9800361211
 20
67.6011909767
  0
LWPOLYLINE
  5
38A
100
AcDbEntity
  8
ASSI
100
AcDbPolyline
 62
7
  6
CONTINUOUS
 90
3
 70
0
 10
149.0635195478
 20
67.6375284661
 10
149.02296159
 20
67.6170823484
 10
148.9800361211
 20
67.6011909767
  0
LINE
  5
38B
100
AcDbEntity
  8
0
100
AcDbLine
 62
7
  6
CONTINUOUS
 10
158.4133802571
 20
32.5780600608
 11
158.4133802571
 21
103.4096936602
  0
LINE
  5
38C
100
AcDbEntity
  8
ASSI
100
AcDbLine
 62
7
  6
CONTINUOUS
 10
158.4133802571
 20
32.5780600608
 11
158.4133802571
 21
103.4096936602
  0
LINE
  5
38D
100
AcDbEntity
  8
0
100
AcDbLine
 62
7
  6
CONTINUOUS
 10
159.8518407399
 20
32.2134421567
 11
159.8518407399
 21
103.745316989
  0
LINE
  5
38E
100
AcDbEntity
  8
ASSI
100
AcDbLine
 62
7
  6
CONTINUOUS
 10
159.8518407399
 20
32.2134421567
 11
159.8518407399
 21
103.745316989
  0
LINE
  5
38F
100
AcDbEntity
  8
0
100
AcDbLine
 62
7
  6
CONTINUOUS
 10
159.1443034706
 20
104.9708074863
 11
159.1439410403
 21
104.9461887475
  0
LINE
  5
390
100
AcDbEntity
  8
ASSI
100
AcDbLine
 62
7
  6
CONTINUOUS
 10
159.1443034706
 20
104.9708074863
 11
159.1439410403
 21
104.9461887475
  0
LINE
  5
391
100
AcDbEntity
  8
0
100
AcDbLine
 62
7
  6
CONTINUOUS
 10
159.830339388
 20
103.7573119364
 11
159.8518407399
 21
103.745316989
  0
LINE
  5
392
100
AcDbEntity
  8
ASSI
100
AcDbLine
 62
7
  6
CONTINUOUS
 10
159.830339388
 20
103.7573119364
 11
159.8518407399
 21
103.745316989
  0
LINE
  5
393
100
AcDbEntity
  8
0
100
AcDbLine
 62
7
  6
CONTINUOUS
 10
158.1344043229
 20
103.8928941517
 11
96.7904339859
 21
139.3121338038
  0
LINE
  5
394
100
AcDbEntity
  8
ASSI
100
AcDbLine
 62
7
  6
CONTINUOUS
 10
158.1344043229
 20
103.8928941517
 11
96.7904339859
 21
139.3121338038
  0
LINE
  5
395
100
AcDbEntity
  8
0
100
AcDbLine
 62
7
  6
CONTINUOUS
 10
159.1443034706
 20
104.9708074863
 11
97.1938869
 21
140.7402015931
  0
LINE
  5
396
100
AcDbEntity
  8
ASSI
100
AcDbLine
 62
7
  6
CONTINUOUS
 10
159.1443034706
 20
104.9708074863
 11
97.1938869
 21
140.7402015931
  0
LINE
  5
397
100
AcDbEntity
  8
0
100
AcDbLine
 62
7
  6
CONTINUOUS
 10
163.9137737246
 20
34.242220671
 11
163.9137737246
 21
106.0906108911
  0
LINE
  5
398
100
AcDbEntity
  8
ASSI
100
AcDbLine
 62
7
  6
CONTINUOUS
 10
163.9137737246
 20
34.242220671
 11
163.9137737246
 21
106.0906108911
  0
LINE
  5
399
100
AcDbEntity
  8
CURVE
100
AcDbLine
 62
250
  6
CONTINUOUS
 10
150.8746567042
 20
39.6242261767
 11
151.180221168
 21
40.6840965551
  0
LINE
  5
39A
100
AcDbEntity
  8
CURVE
100
AcDbLine
 62
250
  6
CONTINUOUS
 10
151.5046947438
 20
40.496749579
 11
151.0046929619
 21
38.989361211
  0
LINE
  5
39B
100
AcDbEntity
  8
0
100
AcDbLine
 62
7
  6
CONTINUOUS
 10
163.2062364553
 20
107.3161013885
 11
100.9817006871
 21
143.2437684845
  0
LINE
  5
39C
100
AcDbEntity
  8
ASSI
100
AcDbLine
 62
7
  6
CONTINUOUS
 10
163.2062364553
 20
107.3161013885
 11
100.9817006871
 21
143.2437684845
  0
LINE
  5
39D
100
AcDbEntity
  8
0
100
AcDbLine
 62
7
  6
CONTINUOUS
 10
158.4133802571
 20
103.4096936602
 11
158.1344043229
 21
103.8928941517
  0
LINE
  5
39E
100
AcDbEntity
  8
ASSI
100
AcDbLine
 62
7
  6
CONTINUOUS
 10
158.4133802571
 20
103.4096936602
 11
158.1344043229
 21
103.8928941517
  0
LINE
  5
39F
100
AcDbEntity
  8
0
100
AcDbLine
 62
7
  6
CONTINUOUS
 10
159.830339388
 20
103.7573119364
 11
159.1439410403
 21
104.9461887475
  0
LINE
  5
3A0
100
AcDbEntity
  8
ASSI
100
AcDbLine
 62
7
  6
CONTINUOUS
 10
159.830339388
 20
103.7573119364
 11
159.1439410403
 21
104.9461887475
  0
LINE
  5
3A1
100
AcDbEntity
  8
CURVE
100
AcDbLine
 62
250
  6
CONTINUOUS
 10
154.3920693237
 20
38.3360976815
 11
154.230398861
 21
37.762894906
  0
LINE
  5
3A2
100
AcDbEntity
  8
CURVE
100
AcDbLine
 62
250
  6
CONTINUOUS
 10
154.1639806608
 20
37.5237898591
 11
154.0743849829
 21
37.2169595104
  0
LINE
  5
3A3
100
AcDbEntity
  8
CURVE
100
AcDbLine
 62
250
  6
CONTINUOUS
 10
153.7532130569
 20
37.4024001552
 11
154.2411186667
 21
38.9167727014
  0
LINE
  5
3A4
100
AcDbEntity
  8
CURVE
100
AcDbLine
 62
250
  6
CONTINUOUS
 10
152.9108219712
 20
38.6876786235
 11
153.2355170397
 21
39.4973944777
  0
LINE
  5
3A5
100
AcDbEntity
  8
0
100
AcDbLine
 62
7
  6
CONTINUOUS
 10
163.2062364553
 20
107.3161013885
 11
163.9137737246
 21
106.0906108911
  0
LINE
  5
3A6
100
AcDbEntity
  8
ASSI
100
AcDbLine
 62
7
  6
CONTINUOUS
 10
163.2062364553
 20
107.3161013885
 11
163.9137737246
 21
106.0906108911
  0
LINE
  5
3A7
100
AcDbEntity
  8
CURVE
100
AcDbLine
 62
250
  6
CONTINUOUS
 10
153.3178804971
 20
38.821675107
 11
152.9318178562
 21
37.8766634496
  0
LINE
  5
3A8
100
AcDbEntity
  8
CURVE
100
AcDbLine
 62
7
  6
CONTINUOUS
 10
150.2417402981
 20
41.1665585434
 11
150.2794007368
 21
41.2042189821
  0
LINE
  5
3A9
100
AcDbEntity
  8
CURVE
100
AcDbLine
 62
7
  6
CONTINUOUS
 10
150.322209821
 20
40.8270066383
 11
150.5456773726
 21
41.0504741899
  0
LINE
  5
3AA
100
AcDbEntity
  8
CURVE
100
AcDbLine
 62
7
  6
CONTINUOUS
 10
150.402679344
 20
40.4874547332
 11
150.642322658
 21
40.7270980472
  0
LINE
  5
3AB
100
AcDbEntity
  8
CURVE
100
AcDbLine
 62
7
  6
CONTINUOUS
 10
150.4831488669
 20
40.1479028281
 11
150.7154089712
 21
40.3801629324
  0
LINE
  5
3AC
100
AcDbEntity
  8
CURVE
100
AcDbLine
 62
7
  6
CONTINUOUS
 10
150.5636183899
 20
39.8083509231
 11
150.7884952845
 21
40.0332278176
  0
LINE
  5
3AD
100
AcDbEntity
  8
CURVE
100
AcDbLine
 62
7
  6
CONTINUOUS
 10
151.0752440683
 20
40.3199766015
 11
151.3445072799
 21
40.5892398131
  0
LINE
  5
3AE
100
AcDbEntity
  8
CURVE
100
AcDbLine
 62
7
  6
CONTINUOUS
 10
150.6440879128
 20
39.468799018
 11
150.8615815977
 21
39.6862927029
  0
LINE
  5
3AF
100
AcDbEntity
  8
CURVE
100
AcDbLine
 62
7
  6
CONTINUOUS
 10
150.9050960952
 20
39.7298072004
 11
151.4216361004
 21
40.2463472056
  0
LINE
  5
3B0
100
AcDbEntity
  8
CURVE
100
AcDbLine
 62
7
  6
CONTINUOUS
 10
150.7384163261
 20
39.1431060033
 11
151.2131645312
 21
39.6178542083
  0
LINE
  5
3B1
100
AcDbEntity
  8
CURVE
100
AcDbLine
 62
7
  6
CONTINUOUS
 10
151.6251890337
 20
40.0298787108
 11
151.8771288758
 21
40.281818553
  0
LINE
  5
3B2
100
AcDbEntity
  8
CURVE
100
AcDbLine
 62
7
  6
CONTINUOUS
 10
151.6251890337
 20
39.6098572828
 11
151.9498841023
 21
39.9345523514
  0
LINE
  5
3B3
100
AcDbEntity
  8
CURVE
100
AcDbLine
 62
7
  6
CONTINUOUS
 10
151.6251890337
 20
39.1898358548
 11
151.9498841023
 21
39.5145309233
  0
LINE
  5
3B4
100
AcDbEntity
  8
CURVE
100
AcDbLine
 62
7
  6
CONTINUOUS
 10
152.2448006445
 20
39.8094474656
 11
152.409613823
 21
39.974260644
  0
LINE
  5
3B5
100
AcDbEntity
  8
CURVE
100
AcDbLine
 62
7
  6
CONTINUOUS
 10
151.6251890337
 20
38.7698144268
 11
151.9498841023
 21
39.0945094953
  0
LINE
  5
3B6
100
AcDbEntity
  8
CURVE
100
AcDbLine
 62
7
  6
CONTINUOUS
 10
152.2073334967
 20
39.3519588898
 11
152.6186470756
 21
39.7632724686
  0
LINE
  5
3B7
100
AcDbEntity
  8
CURVE
100
AcDbLine
 62
7
  6
CONTINUOUS
 10
151.8035228692
 20
38.5281268342
 11
151.9498841023
 21
38.6744880673
  0
LINE
  5
3B8
100
AcDbEntity
  8
CURVE
100
AcDbLine
 62
7
  6
CONTINUOUS
 10
152.169866349
 20
38.894470314
 11
152.5010390821
 21
39.2256430471
  0
LINE
  5
3B9
100
AcDbEntity
  8
CURVE
100
AcDbLine
 62
7
  6
CONTINUOUS
 10
152.5194873275
 20
39.2440912925
 11
152.7083696385
 21
39.4329736035
  0
LINE
  5
3BA
100
AcDbEntity
  8
CURVE
100
AcDbLine
 62
7
  6
CONTINUOUS
 10
152.1323992012
 20
38.4369817382
 11
152.4733339196
 21
38.7779164566
  0
LINE
  5
3BB
100
AcDbEntity
  8
CURVE
100
AcDbLine
 62
7
  6
CONTINUOUS
 10
152.6096906727
 20
38.9142732097
 11
152.7980922014
 21
39.1026747384
  0
LINE
  5
3BC
100
AcDbEntity
  8
CURVE
100
AcDbLine
 62
7
  6
CONTINUOUS
 10
152.3360761407
 20
38.2206372497
 11
152.4456287572
 21
38.3301898662
  0
LINE
  5
3BD
100
AcDbEntity
  8
CURVE
100
AcDbLine
 62
7
  6
CONTINUOUS
 10
152.6998940179
 20
38.5844551269
 11
152.8878147643
 21
38.7723758733
  0
LINE
  5
3BE
100
AcDbEntity
  8
CURVE
100
AcDbLine
 62
7
  6
CONTINUOUS
 10
152.9829242541
 20
38.8674853631
 11
153.474720366
 21
39.359281475
  0
LINE
  5
3BF
100
AcDbEntity
  8
CURVE
100
AcDbLine
 62
7
  6
CONTINUOUS
 10
152.7900973631
 20
38.2546370441
 11
153.2907673597
 21
38.7553070406
  0
LINE
  5
3C0
100
AcDbEntity
  8
CURVE
100
AcDbLine
 62
7
  6
CONTINUOUS
 10
153.319937347
 20
38.784477028
 11
153.5776387817
 21
39.0421784626
  0
LINE
  5
3C1
100
AcDbEntity
  8
CURVE
100
AcDbLine
 62
7
  6
CONTINUOUS
 10
152.8803007083
 20
37.9248189613
 11
153.0006611478
 21
38.0451794007
  0
LINE
  5
3C2
100
AcDbEntity
  8
CURVE
100
AcDbLine
 62
7
  6
CONTINUOUS
 10
153.3419453099
 20
38.3864635628
 11
153.6078013656
 21
38.6523196185
  0
LINE
  5
3C3
100
AcDbEntity
  8
CURVE
100
AcDbLine
 62
7
  6
CONTINUOUS
 10
153.3639532728
 20
37.9884500977
 11
153.6379639495
 21
38.2624607744
  0
LINE
  5
3C4
100
AcDbEntity
  8
CURVE
100
AcDbLine
 62
7
  6
CONTINUOUS
 10
154.2168023553
 20
38.8412991802
 11
154.2735502733
 21
38.8980470982
  0
LINE
  5
3C5
100
AcDbEntity
  8
CURVE
100
AcDbLine
 62
7
  6
CONTINUOUS
 10
153.4011826838
 20
37.6056580807
 11
153.6681265333
 21
37.8726019302
  0
LINE
  5
3C6
100
AcDbEntity
  8
CURVE
100
AcDbLine
 62
7
  6
CONTINUOUS
 10
154.0171555827
 20
38.2216309796
 11
154.5398269091
 21
38.744302306
  0
LINE
  5
3C7
100
AcDbEntity
  8
CURVE
100
AcDbLine
 62
7
  6
CONTINUOUS
 10
153.6674593196
 20
37.4519132884
 11
153.6982891172
 21
37.4827430861
  0
LINE
  5
3C8
100
AcDbEntity
  8
CURVE
100
AcDbLine
 62
7
  6
CONTINUOUS
 10
153.8175088102
 20
37.6019627791
 11
154.3293805275
 21
38.1138344964
  0
LINE
  5
3C9
100
AcDbEntity
  8
CURVE
100
AcDbLine
 62
7
  6
CONTINUOUS
 10
154.4184678336
 20
38.2029218025
 11
154.6293206164
 21
38.4137745852
  0
LINE
  5
3CA
100
AcDbEntity
  8
CURVE
100
AcDbLine
 62
7
  6
CONTINUOUS
 10
153.9337359553
 20
37.2981684962
 11
154.3369443406
 21
37.7013768814
  0
LINE
  5
3CB
100
AcDbEntity
  8
CURVE
100
AcDbLine
 62
7
  6
CONTINUOUS
 10
154.4879522909
 20
37.8523848317
 11
154.70796671
 21
38.0723992508
  0
LINE
  5
3CC
100
AcDbEntity
  8
CURVE
100
AcDbLine
 62
7
  6
CONTINUOUS
 10
154.427326284
 20
37.3717373968
 11
154.7866128036
 21
37.7310239164
  0
LINE
  5
3CD
100
AcDbEntity
  8
CURVE
100
AcDbLine
 62
7
  6
CONTINUOUS
 10
155.1278348828
 20
38.0722459956
 11
155.3440476172
 21
38.28845873
  0
LINE
  5
3CE
100
AcDbEntity
  8
CURVE
100
AcDbLine
 62
7
  6
CONTINUOUS
 10
154.6297781413
 20
37.1541678261
 11
154.8652588972
 21
37.389648582
  0
LINE
  5
3CF
100
AcDbEntity
  8
CURVE
100
AcDbLine
 62
7
  6
CONTINUOUS
 10
155.1278348828
 20
37.6522245676
 11
155.6171522877
 21
38.1415419724
  0
LINE
  5
3D0
100
AcDbEntity
  8
CURVE
100
AcDbLine
 62
7
  6
CONTINUOUS
 10
154.7325658626
 20
36.8369341194
 11
154.9439049908
 21
37.0482732476
  0
LINE
  5
3D1
100
AcDbEntity
  8
CURVE
100
AcDbLine
 62
7
  6
CONTINUOUS
 10
155.1278348828
 20
37.2322031396
 11
155.4404567433
 21
37.5448250001
  0
LINE
  5
3D2
100
AcDbEntity
  8
CURVE
100
AcDbLine
 62
7
  6
CONTINUOUS
 10
155.6846703378
 20
37.7890385946
 11
155.8608467467
 21
37.9652150035
  0
LINE
  5
3D3
100
AcDbEntity
  8
CURVE
100
AcDbLine
 62
7
  6
CONTINUOUS
 10
154.9988424984
 20
36.6831893271
 11
155.0225510844
 21
36.7068979132
  0
LINE
  5
3D4
100
AcDbEntity
  8
CURVE
100
AcDbLine
 62
7
  6
CONTINUOUS
 10
155.1278348828
 20
36.8121817115
 11
155.6310932889
 21
37.3154401176
  0
LINE
  5
3D5
100
AcDbEntity
  8
CURVE
100
AcDbLine
 62
7
  6
CONTINUOUS
 10
155.8621871765
 20
37.5465340053
 11
156.0531074571
 21
37.7374542859
  0
LINE
  5
3D6
100
AcDbEntity
  8
CURVE
100
AcDbLine
 62
7
  6
CONTINUOUS
 10
155.2651189185
 20
36.5294443192
 11
155.4512231318
 21
36.7155485325
  0
LINE
  5
3D7
100
AcDbEntity
  8
CURVE
100
AcDbLine
 62
7
  6
CONTINUOUS
 10
155.6994600774
 20
36.9637854781
 11
156.1694628153
 21
37.433788216
  0
LINE
  5
3D8
100
AcDbEntity
  8
CURVE
100
AcDbLine
 62
7
  6
CONTINUOUS
 10
155.8285084976
 20
36.6728124703
 11
156.030172824
 21
36.8744767967
  0
LINE
  5
3D9
100
AcDbEntity
  8
CURVE
100
AcDbLine
 62
7
  6
CONTINUOUS
 10
155.9055688609
 20
36.3298514055
 11
156.1377205105
 21
36.5620030551
  0
LINE
  5
3DA
100
AcDbEntity
  8
CURVE
100
AcDbLine
 62
7
  6
CONTINUOUS
 10
156.0639488258
 20
36.0682099424
 11
156.2088205329
 21
36.2130816495
  0
LINE
  5
3DB
100
AcDbEntity
  8
0
100
AcDbLine
 62
7
  6
CONTINUOUS
 10
158.1344043229
 20
32.4170139853
 11
158.4133802571
 21
32.5780600608
  0
LINE
  5
3DC
100
AcDbEntity
  8
ASSI
100
AcDbLine
 62
7
  6
CONTINUOUS
 10
158.1344043229
 20
32.4170139853
 11
158.4133802571
 21
32.5780600608
  0
LINE
  5
3DD
100
AcDbEntity
  8
0
100
AcDbLine
 62
7
  6
CONTINUOUS
 10
159.1439410403
 20
31.8056394006
 11
159.830339388
 21
32.201880605
  0
LINE
  5
3DE
100
AcDbEntity
  8
ASSI
100
AcDbLine
 62
7
  6
CONTINUOUS
 10
159.1439410403
 20
31.8056394006
 11
159.830339388
 21
32.201880605
  0
LINE
  5
3DF
100
AcDbEntity
  8
0
100
AcDbLine
 62
7
  6
CONTINUOUS
 10
163.9137737246
 20
34.242220671
 11
163.2062364553
 21
33.8337764772
  0
LINE
  5
3E0
100
AcDbEntity
  8
ASSI
100
AcDbLine
 62
7
  6
CONTINUOUS
 10
163.9137737246
 20
34.242220671
 11
163.2062364553
 21
33.8337764772
  0
LINE
  5
3E1
100
AcDbEntity
  8
0
100
AcDbLine
 62
7
  6
CONTINUOUS
 10
159.8518407399
 20
32.2134421567
 11
159.830339388
 21
32.201880605
  0
LINE
  5
3E2
100
AcDbEntity
  8
ASSI
100
AcDbLine
 62
7
  6
CONTINUOUS
 10
159.8518407399
 20
32.2134421567
 11
159.830339388
 21
32.201880605
  0
LINE
  5
3E3
100
AcDbEntity
  8
0
100
AcDbLine
 62
7
  6
CONTINUOUS
 10
159.8518407399
 20
32.2134421567
 11
163.9137737246
 21
34.242220671
  0
LINE
  5
3E4
100
AcDbEntity
  8
ASSI
100
AcDbLine
 62
7
  6
CONTINUOUS
 10
159.8518407399
 20
32.2134421567
 11
163.9137737246
 21
34.242220671
  0
LINE
  5
3E5
100
AcDbEntity
  8
0
100
AcDbLine
 62
7
  6
CONTINUOUS
 10
159.1443034706
 20
31.8049979629
 11
163.2062364553
 21
33.8337764772
  0
LINE
  5
3E6
100
AcDbEntity
  8
ASSI
100
AcDbLine
 62
7
  6
CONTINUOUS
 10
159.1443034706
 20
31.8049979629
 11
163.2062364553
 21
33.8337764772
  0
ENDSEC
  0
SECTION
  2
OBJECTS
  0
DICTIONARY
  5
C
100
AcDbDictionary
280
0
281
1
  3
ACAD_GROUP
350
D
  3
ACAD_MLINESTYLE
350
17
  3
ACAD_LAYOUT
350
1A
  3
ACAD_PLOTSETTINGS
350
19
  3
ACAD_PLOTSTYLENAME
350
E
  0
DICTIONARY
  5
D
102
{ACAD_REACTORS
330
C
102
}
100
AcDbDictionary
280
0
281
1
  0
ACDBDICTIONARYWDFLT
  5
E
102
{ACAD_REACTORS
330
C
102
}
100
AcDbDictionary
281
1
  3
Normal
350
F
100
AcDbDictionaryWithDefault
340
F
  0
DICTIONARY
  5
17
102
{ACAD_REACTORS
330
C
102
}
100
AcDbDictionary
280
0
281
1
  3
Standard
350
18
  0
DICTIONARY
  5
19
102
{ACAD_REACTORS
330
C
102
}
100
AcDbDictionary
281
1
  0
DICTIONARY
  5
1A
102
{ACAD_REACTORS
330
C
102
}
100
AcDbDictionary
281
1
  3
Model
350
3E7
  3
Layout1
350
3E8
  0
ACDBPLACEHOLDER
  5
F
102
{ACAD_REACTORS
330
E
102
}
  0
MLINESTYLE
  5
18
102
{ACAD_REACTORS
330
17
102
}
100
AcDbMlineStyle
  2
STANDARD
 70
0
  3

 62
256
 51
90.0
 52
90.0
 71
2
 49
0.5
 62
256
  6
BYLAYER
 49
-0.5
 62
256
  6
BYLAYER
  0
LAYOUT
  5
3E7
102
{ACAD_REACTORS
330
1A
102
}
100
AcDbPlotSettings
  1

  2
none_device
  4
ISO_A4_(297.00_x_210.00_MM)
  6

 40
0.0
 41
0.0
 42
0.0
 43
0.0
 44
297.0
 45
210.0
 46
0.0
 47
0.0
 48
0.0
 49
0.0
140
0.0
141
0.0
142
1.0
143
1.0
 70
1024
 72
1
 73
0
 74
0
  7

 75
0
147
1.0
148
0.0
149
0.0
100
AcDbLayout
  1
Model
 70
0
 71
0
 10
0.0
 20
0.0
 11
297.0
 21
210.0
 12
0.0
 22
0.0
 32
0.0
 14
0.0
 24
0.0
 34
0.0
 15
0.0
 25
0.0
 35
0.0
146
0.0
 13
0.0
 23
0.0
 33
0.0
 16
1.0
 26
0.0
 36
0.0
 17
0.0
 27
1.0
 37
0.0
 76
0
330
21E
345
0
346
0
  0
LAYOUT
  5
3E8
102
{ACAD_REACTORS
330
1A
102
}
100
AcDbPlotSettings
  1

  2
none_device
  4
ISO_A4_(297.00_x_210.00_MM)
  6

 40
0.0
 41
0.0
 42
0.0
 43
0.0
 44
297.0
 45
210.0
 46
0.0
 47
0.0
 48
0.0
 49
0.0
140
0.0
141
0.0
142
1.0
143
1.0
 70
0
 72
1
 73
0
 74
0
  7

 75
0
147
1.0
148
0.0
149
0.0
100
AcDbLayout
  1
Layout1
 70
0
 71
1
 10
0.0
 20
0.0
 11
297.0
 21
210.0
 12
0.0
 22
0.0
 32
0.0
 14
0.0
 24
0.0
 34
0.0
 15
0.0
 25
0.0
 35
0.0
146
0.0
 13
0.0
 23
0.0
 33
0.0
 16
1.0
 26
0.0
 36
0.0
 17
0.0
 27
1.0
 37
0.0
 76
0
330
21F
345
0
346
0
  0
ENDSEC
  0
EOF
