  0
SECTION
  2
HEADER
  9
$ACADVER
  1
AC1024
  9
$DWGCODEPAGE
  3
ANSI_1252
  9
$EXTMAX
 10
297.0
 20
210.0
 30
0.0
  9
$EXTMIN
 10
0.0
 20
0.0
 30
0.0
  9
$LIMMIN
 10
0.0
 20
0.0
  9
$LIMMAX
 10
297.0
 20
210.0
  9
$VIEWCTR
 10
148.5
 20
105.0
  9
$VIEWSIZE
 40
210.0
  9
$CLAYER
  8
0
  9
$LTSCALE
 40
16.335
  9
$CELTYPE
  6
BYLAYER
  9
$DIMSCALE
 40
1.0
  9
$DIMASZ
 40
3.0
  9
$DIMEXO
 40
0.5
  9
$DIMDLI
 40
11.286
  9
$DIMEXE
 40
1.5
  9
$DIMCEN
 40
2.673
  9
$DIMLFAC
 40
1.0
  9
$DIMBLK
  1
_FILLED
  9
$DIMALT
 70
0
  9
$DIMALTF
 40
0.0393700787
  9
$DIMTXT
 40
3.0
  9
$DIMTOL
 70
1
  9
$DIMLIM
 70
0
  9
$DIMTFAC
 40
1.0
  9
$DIMTP
 40
0.01
  9
$DIMTM
 40
0.01
  9
$DIMGAP
 40
0.625
  9
$DIMDSEP
 70
44
  9
$AUNITS
 70
0
  9
$PDMODE
 70
3
  9
$PDSIZE
 40
3.0
  9
$HANDSEED
  5
45B
  9
$TILEMODE
 70
1
  9
$MEASUREMENT
 70
1
  9
$INSUNITS
 70
4
  0
ENDSEC
  0
SECTION
  2
CLASSES
  0
CLASS
  1
ACDBDICTIONARYWDFLT
  2
AcDbDictionaryWithDefault
  3
AutoCAD 2000
 90
0
 91
1
280
0
281
0
  0
CLASS
  1
ACDBPLACEHOLDER
  2
AcDbPlaceHolder
  3
AutoCAD 2000
 90
0
 91
1
280
0
281
0
  0
CLASS
  1
LAYOUT
  2
AcDbLayout
  3
AutoCAD 2000
 90
0
 91
0
280
0
281
0
  0
ENDSEC
  0
SECTION
  2
TABLES
  0
TABLE
  2
VPORT
  5
8
100
AcDbSymbolTable
 70
2
  0
VPORT
  5
1F4
100
AcDbSymbolTableRecord
100
AcDbViewportTableRecord
  2
*ACTIVE
 70
0
 10
0.0
 20
0.0
 11
1.0
 21
1.0
 12
148.5
 22
105.0
 13
0.0
 23
0.0
 14
1.0
 24
1.0
 15
0.0
 25
0.0
 16
0.0
 26
0.0
 36
1.0
 17
0.0
 27
0.0
 37
0.0
 40
210.0
 41
1.4142857143
 42
50.0
 43
0.0
 44
0.0
 50
0.0
 51
0.0
 71
0
 72
100
 73
1
 74
1
 75
0
 76
0
 77
0
 78
0
  0
ENDTAB
  0
TABLE
  2
LTYPE
  5
5
100
AcDbSymbolTable
 70
6
  0
LTYPE
  5
14
100
AcDbSymbolTableRecord
100
AcDbLinetypeTableRecord
  2
BYBLOCK
 70
0
  3

 72
65
 73
0
 40
0.0
  0
LTYPE
  5
15
100
AcDbSymbolTableRecord
100
AcDbLinetypeTableRecord
  2
BYLAYER
 70
0
  3

 72
65
 73
0
 40
0.0
  0
LTYPE
  5
16
100
AcDbSymbolTableRecord
100
AcDbLinetypeTableRecord
  2
CONTINUOUS
 70
64
  3
Solid line
 72
65
 73
0
 40
0.0
  0
LTYPE
  5
1F5
100
AcDbSymbolTableRecord
100
AcDbLinetypeTableRecord
  2
CENTER
 70
64
  3
____ _ ____ _ ____ _ ____ _ ____ _ ____ _ ____
 72
65
 73
4
 40
0.6
 49
0.375
 74
0
 49
-0.075
 74
0
 49
0.075
 74
0
 49
-0.075
 74
0
  0
LTYPE
  5
1F6
100
AcDbSymbolTableRecord
100
AcDbLinetypeTableRecord
  2
HIDDEN
 70
64
  3
- - - - - - - - - - - - - - - - - - - -
 72
65
 73
2
 40
0.2
 49
0.1
 74
0
 49
-0.1
 74
0
  0
LTYPE
  5
1F7
100
AcDbSymbolTableRecord
100
AcDbLinetypeTableRecord
  2
PHANTOM
 70
64
  3
_____ _ _ _____ _ _ _____ _ _ _____
 72
65
 73
6
 40
0.8
 49
0.45
 74
0
 49
-0.05
 74
0
 49
0.1
 74
0
 49
-0.05
 74
0
 49
0.1
 74
0
 49
-0.05
 74
0
  0
LTYPE
  5
1F8
100
AcDbSymbolTableRecord
100
AcDbLinetypeTableRecord
  2
DOT
 70
64
  3
. . . . . . . . . . . . . . . . . . . .
 72
65
 73
2
 40
0.2
 49
0.1
 74
0
 49
-0.1
 74
0
  0
LTYPE
  5
1F9
100
AcDbSymbolTableRecord
100
AcDbLinetypeTableRecord
  2
DASHED
 70
64
  3
- - - - - - - - - - - - - - - - - - - -
 72
65
 73
2
 40
0.2
 49
0.1
 74
0
 49
-0.1
 74
0
  0
ENDTAB
  0
TABLE
  2
LAYER
  5
2
100
AcDbSymbolTable
 70
36
  0
LAYER
  5
10
100
AcDbSymbolTableRecord
100
AcDbLayerTableRecord
  2
0
 70
0
 62
7
  6
CONTINUOUS
370
-3
390
F
  0
LAYER
  5
1FA
100
AcDbSymbolTableRecord
100
AcDbLayerTableRecord
  2
DEFAULT_1
 70
0
 62
7
  6
CENTER
370
-3
390
F
  0
LAYER
  5
1FB
100
AcDbSymbolTableRecord
100
AcDbLayerTableRecord
  2
DEFAULT_2
 70
0
 62
7
  6
HIDDEN
370
-3
390
F
  0
LAYER
  5
1FC
100
AcDbSymbolTableRecord
100
AcDbLayerTableRecord
  2
DEFAULT_3
 70
0
 62
7
  6
PHANTOM
370
-3
390
F
  0
LAYER
  5
1FD
100
AcDbSymbolTableRecord
100
AcDbLayerTableRecord
  2
ASSI
 70
0
 62
7
  6
CONTINUOUS
370
-3
390
F
  0
LAYER
  5
1FE
100
AcDbSymbolTableRecord
100
AcDbLayerTableRecord
  2
COORDINATE
 70
0
 62
7
  6
CONTINUOUS
370
-3
390
F
  0
LAYER
  5
1FF
100
AcDbSymbolTableRecord
100
AcDbLayerTableRecord
  2
COORD_ORIGINE
 70
0
 62
7
  6
CONTINUOUS
370
-3
390
F
  0
LAYER
  5
200
100
AcDbSymbolTableRecord
100
AcDbLayerTableRecord
  2
COPY_PUBLISH
 70
0
 62
7
  6
CONTINUOUS
370
-3
390
F
  0
LAYER
  5
201
100
AcDbSymbolTableRecord
100
AcDbLayerTableRecord
  2
COSMETIC
 70
0
 62
7
  6
CONTINUOUS
370
-3
390
F
  0
LAYER
  5
202
100
AcDbSymbolTableRecord
100
AcDbLayerTableRecord
  2
COSMETICI
 70
0
 62
7
  6
CONTINUOUS
370
-3
390
F
  0
LAYER
  5
203
100
AcDbSymbolTableRecord
100
AcDbLayerTableRecord
  2
CURVE
 70
0
 62
7
  6
CONTINUOUS
370
-3
390
F
  0
LAYER
  5
204
100
AcDbSymbolTableRecord
100
AcDbLayerTableRecord
  2
DRAFT
 70
0
 62
7
  6
CONTINUOUS
370
-3
390
F
  0
LAYER
  5
205
100
AcDbSymbolTableRecord
100
AcDbLayerTableRecord
  2
IMPORT_IGES
 70
0
 62
7
  6
CONTINUOUS
370
-3
390
F
  0
LAYER
  5
206
100
AcDbSymbolTableRecord
100
AcDbLayerTableRecord
  2
INTFCLR_2
 70
0
 62
7
  6
CONTINUOUS
370
-3
390
F
  0
LAYER
  5
207
100
AcDbSymbolTableRecord
100
AcDbLayerTableRecord
  2
INTF_1
 70
0
 62
7
  6
CONTINUOUS
370
-3
390
F
  0
LAYER
  5
208
100
AcDbSymbolTableRecord
100
AcDbLayerTableRecord
  2
INTF_21
 70
0
 62
7
  6
CONTINUOUS
370
-3
390
F
  0
LAYER
  5
209
100
AcDbSymbolTableRecord
100
AcDbLayerTableRecord
  2
INTF_6
 70
0
 62
7
  6
CONTINUOUS
370
-3
390
F
  0
LAYER
  5
20A
100
AcDbSymbolTableRecord
100
AcDbLayerTableRecord
  2
INTF_7
 70
0
 62
7
  6
CONTINUOUS
370
-3
390
F
  0
LAYER
  5
20B
100
AcDbSymbolTableRecord
100
AcDbLayerTableRecord
  2
INTF_CYAN
 70
0
 62
7
  6
CONTINUOUS
370
-3
390
F
  0
LAYER
  5
20C
100
AcDbSymbolTableRecord
100
AcDbLayerTableRecord
  2
LINEA_CHIUSURA
 70
0
 62
7
  6
CONTINUOUS
370
-3
390
F
  0
LAYER
  5
20D
100
AcDbSymbolTableRecord
100
AcDbLayerTableRecord
  2
LIVELLO_1
 70
0
 62
7
  6
CONTINUOUS
370
-3
390
F
  0
LAYER
  5
20E
100
AcDbSymbolTableRecord
100
AcDbLayerTableRecord
  2
NOTE
 70
0
 62
7
  6
CONTINUOUS
370
-3
390
F
  0
LAYER
  5
20F
100
AcDbSymbolTableRecord
100
AcDbLayerTableRecord
  2
PIANI
 70
0
 62
7
  6
CONTINUOUS
370
-3
390
F
  0
LAYER
  5
210
100
AcDbSymbolTableRecord
100
AcDbLayerTableRecord
  2
PIANI_ORIGINE
 70
0
 62
7
  6
CONTINUOUS
370
-3
390
F
  0
LAYER
  5
211
100
AcDbSymbolTableRecord
100
AcDbLayerTableRecord
  2
PIANI_RIFERIMENTO
 70
0
 62
7
  6
CONTINUOUS
370
-3
390
F
  0
LAYER
  5
212
100
AcDbSymbolTableRecord
100
AcDbLayerTableRecord
  2
PUNTI
 70
0
 62
7
  6
CONTINUOUS
370
-3
390
F
  0
LAYER
  5
213
100
AcDbSymbolTableRecord
100
AcDbLayerTableRecord
  2
RACCORDO
 70
0
 62
7
  6
CONTINUOUS
370
-3
390
F
  0
LAYER
  5
214
100
AcDbSymbolTableRecord
100
AcDbLayerTableRecord
  2
RGB__255__255__255__
 70
0
 62
7
  6
CONTINUOUS
370
-3
390
F
  0
LAYER
  5
215
100
AcDbSymbolTableRecord
100
AcDbLayerTableRecord
  2
RGB____0____0____0__
 70
0
 62
7
  6
CONTINUOUS
370
-3
390
F
  0
LAYER
  5
216
100
AcDbSymbolTableRecord
100
AcDbLayerTableRecord
  2
SIMBOLI
 70
0
 62
7
  6
CONTINUOUS
370
-3
390
F
  0
LAYER
  5
217
100
AcDbSymbolTableRecord
100
AcDbLayerTableRecord
  2
SMUSSO
 70
0
 62
7
  6
CONTINUOUS
370
-3
390
F
  0
LAYER
  5
218
100
AcDbSymbolTableRecord
100
AcDbLayerTableRecord
  2
SUPERFICI
 70
0
 62
7
  6
CONTINUOUS
370
-3
390
F
  0
LAYER
  5
219
100
AcDbSymbolTableRecord
100
AcDbLayerTableRecord
  2
TRASH
 70
0
 62
7
  6
CONTINUOUS
370
-3
390
F
  0
LAYER
  5
21A
100
AcDbSymbolTableRecord
100
AcDbLayerTableRecord
  2
WHITE
 70
0
 62
7
  6
CONTINUOUS
370
-3
390
F
  0
LAYER
  5
21B
100
AcDbSymbolTableRecord
100
AcDbLayerTableRecord
  2
XSEC_DATUMS
 70
0
 62
7
  6
CONTINUOUS
370
-3
390
F
  0
ENDTAB
  0
TABLE
  2
STYLE
  5
3
100
AcDbSymbolTable
 70
1
  0
STYLE
  5
11
100
AcDbSymbolTableRecord
100
AcDbTextStyleTableRecord
  2
STANDARD
 70
0
 40
0.0
 41
0.8
 50
0.0
 71
0
 42
0.2
  3
txt
  4

  0
STYLE
  5
21C
100
AcDbSymbolTableRecord
100
AcDbTextStyleTableRecord
  2
TEXTSTYLE_1
 70
0
 40
0.0
 41
0.8
 50
0.0
 71
0
 42
0.2
  3
gdt
  4

  0
ENDTAB
  0
TABLE
  2
VIEW
  5
6
100
AcDbSymbolTable
 70
0
  0
ENDTAB
  0
TABLE
  2
UCS
  5
7
100
AcDbSymbolTable
 70
0
  0
ENDTAB
  0
TABLE
  2
APPID
  5
9
100
AcDbSymbolTable
 70
1
  0
APPID
  5
21D
100
AcDbSymbolTableRecord
100
AcDbRegAppTableRecord
  2
ACAD
 70
0
  0
ENDTAB
  0
TABLE
  2
BLOCK_RECORD
  5
1
100
AcDbSymbolTable
 70
0
  0
BLOCK_RECORD
  5
21E
100
AcDbSymbolTableRecord
100
AcDbBlockTableRecord
  2
*Model_Space
  0
BLOCK_RECORD
  5
21F
100
AcDbSymbolTableRecord
100
AcDbBlockTableRecord
  2
*Paper_Space
  0
BLOCK_RECORD
  5
220
100
AcDbSymbolTableRecord
100
AcDbBlockTableRecord
  2
_FILLED
  0
ENDTAB
  0
TABLE
  2
DIMSTYLE
  5
A
100
AcDbSymbolTable
 70
1
100
AcDbDimStyleTable
 71
0
  0
DIMSTYLE
105
221
100
AcDbSymbolTableRecord
100
AcDbDimStyleTableRecord
  2
STANDARD
 70
0
  3

  4

 40
1.0
 41
3.0
 42
0.5
 43
0.38
 44
1.5
 45
0.0
 46
0.0
 47
0.01
 48
0.01
140
3.0
141
0.09
142
0.0
143
25.4
144
1.0
145
0.0
146
1.0
147
0.625
 71
1
 72
0
 73
0
 74
0
 75
0
 76
0
 77
1
 78
8
 79
2
170
0
171
1
172
0
173
0
174
0
175
0
176
0
177
0
178
0
270
2
179
2
271
2
272
2
273
2
274
2
275
0
280
0
281
0
282
0
283
1
284
8
285
0
286
0
287
3
288
0
340
11
278
44
341
220
342
220
343
220
344
220
  0
ENDTAB
  0
ENDSEC
  0
SECTION
  2
BLOCKS
  0
BLOCK
  5
20
100
AcDbEntity
  8
0
100
AcDbBlockBegin
  2
*Model_Space
 70
0
 10
0.0
 20
0.0
 30
0.0
  3
*Model_Space
  1

  0
ENDBLK
  5
21
100
AcDbEntity
  8
0
100
AcDbBlockEnd
  0
BLOCK
  5
1C
100
AcDbEntity
  8
0
100
AcDbBlockBegin
  2
*Paper_Space
 70
0
 10
0.0
 20
0.0
 30
0.0
  3
*Paper_Space
  1

  0
ENDBLK
  5
1D
100
AcDbEntity
  8
0
100
AcDbBlockEnd
  0
BLOCK
  5
222
100
AcDbEntity
  8
0
100
AcDbBlockBegin
  2
_FILLED
 70
64
 10
0.0
 20
0.0
  3
_FILLED
  1

  0
SOLID
  5
223
100
AcDbEntity
  8
0
  6
BYBLOCK
 62
0
100
AcDbTrace
 10
0.0
 20
0.0
 11
-1.0
 21
0.3166666667
 12
-1.0
 22
-0.3166666667
 13
-1.0
 23
-0.3166666667
  0
ENDBLK
  5
224
100
AcDbEntity
  8
0
  6
BYBLOCK
 62
0
100
AcDbBlockEnd
  0
ENDSEC
  0
SECTION
  2
ENTITIES
  0
LINE
  5
225
100
AcDbEntity
  8
ASSI
100
AcDbLine
 62
7
  6
CONTINUOUS
 10
-58.2149620151
 20
66.9540888344
 11
-54.4271482279
 21
69.4576557258
  0
LINE
  5
226
100
AcDbEntity
  8
ASSI
100
AcDbLine
 62
7
  6
CONTINUOUS
 10
-57.5074247458
 20
67.3625330283
 11
-53.7196109586
 21
69.8660999196
  0
LINE
  5
227
100
AcDbEntity
  8
ASSI
100
AcDbLine
 62
7
  6
CONTINUOUS
 10
-57.5281883599
 20
67.3496936773
 11
-57.5074247458
 21
67.3625330283
  0
LINE
  5
228
100
AcDbEntity
  8
ASSI
100
AcDbLine
 62
7
  6
CONTINUOUS
 10
-54.4271482279
 20
69.4576557258
 11
-53.7196109586
 21
69.8660999196
  0
LINE
  5
229
100
AcDbEntity
  8
ASSI
100
AcDbLine
 62
7
  6
CONTINUOUS
 10
-57.5281883599
 20
67.3496936773
 11
-58.2145867076
 21
66.9534524729
  0
LINE
  5
22A
100
AcDbEntity
  8
ASSI
100
AcDbLine
 62
7
  6
CONTINUOUS
 10
-57.9108776598
 20
65.9344652389
 11
-58.189853594
 21
65.7734191633
  0
LINE
  5
22B
100
AcDbEntity
  8
ASSI
100
AcDbLine
 62
7
  6
CONTINUOUS
 10
-57.9108776598
 20
65.9344652389
 11
-57.5281883599
 21
67.3496936773
  0
LINE
  5
22C
100
AcDbEntity
  8
CURVE
100
AcDbLine
 62
250
  6
CONTINUOUS
 10
56.5423821968
 20
-62.993090558
 11
55.2839813755
 21
-63.269713358
  0
LINE
  5
22D
100
AcDbEntity
  8
CURVE
100
AcDbLine
 62
250
  6
CONTINUOUS
 10
55.7863219044
 20
-58.7850117902
 11
56.4647870317
 21
-58.6318372103
  0
LINE
  5
22E
100
AcDbEntity
  8
CURVE
100
AcDbLine
 62
250
  6
CONTINUOUS
 10
56.7472007263
 20
-58.5669252712
 11
57.1121725522
 21
-58.4879740595
  0
LINE
  5
22F
100
AcDbEntity
  8
CURVE
100
AcDbLine
 62
250
  6
CONTINUOUS
 10
57.1121725522
 20
-58.90937968
 11
55.2839813755
 21
-59.2535442382
  0
LINE
  5
230
100
AcDbEntity
  8
CURVE
100
AcDbLine
 62
250
  6
CONTINUOUS
 10
55.2839813755
 20
-62.8439763627
 11
57.1121725522
 21
-62.5156831702
  0
LINE
  5
231
100
AcDbEntity
  8
CURVE
100
AcDbLine
 62
250
  6
CONTINUOUS
 10
56.2989986552
 20
-60.4525033766
 11
55.2839813755
 21
-60.5729830666
  0
LINE
  5
232
100
AcDbEntity
  8
CURVE
100
AcDbLine
 62
250
  6
CONTINUOUS
 10
55.9233746627
 20
-60.1206513135
 11
57.1121725522
 21
-59.9871228948
  0
LINE
  5
233
100
AcDbEntity
  8
ASSI
100
AcDbLine
 62
7
  6
CONTINUOUS
 10
-58.189853594
 20
-5.058214436
 11
-58.2145867076
 21
-4.6019788585
  0
LINE
  5
234
100
AcDbEntity
  8
ASSI
100
AcDbLine
 62
7
  6
CONTINUOUS
 10
-58.189853594
 20
65.7734191633
 11
-58.2145867076
 21
66.9534524729
  0
LINE
  5
235
100
AcDbEntity
  8
ASSI
100
AcDbLine
 62
7
  6
CONTINUOUS
 10
-58.2145867076
 20
-4.6019788585
 11
-58.2149620151
 21
-4.5777859978
  0
LINE
  5
236
100
AcDbEntity
  8
ASSI
100
AcDbLine
 62
7
  6
CONTINUOUS
 10
-58.2149620151
 20
66.9540888344
 11
-58.2149620151
 21
-4.5777859978
  0
LINE
  5
237
100
AcDbEntity
  8
ASSI
100
AcDbLine
 62
7
  6
CONTINUOUS
 10
-58.189853594
 20
65.7734191633
 11
-58.189853594
 21
-5.058214436
  0
LINE
  5
238
100
AcDbEntity
  8
ASSI
100
AcDbLine
 62
7
  6
CONTINUOUS
 10
52.7145685475
 20
-69.0930378217
 11
54.1315276785
 21
-69.4692172775
  0
LINE
  5
239
100
AcDbEntity
  8
ASSI
100
AcDbLine
 62
7
  6
CONTINUOUS
 10
-58.189853594
 20
-5.058214436
 11
-57.9108776598
 21
-5.5414149275
  0
LINE
  5
23A
100
AcDbEntity
  8
SMUSSO
100
AcDbLine
 62
250
  6
CONTINUOUS
 10
-39.4092074893
 20
26.2099476902
 11
-39.6486165011
 21
25.6940597277
  0
LINE
  5
23B
100
AcDbEntity
  8
ASSI
100
AcDbLine
 62
250
  6
CONTINUOUS
 10
-39.4092074893
 20
26.2099476902
 11
-39.6486165011
 21
25.6940597277
  0
LINE
  5
23C
100
AcDbEntity
  8
SMUSSO
100
AcDbLine
 62
250
  6
CONTINUOUS
 10
-39.2899863123
 20
15.5261484663
 11
-39.6486165011
 21
14.7533580187
  0
LINE
  5
23D
100
AcDbEntity
  8
ASSI
100
AcDbLine
 62
250
  6
CONTINUOUS
 10
-39.2899863123
 20
15.5261484663
 11
-39.6486165011
 21
14.7533580187
  0
LINE
  5
23E
100
AcDbEntity
  8
SMUSSO
100
AcDbLine
 62
250
  6
CONTINUOUS
 10
-39.7900378574
 20
25.6124048091
 11
-39.6486165011
 21
25.6940597277
  0
LINE
  5
23F
100
AcDbEntity
  8
ASSI
100
AcDbLine
 62
250
  6
CONTINUOUS
 10
-39.7900378574
 20
25.6124048091
 11
-39.6486165011
 21
25.6940597277
  0
LINE
  5
240
100
AcDbEntity
  8
SMUSSO
100
AcDbLine
 62
7
  6
CONTINUOUS
 10
-40.4971446386
 20
14.6717031
 11
-40.4971446386
 21
25.6124048091
  0
LINE
  5
241
100
AcDbEntity
  8
ASSI
100
AcDbLine
 62
7
  6
CONTINUOUS
 10
-40.4971446386
 20
14.6717031
 11
-40.4971446386
 21
25.6124048091
  0
LINE
  5
242
100
AcDbEntity
  8
SMUSSO
100
AcDbLine
 62
7
  6
CONTINUOUS
 10
-39.7900378574
 20
14.6717031
 11
-39.7900378574
 21
25.6124048091
  0
LINE
  5
243
100
AcDbEntity
  8
ASSI
100
AcDbLine
 62
7
  6
CONTINUOUS
 10
-39.7900378574
 20
14.6717031
 11
-39.7900378574
 21
25.6124048091
  0
LINE
  5
244
100
AcDbEntity
  8
SMUSSO
100
AcDbLine
 62
7
  6
CONTINUOUS
 10
-39.6486165011
 20
25.6940597277
 11
-39.6486165011
 21
14.7533580187
  0
LINE
  5
245
100
AcDbEntity
  8
ASSI
100
AcDbLine
 62
7
  6
CONTINUOUS
 10
-39.6486165011
 20
25.6940597277
 11
-39.6486165011
 21
14.7533580187
  0
LINE
  5
246
100
AcDbEntity
  8
SMUSSO
100
AcDbLine
 62
7
  6
CONTINUOUS
 10
-39.2899863123
 20
26.2166443421
 11
-39.2899863123
 21
15.5261484663
  0
LINE
  5
247
100
AcDbEntity
  8
ASSI
100
AcDbLine
 62
7
  6
CONTINUOUS
 10
-39.2899863123
 20
26.2166443421
 11
-39.2899863123
 21
15.5261484663
  0
LINE
  5
248
100
AcDbEntity
  8
SMUSSO
100
AcDbLine
 62
250
  6
CONTINUOUS
 10
-39.2950631105
 20
12.5896368208
 11
-38.94150972
 21
13.2020092559
  0
LINE
  5
249
100
AcDbEntity
  8
ASSI
100
AcDbLine
 62
250
  6
CONTINUOUS
 10
-39.2950631105
 20
12.5896368208
 11
-38.94150972
 21
13.2020092559
  0
LINE
  5
24A
100
AcDbEntity
  8
ASSI
100
AcDbLine
 62
7
  6
CONTINUOUS
 10
-57.9108776598
 20
-5.5414149275
 11
-57.5281883599
 21
-5.7908556696
  0
LINE
  5
24B
100
AcDbEntity
  8
SMUSSO
100
AcDbLine
 62
250
  6
CONTINUOUS
 10
-39.7900378574
 20
14.6717031
 11
-39.6486165011
 21
14.7533580187
  0
LINE
  5
24C
100
AcDbEntity
  8
ASSI
100
AcDbLine
 62
250
  6
CONTINUOUS
 10
-39.7900378574
 20
14.6717031
 11
-39.6486165011
 21
14.7533580187
  0
LINE
  5
24D
100
AcDbEntity
  8
SMUSSO
100
AcDbLine
 62
250
  6
CONTINUOUS
 10
-38.94150972
 20
13.2020092559
 11
-38.8000883637
 21
13.2836641746
  0
LINE
  5
24E
100
AcDbEntity
  8
ASSI
100
AcDbLine
 62
250
  6
CONTINUOUS
 10
-38.94150972
 20
13.2020092559
 11
-38.8000883637
 21
13.2836641746
  0
LINE
  5
24F
100
AcDbEntity
  8
ASSI
100
AcDbLine
 62
7
  6
CONTINUOUS
 10
-57.5074247458
 20
-5.8032764952
 11
53.4454917611
 21
-69.8660999196
  0
LINE
  5
250
100
AcDbEntity
  8
ASSI
100
AcDbLine
 62
7
  6
CONTINUOUS
 10
-57.9108776598
 20
-5.5414149275
 11
52.4355926134
 21
-69.2540838972
  0
LINE
  5
251
100
AcDbEntity
  8
ASSI
100
AcDbLine
 62
7
  6
CONTINUOUS
 10
-57.5074247458
 20
-5.8032764952
 11
-57.5281883599
 21
-5.7908556696
  0
LINE
  5
252
100
AcDbEntity
  8
ASSI
100
AcDbLine
 62
7
  6
CONTINUOUS
 10
52.4355926134
 20
-69.2540838972
 11
53.4451293308
 21
-69.8654584819
  0
LINE
  5
253
100
AcDbEntity
  8
SMUSSO
100
AcDbLine
 62
7
  6
CONTINUOUS
 10
-28.6177507146
 20
18.7533916412
 11
-28.6177507146
 21
7.8126899321
  0
LINE
  5
254
100
AcDbEntity
  8
ASSI
100
AcDbLine
 62
7
  6
CONTINUOUS
 10
-28.6177507146
 20
18.7533916412
 11
-28.6177507146
 21
7.8126899321
  0
LINE
  5
255
100
AcDbEntity
  8
SMUSSO
100
AcDbLine
 62
7
  6
CONTINUOUS
 10
-24.5872420619
 20
5.4855247502
 11
-24.5872420619
 21
16.4262264592
  0
LINE
  5
256
100
AcDbEntity
  8
ASSI
100
AcDbLine
 62
7
  6
CONTINUOUS
 10
-24.5872420619
 20
5.4855247502
 11
-24.5872420619
 21
16.4262264592
  0
LINE
  5
257
100
AcDbEntity
  8
SMUSSO
100
AcDbLine
 62
7
  6
CONTINUOUS
 10
-23.8801352807
 20
5.4855247502
 11
-23.8801352807
 21
16.4262264592
  0
LINE
  5
258
100
AcDbEntity
  8
ASSI
100
AcDbLine
 62
7
  6
CONTINUOUS
 10
-23.8801352807
 20
5.4855247502
 11
-23.8801352807
 21
16.4262264592
  0
LINE
  5
259
100
AcDbEntity
  8
SMUSSO
100
AcDbLine
 62
7
  6
CONTINUOUS
 10
-23.7387139244
 20
16.5078813779
 11
-23.7387139244
 21
5.5671796688
  0
LINE
  5
25A
100
AcDbEntity
  8
ASSI
100
AcDbLine
 62
7
  6
CONTINUOUS
 10
-23.7387139244
 20
16.5078813779
 11
-23.7387139244
 21
5.5671796688
  0
LINE
  5
25B
100
AcDbEntity
  8
SMUSSO
100
AcDbLine
 62
250
  6
CONTINUOUS
 10
-23.4993049126
 20
17.0237693403
 11
-23.7387139244
 21
16.5078813779
  0
LINE
  5
25C
100
AcDbEntity
  8
ASSI
100
AcDbLine
 62
250
  6
CONTINUOUS
 10
-23.4993049126
 20
17.0237693403
 11
-23.7387139244
 21
16.5078813779
  0
LINE
  5
25D
100
AcDbEntity
  8
SMUSSO
100
AcDbLine
 62
250
  6
CONTINUOUS
 10
-23.3800837356
 20
6.3399701165
 11
-23.7387139244
 21
5.5671796688
  0
LINE
  5
25E
100
AcDbEntity
  8
ASSI
100
AcDbLine
 62
250
  6
CONTINUOUS
 10
-23.3800837356
 20
6.3399701165
 11
-23.7387139244
 21
5.5671796688
  0
LINE
  5
25F
100
AcDbEntity
  8
SMUSSO
100
AcDbLine
 62
250
  6
CONTINUOUS
 10
-29.8198322426
 20
7.1187572702
 11
-29.4662788521
 21
7.7311297053
  0
LINE
  5
260
100
AcDbEntity
  8
ASSI
100
AcDbLine
 62
250
  6
CONTINUOUS
 10
-29.8198322426
 20
7.1187572702
 11
-29.4662788521
 21
7.7311297053
  0
LINE
  5
261
100
AcDbEntity
  8
SMUSSO
100
AcDbLine
 62
250
  6
CONTINUOUS
 10
-23.8801352807
 20
16.4262264592
 11
-23.7387139244
 21
16.5078813779
  0
LINE
  5
262
100
AcDbEntity
  8
ASSI
100
AcDbLine
 62
250
  6
CONTINUOUS
 10
-23.8801352807
 20
16.4262264592
 11
-23.7387139244
 21
16.5078813779
  0
LINE
  5
263
100
AcDbEntity
  8
SMUSSO
100
AcDbLine
 62
250
  6
CONTINUOUS
 10
34.8813658203
 20
-28.9825033622
 11
34.314752811
 21
-28.9319287755
  0
LINE
  5
264
100
AcDbEntity
  8
ASSI
100
AcDbLine
 62
250
  6
CONTINUOUS
 10
34.8813658203
 20
-28.9825033622
 11
34.314752811
 21
-28.9319287755
  0
LINE
  5
265
100
AcDbEntity
  8
SMUSSO
100
AcDbLine
 62
7
  6
CONTINUOUS
 10
-23.3800837356
 20
17.0304659923
 11
-23.3800837356
 21
6.3399701165
  0
LINE
  5
266
100
AcDbEntity
  8
ASSI
100
AcDbLine
 62
7
  6
CONTINUOUS
 10
-23.3800837356
 20
17.0304659923
 11
-23.3800837356
 21
6.3399701165
  0
LINE
  5
267
100
AcDbEntity
  8
SMUSSO
100
AcDbLine
 62
250
  6
CONTINUOUS
 10
-23.3851605339
 20
3.403458471
 11
-23.0316071433
 21
4.015830906
  0
LINE
  5
268
100
AcDbEntity
  8
ASSI
100
AcDbLine
 62
250
  6
CONTINUOUS
 10
-23.3851605339
 20
3.403458471
 11
-23.0316071433
 21
4.015830906
  0
LINE
  5
269
100
AcDbEntity
  8
SMUSSO
100
AcDbLine
 62
250
  6
CONTINUOUS
 10
-29.4662788521
 20
7.7311297053
 11
-29.3248574958
 21
7.812784624
  0
LINE
  5
26A
100
AcDbEntity
  8
ASSI
100
AcDbLine
 62
250
  6
CONTINUOUS
 10
-29.4662788521
 20
7.7311297053
 11
-29.3248574958
 21
7.812784624
  0
LINE
  5
26B
100
AcDbEntity
  8
SMUSSO
100
AcDbLine
 62
250
  6
CONTINUOUS
 10
23.1424656682
 20
-22.0730102995
 11
23.8495724494
 21
-22.0730102995
  0
LINE
  5
26C
100
AcDbEntity
  8
ASSI
100
AcDbLine
 62
250
  6
CONTINUOUS
 10
23.1424656682
 20
-22.0730102995
 11
23.8495724494
 21
-22.0730102995
  0
LINE
  5
26D
100
AcDbEntity
  8
SMUSSO
100
AcDbLine
 62
250
  6
CONTINUOUS
 10
25.6880500805
 20
-23.5367869139
 11
24.8395219431
 21
-23.4610492249
  0
LINE
  5
26E
100
AcDbEntity
  8
ASSI
100
AcDbLine
 62
250
  6
CONTINUOUS
 10
25.6880500805
 20
-23.5367869139
 11
24.8395219431
 21
-23.4610492249
  0
LINE
  5
26F
100
AcDbEntity
  8
SMUSSO
100
AcDbLine
 62
250
  6
CONTINUOUS
 10
18.9714632436
 20
-19.7963250123
 11
18.4048502343
 21
-19.7457504257
  0
LINE
  5
270
100
AcDbEntity
  8
ASSI
100
AcDbLine
 62
250
  6
CONTINUOUS
 10
18.9714632436
 20
-19.7963250123
 11
18.4048502343
 21
-19.7457504257
  0
LINE
  5
271
100
AcDbEntity
  8
SMUSSO
100
AcDbLine
 62
7
  6
CONTINUOUS
 10
-12.7078481379
 20
9.5672132913
 11
-12.7078481379
 21
-1.3734884177
  0
LINE
  5
272
100
AcDbEntity
  8
ASSI
100
AcDbLine
 62
7
  6
CONTINUOUS
 10
-12.7078481379
 20
9.5672132913
 11
-12.7078481379
 21
-1.3734884177
  0
LINE
  5
273
100
AcDbEntity
  8
SMUSSO
100
AcDbLine
 62
250
  6
CONTINUOUS
 10
-23.8801352807
 20
5.4855247502
 11
-23.7387139244
 21
5.5671796688
  0
LINE
  5
274
100
AcDbEntity
  8
ASSI
100
AcDbLine
 62
250
  6
CONTINUOUS
 10
-23.8801352807
 20
5.4855247502
 11
-23.7387139244
 21
5.5671796688
  0
LINE
  5
275
100
AcDbEntity
  8
SMUSSO
100
AcDbLine
 62
250
  6
CONTINUOUS
 10
-23.0316071433
 20
4.015830906
 11
-22.890185787
 21
4.0974858247
  0
LINE
  5
276
100
AcDbEntity
  8
ASSI
100
AcDbLine
 62
250
  6
CONTINUOUS
 10
-23.0316071433
 20
4.015830906
 11
-22.890185787
 21
4.0974858247
  0
LINE
  5
277
100
AcDbEntity
  8
SMUSSO
100
AcDbLine
 62
250
  6
CONTINUOUS
 10
7.2325630915
 20
-12.8868319496
 11
7.9396698727
 21
-12.8868319496
  0
LINE
  5
278
100
AcDbEntity
  8
ASSI
100
AcDbLine
 62
250
  6
CONTINUOUS
 10
7.2325630915
 20
-12.8868319496
 11
7.9396698727
 21
-12.8868319496
  0
LINE
  5
279
100
AcDbEntity
  8
SMUSSO
100
AcDbLine
 62
250
  6
CONTINUOUS
 10
9.7781475038
 20
-14.350608564
 11
8.9296193664
 21
-14.2748708751
  0
LINE
  5
27A
100
AcDbEntity
  8
ASSI
100
AcDbLine
 62
250
  6
CONTINUOUS
 10
9.7781475038
 20
-14.350608564
 11
8.9296193664
 21
-14.2748708751
  0
LINE
  5
27B
100
AcDbEntity
  8
ASSI
100
AcDbLine
 62
7
  6
CONTINUOUS
 10
-58.2149620151
 20
66.9540888344
 11
-58.2145867076
 21
66.9534524729
  0
LINE
  5
27C
100
AcDbEntity
  8
SMUSSO
100
AcDbLine
 62
7
  6
CONTINUOUS
 10
-8.6773394852
 20
-3.7006535997
 11
-8.6773394852
 21
7.2400481093
  0
LINE
  5
27D
100
AcDbEntity
  8
ASSI
100
AcDbLine
 62
7
  6
CONTINUOUS
 10
-8.6773394852
 20
-3.7006535997
 11
-8.6773394852
 21
7.2400481093
  0
LINE
  5
27E
100
AcDbEntity
  8
SMUSSO
100
AcDbLine
 62
7
  6
CONTINUOUS
 10
-7.970232704
 20
-3.7006535997
 11
-7.970232704
 21
7.2400481093
  0
LINE
  5
27F
100
AcDbEntity
  8
ASSI
100
AcDbLine
 62
7
  6
CONTINUOUS
 10
-7.970232704
 20
-3.7006535997
 11
-7.970232704
 21
7.2400481093
  0
LINE
  5
280
100
AcDbEntity
  8
SMUSSO
100
AcDbLine
 62
7
  6
CONTINUOUS
 10
-7.8288113477
 20
7.321703028
 11
-7.8288113477
 21
-3.618998681
  0
LINE
  5
281
100
AcDbEntity
  8
ASSI
100
AcDbLine
 62
7
  6
CONTINUOUS
 10
-7.8288113477
 20
7.321703028
 11
-7.8288113477
 21
-3.618998681
  0
LINE
  5
282
100
AcDbEntity
  8
SMUSSO
100
AcDbLine
 62
7
  6
CONTINUOUS
 10
-7.4701811589
 20
7.8442876424
 11
-7.4701811589
 21
-2.8462082334
  0
LINE
  5
283
100
AcDbEntity
  8
ASSI
100
AcDbLine
 62
7
  6
CONTINUOUS
 10
-7.4701811589
 20
7.8442876424
 11
-7.4701811589
 21
-2.8462082334
  0
LINE
  5
284
100
AcDbEntity
  8
SMUSSO
100
AcDbLine
 62
250
  6
CONTINUOUS
 10
-7.5894023359
 20
7.8375909904
 11
-7.8288113477
 21
7.321703028
  0
LINE
  5
285
100
AcDbEntity
  8
ASSI
100
AcDbLine
 62
250
  6
CONTINUOUS
 10
-7.5894023359
 20
7.8375909904
 11
-7.8288113477
 21
7.321703028
  0
LINE
  5
286
100
AcDbEntity
  8
SMUSSO
100
AcDbLine
 62
250
  6
CONTINUOUS
 10
-7.4701811589
 20
-2.8462082334
 11
-7.8288113477
 21
-3.618998681
  0
LINE
  5
287
100
AcDbEntity
  8
ASSI
100
AcDbLine
 62
250
  6
CONTINUOUS
 10
-7.4701811589
 20
-2.8462082334
 11
-7.8288113477
 21
-3.618998681
  0
LINE
  5
288
100
AcDbEntity
  8
SMUSSO
100
AcDbLine
 62
250
  6
CONTINUOUS
 10
-13.909929666
 20
-2.0674210796
 11
-13.5563762754
 21
-1.4550486446
  0
LINE
  5
289
100
AcDbEntity
  8
ASSI
100
AcDbLine
 62
250
  6
CONTINUOUS
 10
-13.909929666
 20
-2.0674210796
 11
-13.5563762754
 21
-1.4550486446
  0
LINE
  5
28A
100
AcDbEntity
  8
SMUSSO
100
AcDbLine
 62
250
  6
CONTINUOUS
 10
-7.970232704
 20
7.2400481093
 11
-7.8288113477
 21
7.321703028
  0
LINE
  5
28B
100
AcDbEntity
  8
ASSI
100
AcDbLine
 62
250
  6
CONTINUOUS
 10
-7.970232704
 20
7.2400481093
 11
-7.8288113477
 21
7.321703028
  0
LINE
  5
28C
100
AcDbEntity
  8
SMUSSO
100
AcDbLine
 62
250
  6
CONTINUOUS
 10
-13.5563762754
 20
-1.4550486446
 11
-13.4149549191
 21
-1.3733937259
  0
LINE
  5
28D
100
AcDbEntity
  8
ASSI
100
AcDbLine
 62
250
  6
CONTINUOUS
 10
-13.5563762754
 20
-1.4550486446
 11
-13.4149549191
 21
-1.3733937259
  0
LINE
  5
28E
100
AcDbEntity
  8
ASSI
100
AcDbLine
 62
7
  6
CONTINUOUS
 10
52.7145685475
 20
1.7385957777
 11
54.1315276785
 21
2.0862140539
  0
LINE
  5
28F
100
AcDbEntity
  8
SMUSSO
100
AcDbLine
 62
250
  6
CONTINUOUS
 10
23.1424656682
 20
-11.1323085904
 11
23.8495724494
 21
-11.1323085904
  0
LINE
  5
290
100
AcDbEntity
  8
ASSI
100
AcDbLine
 62
250
  6
CONTINUOUS
 10
23.1424656682
 20
-11.1323085904
 11
23.8495724494
 21
-11.1323085904
  0
LINE
  5
291
100
AcDbEntity
  8
SMUSSO
100
AcDbLine
 62
250
  6
CONTINUOUS
 10
3.0615606669
 20
-10.6101466625
 11
2.4949476576
 21
-10.5595720758
  0
LINE
  5
292
100
AcDbEntity
  8
ASSI
100
AcDbLine
 62
250
  6
CONTINUOUS
 10
3.0615606669
 20
-10.6101466625
 11
2.4949476576
 21
-10.5595720758
  0
LINE
  5
293
100
AcDbEntity
  8
SMUSSO
100
AcDbLine
 62
250
  6
CONTINUOUS
 10
-6.1317550729
 20
-5.1644302141
 11
-6.9802832103
 21
-5.0886925252
  0
LINE
  5
294
100
AcDbEntity
  8
ASSI
100
AcDbLine
 62
250
  6
CONTINUOUS
 10
-6.1317550729
 20
-5.1644302141
 11
-6.9802832103
 21
-5.0886925252
  0
LINE
  5
295
100
AcDbEntity
  8
SMUSSO
100
AcDbLine
 62
7
  6
CONTINUOUS
 10
33.8197780641
 20
-29.6259561293
 11
24.3445471962
 21
-24.1550765787
  0
LINE
  5
296
100
AcDbEntity
  8
ASSI
100
AcDbLine
 62
7
  6
CONTINUOUS
 10
33.8197780641
 20
-29.6259561293
 11
24.3445471962
 21
-24.1550765787
  0
LINE
  5
297
100
AcDbEntity
  8
SMUSSO
100
AcDbLine
 62
7
  6
CONTINUOUS
 10
17.9098754874
 20
-20.4397777794
 11
8.4346446195
 21
-14.9688982288
  0
LINE
  5
298
100
AcDbEntity
  8
ASSI
100
AcDbLine
 62
7
  6
CONTINUOUS
 10
17.9098754874
 20
-20.4397777794
 11
8.4346446195
 21
-14.9688982288
  0
LINE
  5
299
100
AcDbEntity
  8
SMUSSO
100
AcDbLine
 62
7
  6
CONTINUOUS
 10
1.9999729107
 20
-11.2535994295
 11
-7.4752579572
 21
-5.7827198789
  0
LINE
  5
29A
100
AcDbEntity
  8
ASSI
100
AcDbLine
 62
7
  6
CONTINUOUS
 10
1.9999729107
 20
-11.2535994295
 11
-7.4752579572
 21
-5.7827198789
  0
LINE
  5
29B
100
AcDbEntity
  8
SMUSSO
100
AcDbLine
 62
7
  6
CONTINUOUS
 10
-13.909929666
 20
-2.0674210796
 11
-23.3851605339
 21
3.403458471
  0
LINE
  5
29C
100
AcDbEntity
  8
ASSI
100
AcDbLine
 62
7
  6
CONTINUOUS
 10
-13.909929666
 20
-2.0674210796
 11
-23.3851605339
 21
3.403458471
  0
LINE
  5
29D
100
AcDbEntity
  8
SMUSSO
100
AcDbLine
 62
7
  6
CONTINUOUS
 10
-29.8198322426
 20
7.1187572702
 11
-39.2950631105
 21
12.5896368208
  0
LINE
  5
29E
100
AcDbEntity
  8
ASSI
100
AcDbLine
 62
7
  6
CONTINUOUS
 10
-29.8198322426
 20
7.1187572702
 11
-39.2950631105
 21
12.5896368208
  0
LINE
  5
29F
100
AcDbEntity
  8
SMUSSO
100
AcDbLine
 62
7
  6
CONTINUOUS
 10
34.1733314547
 20
-29.0135836942
 11
24.6981005868
 21
-23.5427041436
  0
LINE
  5
2A0
100
AcDbEntity
  8
ASSI
100
AcDbLine
 62
7
  6
CONTINUOUS
 10
34.1733314547
 20
-29.0135836942
 11
24.6981005868
 21
-23.5427041436
  0
LINE
  5
2A1
100
AcDbEntity
  8
SMUSSO
100
AcDbLine
 62
7
  6
CONTINUOUS
 10
18.263428878
 20
-19.8274053443
 11
8.7881980101
 21
-14.3565257937
  0
LINE
  5
2A2
100
AcDbEntity
  8
ASSI
100
AcDbLine
 62
7
  6
CONTINUOUS
 10
18.263428878
 20
-19.8274053443
 11
8.7881980101
 21
-14.3565257937
  0
LINE
  5
2A3
100
AcDbEntity
  8
SMUSSO
100
AcDbLine
 62
7
  6
CONTINUOUS
 10
2.3535263013
 20
-10.6412269944
 11
-7.1217045666
 21
-5.1703474439
  0
LINE
  5
2A4
100
AcDbEntity
  8
ASSI
100
AcDbLine
 62
7
  6
CONTINUOUS
 10
2.3535263013
 20
-10.6412269944
 11
-7.1217045666
 21
-5.1703474439
  0
LINE
  5
2A5
100
AcDbEntity
  8
SMUSSO
100
AcDbLine
 62
7
  6
CONTINUOUS
 10
-13.5563762754
 20
-1.4550486446
 11
-23.0316071433
 21
4.015830906
  0
LINE
  5
2A6
100
AcDbEntity
  8
ASSI
100
AcDbLine
 62
7
  6
CONTINUOUS
 10
-13.5563762754
 20
-1.4550486446
 11
-23.0316071433
 21
4.015830906
  0
LINE
  5
2A7
100
AcDbEntity
  8
SMUSSO
100
AcDbLine
 62
7
  6
CONTINUOUS
 10
-29.4662788521
 20
7.7311297053
 11
-38.94150972
 21
13.2020092559
  0
LINE
  5
2A8
100
AcDbEntity
  8
ASSI
100
AcDbLine
 62
7
  6
CONTINUOUS
 10
-29.4662788521
 20
7.7311297053
 11
-38.94150972
 21
13.2020092559
  0
LINE
  5
2A9
100
AcDbEntity
  8
SMUSSO
100
AcDbLine
 62
7
  6
CONTINUOUS
 10
-38.8000883637
 20
13.2836641746
 11
-29.3248574958
 21
7.812784624
  0
LINE
  5
2AA
100
AcDbEntity
  8
ASSI
100
AcDbLine
 62
7
  6
CONTINUOUS
 10
-38.8000883637
 20
13.2836641746
 11
-29.3248574958
 21
7.812784624
  0
LINE
  5
2AB
100
AcDbEntity
  8
SMUSSO
100
AcDbLine
 62
7
  6
CONTINUOUS
 10
-22.890185787
 20
4.0974858247
 11
-13.4149549191
 21
-1.3733937259
  0
LINE
  5
2AC
100
AcDbEntity
  8
ASSI
100
AcDbLine
 62
7
  6
CONTINUOUS
 10
-22.890185787
 20
4.0974858247
 11
-13.4149549191
 21
-1.3733937259
  0
LINE
  5
2AD
100
AcDbEntity
  8
SMUSSO
100
AcDbLine
 62
7
  6
CONTINUOUS
 10
-6.9802832103
 20
-5.0886925252
 11
2.4949476576
 21
-10.5595720758
  0
LINE
  5
2AE
100
AcDbEntity
  8
ASSI
100
AcDbLine
 62
7
  6
CONTINUOUS
 10
-6.9802832103
 20
-5.0886925252
 11
2.4949476576
 21
-10.5595720758
  0
LINE
  5
2AF
100
AcDbEntity
  8
SMUSSO
100
AcDbLine
 62
7
  6
CONTINUOUS
 10
8.9296193664
 20
-14.2748708751
 11
18.4048502343
 21
-19.7457504257
  0
LINE
  5
2B0
100
AcDbEntity
  8
ASSI
100
AcDbLine
 62
7
  6
CONTINUOUS
 10
8.9296193664
 20
-14.2748708751
 11
18.4048502343
 21
-19.7457504257
  0
LINE
  5
2B1
100
AcDbEntity
  8
SMUSSO
100
AcDbLine
 62
7
  6
CONTINUOUS
 10
24.8395219431
 20
-23.4610492249
 11
34.314752811
 21
-28.9319287755
  0
LINE
  5
2B2
100
AcDbEntity
  8
ASSI
100
AcDbLine
 62
7
  6
CONTINUOUS
 10
24.8395219431
 20
-23.4610492249
 11
34.314752811
 21
-28.9319287755
  0
LINE
  5
2B3
100
AcDbEntity
  8
SMUSSO
100
AcDbLine
 62
7
  6
CONTINUOUS
 10
-37.9515602263
 20
13.2079264856
 11
-28.6928806624
 21
7.8620809439
  0
LINE
  5
2B4
100
AcDbEntity
  8
ASSI
100
AcDbLine
 62
7
  6
CONTINUOUS
 10
-37.9515602263
 20
13.2079264856
 11
-28.6928806624
 21
7.8620809439
  0
LINE
  5
2B5
100
AcDbEntity
  8
SMUSSO
100
AcDbLine
 62
7
  6
CONTINUOUS
 10
-22.0416576496
 20
4.0217481358
 11
-12.7829780857
 21
-1.3240974059
  0
LINE
  5
2B6
100
AcDbEntity
  8
ASSI
100
AcDbLine
 62
7
  6
CONTINUOUS
 10
-22.0416576496
 20
4.0217481358
 11
-12.7829780857
 21
-1.3240974059
  0
LINE
  5
2B7
100
AcDbEntity
  8
SMUSSO
100
AcDbLine
 62
7
  6
CONTINUOUS
 10
-6.1317550729
 20
-5.1644302141
 11
3.126924491
 21
-10.5102757558
  0
LINE
  5
2B8
100
AcDbEntity
  8
ASSI
100
AcDbLine
 62
7
  6
CONTINUOUS
 10
-6.1317550729
 20
-5.1644302141
 11
3.126924491
 21
-10.5102757558
  0
LINE
  5
2B9
100
AcDbEntity
  8
SMUSSO
100
AcDbLine
 62
7
  6
CONTINUOUS
 10
9.7781475038
 20
-14.350608564
 11
19.0368270677
 21
-19.6964541057
  0
LINE
  5
2BA
100
AcDbEntity
  8
ASSI
100
AcDbLine
 62
7
  6
CONTINUOUS
 10
9.7781475038
 20
-14.350608564
 11
19.0368270677
 21
-19.6964541057
  0
LINE
  5
2BB
100
AcDbEntity
  8
SMUSSO
100
AcDbLine
 62
7
  6
CONTINUOUS
 10
25.6880500805
 20
-23.5367869139
 11
34.9467296444
 21
-28.8826324555
  0
LINE
  5
2BC
100
AcDbEntity
  8
ASSI
100
AcDbLine
 62
7
  6
CONTINUOUS
 10
25.6880500805
 20
-23.5367869139
 11
34.9467296444
 21
-28.8826324555
  0
LINE
  5
2BD
100
AcDbEntity
  8
SMUSSO
100
AcDbLine
 62
250
  6
CONTINUOUS
 10
-7.4752579572
 20
-5.7827198789
 11
-7.1217045666
 21
-5.1703474439
  0
LINE
  5
2BE
100
AcDbEntity
  8
ASSI
100
AcDbLine
 62
250
  6
CONTINUOUS
 10
-7.4752579572
 20
-5.7827198789
 11
-7.1217045666
 21
-5.1703474439
  0
LINE
  5
2BF
100
AcDbEntity
  8
SMUSSO
100
AcDbLine
 62
250
  6
CONTINUOUS
 10
-7.970232704
 20
-3.7006535997
 11
-7.8288113477
 21
-3.618998681
  0
LINE
  5
2C0
100
AcDbEntity
  8
ASSI
100
AcDbLine
 62
250
  6
CONTINUOUS
 10
-7.970232704
 20
-3.7006535997
 11
-7.8288113477
 21
-3.618998681
  0
LINE
  5
2C1
100
AcDbEntity
  8
SMUSSO
100
AcDbLine
 62
250
  6
CONTINUOUS
 10
-8.6773394852
 20
-3.7006535997
 11
-7.970232704
 21
-3.7006535997
  0
LINE
  5
2C2
100
AcDbEntity
  8
ASSI
100
AcDbLine
 62
250
  6
CONTINUOUS
 10
-8.6773394852
 20
-3.7006535997
 11
-7.970232704
 21
-3.7006535997
  0
LINE
  5
2C3
100
AcDbEntity
  8
SMUSSO
100
AcDbLine
 62
250
  6
CONTINUOUS
 10
7.2325630915
 20
-1.9461302406
 11
7.9396698727
 21
-1.9461302406
  0
LINE
  5
2C4
100
AcDbEntity
  8
ASSI
100
AcDbLine
 62
250
  6
CONTINUOUS
 10
7.2325630915
 20
-1.9461302406
 11
7.9396698727
 21
-1.9461302406
  0
LINE
  5
2C5
100
AcDbEntity
  8
SMUSSO
100
AcDbLine
 62
250
  6
CONTINUOUS
 10
-12.8483419098
 20
-1.4239683126
 11
-13.4149549191
 21
-1.3733937259
  0
LINE
  5
2C6
100
AcDbEntity
  8
ASSI
100
AcDbLine
 62
250
  6
CONTINUOUS
 10
-12.8483419098
 20
-1.4239683126
 11
-13.4149549191
 21
-1.3733937259
  0
LINE
  5
2C7
100
AcDbEntity
  8
SMUSSO
100
AcDbLine
 62
7
  6
CONTINUOUS
 10
3.2020544388
 20
0.3810349414
 11
3.2020544388
 21
-10.5596667676
  0
LINE
  5
2C8
100
AcDbEntity
  8
ASSI
100
AcDbLine
 62
7
  6
CONTINUOUS
 10
3.2020544388
 20
0.3810349414
 11
3.2020544388
 21
-10.5596667676
  0
LINE
  5
2C9
100
AcDbEntity
  8
SMUSSO
100
AcDbLine
 62
250
  6
CONTINUOUS
 10
-7.1217045666
 20
-5.1703474439
 11
-6.9802832103
 21
-5.0886925252
  0
LINE
  5
2CA
100
AcDbEntity
  8
ASSI
100
AcDbLine
 62
250
  6
CONTINUOUS
 10
-7.1217045666
 20
-5.1703474439
 11
-6.9802832103
 21
-5.0886925252
  0
LINE
  5
2CB
100
AcDbEntity
  8
SMUSSO
100
AcDbLine
 62
250
  6
CONTINUOUS
 10
7.9396698727
 20
-1.9461302406
 11
8.081091229
 21
-1.8644753219
  0
LINE
  5
2CC
100
AcDbEntity
  8
ASSI
100
AcDbLine
 62
250
  6
CONTINUOUS
 10
7.9396698727
 20
-1.9461302406
 11
8.081091229
 21
-1.8644753219
  0
LINE
  5
2CD
100
AcDbEntity
  8
SMUSSO
100
AcDbLine
 62
250
  6
CONTINUOUS
 10
-24.5872420619
 20
5.4855247502
 11
-23.8801352807
 21
5.4855247502
  0
LINE
  5
2CE
100
AcDbEntity
  8
ASSI
100
AcDbLine
 62
250
  6
CONTINUOUS
 10
-24.5872420619
 20
5.4855247502
 11
-23.8801352807
 21
5.4855247502
  0
LINE
  5
2CF
100
AcDbEntity
  8
SMUSSO
100
AcDbLine
 62
250
  6
CONTINUOUS
 10
-22.0416576496
 20
4.0217481358
 11
-22.890185787
 21
4.0974858247
  0
LINE
  5
2D0
100
AcDbEntity
  8
ASSI
100
AcDbLine
 62
250
  6
CONTINUOUS
 10
-22.0416576496
 20
4.0217481358
 11
-22.890185787
 21
4.0974858247
  0
LINE
  5
2D1
100
AcDbEntity
  8
SMUSSO
100
AcDbLine
 62
250
  6
CONTINUOUS
 10
-28.7582444865
 20
7.7622100373
 11
-29.3248574958
 21
7.812784624
  0
LINE
  5
2D2
100
AcDbEntity
  8
ASSI
100
AcDbLine
 62
250
  6
CONTINUOUS
 10
-28.7582444865
 20
7.7622100373
 11
-29.3248574958
 21
7.812784624
  0
LINE
  5
2D3
100
AcDbEntity
  8
SMUSSO
100
AcDbLine
 62
7
  6
CONTINUOUS
 10
-39.2950631105
 20
26.306337471
 11
-29.8198322426
 21
20.8354579204
  0
LINE
  5
2D4
100
AcDbEntity
  8
ASSI
100
AcDbLine
 62
7
  6
CONTINUOUS
 10
-39.2950631105
 20
26.306337471
 11
-29.8198322426
 21
20.8354579204
  0
LINE
  5
2D5
100
AcDbEntity
  8
SMUSSO
100
AcDbLine
 62
7
  6
CONTINUOUS
 10
-23.3851605339
 20
17.1201591211
 11
-13.909929666
 21
11.6492795705
  0
LINE
  5
2D6
100
AcDbEntity
  8
ASSI
100
AcDbLine
 62
7
  6
CONTINUOUS
 10
-23.3851605339
 20
17.1201591211
 11
-13.909929666
 21
11.6492795705
  0
LINE
  5
2D7
100
AcDbEntity
  8
SMUSSO
100
AcDbLine
 62
7
  6
CONTINUOUS
 10
-7.4752579572
 20
7.9339807712
 11
1.9999729107
 21
2.4631012206
  0
LINE
  5
2D8
100
AcDbEntity
  8
ASSI
100
AcDbLine
 62
7
  6
CONTINUOUS
 10
-7.4752579572
 20
7.9339807712
 11
1.9999729107
 21
2.4631012206
  0
LINE
  5
2D9
100
AcDbEntity
  8
SMUSSO
100
AcDbLine
 62
7
  6
CONTINUOUS
 10
8.4346446195
 20
-1.2521975787
 11
17.9098754874
 21
-6.7230771293
  0
LINE
  5
2DA
100
AcDbEntity
  8
ASSI
100
AcDbLine
 62
7
  6
CONTINUOUS
 10
8.4346446195
 20
-1.2521975787
 11
17.9098754874
 21
-6.7230771293
  0
LINE
  5
2DB
100
AcDbEntity
  8
SMUSSO
100
AcDbLine
 62
7
  6
CONTINUOUS
 10
24.3445471962
 20
-10.4383759285
 11
33.8197780641
 21
-15.9092554791
  0
LINE
  5
2DC
100
AcDbEntity
  8
ASSI
100
AcDbLine
 62
7
  6
CONTINUOUS
 10
24.3445471962
 20
-10.4383759285
 11
33.8197780641
 21
-15.9092554791
  0
LINE
  5
2DD
100
AcDbEntity
  8
SMUSSO
100
AcDbLine
 62
7
  6
CONTINUOUS
 10
7.2325630915
 20
-12.8868319496
 11
7.2325630915
 21
-1.9461302406
  0
LINE
  5
2DE
100
AcDbEntity
  8
ASSI
100
AcDbLine
 62
7
  6
CONTINUOUS
 10
7.2325630915
 20
-12.8868319496
 11
7.2325630915
 21
-1.9461302406
  0
LINE
  5
2DF
100
AcDbEntity
  8
SMUSSO
100
AcDbLine
 62
7
  6
CONTINUOUS
 10
7.9396698727
 20
-12.8868319496
 11
7.9396698727
 21
-1.9461302406
  0
LINE
  5
2E0
100
AcDbEntity
  8
ASSI
100
AcDbLine
 62
7
  6
CONTINUOUS
 10
7.9396698727
 20
-12.8868319496
 11
7.9396698727
 21
-1.9461302406
  0
LINE
  5
2E1
100
AcDbEntity
  8
SMUSSO
100
AcDbLine
 62
7
  6
CONTINUOUS
 10
8.081091229
 20
-1.8644753219
 11
8.081091229
 21
-12.8051770309
  0
LINE
  5
2E2
100
AcDbEntity
  8
ASSI
100
AcDbLine
 62
7
  6
CONTINUOUS
 10
8.081091229
 20
-1.8644753219
 11
8.081091229
 21
-12.8051770309
  0
LINE
  5
2E3
100
AcDbEntity
  8
SMUSSO
100
AcDbLine
 62
7
  6
CONTINUOUS
 10
8.4397214178
 20
-1.3418907075
 11
8.4397214178
 21
-12.0323865833
  0
LINE
  5
2E4
100
AcDbEntity
  8
ASSI
100
AcDbLine
 62
7
  6
CONTINUOUS
 10
8.4397214178
 20
-1.3418907075
 11
8.4397214178
 21
-12.0323865833
  0
LINE
  5
2E5
100
AcDbEntity
  8
SMUSSO
100
AcDbLine
 62
250
  6
CONTINUOUS
 10
8.3205002408
 20
-1.3485873594
 11
8.081091229
 21
-1.8644753219
  0
LINE
  5
2E6
100
AcDbEntity
  8
ASSI
100
AcDbLine
 62
250
  6
CONTINUOUS
 10
8.3205002408
 20
-1.3485873594
 11
8.081091229
 21
-1.8644753219
  0
LINE
  5
2E7
100
AcDbEntity
  8
SMUSSO
100
AcDbLine
 62
250
  6
CONTINUOUS
 10
8.4397214178
 20
-12.0323865833
 11
8.081091229
 21
-12.8051770309
  0
LINE
  5
2E8
100
AcDbEntity
  8
ASSI
100
AcDbLine
 62
250
  6
CONTINUOUS
 10
8.4397214178
 20
-12.0323865833
 11
8.081091229
 21
-12.8051770309
  0
LINE
  5
2E9
100
AcDbEntity
  8
SMUSSO
100
AcDbLine
 62
250
  6
CONTINUOUS
 10
1.9999729107
 20
-11.2535994295
 11
2.3535263013
 21
-10.6412269944
  0
LINE
  5
2EA
100
AcDbEntity
  8
ASSI
100
AcDbLine
 62
250
  6
CONTINUOUS
 10
1.9999729107
 20
-11.2535994295
 11
2.3535263013
 21
-10.6412269944
  0
LINE
  5
2EB
100
AcDbEntity
  8
SMUSSO
100
AcDbLine
 62
250
  6
CONTINUOUS
 10
2.3535263013
 20
-10.6412269944
 11
2.4949476576
 21
-10.5595720758
  0
LINE
  5
2EC
100
AcDbEntity
  8
ASSI
100
AcDbLine
 62
250
  6
CONTINUOUS
 10
2.3535263013
 20
-10.6412269944
 11
2.4949476576
 21
-10.5595720758
  0
LINE
  5
2ED
100
AcDbEntity
  8
SMUSSO
100
AcDbLine
 62
250
  6
CONTINUOUS
 10
-8.6773394852
 20
7.2400481093
 11
-7.970232704
 21
7.2400481093
  0
LINE
  5
2EE
100
AcDbEntity
  8
ASSI
100
AcDbLine
 62
250
  6
CONTINUOUS
 10
-8.6773394852
 20
7.2400481093
 11
-7.970232704
 21
7.2400481093
  0
LINE
  5
2EF
100
AcDbEntity
  8
SMUSSO
100
AcDbLine
 62
250
  6
CONTINUOUS
 10
-37.9515602263
 20
13.2079264856
 11
-38.8000883637
 21
13.2836641746
  0
LINE
  5
2F0
100
AcDbEntity
  8
ASSI
100
AcDbLine
 62
250
  6
CONTINUOUS
 10
-37.9515602263
 20
13.2079264856
 11
-38.8000883637
 21
13.2836641746
  0
LINE
  5
2F1
100
AcDbEntity
  8
ASSI
100
AcDbLine
 62
7
  6
CONTINUOUS
 10
53.4451293308
 20
-69.8654584819
 11
53.4454917611
 21
-69.8660999196
  0
LINE
  5
2F2
100
AcDbEntity
  8
SMUSSO
100
AcDbLine
 62
250
  6
CONTINUOUS
 10
8.4346446195
 20
-14.9688982288
 11
8.7881980101
 21
-14.3565257937
  0
LINE
  5
2F3
100
AcDbEntity
  8
ASSI
100
AcDbLine
 62
250
  6
CONTINUOUS
 10
8.4346446195
 20
-14.9688982288
 11
8.7881980101
 21
-14.3565257937
  0
LINE
  5
2F4
100
AcDbEntity
  8
SMUSSO
100
AcDbLine
 62
250
  6
CONTINUOUS
 10
7.9396698727
 20
-12.8868319496
 11
8.081091229
 21
-12.8051770309
  0
LINE
  5
2F5
100
AcDbEntity
  8
ASSI
100
AcDbLine
 62
250
  6
CONTINUOUS
 10
7.9396698727
 20
-12.8868319496
 11
8.081091229
 21
-12.8051770309
  0
LINE
  5
2F6
100
AcDbEntity
  8
SMUSSO
100
AcDbLine
 62
250
  6
CONTINUOUS
 10
8.7881980101
 20
-14.3565257937
 11
8.9296193664
 21
-14.2748708751
  0
LINE
  5
2F7
100
AcDbEntity
  8
ASSI
100
AcDbLine
 62
250
  6
CONTINUOUS
 10
8.7881980101
 20
-14.3565257937
 11
8.9296193664
 21
-14.2748708751
  0
LINE
  5
2F8
100
AcDbEntity
  8
SMUSSO
100
AcDbLine
 62
250
  6
CONTINUOUS
 10
-40.4971446386
 20
14.6717031
 11
-39.7900378574
 21
14.6717031
  0
LINE
  5
2F9
100
AcDbEntity
  8
ASSI
100
AcDbLine
 62
250
  6
CONTINUOUS
 10
-40.4971446386
 20
14.6717031
 11
-39.7900378574
 21
14.6717031
  0
LINE
  5
2FA
100
AcDbEntity
  8
SMUSSO
100
AcDbLine
 62
250
  6
CONTINUOUS
 10
-24.5872420619
 20
16.4262264592
 11
-23.8801352807
 21
16.4262264592
  0
LINE
  5
2FB
100
AcDbEntity
  8
ASSI
100
AcDbLine
 62
250
  6
CONTINUOUS
 10
-24.5872420619
 20
16.4262264592
 11
-23.8801352807
 21
16.4262264592
  0
LINE
  5
2FC
100
AcDbEntity
  8
SMUSSO
100
AcDbLine
 62
7
  6
CONTINUOUS
 10
19.1119570155
 20
-8.8051434085
 11
19.1119570155
 21
-19.7458451175
  0
LINE
  5
2FD
100
AcDbEntity
  8
ASSI
100
AcDbLine
 62
7
  6
CONTINUOUS
 10
19.1119570155
 20
-8.8051434085
 11
19.1119570155
 21
-19.7458451175
  0
LINE
  5
2FE
100
AcDbEntity
  8
SMUSSO
100
AcDbLine
 62
7
  6
CONTINUOUS
 10
23.1424656682
 20
-22.0730102995
 11
23.1424656682
 21
-11.1323085904
  0
LINE
  5
2FF
100
AcDbEntity
  8
ASSI
100
AcDbLine
 62
7
  6
CONTINUOUS
 10
23.1424656682
 20
-22.0730102995
 11
23.1424656682
 21
-11.1323085904
  0
LINE
  5
300
100
AcDbEntity
  8
SMUSSO
100
AcDbLine
 62
7
  6
CONTINUOUS
 10
23.8495724494
 20
-22.0730102995
 11
23.8495724494
 21
-11.1323085904
  0
LINE
  5
301
100
AcDbEntity
  8
ASSI
100
AcDbLine
 62
7
  6
CONTINUOUS
 10
23.8495724494
 20
-22.0730102995
 11
23.8495724494
 21
-11.1323085904
  0
LINE
  5
302
100
AcDbEntity
  8
SMUSSO
100
AcDbLine
 62
7
  6
CONTINUOUS
 10
23.9909938056
 20
-11.0506536718
 11
23.9909938056
 21
-21.9913553808
  0
LINE
  5
303
100
AcDbEntity
  8
ASSI
100
AcDbLine
 62
7
  6
CONTINUOUS
 10
23.9909938056
 20
-11.0506536718
 11
23.9909938056
 21
-21.9913553808
  0
LINE
  5
304
100
AcDbEntity
  8
SMUSSO
100
AcDbLine
 62
7
  6
CONTINUOUS
 10
24.3496239945
 20
-10.5280690574
 11
24.3496239945
 21
-21.2185649332
  0
LINE
  5
305
100
AcDbEntity
  8
ASSI
100
AcDbLine
 62
7
  6
CONTINUOUS
 10
24.3496239945
 20
-10.5280690574
 11
24.3496239945
 21
-21.2185649332
  0
LINE
  5
306
100
AcDbEntity
  8
SMUSSO
100
AcDbLine
 62
250
  6
CONTINUOUS
 10
23.8495724494
 20
-11.1323085904
 11
23.9909938056
 21
-11.0506536718
  0
LINE
  5
307
100
AcDbEntity
  8
ASSI
100
AcDbLine
 62
250
  6
CONTINUOUS
 10
23.8495724494
 20
-11.1323085904
 11
23.9909938056
 21
-11.0506536718
  0
LINE
  5
308
100
AcDbEntity
  8
ASSI
100
AcDbLine
 62
7
  6
CONTINUOUS
 10
53.4454917611
 20
3.2997096038
 11
57.5074247458
 21
5.645003506
  0
LINE
  5
309
100
AcDbEntity
  8
SMUSSO
100
AcDbLine
 62
250
  6
CONTINUOUS
 10
24.2304028175
 20
-10.5347657093
 11
23.9909938056
 21
-11.0506536718
  0
LINE
  5
30A
100
AcDbEntity
  8
ASSI
100
AcDbLine
 62
250
  6
CONTINUOUS
 10
24.2304028175
 20
-10.5347657093
 11
23.9909938056
 21
-11.0506536718
  0
LINE
  5
30B
100
AcDbEntity
  8
SMUSSO
100
AcDbLine
 62
250
  6
CONTINUOUS
 10
24.3496239945
 20
-21.2185649332
 11
23.9909938056
 21
-21.9913553808
  0
LINE
  5
30C
100
AcDbEntity
  8
ASSI
100
AcDbLine
 62
250
  6
CONTINUOUS
 10
24.3496239945
 20
-21.2185649332
 11
23.9909938056
 21
-21.9913553808
  0
LINE
  5
30D
100
AcDbEntity
  8
SMUSSO
100
AcDbLine
 62
250
  6
CONTINUOUS
 10
17.9098754874
 20
-20.4397777794
 11
18.263428878
 21
-19.8274053443
  0
LINE
  5
30E
100
AcDbEntity
  8
ASSI
100
AcDbLine
 62
250
  6
CONTINUOUS
 10
17.9098754874
 20
-20.4397777794
 11
18.263428878
 21
-19.8274053443
  0
LINE
  5
30F
100
AcDbEntity
  8
ASSI
100
AcDbLine
 62
7
  6
CONTINUOUS
 10
54.1530290304
 20
2.0742191065
 11
58.2149620151
 21
4.4195130086
  0
LINE
  5
310
100
AcDbEntity
  8
SMUSSO
100
AcDbLine
 62
250
  6
CONTINUOUS
 10
18.263428878
 20
-19.8274053443
 11
18.4048502343
 21
-19.7457504257
  0
LINE
  5
311
100
AcDbEntity
  8
ASSI
100
AcDbLine
 62
250
  6
CONTINUOUS
 10
18.263428878
 20
-19.8274053443
 11
18.4048502343
 21
-19.7457504257
  0
LINE
  5
312
100
AcDbEntity
  8
SMUSSO
100
AcDbLine
 62
250
  6
CONTINUOUS
 10
23.8495724494
 20
-22.0730102995
 11
23.9909938056
 21
-21.9913553808
  0
LINE
  5
313
100
AcDbEntity
  8
ASSI
100
AcDbLine
 62
250
  6
CONTINUOUS
 10
23.8495724494
 20
-22.0730102995
 11
23.9909938056
 21
-21.9913553808
  0
LINE
  5
314
100
AcDbEntity
  8
SMUSSO
100
AcDbLine
 62
250
  6
CONTINUOUS
 10
-40.4971446386
 20
25.6124048091
 11
-39.7900378574
 21
25.6124048091
  0
LINE
  5
315
100
AcDbEntity
  8
ASSI
100
AcDbLine
 62
250
  6
CONTINUOUS
 10
-40.4971446386
 20
25.6124048091
 11
-39.7900378574
 21
25.6124048091
  0
LINE
  5
316
100
AcDbEntity
  8
ASSI
100
AcDbLine
 62
7
  6
CONTINUOUS
 10
54.1315276785
 20
2.0862140539
 11
54.1530290304
 21
2.0742191065
  0
LINE
  5
317
100
AcDbEntity
  8
ASSI
100
AcDbLine
 62
7
  6
CONTINUOUS
 10
52.4355926134
 20
2.2217962692
 11
-57.9108776598
 21
65.9344652389
  0
LINE
  5
318
100
AcDbEntity
  8
ASSI
100
AcDbLine
 62
7
  6
CONTINUOUS
 10
53.4454917611
 20
3.2997096038
 11
-57.5074247458
 21
67.3625330283
  0
LINE
  5
319
100
AcDbEntity
  8
SMUSSO
100
AcDbLine
 62
7
  6
CONTINUOUS
 10
35.0218595922
 20
-17.9913217583
 11
35.0218595922
 21
-28.9320234674
  0
LINE
  5
31A
100
AcDbEntity
  8
ASSI
100
AcDbLine
 62
7
  6
CONTINUOUS
 10
35.0218595922
 20
-17.9913217583
 11
35.0218595922
 21
-28.9320234674
  0
LINE
  5
31B
100
AcDbEntity
  8
SMUSSO
100
AcDbLine
 62
250
  6
CONTINUOUS
 10
24.3445471962
 20
-24.1550765787
 11
24.6981005868
 21
-23.5427041436
  0
LINE
  5
31C
100
AcDbEntity
  8
ASSI
100
AcDbLine
 62
250
  6
CONTINUOUS
 10
24.3445471962
 20
-24.1550765787
 11
24.6981005868
 21
-23.5427041436
  0
LINE
  5
31D
100
AcDbEntity
  8
ASSI
100
AcDbLine
 62
7
  6
CONTINUOUS
 10
52.4355926134
 20
2.2217962692
 11
53.4451293308
 21
3.275090865
  0
LINE
  5
31E
100
AcDbEntity
  8
SMUSSO
100
AcDbLine
 62
250
  6
CONTINUOUS
 10
24.6981005868
 20
-23.5427041436
 11
24.8395219431
 21
-23.4610492249
  0
LINE
  5
31F
100
AcDbEntity
  8
ASSI
100
AcDbLine
 62
250
  6
CONTINUOUS
 10
24.6981005868
 20
-23.5427041436
 11
24.8395219431
 21
-23.4610492249
  0
LINE
  5
320
100
AcDbEntity
  8
ASSI
100
AcDbLine
 62
7
  6
CONTINUOUS
 10
57.5074247458
 20
5.645003506
 11
-53.7196109586
 21
69.8660999196
  0
LINE
  5
321
100
AcDbEntity
  8
SMUSSO
100
AcDbLine
 62
250
  6
CONTINUOUS
 10
34.1733314547
 20
-29.0135836942
 11
34.314752811
 21
-28.9319287755
  0
LINE
  5
322
100
AcDbEntity
  8
ASSI
100
AcDbLine
 62
250
  6
CONTINUOUS
 10
34.1733314547
 20
-29.0135836942
 11
34.314752811
 21
-28.9319287755
  0
LINE
  5
323
100
AcDbEntity
  8
SMUSSO
100
AcDbLine
 62
250
  6
CONTINUOUS
 10
33.8197780641
 20
-29.6259561293
 11
34.1733314547
 21
-29.0135836942
  0
LINE
  5
324
100
AcDbEntity
  8
ASSI
100
AcDbLine
 62
250
  6
CONTINUOUS
 10
33.8197780641
 20
-29.6259561293
 11
34.1733314547
 21
-29.0135836942
  0
LINE
  5
325
100
AcDbEntity
  8
ASSI
100
AcDbLine
 62
7
  6
CONTINUOUS
 10
52.7145685475
 20
1.7385957777
 11
52.4355926134
 21
2.2217962692
  0
LINE
  5
326
100
AcDbEntity
  8
ASSI
100
AcDbLine
 62
7
  6
CONTINUOUS
 10
54.1315276785
 20
2.0862140539
 11
53.4451293308
 21
3.275090865
  0
LINE
  5
327
100
AcDbEntity
  8
ASSI
100
AcDbLine
 62
7
  6
CONTINUOUS
 10
52.7145685475
 20
-69.0930378217
 11
52.7145685475
 21
1.7385957777
  0
LINE
  5
328
100
AcDbEntity
  8
ASSI
100
AcDbLine
 62
7
  6
CONTINUOUS
 10
54.1530290304
 20
-69.4576557258
 11
54.1530290304
 21
2.0742191065
  0
LINE
  5
329
100
AcDbEntity
  8
CURVE
100
AcDbLine
 62
250
  6
CONTINUOUS
 10
55.2838724038
 20
-62.2599060725
 11
55.2838724038
 21
-62.6859345476
  0
LINE
  5
32A
100
AcDbEntity
  8
CURVE
100
AcDbLine
 62
250
  6
CONTINUOUS
 10
55.2839813755
 20
-64.5224841224
 11
55.2839813755
 21
-64.0596859084
  0
LINE
  5
32B
100
AcDbEntity
  8
CURVE
100
AcDbLine
 62
250
  6
CONTINUOUS
 10
55.2839813755
 20
-63.269713358
 11
55.2839813755
 21
-62.8439763627
  0
LINE
  5
32C
100
AcDbEntity
  8
CURVE
100
AcDbLine
 62
250
  6
CONTINUOUS
 10
55.2839813755
 20
-61.8462162092
 11
55.2839813755
 21
-61.4205404492
  0
LINE
  5
32D
100
AcDbEntity
  8
CURVE
100
AcDbLine
 62
250
  6
CONTINUOUS
 10
55.2839813755
 20
-60.5729830666
 11
55.2839813755
 21
-60.1514696721
  0
LINE
  5
32E
100
AcDbEntity
  8
CURVE
100
AcDbLine
 62
250
  6
CONTINUOUS
 10
55.2839813755
 20
-59.2535442382
 11
55.2839813755
 21
-58.8414129036
  0
LINE
  5
32F
100
AcDbEntity
  8
ASSI
100
AcDbLine
 62
7
  6
CONTINUOUS
 10
53.4454917611
 20
3.2997096038
 11
53.4451293308
 21
3.275090865
  0
LINE
  5
330
100
AcDbEntity
  8
ASSI
100
AcDbLine
 62
7
  6
CONTINUOUS
 10
57.5074247458
 20
5.645003506
 11
58.2149620151
 21
4.4195130086
  0
LINE
  5
331
100
AcDbEntity
  8
CURVE
100
AcDbLine
 62
250
  6
CONTINUOUS
 10
56.0973061603
 20
-56.998521905
 11
56.0973061603
 21
-57.2419928962
  0
LINE
  5
332
100
AcDbEntity
  8
CURVE
100
AcDbLine
 62
250
  6
CONTINUOUS
 10
56.3967196481
 20
-57.0666554706
 11
56.3967196481
 21
-56.8382292358
  0
LINE
  5
333
100
AcDbEntity
  8
CURVE
100
AcDbLine
 62
250
  6
CONTINUOUS
 10
56.4647870317
 20
-58.6318372103
 11
56.4647870317
 21
-58.2239449894
  0
LINE
  5
334
100
AcDbEntity
  8
CURVE
100
AcDbLine
 62
250
  6
CONTINUOUS
 10
56.7472007263
 20
-57.9867455748
 11
56.7472007263
 21
-58.5669252712
  0
LINE
  5
335
100
AcDbEntity
  8
CURVE
100
AcDbLine
 62
250
  6
CONTINUOUS
 10
57.1121725522
 20
-61.7015365679
 11
57.1121725522
 21
-61.2755080927
  0
LINE
  5
336
100
AcDbEntity
  8
CURVE
100
AcDbLine
 62
250
  6
CONTINUOUS
 10
57.1121725642
 20
-57.1057536725
 11
57.1121725642
 21
-56.681439506
  0
LINE
  5
337
100
AcDbEntity
  8
CURVE
100
AcDbLine
 62
250
  6
CONTINUOUS
 10
57.1121725642
 20
-56.0290358135
 11
57.1121725642
 21
-55.6192460354
  0
LINE
  5
338
100
AcDbEntity
  8
CURVE
100
AcDbLine
 62
250
  6
CONTINUOUS
 10
57.1121725522
 20
-57.2308564073
 11
57.1121725522
 21
-57.6798726031
  0
LINE
  5
339
100
AcDbEntity
  8
CURVE
100
AcDbLine
 62
250
  6
CONTINUOUS
 10
57.1121725522
 20
-58.4879740595
 11
57.1121725522
 21
-58.90937968
  0
LINE
  5
33A
100
AcDbEntity
  8
CURVE
100
AcDbLine
 62
250
  6
CONTINUOUS
 10
57.1121725522
 20
-58.9762779886
 11
57.1121725522
 21
-59.3930468743
  0
LINE
  5
33B
100
AcDbEntity
  8
CURVE
100
AcDbLine
 62
250
  6
CONTINUOUS
 10
57.1121725522
 20
-59.9871228948
 11
57.1121725522
 21
-60.0468738226
  0
LINE
  5
33C
100
AcDbEntity
  8
CURVE
100
AcDbLine
 62
250
  6
CONTINUOUS
 10
57.1121725522
 20
-60.6385935098
 11
57.1121725522
 21
-61.0461640414
  0
LINE
  5
33D
100
AcDbEntity
  8
CURVE
100
AcDbLine
 62
250
  6
CONTINUOUS
 10
57.1121725522
 20
-62.5156831702
 11
57.1121725522
 21
-62.8911206976
  0
LINE
  5
33E
100
AcDbEntity
  8
ASSI
100
AcDbLine
 62
7
  6
CONTINUOUS
 10
58.2149620151
 20
-67.4288772115
 11
58.2149620151
 21
4.4195130086
  0
LINE
  5
33F
100
AcDbEntity
  8
CURVE
100
AcDbLine
 62
7
  6
CONTINUOUS
 10
55.362034083
 20
-56.915446649
 11
55.8887315239
 21
-56.388749208
  0
LINE
  5
340
100
AcDbEntity
  8
CURVE
100
AcDbLine
 62
7
  6
CONTINUOUS
 10
55.286340104
 20
-57.201151342
 11
56.1157960757
 21
-56.3716953703
  0
LINE
  5
341
100
AcDbEntity
  8
CURVE
100
AcDbLine
 62
250
  6
CONTINUOUS
 10
56.2587892864
 20
-56.4699363939
 11
56.2479862723
 21
-56.47575298
  0
LINE
  5
342
100
AcDbEntity
  8
CURVE
100
AcDbLine
 62
250
  6
CONTINUOUS
 10
57.1121725642
 20
-56.681439506
 11
56.3967196481
 21
-57.0666554706
  0
LINE
  5
343
100
AcDbEntity
  8
CURVE
100
AcDbLine
 62
250
  6
CONTINUOUS
 10
56.0973061603
 20
-57.2419928962
 11
55.5954321237
 21
-57.5122131816
  0
LINE
  5
344
100
AcDbEntity
  8
CURVE
100
AcDbLine
 62
250
  6
CONTINUOUS
 10
55.3053410338
 20
-58.0785924647
 11
57.1121725642
 21
-57.1057536725
  0
LINE
  5
345
100
AcDbEntity
  8
CURVE
100
AcDbLine
 62
250
  6
CONTINUOUS
 10
55.9183985321
 20
-61.1894113277
 11
57.1121725522
 21
-60.6385935098
  0
LINE
  5
346
100
AcDbEntity
  8
CURVE
100
AcDbLine
 62
250
  6
CONTINUOUS
 10
57.1121725522
 20
-61.0461640414
 11
55.2839813755
 21
-61.8462162092
  0
LINE
  5
347
100
AcDbEntity
  8
CURVE
100
AcDbLine
 62
7
  6
CONTINUOUS
 10
55.2657202257
 20
-57.4317819343
 11
55.6035328224
 21
-57.0939693376
  0
LINE
  5
348
100
AcDbEntity
  8
CURVE
100
AcDbLine
 62
7
  6
CONTINUOUS
 10
55.9153873575
 20
-56.7821148025
 11
56.2412496978
 21
-56.4562524622
  0
LINE
  5
349
100
AcDbEntity
  8
CURVE
100
AcDbLine
 62
7
  6
CONTINUOUS
 10
56.2775725351
 20
-56.4199296249
 11
56.9105487756
 21
-55.7869533844
  0
LINE
  5
34A
100
AcDbEntity
  8
CURVE
100
AcDbLine
 62
7
  6
CONTINUOUS
 10
55.2646680592
 20
-57.6428448148
 11
55.5783687267
 21
-57.3291441473
  0
LINE
  5
34B
100
AcDbEntity
  8
CURVE
100
AcDbLine
 62
7
  6
CONTINUOUS
 10
56.0663980041
 20
-56.8411148699
 11
57.1121725642
 21
-55.7953403098
  0
LINE
  5
34C
100
AcDbEntity
  8
CURVE
100
AcDbLine
 62
7
  6
CONTINUOUS
 10
55.2769516508
 20
-57.8405719372
 11
55.6168332606
 21
-57.5006903274
  0
LINE
  5
34D
100
AcDbEntity
  8
CURVE
100
AcDbLine
 62
7
  6
CONTINUOUS
 10
56.0973061603
 20
-57.0202174277
 11
56.4335446072
 21
-56.6839789808
  0
LINE
  5
34E
100
AcDbEntity
  8
CURVE
100
AcDbLine
 62
7
  6
CONTINUOUS
 10
56.9382071275
 20
-56.1793164605
 11
57.1121725642
 21
-56.0053510238
  0
LINE
  5
34F
100
AcDbEntity
  8
CURVE
100
AcDbLine
 62
7
  6
CONTINUOUS
 10
55.2987489342
 20
-58.0287853678
 11
56.0718180134
 21
-57.2557162886
  0
LINE
  5
350
100
AcDbEntity
  8
CURVE
100
AcDbLine
 62
7
  6
CONTINUOUS
 10
56.0973061603
 20
-57.2302281417
 11
56.3967196481
 21
-56.9308146539
  0
LINE
  5
351
100
AcDbEntity
  8
CURVE
100
AcDbLine
 62
7
  6
CONTINUOUS
 10
55.6381378563
 20
-57.8994071597
 11
56.557407509
 21
-56.980137507
  0
LINE
  5
352
100
AcDbEntity
  8
CURVE
100
AcDbLine
 62
7
  6
CONTINUOUS
 10
56.0931226091
 20
-57.6544331209
 11
57.0123922618
 21
-56.7351634683
  0
LINE
  5
353
100
AcDbEntity
  8
CURVE
100
AcDbLine
 62
7
  6
CONTINUOUS
 10
56.5481073619
 20
-57.4094590821
 11
57.1121725642
 21
-56.8453938798
  0
LINE
  5
354
100
AcDbEntity
  8
CURVE
100
AcDbLine
 62
7
  6
CONTINUOUS
 10
55.2839813755
 20
-58.8835957826
 11
55.6383291616
 21
-58.5292479965
  0
LINE
  5
355
100
AcDbEntity
  8
CURVE
100
AcDbLine
 62
7
  6
CONTINUOUS
 10
57.0030921147
 20
-57.1644850433
 11
57.1121725642
 21
-57.0554045939
  0
LINE
  5
356
100
AcDbEntity
  8
CURVE
100
AcDbLine
 62
7
  6
CONTINUOUS
 10
55.2839813755
 20
-59.0936064966
 11
57.1121725522
 21
-57.2654153199
  0
LINE
  5
357
100
AcDbEntity
  8
CURVE
100
AcDbLine
 62
7
  6
CONTINUOUS
 10
55.3456669041
 20
-59.241931682
 11
55.8073296338
 21
-58.7802689523
  0
LINE
  5
358
100
AcDbEntity
  8
CURVE
100
AcDbLine
 62
7
  6
CONTINUOUS
 10
55.8803195107
 20
-58.7072790754
 11
57.1121725522
 21
-57.4754260339
  0
LINE
  5
359
100
AcDbEntity
  8
CURVE
100
AcDbLine
 62
7
  6
CONTINUOUS
 10
55.6043817611
 20
-59.193227539
 11
56.0785794146
 21
-58.7190298856
  0
LINE
  5
35A
100
AcDbEntity
  8
CURVE
100
AcDbLine
 62
7
  6
CONTINUOUS
 10
56.4647870317
 20
-58.3328222684
 11
56.7472007263
 21
-58.0504085738
  0
LINE
  5
35B
100
AcDbEntity
  8
CURVE
100
AcDbLine
 62
7
  6
CONTINUOUS
 10
55.8630966181
 20
-59.1445233961
 11
56.3498291953
 21
-58.6577908188
  0
LINE
  5
35C
100
AcDbEntity
  8
CURVE
100
AcDbLine
 62
7
  6
CONTINUOUS
 10
56.4647870317
 20
-58.5428329824
 11
56.7472007263
 21
-58.2604192878
  0
LINE
  5
35D
100
AcDbEntity
  8
CURVE
100
AcDbLine
 62
7
  6
CONTINUOUS
 10
56.1218114751
 20
-59.0958192531
 11
56.7472007263
 21
-58.4704300018
  0
LINE
  5
35E
100
AcDbEntity
  8
CURVE
100
AcDbLine
 62
7
  6
CONTINUOUS
 10
56.380526332
 20
-59.0471151101
 11
56.8920502128
 21
-58.5355912293
  0
LINE
  5
35F
100
AcDbEntity
  8
CURVE
100
AcDbLine
 62
7
  6
CONTINUOUS
 10
55.2839813755
 20
-60.3536707807
 11
55.8500802568
 21
-59.7875718993
  0
LINE
  5
360
100
AcDbEntity
  8
CURVE
100
AcDbLine
 62
7
  6
CONTINUOUS
 10
56.639241189
 20
-58.9984109671
 11
57.1121725522
 21
-58.525479604
  0
LINE
  5
361
100
AcDbEntity
  8
CURVE
100
AcDbLine
 62
7
  6
CONTINUOUS
 10
55.2839813755
 20
-60.5636814947
 11
56.438043553
 21
-59.4096193172
  0
LINE
  5
362
100
AcDbEntity
  8
CURVE
100
AcDbLine
 62
7
  6
CONTINUOUS
 10
56.897956046
 20
-58.9497068242
 11
57.1121725522
 21
-58.735490318
  0
LINE
  5
363
100
AcDbEntity
  8
CURVE
100
AcDbLine
 62
7
  6
CONTINUOUS
 10
55.5117227804
 20
-60.5459508038
 11
55.9387491694
 21
-60.1189244148
  0
LINE
  5
364
100
AcDbEntity
  8
CURVE
100
AcDbLine
 62
7
  6
CONTINUOUS
 10
55.9585534961
 20
-60.0991200881
 11
57.0260068491
 21
-59.0316667351
  0
LINE
  5
365
100
AcDbEntity
  8
CURVE
100
AcDbLine
 62
7
  6
CONTINUOUS
 10
55.750018528
 20
-60.5176657702
 11
56.1753335685
 21
-60.0923507297
  0
LINE
  5
366
100
AcDbEntity
  8
CURVE
100
AcDbLine
 62
7
  6
CONTINUOUS
 10
56.4998887936
 20
-59.7677955046
 11
57.1121725522
 21
-59.155511746
  0
LINE
  5
367
100
AcDbEntity
  8
CURVE
100
AcDbLine
 62
7
  6
CONTINUOUS
 10
55.9883142755
 20
-60.4893807367
 11
56.4119179675
 21
-60.0657770447
  0
LINE
  5
368
100
AcDbEntity
  8
CURVE
100
AcDbLine
 62
7
  6
CONTINUOUS
 10
57.041224091
 20
-59.4364709212
 11
57.1121725522
 21
-59.3655224601
  0
LINE
  5
369
100
AcDbEntity
  8
CURVE
100
AcDbLine
 62
7
  6
CONTINUOUS
 10
56.2266100231
 20
-60.4610957031
 11
56.6485023666
 21
-60.0392033596
  0
LINE
  5
36A
100
AcDbEntity
  8
CURVE
100
AcDbLine
 62
7
  6
CONTINUOUS
 10
55.2839813755
 20
-61.6137350647
 11
56.8850867657
 21
-60.0126296746
  0
LINE
  5
36B
100
AcDbEntity
  8
CURVE
100
AcDbLine
 62
7
  6
CONTINUOUS
 10
55.2839813755
 20
-61.8237457788
 11
57.1121725522
 21
-59.9955546021
  0
LINE
  5
36C
100
AcDbEntity
  8
CURVE
100
AcDbLine
 62
7
  6
CONTINUOUS
 10
55.6174571884
 20
-61.7002806799
 11
56.3081709642
 21
-61.0095669041
  0
LINE
  5
36D
100
AcDbEntity
  8
CURVE
100
AcDbLine
 62
7
  6
CONTINUOUS
 10
55.9908889238
 20
-61.5368596585
 11
56.6980969552
 21
-60.8296516271
  0
LINE
  5
36E
100
AcDbEntity
  8
CURVE
100
AcDbLine
 62
7
  6
CONTINUOUS
 10
55.2838724038
 20
-62.4538868925
 11
55.7041286553
 21
-62.0336306409
  0
LINE
  5
36F
100
AcDbEntity
  8
CURVE
100
AcDbLine
 62
7
  6
CONTINUOUS
 10
56.3643206593
 20
-61.373438637
 11
57.0880229462
 21
-60.6497363501
  0
LINE
  5
370
100
AcDbEntity
  8
CURVE
100
AcDbLine
 62
7
  6
CONTINUOUS
 10
55.2838724038
 20
-62.6638976065
 11
56.1591134082
 21
-61.7886566022
  0
LINE
  5
371
100
AcDbEntity
  8
CURVE
100
AcDbLine
 62
7
  6
CONTINUOUS
 10
56.7377523947
 20
-61.2100176156
 11
57.1121725522
 21
-60.8355974581
  0
LINE
  5
372
100
AcDbEntity
  8
CURVE
100
AcDbLine
 62
7
  6
CONTINUOUS
 10
55.2839813755
 20
-62.8737993488
 11
55.3203319278
 21
-62.8374487965
  0
LINE
  5
373
100
AcDbEntity
  8
CURVE
100
AcDbLine
 62
7
  6
CONTINUOUS
 10
55.6911144867
 20
-62.4666662376
 11
56.614098161
 21
-61.5436825634
  0
LINE
  5
374
100
AcDbEntity
  8
CURVE
100
AcDbLine
 62
7
  6
CONTINUOUS
 10
57.1111841302
 20
-61.0465965941
 11
57.1121725522
 21
-61.0456081721
  0
LINE
  5
375
100
AcDbEntity
  8
CURVE
100
AcDbLine
 62
7
  6
CONTINUOUS
 10
55.2839813755
 20
-63.0838100628
 11
55.5763091598
 21
-62.7914822785
  0
LINE
  5
376
100
AcDbEntity
  8
CURVE
100
AcDbLine
 62
7
  6
CONTINUOUS
 10
56.1460992395
 20
-62.2216921988
 11
57.0690829138
 21
-61.2987085246
  0
LINE
  5
377
100
AcDbEntity
  8
CURVE
100
AcDbLine
 62
7
  6
CONTINUOUS
 10
55.3148812277
 20
-63.2629209247
 11
55.8322863919
 21
-62.7455157605
  0
LINE
  5
378
100
AcDbEntity
  8
CURVE
100
AcDbLine
 62
7
  6
CONTINUOUS
 10
56.6010839923
 20
-61.97671816
 11
57.1121725522
 21
-61.4656296002
  0
LINE
  5
379
100
AcDbEntity
  8
CURVE
100
AcDbLine
 62
7
  6
CONTINUOUS
 10
55.584063924
 20
-63.2037489423
 11
56.0882636239
 21
-62.6995492424
  0
LINE
  5
37A
100
AcDbEntity
  8
CURVE
100
AcDbLine
 62
7
  6
CONTINUOUS
 10
57.0560687451
 20
-61.7317441212
 11
57.1121725522
 21
-61.6756403142
  0
LINE
  5
37B
100
AcDbEntity
  8
CURVE
100
AcDbLine
 62
7
  6
CONTINUOUS
 10
55.8532466204
 20
-63.14457696
 11
56.344240856
 21
-62.6535827244
  0
LINE
  5
37C
100
AcDbEntity
  8
CURVE
100
AcDbLine
 62
7
  6
CONTINUOUS
 10
56.1224293167
 20
-63.0854049777
 11
56.6002180881
 21
-62.6076162063
  0
LINE
  5
37D
100
AcDbEntity
  8
CURVE
100
AcDbLine
 62
7
  6
CONTINUOUS
 10
55.2839813755
 20
-64.1338636329
 11
55.7706479394
 21
-63.647197069
  0
LINE
  5
37E
100
AcDbEntity
  8
CURVE
100
AcDbLine
 62
7
  6
CONTINUOUS
 10
56.3916120131
 20
-63.0262329953
 11
56.8561953201
 21
-62.5616496883
  0
LINE
  5
37F
100
AcDbEntity
  8
CURVE
100
AcDbLine
 62
7
  6
CONTINUOUS
 10
55.2839813755
 20
-64.3438743469
 11
57.1121725522
 21
-62.5156831702
  0
LINE
  5
380
100
AcDbEntity
  8
CURVE
100
AcDbLine
 62
7
  6
CONTINUOUS
 10
55.5756420693
 20
-64.2622243671
 11
57.1121725522
 21
-62.7256938842
  0
LINE
  5
381
100
AcDbEntity
  8
CURVE
100
AcDbLine
 62
250
  6
CONTINUOUS
 10
57.1121725522
 20
-60.0468738226
 11
55.9183985321
 21
-61.1894113277
  0
LINE
  5
382
100
AcDbEntity
  8
CURVE
100
AcDbLine
 62
250
  6
CONTINUOUS
 10
55.2839813755
 20
-61.4205404492
 11
56.2989986552
 21
-60.4525033766
  0
LINE
  5
383
100
AcDbEntity
  8
CURVE
100
AcDbLine
 62
250
  6
CONTINUOUS
 10
57.1121725522
 20
-62.8911206976
 11
55.2839813755
 21
-64.5224841224
  0
LINE
  5
384
100
AcDbEntity
  8
CURVE
100
AcDbLine
 62
250
  6
CONTINUOUS
 10
55.2839813755
 20
-58.8414129036
 11
57.1121725522
 21
-57.2308564073
  0
LINE
  5
385
100
AcDbEntity
  8
CURVE
100
AcDbLine
 62
250
  6
CONTINUOUS
 10
55.2839813755
 20
-64.0596859084
 11
56.5423821968
 21
-62.993090558
  0
LINE
  5
386
100
AcDbEntity
  8
CURVE
100
AcDbLine
 62
250
  6
CONTINUOUS
 10
57.1121725522
 20
-57.6798726031
 11
56.7472007263
 21
-57.9867455748
  0
LINE
  5
387
100
AcDbEntity
  8
CURVE
100
AcDbLine
 62
250
  6
CONTINUOUS
 10
56.4647870317
 20
-58.2239449894
 11
55.7863219044
 21
-58.7850117902
  0
LINE
  5
388
100
AcDbEntity
  8
CURVE
100
AcDbLine
 62
250
  6
CONTINUOUS
 10
55.2839813755
 20
-60.1514696721
 11
57.1121725522
 21
-58.9762779886
  0
LINE
  5
389
100
AcDbEntity
  8
CURVE
100
AcDbLine
 62
250
  6
CONTINUOUS
 10
57.1121725522
 20
-59.3930468743
 11
55.9233746627
 21
-60.1206513135
  0
LINE
  5
38A
100
AcDbEntity
  8
ASSI
100
AcDbLine
 62
7
  6
CONTINUOUS
 10
52.4355926134
 20
-69.2540838972
 11
52.7145685475
 21
-69.0930378217
  0
LINE
  5
38B
100
AcDbEntity
  8
ASSI
100
AcDbLine
 62
7
  6
CONTINUOUS
 10
53.4451293308
 20
-69.8654584819
 11
54.1315276785
 21
-69.4692172775
  0
LINE
  5
38C
100
AcDbEntity
  8
ASSI
100
AcDbLine
 62
7
  6
CONTINUOUS
 10
58.2149620151
 20
-67.4288772115
 11
57.5074247458
 21
-67.8373214053
  0
LINE
  5
38D
100
AcDbEntity
  8
CURVE
100
AcDbLine
 62
250
  6
CONTINUOUS
 10
57.1121725522
 20
-61.2755080927
 11
55.2838724038
 21
-62.2599060725
  0
LINE
  5
38E
100
AcDbEntity
  8
CURVE
100
AcDbLine
 62
250
  6
CONTINUOUS
 10
55.2838724038
 20
-62.6859345476
 11
57.1121725522
 21
-61.7015365679
  0
LINE
  5
38F
100
AcDbEntity
  8
ASSI
100
AcDbLine
 62
7
  6
CONTINUOUS
 10
54.1530290304
 20
-69.4576557258
 11
54.1315276785
 21
-69.4692172775
  0
LINE
  5
390
100
AcDbEntity
  8
ASSI
100
AcDbLine
 62
7
  6
CONTINUOUS
 10
54.1530290304
 20
-69.4576557258
 11
58.2149620151
 21
-67.4288772115
  0
LINE
  5
391
100
AcDbEntity
  8
ASSI
100
AcDbLine
 62
7
  6
CONTINUOUS
 10
53.4454917611
 20
-69.8660999196
 11
57.5074247458
 21
-67.8373214053
  0
SPLINE
  5
392
100
AcDbEntity
  8
SMUSSO
100
AcDbSpline
 62
7
  6
CONTINUOUS
 70
0
 71
3
 72
9
 73
5
 74
0
 42
0.0000001
 43
0.0000001
 44
0.0000000001
 40
0.0
 40
0.0
 40
0.0
 40
0.0
 40
0.5167962532
 40
1.0
 40
1.0
 40
1.0
 40
1.0
 10
-29.0220286938
 20
7.7024557394
 30
0.0
 10
-28.9837234819
 20
7.697239296
 30
0.0
 10
-28.9083684251
 20
7.6940700426
 30
0.0
 10
-28.834056838
 20
7.7083447435
 30
0.0
 10
-28.7997542305
 20
7.7197402163
 30
0.0
  0
SPLINE
  5
393
100
AcDbEntity
  8
SMUSSO
100
AcDbSpline
 62
7
  6
CONTINUOUS
 70
0
 71
3
 72
9
 73
5
 74
0
 42
0.0000001
 43
0.0000001
 44
0.0000000001
 40
0.0
 40
0.0
 40
0.0
 40
0.0
 40
0.2403060145
 40
1.0
 40
1.0
 40
1.0
 40
1.0
 10
33.8197780641
 20
-15.9092554791
 30
0.0
 10
33.8433981265
 20
-15.9228934072
 30
0.0
 10
33.940228149
 20
-15.9821637744
 30
0.0
 10
34.0312288766
 20
-16.0507651936
 30
0.0
 10
34.0968956516
 20
-16.1066451121
 30
0.0
  0
SPLINE
  5
394
100
AcDbEntity
  8
SMUSSO
100
AcDbSpline
 62
7
  6
CONTINUOUS
 70
0
 71
3
 72
11
 73
7
 74
0
 42
0.0000001
 43
0.0000001
 44
0.0000000001
 40
0.0
 40
0.0
 40
0.0
 40
0.0
 40
0.2436408454
 40
0.5000044213
 40
0.7563656951
 40
1.0
 40
1.0
 40
1.0
 40
1.0
 10
34.0968956516
 20
-16.1066451121
 30
0.0
 10
34.2091790177
 20
-16.2021939697
 30
0.0
 10
34.4202245646
 20
-16.4216757875
 30
0.0
 10
34.6802854219
 20
-16.8005031638
 30
0.0
 10
34.8783275503
 20
-17.2151325437
 30
0.0
 10
34.9628786034
 20
-17.5076397461
 30
0.0
 10
34.9894820444
 20
-17.652650878
 30
0.0
  0
SPLINE
  5
395
100
AcDbEntity
  8
SMUSSO
100
AcDbSpline
 62
7
  6
CONTINUOUS
 70
0
 71
3
 72
9
 73
5
 74
0
 42
0.0000001
 43
0.0000001
 44
0.0000000001
 40
0.0
 40
0.0
 40
0.0
 40
0.0
 40
0.2594906421
 40
1.0
 40
1.0
 40
1.0
 40
1.0
 10
34.9894820444
 20
-17.652650878
 30
0.0
 10
34.9947961087
 20
-17.6816169984
 30
0.0
 10
35.0129950468
 20
-17.7936357009
 30
0.0
 10
35.0218595921
 20
-17.9072815023
 30
0.0
 10
35.0218595922
 20
-17.9913217583
 30
0.0
  0
SPLINE
  5
396
100
AcDbEntity
  8
SMUSSO
100
AcDbSpline
 62
7
  6
CONTINUOUS
 70
0
 71
3
 72
9
 73
5
 74
0
 42
0.0000001
 43
0.0000001
 44
0.0000000001
 40
0.0
 40
0.0
 40
0.0
 40
0.0
 40
0.2403060145
 40
1.0
 40
1.0
 40
1.0
 40
1.0
 10
17.9098754874
 20
-6.7230771293
 30
0.0
 10
17.9334955498
 20
-6.7367150573
 30
0.0
 10
18.0303255723
 20
-6.7959854245
 30
0.0
 10
18.1213262999
 20
-6.8645868437
 30
0.0
 10
18.1869930749
 20
-6.9204667622
 30
0.0
  0
SPLINE
  5
397
100
AcDbEntity
  8
SMUSSO
100
AcDbSpline
 62
7
  6
CONTINUOUS
 70
0
 71
3
 72
11
 73
7
 74
0
 42
0.0000001
 43
0.0000001
 44
0.0000000001
 40
0.0
 40
0.0
 40
0.0
 40
0.0
 40
0.2436408454
 40
0.5000044213
 40
0.7563656951
 40
1.0
 40
1.0
 40
1.0
 40
1.0
 10
18.1869930749
 20
-6.9204667622
 30
0.0
 10
18.299276441
 20
-7.0160156199
 30
0.0
 10
18.5103219879
 20
-7.2354974377
 30
0.0
 10
18.7703828452
 20
-7.6143248139
 30
0.0
 10
18.9684249736
 20
-8.0289541938
 30
0.0
 10
19.0529760267
 20
-8.3214613962
 30
0.0
 10
19.0795794677
 20
-8.4664725281
 30
0.0
  0
SPLINE
  5
398
100
AcDbEntity
  8
SMUSSO
100
AcDbSpline
 62
7
  6
CONTINUOUS
 70
0
 71
3
 72
9
 73
5
 74
0
 42
0.0000001
 43
0.0000001
 44
0.0000000001
 40
0.0
 40
0.0
 40
0.0
 40
0.0
 40
0.2594906421
 40
1.0
 40
1.0
 40
1.0
 40
1.0
 10
19.0795794677
 20
-8.4664725281
 30
0.0
 10
19.084893532
 20
-8.4954386485
 30
0.0
 10
19.1030924701
 20
-8.607457351
 30
0.0
 10
19.1119570154
 20
-8.7211031524
 30
0.0
 10
19.1119570155
 20
-8.8051434085
 30
0.0
  0
SPLINE
  5
399
100
AcDbEntity
  8
SMUSSO
100
AcDbSpline
 62
7
  6
CONTINUOUS
 70
0
 71
3
 72
9
 73
5
 74
0
 42
0.0000001
 43
0.0000001
 44
0.0000000001
 40
0.0
 40
0.0
 40
0.0
 40
0.0
 40
0.2403060145
 40
1.0
 40
1.0
 40
1.0
 40
1.0
 10
1.9999729107
 20
2.4631012206
 30
0.0
 10
2.0235929731
 20
2.4494632926
 30
0.0
 10
2.1204229956
 20
2.3901929253
 30
0.0
 10
2.2114237232
 20
2.3215915061
 30
0.0
 10
2.2770904982
 20
2.2657115877
 30
0.0
  0
SPLINE
  5
39A
100
AcDbEntity
  8
SMUSSO
100
AcDbSpline
 62
7
  6
CONTINUOUS
 70
0
 71
3
 72
11
 73
7
 74
0
 42
0.0000001
 43
0.0000001
 44
0.0000000001
 40
0.0
 40
0.0
 40
0.0
 40
0.0
 40
0.2436408454
 40
0.5000044213
 40
0.7563656951
 40
1.0
 40
1.0
 40
1.0
 40
1.0
 10
2.2770904982
 20
2.2657115877
 30
0.0
 10
2.3893738643
 20
2.17016273
 30
0.0
 10
2.6004194112
 20
1.9506809122
 30
0.0
 10
2.8604802685
 20
1.5718535359
 30
0.0
 10
3.0585223969
 20
1.157224156
 30
0.0
 10
3.14307345
 20
0.8647169537
 30
0.0
 10
3.169676891
 20
0.7197058218
 30
0.0
  0
SPLINE
  5
39B
100
AcDbEntity
  8
SMUSSO
100
AcDbSpline
 62
7
  6
CONTINUOUS
 70
0
 71
3
 72
9
 73
5
 74
0
 42
0.0000001
 43
0.0000001
 44
0.0000000001
 40
0.0
 40
0.0
 40
0.0
 40
0.0
 40
0.2594906421
 40
1.0
 40
1.0
 40
1.0
 40
1.0
 10
3.169676891
 20
0.7197058218
 30
0.0
 10
3.1749909553
 20
0.6907397014
 30
0.0
 10
3.1931898934
 20
0.5787209988
 30
0.0
 10
3.2020544387
 20
0.4650751974
 30
0.0
 10
3.2020544388
 20
0.3810349414
 30
0.0
  0
SPLINE
  5
39C
100
AcDbEntity
  8
SMUSSO
100
AcDbSpline
 62
7
  6
CONTINUOUS
 70
0
 71
3
 72
9
 73
5
 74
0
 42
0.0000001
 43
0.0000001
 44
0.0000000001
 40
0.0
 40
0.0
 40
0.0
 40
0.0
 40
0.2403060145
 40
1.0
 40
1.0
 40
1.0
 40
1.0
 10
-13.909929666
 20
11.6492795705
 30
0.0
 10
-13.8863096036
 20
11.6356416425
 30
0.0
 10
-13.7894795811
 20
11.5763712752
 30
0.0
 10
-13.6984788535
 20
11.507769856
 30
0.0
 10
-13.6328120785
 20
11.4518899376
 30
0.0
  0
SPLINE
  5
39D
100
AcDbEntity
  8
SMUSSO
100
AcDbSpline
 62
7
  6
CONTINUOUS
 70
0
 71
3
 72
11
 73
7
 74
0
 42
0.0000001
 43
0.0000001
 44
0.0000000001
 40
0.0
 40
0.0
 40
0.0
 40
0.0
 40
0.2436408454
 40
0.5000044213
 40
0.7563656951
 40
1.0
 40
1.0
 40
1.0
 40
1.0
 10
-13.6328120785
 20
11.4518899376
 30
0.0
 10
-13.5205287124
 20
11.3563410799
 30
0.0
 10
-13.3094831655
 20
11.1368592621
 30
0.0
 10
-13.0494223082
 20
10.7580318858
 30
0.0
 10
-12.8513801798
 20
10.3434025059
 30
0.0
 10
-12.7668291267
 20
10.0508953036
 30
0.0
 10
-12.7402256857
 20
9.9058841716
 30
0.0
  0
SPLINE
  5
39E
100
AcDbEntity
  8
SMUSSO
100
AcDbSpline
 62
7
  6
CONTINUOUS
 70
0
 71
3
 72
9
 73
5
 74
0
 42
0.0000001
 43
0.0000001
 44
0.0000000001
 40
0.0
 40
0.0
 40
0.0
 40
0.0
 40
0.2594906421
 40
1.0
 40
1.0
 40
1.0
 40
1.0
 10
-12.7402256857
 20
9.9058841716
 30
0.0
 10
-12.7349116214
 20
9.8769180512
 30
0.0
 10
-12.7167126833
 20
9.7648993487
 30
0.0
 10
-12.707848138
 20
9.6512535473
 30
0.0
 10
-12.7078481379
 20
9.5672132913
 30
0.0
  0
SPLINE
  5
39F
100
AcDbEntity
  8
SMUSSO
100
AcDbSpline
 62
7
  6
CONTINUOUS
 70
0
 71
3
 72
9
 73
5
 74
0
 42
0.0000001
 43
0.0000001
 44
0.0000000001
 40
0.0
 40
0.0
 40
0.0
 40
0.0
 40
0.2403060145
 40
1.0
 40
1.0
 40
1.0
 40
1.0
 10
-29.8198322426
 20
20.8354579204
 30
0.0
 10
-29.7962121803
 20
20.8218199923
 30
0.0
 10
-29.6993821578
 20
20.7625496251
 30
0.0
 10
-29.6083814302
 20
20.6939482059
 30
0.0
 10
-29.5427146552
 20
20.6380682874
 30
0.0
  0
SPLINE
  5
3A0
100
AcDbEntity
  8
SMUSSO
100
AcDbSpline
 62
7
  6
CONTINUOUS
 70
0
 71
3
 72
11
 73
7
 74
0
 42
0.0000001
 43
0.0000001
 44
0.0000000001
 40
0.0
 40
0.0
 40
0.0
 40
0.0
 40
0.2436408454
 40
0.5000044213
 40
0.7563656951
 40
1.0
 40
1.0
 40
1.0
 40
1.0
 10
-29.5427146552
 20
20.6380682874
 30
0.0
 10
-29.4304312891
 20
20.5425194298
 30
0.0
 10
-29.2193857422
 20
20.323037612
 30
0.0
 10
-28.9593248849
 20
19.9442102357
 30
0.0
 10
-28.7612827565
 20
19.5295808558
 30
0.0
 10
-28.6767317034
 20
19.2370736534
 30
0.0
 10
-28.6501282624
 20
19.0920625215
 30
0.0
  0
SPLINE
  5
3A1
100
AcDbEntity
  8
SMUSSO
100
AcDbSpline
 62
7
  6
CONTINUOUS
 70
0
 71
3
 72
9
 73
5
 74
0
 42
0.0000001
 43
0.0000001
 44
0.0000000001
 40
0.0
 40
0.0
 40
0.0
 40
0.0
 40
0.2594906421
 40
1.0
 40
1.0
 40
1.0
 40
1.0
 10
-28.6501282624
 20
19.0920625215
 30
0.0
 10
-28.6448141981
 20
19.0630964011
 30
0.0
 10
-28.62661526
 20
18.9510776986
 30
0.0
 10
-28.6177507147
 20
18.8374318972
 30
0.0
 10
-28.6177507146
 20
18.7533916412
 30
0.0
  0
SPLINE
  5
3A2
100
AcDbEntity
  8
SMUSSO
100
AcDbSpline
 62
7
  6
CONTINUOUS
 70
0
 71
3
 72
9
 73
5
 74
0
 42
0.0000001
 43
0.0000001
 44
0.0000000001
 40
0.0
 40
0.0
 40
0.0
 40
0.0
 40
0.5167962532
 40
1.0
 40
1.0
 40
1.0
 40
1.0
 10
-13.1121261171
 20
-1.4837226105
 30
0.0
 10
-13.0738209052
 20
-1.4889390539
 30
0.0
 10
-12.9984658484
 20
-1.4921083073
 30
0.0
 10
-12.9241542613
 20
-1.4778336064
 30
0.0
 10
-12.8898516538
 20
-1.4664381336
 30
0.0
  0
SPLINE
  5
3A3
100
AcDbEntity
  8
SMUSSO
100
AcDbSpline
 62
7
  6
CONTINUOUS
 70
0
 71
3
 72
9
 73
5
 74
0
 42
0.0000001
 43
0.0000001
 44
0.0000000001
 40
0.0
 40
0.0
 40
0.0
 40
0.0
 40
0.5167962532
 40
1.0
 40
1.0
 40
1.0
 40
1.0
 10
2.7977764596
 20
-10.6699009604
 30
0.0
 10
2.8360816715
 20
-10.6751174038
 30
0.0
 10
2.9114367283
 20
-10.6782866572
 30
0.0
 10
2.9857483154
 20
-10.6640119562
 30
0.0
 10
3.0200509229
 20
-10.6526164834
 30
0.0
  0
SPLINE
  5
3A4
100
AcDbEntity
  8
SMUSSO
100
AcDbSpline
 62
7
  6
CONTINUOUS
 70
0
 71
3
 72
9
 73
5
 74
0
 42
0.0000001
 43
0.0000001
 44
0.0000000001
 40
0.0
 40
0.0
 40
0.0
 40
0.0
 40
0.5167962532
 40
1.0
 40
1.0
 40
1.0
 40
1.0
 10
18.7076790363
 20
-19.8560793102
 30
0.0
 10
18.7459842482
 20
-19.8612957537
 30
0.0
 10
18.821339305
 20
-19.8644650071
 30
0.0
 10
18.8956508921
 20
-19.8501903061
 30
0.0
 10
18.9299534996
 20
-19.8387948333
 30
0.0
  0
SPLINE
  5
3A5
100
AcDbEntity
  8
SMUSSO
100
AcDbSpline
 62
7
  6
CONTINUOUS
 70
0
 71
3
 72
9
 73
5
 74
0
 42
0.0000001
 43
0.0000001
 44
0.0000000001
 40
0.0
 40
0.0
 40
0.0
 40
0.0
 40
0.5167962532
 40
1.0
 40
1.0
 40
1.0
 40
1.0
 10
34.617581613
 20
-29.0422576601
 30
0.0
 10
34.6558868249
 20
-29.0474741035
 30
0.0
 10
34.7312418817
 20
-29.0506433569
 30
0.0
 10
34.8055534688
 20
-29.036368656
 30
0.0
 10
34.8398560763
 20
-29.0249731832
 30
0.0
  0
SPLINE
  5
3A6
100
AcDbEntity
  8
SMUSSO
100
AcDbSpline
 62
7
  6
CONTINUOUS
 70
0
 71
3
 72
9
 73
5
 74
0
 42
0.0000001
 43
0.0000001
 44
0.0000000001
 40
0.0
 40
0.0
 40
0.0
 40
0.0
 40
0.2435928246
 40
1.0
 40
1.0
 40
1.0
 40
1.0
 10
-39.4666724311
 20
26.1952494663
 30
0.0
 10
-39.4755545577
 20
26.1873561583
 30
0.0
 10
-39.5106324185
 20
26.1534047053
 30
0.0
 10
-39.5398361164
 20
26.1135598237
 30
0.0
 10
-39.5583649938
 20
26.0816514428
 30
0.0
  0
SPLINE
  5
3A7
100
AcDbEntity
  8
SMUSSO
100
AcDbSpline
 62
7
  6
CONTINUOUS
 70
0
 71
3
 72
9
 73
5
 74
0
 42
0.0000001
 43
0.0000001
 44
0.0000000001
 40
0.0
 40
0.0
 40
0.0
 40
0.0
 40
0.245123693
 40
1.0
 40
1.0
 40
1.0
 40
1.0
 10
-39.5583649938
 20
26.0816514428
 30
0.0
 10
-39.5615763515
 20
26.0761211981
 30
0.0
 10
-39.5742646484
 20
26.0533219775
 30
0.0
 10
-39.5853129114
 20
26.0296186534
 30
0.0
 10
-39.5927674281
 20
26.0113900369
 30
0.0
  0
SPLINE
  5
3A8
100
AcDbEntity
  8
SMUSSO
100
AcDbSpline
 62
7
  6
CONTINUOUS
 70
0
 71
3
 72
11
 73
7
 74
0
 42
0.0000001
 43
0.0000001
 44
0.0000000001
 40
0.0
 40
0.0
 40
0.0
 40
0.0
 40
0.2177664931
 40
0.4509473057
 40
0.7101859194
 40
1.0
 40
1.0
 40
1.0
 40
1.0
 10
-39.541537098
 20
26.1616862469
 30
0.0
 10
-39.5019549803
 20
26.1845404596
 30
0.0
 10
-39.4109991736
 20
26.2175772233
 30
0.0
 10
-39.2599452572
 20
26.2213535677
 30
0.0
 10
-39.0989228218
 20
26.1825235905
 30
0.0
 10
-38.9941874948
 20
26.1326551162
 30
0.0
 10
-38.94150972
 20
26.1022396292
 30
0.0
  0
SPLINE
  5
3A9
100
AcDbEntity
  8
SMUSSO
100
AcDbSpline
 62
7
  6
CONTINUOUS
 70
0
 71
3
 72
9
 73
5
 74
0
 42
0.0000001
 43
0.0000001
 44
0.0000000001
 40
0.0
 40
0.0
 40
0.0
 40
0.0
 40
0.2435928246
 40
1.0
 40
1.0
 40
1.0
 40
1.0
 10
-23.5567698544
 20
17.0090711165
 30
0.0
 10
-23.565651981
 20
17.0011778084
 30
0.0
 10
-23.6007298418
 20
16.9672263554
 30
0.0
 10
-23.6299335397
 20
16.9273814739
 30
0.0
 10
-23.6484624171
 20
16.8954730929
 30
0.0
  0
SPLINE
  5
3AA
100
AcDbEntity
  8
SMUSSO
100
AcDbSpline
 62
7
  6
CONTINUOUS
 70
0
 71
3
 72
9
 73
5
 74
0
 42
0.0000001
 43
0.0000001
 44
0.0000000001
 40
0.0
 40
0.0
 40
0.0
 40
0.0
 40
0.245123693
 40
1.0
 40
1.0
 40
1.0
 40
1.0
 10
-23.6484624171
 20
16.8954730929
 30
0.0
 10
-23.6516737748
 20
16.8899428482
 30
0.0
 10
-23.6643620717
 20
16.8671436276
 30
0.0
 10
-23.6754103347
 20
16.8434403035
 30
0.0
 10
-23.6828648514
 20
16.825211687
 30
0.0
  0
SPLINE
  5
3AB
100
AcDbEntity
  8
SMUSSO
100
AcDbSpline
 62
7
  6
CONTINUOUS
 70
0
 71
3
 72
11
 73
7
 74
0
 42
0.0000001
 43
0.0000001
 44
0.0000000001
 40
0.0
 40
0.0
 40
0.0
 40
0.0
 40
0.2177664931
 40
0.4509473057
 40
0.7101859194
 40
1.0
 40
1.0
 40
1.0
 40
1.0
 10
-23.6316345213
 20
16.975507897
 30
0.0
 10
-23.5920524036
 20
16.9983621097
 30
0.0
 10
-23.5010965969
 20
17.0313988734
 30
0.0
 10
-23.3500426805
 20
17.0351752178
 30
0.0
 10
-23.1890202451
 20
16.9963452406
 30
0.0
 10
-23.0842849181
 20
16.9464767663
 30
0.0
 10
-23.0316071433
 20
16.9160612793
 30
0.0
  0
SPLINE
  5
3AC
100
AcDbEntity
  8
SMUSSO
100
AcDbSpline
 62
7
  6
CONTINUOUS
 70
0
 71
3
 72
9
 73
5
 74
0
 42
0.0000001
 43
0.0000001
 44
0.0000000001
 40
0.0
 40
0.0
 40
0.0
 40
0.0
 40
0.2435928246
 40
1.0
 40
1.0
 40
1.0
 40
1.0
 10
-7.6468672777
 20
7.8228927666
 30
0.0
 10
-7.6557494043
 20
7.8149994585
 30
0.0
 10
-7.6908272651
 20
7.7810480055
 30
0.0
 10
-7.720030963
 20
7.741203124
 30
0.0
 10
-7.7385598404
 20
7.709294743
 30
0.0
  0
SPLINE
  5
3AD
100
AcDbEntity
  8
SMUSSO
100
AcDbSpline
 62
7
  6
CONTINUOUS
 70
0
 71
3
 72
9
 73
5
 74
0
 42
0.0000001
 43
0.0000001
 44
0.0000000001
 40
0.0
 40
0.0
 40
0.0
 40
0.0
 40
0.245123693
 40
1.0
 40
1.0
 40
1.0
 40
1.0
 10
-7.7385598404
 20
7.709294743
 30
0.0
 10
-7.7417711981
 20
7.7037644984
 30
0.0
 10
-7.754459495
 20
7.6809652777
 30
0.0
 10
-7.765507758
 20
7.6572619536
 30
0.0
 10
-7.7729622747
 20
7.6390333371
 30
0.0
  0
SPLINE
  5
3AE
100
AcDbEntity
  8
SMUSSO
100
AcDbSpline
 62
7
  6
CONTINUOUS
 70
0
 71
3
 72
11
 73
7
 74
0
 42
0.0000001
 43
0.0000001
 44
0.0000000001
 40
0.0
 40
0.0
 40
0.0
 40
0.0
 40
0.2177664931
 40
0.4509473057
 40
0.7101859194
 40
1.0
 40
1.0
 40
1.0
 40
1.0
 10
-7.7217319446
 20
7.7893295471
 30
0.0
 10
-7.6821498269
 20
7.8121837598
 30
0.0
 10
-7.5911940202
 20
7.8452205236
 30
0.0
 10
-7.4401401038
 20
7.848996868
 30
0.0
 10
-7.2791176684
 20
7.8101668907
 30
0.0
 10
-7.1743823414
 20
7.7602984164
 30
0.0
 10
-7.1217045666
 20
7.7298829295
 30
0.0
  0
SPLINE
  5
3AF
100
AcDbEntity
  8
SMUSSO
100
AcDbSpline
 62
7
  6
CONTINUOUS
 70
0
 71
3
 72
9
 73
5
 74
0
 42
0.0000001
 43
0.0000001
 44
0.0000000001
 40
0.0
 40
0.0
 40
0.0
 40
0.0
 40
0.2435928246
 40
1.0
 40
1.0
 40
1.0
 40
1.0
 10
8.263035299
 20
-1.3632855833
 30
0.0
 10
8.2541531724
 20
-1.3711788913
 30
0.0
 10
8.2190753116
 20
-1.4051303444
 30
0.0
 10
8.1898716137
 20
-1.4449752259
 30
0.0
 10
8.1713427363
 20
-1.4768836068
 30
0.0
  0
SPLINE
  5
3B0
100
AcDbEntity
  8
SMUSSO
100
AcDbSpline
 62
7
  6
CONTINUOUS
 70
0
 71
3
 72
9
 73
5
 74
0
 42
0.0000001
 43
0.0000001
 44
0.0000000001
 40
0.0
 40
0.0
 40
0.0
 40
0.0
 40
0.245123693
 40
1.0
 40
1.0
 40
1.0
 40
1.0
 10
8.1713427363
 20
-1.4768836068
 30
0.0
 10
8.1681313786
 20
-1.4824138515
 30
0.0
 10
8.1554430817
 20
-1.5052130722
 30
0.0
 10
8.1443948187
 20
-1.5289163962
 30
0.0
 10
8.136940302
 20
-1.5471450127
 30
0.0
  0
SPLINE
  5
3B1
100
AcDbEntity
  8
SMUSSO
100
AcDbSpline
 62
7
  6
CONTINUOUS
 70
0
 71
3
 72
11
 73
7
 74
0
 42
0.0000001
 43
0.0000001
 44
0.0000000001
 40
0.0
 40
0.0
 40
0.0
 40
0.0
 40
0.2177664931
 40
0.4509473057
 40
0.7101859194
 40
1.0
 40
1.0
 40
1.0
 40
1.0
 10
8.1881706321
 20
-1.3968488028
 30
0.0
 10
8.2277527498
 20
-1.3739945901
 30
0.0
 10
8.3187085564
 20
-1.3409578263
 30
0.0
 10
8.4697624728
 20
-1.3371814819
 30
0.0
 10
8.6307849083
 20
-1.3760114591
 30
0.0
 10
8.7355202353
 20
-1.4258799334
 30
0.0
 10
8.7881980101
 20
-1.4562954204
 30
0.0
  0
SPLINE
  5
3B2
100
AcDbEntity
  8
SMUSSO
100
AcDbSpline
 62
7
  6
CONTINUOUS
 70
0
 71
3
 72
9
 73
5
 74
0
 42
0.0000001
 43
0.0000001
 44
0.0000000001
 40
0.0
 40
0.0
 40
0.0
 40
0.0
 40
0.2435928246
 40
1.0
 40
1.0
 40
1.0
 40
1.0
 10
24.1729378757
 20
-10.5494639332
 30
0.0
 10
24.1640557491
 20
-10.5573572412
 30
0.0
 10
24.1289778883
 20
-10.5913086942
 30
0.0
 10
24.0997741904
 20
-10.6311535757
 30
0.0
 10
24.081245313
 20
-10.6630619567
 30
0.0
  0
SPLINE
  5
3B3
100
AcDbEntity
  8
SMUSSO
100
AcDbSpline
 62
7
  6
CONTINUOUS
 70
0
 71
3
 72
9
 73
5
 74
0
 42
0.0000001
 43
0.0000001
 44
0.0000000001
 40
0.0
 40
0.0
 40
0.0
 40
0.0
 40
0.245123693
 40
1.0
 40
1.0
 40
1.0
 40
1.0
 10
24.081245313
 20
-10.6630619567
 30
0.0
 10
24.0780339553
 20
-10.6685922014
 30
0.0
 10
24.0653456584
 20
-10.691391422
 30
0.0
 10
24.0542973954
 20
-10.7150947461
 30
0.0
 10
24.0468428787
 20
-10.7333233626
 30
0.0
  0
SPLINE
  5
3B4
100
AcDbEntity
  8
SMUSSO
100
AcDbSpline
 62
7
  6
CONTINUOUS
 70
0
 71
3
 72
11
 73
7
 74
0
 42
0.0000001
 43
0.0000001
 44
0.0000000001
 40
0.0
 40
0.0
 40
0.0
 40
0.0
 40
0.2177664931
 40
0.4509473057
 40
0.7101859194
 40
1.0
 40
1.0
 40
1.0
 40
1.0
 10
24.0980732088
 20
-10.5830271526
 30
0.0
 10
24.1376553265
 20
-10.5601729399
 30
0.0
 10
24.2286111331
 20
-10.5271361762
 30
0.0
 10
24.3796650495
 20
-10.5233598318
 30
0.0
 10
24.540687485
 20
-10.562189809
 30
0.0
 10
24.645422812
 20
-10.6120582833
 30
0.0
 10
24.6981005868
 20
-10.6424737703
 30
0.0
  0
SPLINE
  5
3B5
100
AcDbEntity
  8
SMUSSO
100
AcDbSpline
 62
7
  6
CONTINUOUS
 70
0
 71
3
 72
15
 73
11
 74
0
 42
0.0000001
 43
0.0000001
 44
0.0000000001
 40
0.0
 40
0.0
 40
0.0
 40
0.0
 40
0.1141552314
 40
0.2373201618
 40
0.366969896
 40
0.4999939478
 40
0.6330188419
 40
0.7626710351
 40
0.8858398382
 40
1.0
 40
1.0
 40
1.0
 40
1.0
 10
24.3496239945
 20
-21.2185649332
 30
0.0
 10
24.3496239946
 20
-21.3243655429
 30
0.0
 10
24.3690011517
 20
-21.5445228906
 30
0.0
 10
24.4462607861
 20
-21.8766555321
 30
0.0
 10
24.5700107611
 20
-22.2130831575
 30
0.0
 10
24.7356446084
 20
-22.5411574298
 30
0.0
 10
24.9369496926
 20
-22.8486395081
 30
0.0
 10
25.166433112
 20
-23.1240295846
 30
0.0
 10
25.4154441618
 20
-23.3570139355
 30
0.0
 10
25.5964215835
 20
-23.4838817676
 30
0.0
 10
25.6880500805
 20
-23.5367869139
 30
0.0
  0
SPLINE
  5
3B6
100
AcDbEntity
  8
SMUSSO
100
AcDbSpline
 62
7
  6
CONTINUOUS
 70
0
 71
3
 72
15
 73
11
 74
0
 42
0.0000001
 43
0.0000001
 44
0.0000000001
 40
0.0
 40
0.0
 40
0.0
 40
0.0
 40
0.1141552314
 40
0.2373201618
 40
0.366969896
 40
0.4999939478
 40
0.6330188419
 40
0.7626710351
 40
0.8858398382
 40
1.0
 40
1.0
 40
1.0
 40
1.0
 10
8.4397214178
 20
-12.0323865833
 30
0.0
 10
8.4397214179
 20
-12.138187193
 30
0.0
 10
8.459098575
 20
-12.3583445407
 30
0.0
 10
8.5363582094
 20
-12.6904771823
 30
0.0
 10
8.6601081844
 20
-13.0269048077
 30
0.0
 10
8.8257420317
 20
-13.35497908
 30
0.0
 10
9.0270471159
 20
-13.6624611582
 30
0.0
 10
9.2565305353
 20
-13.9378512347
 30
0.0
 10
9.5055415851
 20
-14.1708355856
 30
0.0
 10
9.6865190068
 20
-14.2977034177
 30
0.0
 10
9.7781475038
 20
-14.350608564
 30
0.0
  0
SPLINE
  5
3B7
100
AcDbEntity
  8
SMUSSO
100
AcDbSpline
 62
7
  6
CONTINUOUS
 70
0
 71
3
 72
15
 73
11
 74
0
 42
0.0000001
 43
0.0000001
 44
0.0000000001
 40
0.0
 40
0.0
 40
0.0
 40
0.0
 40
0.1141552314
 40
0.2373201618
 40
0.366969896
 40
0.4999939478
 40
0.6330188419
 40
0.7626710351
 40
0.8858398382
 40
1.0
 40
1.0
 40
1.0
 40
1.0
 10
-7.4701811589
 20
-2.8462082334
 30
0.0
 10
-7.4701811588
 20
-2.9520088432
 30
0.0
 10
-7.4508040017
 20
-3.1721661909
 30
0.0
 10
-7.3735443673
 20
-3.5042988324
 30
0.0
 10
-7.2497943923
 20
-3.8407264578
 30
0.0
 10
-7.084160545
 20
-4.1688007301
 30
0.0
 10
-6.8828554608
 20
-4.4762828084
 30
0.0
 10
-6.6533720414
 20
-4.7516728848
 30
0.0
 10
-6.4043609916
 20
-4.9846572358
 30
0.0
 10
-6.2233835699
 20
-5.1115250678
 30
0.0
 10
-6.1317550729
 20
-5.1644302141
 30
0.0
  0
SPLINE
  5
3B8
100
AcDbEntity
  8
SMUSSO
100
AcDbSpline
 62
7
  6
CONTINUOUS
 70
0
 71
3
 72
15
 73
11
 74
0
 42
0.0000001
 43
0.0000001
 44
0.0000000001
 40
0.0
 40
0.0
 40
0.0
 40
0.0
 40
0.1141552314
 40
0.2373201618
 40
0.366969896
 40
0.4999939478
 40
0.6330188419
 40
0.7626710351
 40
0.8858398382
 40
1.0
 40
1.0
 40
1.0
 40
1.0
 10
-23.3800837356
 20
6.3399701165
 30
0.0
 10
-23.3800837354
 20
6.2341695067
 30
0.0
 10
-23.3607065784
 20
6.014012159
 30
0.0
 10
-23.2834469439
 20
5.6818795175
 30
0.0
 10
-23.159696969
 20
5.3454518921
 30
0.0
 10
-22.9940631217
 20
5.0173776198
 30
0.0
 10
-22.7927580375
 20
4.7098955415
 30
0.0
 10
-22.5632746181
 20
4.4345054651
 30
0.0
 10
-22.3142635682
 20
4.2015211141
 30
0.0
 10
-22.1332861466
 20
4.074653282
 30
0.0
 10
-22.0416576496
 20
4.0217481358
 30
0.0
  0
SPLINE
  5
3B9
100
AcDbEntity
  8
SMUSSO
100
AcDbSpline
 62
7
  6
CONTINUOUS
 70
0
 71
3
 72
15
 73
11
 74
0
 42
0.0000001
 43
0.0000001
 44
0.0000000001
 40
0.0
 40
0.0
 40
0.0
 40
0.0
 40
0.1141552314
 40
0.2373201618
 40
0.366969896
 40
0.4999939478
 40
0.6330188419
 40
0.7626710351
 40
0.8858398382
 40
1.0
 40
1.0
 40
1.0
 40
1.0
 10
-39.2899863123
 20
15.5261484663
 30
0.0
 10
-39.2899863121
 20
15.4203478566
 30
0.0
 10
-39.2706091551
 20
15.2001905089
 30
0.0
 10
-39.1933495206
 20
14.8680578673
 30
0.0
 10
-39.0695995457
 20
14.531630242
 30
0.0
 10
-38.9039656984
 20
14.2035559697
 30
0.0
 10
-38.7026606142
 20
13.8960738914
 30
0.0
 10
-38.4731771948
 20
13.6206838149
 30
0.0
 10
-38.2241661449
 20
13.387699464
 30
0.0
 10
-38.0431887233
 20
13.2608316319
 30
0.0
 10
-37.9515602263
 20
13.2079264856
 30
0.0
  0
SPLINE
  5
3BA
100
AcDbEntity
  8
SMUSSO
100
AcDbSpline
 62
7
  6
CONTINUOUS
 70
0
 71
3
 72
11
 73
7
 74
0
 42
0.0000001
 43
0.0000001
 44
0.0000000001
 40
0.0
 40
0.0
 40
0.0
 40
0.0
 40
0.2898085351
 40
0.5490451078
 40
0.7822281625
 40
1.0
 40
1.0
 40
1.0
 40
1.0
 10
-28.6177507146
 20
8.2209645255
 30
0.0
 10
-28.6177507148
 20
8.1601467479
 30
0.0
 10
-28.6269325517
 20
8.0445282253
 30
0.0
 10
-28.6738116801
 20
7.8856895693
 30
0.0
 10
-28.7525979941
 20
7.7567799682
 30
0.0
 10
-28.8266743024
 20
7.6945344446
 30
0.0
 10
-28.866251474
 20
7.6716830877
 30
0.0
  0
SPLINE
  5
3BB
100
AcDbEntity
  8
SMUSSO
100
AcDbSpline
 62
7
  6
CONTINUOUS
 70
0
 71
3
 72
11
 73
7
 74
0
 42
0.0000001
 43
0.0000001
 44
0.0000000001
 40
0.0
 40
0.0
 40
0.0
 40
0.0
 40
0.2898085351
 40
0.5490451078
 40
0.7822281625
 40
1.0
 40
1.0
 40
1.0
 40
1.0
 10
-12.7078481379
 20
-0.9652138244
 30
0.0
 10
-12.7078481381
 20
-1.0260316019
 30
0.0
 10
-12.717029975
 20
-1.1416501246
 30
0.0
 10
-12.7639091034
 20
-1.3004887806
 30
0.0
 10
-12.8426954174
 20
-1.4293983817
 30
0.0
 10
-12.9167717257
 20
-1.4916439053
 30
0.0
 10
-12.9563488973
 20
-1.5144952622
 30
0.0
  0
SPLINE
  5
3BC
100
AcDbEntity
  8
SMUSSO
100
AcDbSpline
 62
7
  6
CONTINUOUS
 70
0
 71
3
 72
11
 73
7
 74
0
 42
0.0000001
 43
0.0000001
 44
0.0000000001
 40
0.0
 40
0.0
 40
0.0
 40
0.0
 40
0.2898085351
 40
0.5490451078
 40
0.7822281625
 40
1.0
 40
1.0
 40
1.0
 40
1.0
 10
3.2020544388
 20
-10.1513921743
 30
0.0
 10
3.2020544386
 20
-10.2122099518
 30
0.0
 10
3.1928726017
 20
-10.3278284745
 30
0.0
 10
3.1459934733
 20
-10.4866671305
 30
0.0
 10
3.0672071593
 20
-10.6155767316
 30
0.0
 10
2.993130851
 20
-10.6778222552
 30
0.0
 10
2.9535536794
 20
-10.7006736121
 30
0.0
  0
SPLINE
  5
3BD
100
AcDbEntity
  8
SMUSSO
100
AcDbSpline
 62
7
  6
CONTINUOUS
 70
0
 71
3
 72
11
 73
7
 74
0
 42
0.0000001
 43
0.0000001
 44
0.0000000001
 40
0.0
 40
0.0
 40
0.0
 40
0.0
 40
0.2898085351
 40
0.5490451078
 40
0.7822281625
 40
1.0
 40
1.0
 40
1.0
 40
1.0
 10
19.1119570155
 20
-19.3375705242
 30
0.0
 10
19.1119570153
 20
-19.3983883017
 30
0.0
 10
19.1027751784
 20
-19.5140068244
 30
0.0
 10
19.05589605
 20
-19.6728454804
 30
0.0
 10
18.977109736
 20
-19.8017550814
 30
0.0
 10
18.9030334277
 20
-19.8640006051
 30
0.0
 10
18.8634562561
 20
-19.886851962
 30
0.0
  0
SPLINE
  5
3BE
100
AcDbEntity
  8
SMUSSO
100
AcDbSpline
 62
7
  6
CONTINUOUS
 70
0
 71
3
 72
11
 73
7
 74
0
 42
0.0000001
 43
0.0000001
 44
0.0000000001
 40
0.0
 40
0.0
 40
0.0
 40
0.0
 40
0.2898085351
 40
0.5490451078
 40
0.7822281625
 40
1.0
 40
1.0
 40
1.0
 40
1.0
 10
35.0218595922
 20
-28.523748874
 30
0.0
 10
35.021859592
 20
-28.5845666516
 30
0.0
 10
35.0126777551
 20
-28.7001851742
 30
0.0
 10
34.9657986267
 20
-28.8590238302
 30
0.0
 10
34.8870123127
 20
-28.9879334313
 30
0.0
 10
34.8129360044
 20
-29.0501789549
 30
0.0
 10
34.7733588328
 20
-29.0730303118
 30
0.0
  0
SPLINE
  5
3BF
100
AcDbEntity
  8
SMUSSO
100
AcDbSpline
 62
7
  6
CONTINUOUS
 70
0
 71
3
 72
9
 73
5
 74
0
 42
0.0000001
 43
0.0000001
 44
0.0000000001
 40
0.0
 40
0.0
 40
0.0
 40
0.0
 40
0.2314216155
 40
1.0
 40
1.0
 40
1.0
 40
1.0
 10
24.0468428787
 20
-10.7333233626
 30
0.0
 10
24.03740016
 20
-10.7564137529
 30
0.0
 10
24.0026801108
 20
-10.858683188
 30
0.0
 10
23.9909938062
 20
-10.9678032003
 30
0.0
 10
23.9909938056
 20
-11.0506536718
 30
0.0
  0
SPLINE
  5
3C0
100
AcDbEntity
  8
SMUSSO
100
AcDbSpline
 62
7
  6
CONTINUOUS
 70
0
 71
3
 72
15
 73
11
 74
0
 42
0.0000001
 43
0.0000001
 44
0.0000000001
 40
0.0
 40
0.0
 40
0.0
 40
0.0
 40
0.1449018481
 40
0.2745170406
 40
0.3911053286
 40
0.4999889043
 40
0.6088744936
 40
0.7254681391
 40
0.8550905429
 40
1.0
 40
1.0
 40
1.0
 40
1.0
 10
19.1119570155
 20
-19.7458451175
 30
0.0
 10
19.1119570153
 20
-19.8320086381
 30
0.0
 10
19.0989365582
 20
-19.9958171716
 30
0.0
 10
19.0325617632
 20
-20.2208232223
 30
0.0
 10
18.9207907847
 20
-20.4035326955
 30
0.0
 10
18.765641316
 20
-20.5340120358
 30
0.0
 10
18.5750574984
 20
-20.6031149205
 30
0.0
 10
18.3609323305
 20
-20.6085378964
 30
0.0
 10
18.1328759043
 20
-20.5535010349
 30
0.0
 10
17.9844980016
 20
-20.4828638838
 30
0.0
 10
17.9098754874
 20
-20.4397777794
 30
0.0
  0
SPLINE
  5
3C1
100
AcDbEntity
  8
SMUSSO
100
AcDbSpline
 62
7
  6
CONTINUOUS
 70
0
 71
3
 72
11
 73
7
 74
0
 42
0.0000001
 43
0.0000001
 44
0.0000000001
 40
0.0
 40
0.0
 40
0.0
 40
0.0
 40
0.2177664931
 40
0.4509473057
 40
0.7101859194
 40
1.0
 40
1.0
 40
1.0
 40
1.0
 10
-28.866251474
 20
7.6716830877
 30
0.0
 10
-28.9058335917
 20
7.648828875
 30
0.0
 10
-28.9967893984
 20
7.6157921112
 30
0.0
 10
-29.1478433148
 20
7.6120157668
 30
0.0
 10
-29.3088657502
 20
7.6508457441
 30
0.0
 10
-29.4136010772
 20
7.7007142183
 30
0.0
 10
-29.4662788521
 20
7.7311297053
 30
0.0
  0
SPLINE
  5
3C2
100
AcDbEntity
  8
SMUSSO
100
AcDbSpline
 62
7
  6
CONTINUOUS
 70
0
 71
3
 72
11
 73
7
 74
0
 42
0.0000001
 43
0.0000001
 44
0.0000000001
 40
0.0
 40
0.0
 40
0.0
 40
0.0
 40
0.2177664931
 40
0.4509473057
 40
0.7101859194
 40
1.0
 40
1.0
 40
1.0
 40
1.0
 10
-12.9563488973
 20
-1.5144952622
 30
0.0
 10
-12.995931015
 20
-1.5373494749
 30
0.0
 10
-13.0868868217
 20
-1.5703862387
 30
0.0
 10
-13.2379407381
 20
-1.5741625831
 30
0.0
 10
-13.3989631735
 20
-1.5353326058
 30
0.0
 10
-13.5036985005
 20
-1.4854641316
 30
0.0
 10
-13.5563762754
 20
-1.4550486446
 30
0.0
  0
SPLINE
  5
3C3
100
AcDbEntity
  8
SMUSSO
100
AcDbSpline
 62
7
  6
CONTINUOUS
 70
0
 71
3
 72
15
 73
11
 74
0
 42
0.0000001
 43
0.0000001
 44
0.0000000001
 40
0.0
 40
0.0
 40
0.0
 40
0.0
 40
0.1449018481
 40
0.2745170406
 40
0.3911053286
 40
0.4999889043
 40
0.6088744936
 40
0.7254681391
 40
0.8550905429
 40
1.0
 40
1.0
 40
1.0
 40
1.0
 10
-8.6773394852
 20
7.2400481093
 30
0.0
 10
-8.677339485
 20
7.3262116299
 30
0.0
 10
-8.6643190279
 20
7.4900201635
 30
0.0
 10
-8.5979442329
 20
7.7150262141
 30
0.0
 10
-8.4861732544
 20
7.8977356873
 30
0.0
 10
-8.3310237857
 20
8.0282150276
 30
0.0
 10
-8.1404399681
 20
8.0973179123
 30
0.0
 10
-7.9263148002
 20
8.1027408883
 30
0.0
 10
-7.698258374
 20
8.0477040268
 30
0.0
 10
-7.5498804713
 20
7.9770668756
 30
0.0
 10
-7.4752579572
 20
7.9339807712
 30
0.0
  0
SPLINE
  5
3C4
100
AcDbEntity
  8
SMUSSO
100
AcDbSpline
 62
7
  6
CONTINUOUS
 70
0
 71
3
 72
11
 73
7
 74
0
 42
0.0000001
 43
0.0000001
 44
0.0000000001
 40
0.0
 40
0.0
 40
0.0
 40
0.0
 40
0.2177664931
 40
0.4509473057
 40
0.7101859194
 40
1.0
 40
1.0
 40
1.0
 40
1.0
 10
2.9535536794
 20
-10.7006736121
 30
0.0
 10
2.9139715617
 20
-10.7235278248
 30
0.0
 10
2.823015755
 20
-10.7565645885
 30
0.0
 10
2.6719618386
 20
-10.7603409329
 30
0.0
 10
2.5109394032
 20
-10.7215109557
 30
0.0
 10
2.4062040762
 20
-10.6716424815
 30
0.0
 10
2.3535263013
 20
-10.6412269944
 30
0.0
  0
SPLINE
  5
3C5
100
AcDbEntity
  8
SMUSSO
100
AcDbSpline
 62
7
  6
CONTINUOUS
 70
0
 71
3
 72
13
 73
9
 74
0
 42
0.0000001
 43
0.0000001
 44
0.0000000001
 40
0.0
 40
0.0
 40
0.0
 40
0.0
 40
0.1142615865
 40
0.2375404667
 40
0.5000060664
 40
0.7624683449
 40
0.8857433485
 40
1.0
 40
1.0
 40
1.0
 40
1.0
 10
-7.4752579572
 20
-5.7827198789
 30
0.0
 10
-7.5575519437
 20
-5.7352043623
 30
0.0
 10
-7.7201136955
 20
-5.6212634871
 30
0.0
 10
-8.0244184862
 20
-5.3364018418
 30
0.0
 10
-8.3458976337
 20
-4.8973245316
 30
0.0
 10
-8.565409786
 20
-4.3993797304
 30
0.0
 10
-8.6599490699
 20
-3.9934221417
 30
0.0
 10
-8.6773394851
 20
-3.7956759367
 30
0.0
 10
-8.6773394852
 20
-3.7006535997
 30
0.0
  0
SPLINE
  5
3C6
100
AcDbEntity
  8
SMUSSO
100
AcDbSpline
 62
7
  6
CONTINUOUS
 70
0
 71
3
 72
11
 73
7
 74
0
 42
0.0000001
 43
0.0000001
 44
0.0000000001
 40
0.0
 40
0.0
 40
0.0
 40
0.0
 40
0.2177664931
 40
0.4509473057
 40
0.7101859194
 40
1.0
 40
1.0
 40
1.0
 40
1.0
 10
18.8634562561
 20
-19.886851962
 30
0.0
 10
18.8238741384
 20
-19.9097061747
 30
0.0
 10
18.7329183317
 20
-19.9427429384
 30
0.0
 10
18.5818644153
 20
-19.9465192828
 30
0.0
 10
18.4208419799
 20
-19.9076893056
 30
0.0
 10
18.3161066529
 20
-19.8578208313
 30
0.0
 10
18.263428878
 20
-19.8274053443
 30
0.0
  0
SPLINE
  5
3C7
100
AcDbEntity
  8
SMUSSO
100
AcDbSpline
 62
7
  6
CONTINUOUS
 70
0
 71
3
 72
15
 73
11
 74
0
 42
0.0000001
 43
0.0000001
 44
0.0000000001
 40
0.0
 40
0.0
 40
0.0
 40
0.0
 40
0.1449018481
 40
0.2745170406
 40
0.3911053286
 40
0.4999889043
 40
0.6088744936
 40
0.7254681391
 40
0.8550905429
 40
1.0
 40
1.0
 40
1.0
 40
1.0
 10
3.2020544388
 20
-10.5596667676
 30
0.0
 10
3.2020544386
 20
-10.6458302882
 30
0.0
 10
3.1890339815
 20
-10.8096388218
 30
0.0
 10
3.1226591865
 20
-11.0346448724
 30
0.0
 10
3.010888208
 20
-11.2173543456
 30
0.0
 10
2.8557387393
 20
-11.347833686
 30
0.0
 10
2.6651549217
 20
-11.4169365706
 30
0.0
 10
2.4510297538
 20
-11.4223595466
 30
0.0
 10
2.2229733276
 20
-11.3673226851
 30
0.0
 10
2.0745954249
 20
-11.2966855339
 30
0.0
 10
1.9999729107
 20
-11.2535994295
 30
0.0
  0
SPLINE
  5
3C8
100
AcDbEntity
  8
SMUSSO
100
AcDbSpline
 62
7
  6
CONTINUOUS
 70
0
 71
3
 72
11
 73
7
 74
0
 42
0.0000001
 43
0.0000001
 44
0.0000000001
 40
0.0
 40
0.0
 40
0.0
 40
0.0
 40
0.2177664931
 40
0.4509473057
 40
0.7101859194
 40
1.0
 40
1.0
 40
1.0
 40
1.0
 10
34.7733588328
 20
-29.0730303118
 30
0.0
 10
34.7337767151
 20
-29.0958845245
 30
0.0
 10
34.6428209084
 20
-29.1289212883
 30
0.0
 10
34.491766992
 20
-29.1326976327
 30
0.0
 10
34.3307445566
 20
-29.0938676554
 30
0.0
 10
34.2260092296
 20
-29.0439991812
 30
0.0
 10
34.1733314547
 20
-29.0135836942
 30
0.0
  0
SPLINE
  5
3C9
100
AcDbEntity
  8
SMUSSO
100
AcDbSpline
 62
7
  6
CONTINUOUS
 70
0
 71
3
 72
9
 73
5
 74
0
 42
0.0000001
 43
0.0000001
 44
0.0000000001
 40
0.0
 40
0.0
 40
0.0
 40
0.0
 40
0.2314216155
 40
1.0
 40
1.0
 40
1.0
 40
1.0
 10
-23.6828648514
 20
16.825211687
 30
0.0
 10
-23.6923075701
 20
16.8021212967
 30
0.0
 10
-23.7270276193
 20
16.6998518616
 30
0.0
 10
-23.7387139239
 20
16.5907318494
 30
0.0
 10
-23.7387139244
 20
16.5078813779
 30
0.0
  0
SPLINE
  5
3CA
100
AcDbEntity
  8
SMUSSO
100
AcDbSpline
 62
7
  6
CONTINUOUS
 70
0
 71
3
 72
15
 73
11
 74
0
 42
0.0000001
 43
0.0000001
 44
0.0000000001
 40
0.0
 40
0.0
 40
0.0
 40
0.0
 40
0.1449018481
 40
0.2745170406
 40
0.3911053286
 40
0.4999889043
 40
0.6088744936
 40
0.7254681391
 40
0.8550905429
 40
1.0
 40
1.0
 40
1.0
 40
1.0
 10
-24.5872420619
 20
16.4262264592
 30
0.0
 10
-24.5872420617
 20
16.5123899798
 30
0.0
 10
-24.5742216046
 20
16.6761985133
 30
0.0
 10
-24.5078468096
 20
16.901204564
 30
0.0
 10
-24.3960758311
 20
17.0839140372
 30
0.0
 10
-24.2409263624
 20
17.2143933775
 30
0.0
 10
-24.0503425448
 20
17.2834962622
 30
0.0
 10
-23.8362173769
 20
17.2889192381
 30
0.0
 10
-23.6081609507
 20
17.2338823766
 30
0.0
 10
-23.459783048
 20
17.1632452255
 30
0.0
 10
-23.3851605339
 20
17.1201591211
 30
0.0
  0
SPLINE
  5
3CB
100
AcDbEntity
  8
SMUSSO
100
AcDbSpline
 62
7
  6
CONTINUOUS
 70
0
 71
3
 72
13
 73
9
 74
0
 42
0.0000001
 43
0.0000001
 44
0.0000000001
 40
0.0
 40
0.0
 40
0.0
 40
0.0
 40
0.1142615865
 40
0.2375404667
 40
0.5000060664
 40
0.7624683449
 40
0.8857433485
 40
1.0
 40
1.0
 40
1.0
 40
1.0
 10
-23.3851605339
 20
3.403458471
 30
0.0
 10
-23.4674545204
 20
3.4509739876
 30
0.0
 10
-23.6300162722
 20
3.5649148628
 30
0.0
 10
-23.9343210629
 20
3.8497765081
 30
0.0
 10
-24.2558002104
 20
4.2888538183
 30
0.0
 10
-24.4753123627
 20
4.7867986195
 30
0.0
 10
-24.5698516466
 20
5.1927562081
 30
0.0
 10
-24.5872420618
 20
5.3905024132
 30
0.0
 10
-24.5872420619
 20
5.4855247502
 30
0.0
  0
SPLINE
  5
3CC
100
AcDbEntity
  8
SMUSSO
100
AcDbSpline
 62
7
  6
CONTINUOUS
 70
0
 71
3
 72
15
 73
11
 74
0
 42
0.0000001
 43
0.0000001
 44
0.0000000001
 40
0.0
 40
0.0
 40
0.0
 40
0.0
 40
0.1449018481
 40
0.2745170406
 40
0.3911053286
 40
0.4999889043
 40
0.6088744936
 40
0.7254681391
 40
0.8550905429
 40
1.0
 40
1.0
 40
1.0
 40
1.0
 10
-12.7078481379
 20
-1.3734884177
 30
0.0
 10
-12.7078481381
 20
-1.4596519383
 30
0.0
 10
-12.7208685952
 20
-1.6234604719
 30
0.0
 10
-12.7872433902
 20
-1.8484665226
 30
0.0
 10
-12.8990143687
 20
-2.0311759957
 30
0.0
 10
-13.0541638374
 20
-2.1616553361
 30
0.0
 10
-13.244747655
 20
-2.2307582207
 30
0.0
 10
-13.4588728229
 20
-2.2361811967
 30
0.0
 10
-13.6869292491
 20
-2.1811443352
 30
0.0
 10
-13.8353071518
 20
-2.110507184
 30
0.0
 10
-13.909929666
 20
-2.0674210796
 30
0.0
  0
SPLINE
  5
3CD
100
AcDbEntity
  8
SMUSSO
100
AcDbSpline
 62
7
  6
CONTINUOUS
 70
0
 71
3
 72
15
 73
11
 74
0
 42
0.0000001
 43
0.0000001
 44
0.0000000001
 40
0.0
 40
0.0
 40
0.0
 40
0.0
 40
0.1449018481
 40
0.2745170406
 40
0.3911053286
 40
0.4999889043
 40
0.6088744936
 40
0.7254681391
 40
0.8550905429
 40
1.0
 40
1.0
 40
1.0
 40
1.0
 10
23.1424656682
 20
-11.1323085904
 30
0.0
 10
23.1424656684
 20
-11.0461450699
 30
0.0
 10
23.1554861255
 20
-10.8823365363
 30
0.0
 10
23.2218609205
 20
-10.6573304856
 30
0.0
 10
23.333631899
 20
-10.4746210124
 30
0.0
 10
23.4887813677
 20
-10.3441416721
 30
0.0
 10
23.6793651852
 20
-10.2750387875
 30
0.0
 10
23.8934903532
 20
-10.2696158115
 30
0.0
 10
24.1215467794
 20
-10.324652673
 30
0.0
 10
24.2699246821
 20
-10.3952898242
 30
0.0
 10
24.3445471962
 20
-10.4383759285
 30
0.0
  0
SPLINE
  5
3CE
100
AcDbEntity
  8
SMUSSO
100
AcDbSpline
 62
7
  6
CONTINUOUS
 70
0
 71
3
 72
13
 73
9
 74
0
 42
0.0000001
 43
0.0000001
 44
0.0000000001
 40
0.0
 40
0.0
 40
0.0
 40
0.0
 40
0.1142615865
 40
0.2375404667
 40
0.5000060664
 40
0.7624683449
 40
0.8857433485
 40
1.0
 40
1.0
 40
1.0
 40
1.0
 10
24.3445471962
 20
-24.1550765787
 30
0.0
 10
24.2622532097
 20
-24.107561062
 30
0.0
 10
24.0996914579
 20
-23.9936201868
 30
0.0
 10
23.7953866672
 20
-23.7087585415
 30
0.0
 10
23.4739075197
 20
-23.2696812313
 30
0.0
 10
23.2543953674
 20
-22.7717364301
 30
0.0
 10
23.1598560835
 20
-22.3657788415
 30
0.0
 10
23.1424656683
 20
-22.1680326364
 30
0.0
 10
23.1424656682
 20
-22.0730102995
 30
0.0
  0
SPLINE
  5
3CF
100
AcDbEntity
  8
SMUSSO
100
AcDbSpline
 62
7
  6
CONTINUOUS
 70
0
 71
3
 72
15
 73
11
 74
0
 42
0.0000001
 43
0.0000001
 44
0.0000000001
 40
0.0
 40
0.0
 40
0.0
 40
0.0
 40
0.1449018481
 40
0.2745170406
 40
0.3911053286
 40
0.4999889043
 40
0.6088744936
 40
0.7254681391
 40
0.8550905429
 40
1.0
 40
1.0
 40
1.0
 40
1.0
 10
-40.4971446386
 20
25.6124048091
 30
0.0
 10
-40.4971446384
 20
25.6985683296
 30
0.0
 10
-40.4841241813
 20
25.8623768632
 30
0.0
 10
-40.4177493863
 20
26.0873829139
 30
0.0
 10
-40.3059784078
 20
26.2700923871
 30
0.0
 10
-40.1508289391
 20
26.4005717274
 30
0.0
 10
-39.9602451215
 20
26.469674612
 30
0.0
 10
-39.7461199536
 20
26.475097588
 30
0.0
 10
-39.5180635274
 20
26.4200607265
 30
0.0
 10
-39.3696856247
 20
26.3494235753
 30
0.0
 10
-39.2950631105
 20
26.306337471
 30
0.0
  0
SPLINE
  5
3D0
100
AcDbEntity
  8
SMUSSO
100
AcDbSpline
 62
7
  6
CONTINUOUS
 70
0
 71
3
 72
13
 73
9
 74
0
 42
0.0000001
 43
0.0000001
 44
0.0000000001
 40
0.0
 40
0.0
 40
0.0
 40
0.0
 40
0.1142615865
 40
0.2375404667
 40
0.5000060664
 40
0.7624683449
 40
0.8857433485
 40
1.0
 40
1.0
 40
1.0
 40
1.0
 10
-39.2950631105
 20
12.5896368208
 30
0.0
 10
-39.3773570971
 20
12.6371523375
 30
0.0
 10
-39.5399188489
 20
12.7510932127
 30
0.0
 10
-39.8442236396
 20
13.035954858
 30
0.0
 10
-40.1657027871
 20
13.4750321682
 30
0.0
 10
-40.3852149394
 20
13.9729769694
 30
0.0
 10
-40.4797542233
 20
14.378934558
 30
0.0
 10
-40.4971446385
 20
14.5766807631
 30
0.0
 10
-40.4971446386
 20
14.6717031
 30
0.0
  0
SPLINE
  5
3D1
100
AcDbEntity
  8
SMUSSO
100
AcDbSpline
 62
7
  6
CONTINUOUS
 70
0
 71
3
 72
15
 73
11
 74
0
 42
0.0000001
 43
0.0000001
 44
0.0000000001
 40
0.0
 40
0.0
 40
0.0
 40
0.0
 40
0.1449018481
 40
0.2745170406
 40
0.3911053286
 40
0.4999889043
 40
0.6088744936
 40
0.7254681391
 40
0.8550905429
 40
1.0
 40
1.0
 40
1.0
 40
1.0
 10
-28.6177507146
 20
7.8126899321
 30
0.0
 10
-28.6177507148
 20
7.7265264116
 30
0.0
 10
-28.6307711719
 20
7.562717878
 30
0.0
 10
-28.6971459669
 20
7.3377118273
 30
0.0
 10
-28.8089169454
 20
7.1550023541
 30
0.0
 10
-28.9640664141
 20
7.0245230138
 30
0.0
 10
-29.1546502317
 20
6.9554201292
 30
0.0
 10
-29.3687753996
 20
6.9499971532
 30
0.0
 10
-29.5968318258
 20
7.0050340147
 30
0.0
 10
-29.7452097285
 20
7.0756711659
 30
0.0
 10
-29.8198322426
 20
7.1187572702
 30
0.0
  0
SPLINE
  5
3D2
100
AcDbEntity
  8
SMUSSO
100
AcDbSpline
 62
7
  6
CONTINUOUS
 70
0
 71
3
 72
15
 73
11
 74
0
 42
0.0000001
 43
0.0000001
 44
0.0000000001
 40
0.0
 40
0.0
 40
0.0
 40
0.0
 40
0.1449018481
 40
0.2745170406
 40
0.3911053286
 40
0.4999889043
 40
0.6088744936
 40
0.7254681391
 40
0.8550905429
 40
1.0
 40
1.0
 40
1.0
 40
1.0
 10
35.0218595922
 20
-28.9320234674
 30
0.0
 10
35.021859592
 20
-29.0181869879
 30
0.0
 10
35.0088391349
 20
-29.1819955215
 30
0.0
 10
34.9424643399
 20
-29.4070015722
 30
0.0
 10
34.8306933614
 20
-29.5897110454
 30
0.0
 10
34.6755438926
 20
-29.7201903857
 30
0.0
 10
34.4849600751
 20
-29.7892932703
 30
0.0
 10
34.2708349072
 20
-29.7947162463
 30
0.0
 10
34.042778481
 20
-29.7396793848
 30
0.0
 10
33.8944005783
 20
-29.6690422336
 30
0.0
 10
33.8197780641
 20
-29.6259561293
 30
0.0
  0
SPLINE
  5
3D3
100
AcDbEntity
  8
SMUSSO
100
AcDbSpline
 62
7
  6
CONTINUOUS
 70
0
 71
3
 72
9
 73
5
 74
0
 42
0.0000001
 43
0.0000001
 44
0.0000000001
 40
0.0
 40
0.0
 40
0.0
 40
0.0
 40
0.2314216155
 40
1.0
 40
1.0
 40
1.0
 40
1.0
 10
-39.5927674281
 20
26.0113900369
 30
0.0
 10
-39.6022101468
 20
25.9882996466
 30
0.0
 10
-39.636930196
 20
25.8860302115
 30
0.0
 10
-39.6486165006
 20
25.7769101992
 30
0.0
 10
-39.6486165011
 20
25.6940597277
 30
0.0
  0
SPLINE
  5
3D4
100
AcDbEntity
  8
SMUSSO
100
AcDbSpline
 62
7
  6
CONTINUOUS
 70
0
 71
3
 72
9
 73
5
 74
0
 42
0.0000001
 43
0.0000001
 44
0.0000000001
 40
0.0
 40
0.0
 40
0.0
 40
0.0
 40
0.2314216155
 40
1.0
 40
1.0
 40
1.0
 40
1.0
 10
-7.7729622747
 20
7.6390333371
 30
0.0
 10
-7.7824049934
 20
7.6159429468
 30
0.0
 10
-7.8171250426
 20
7.5136735118
 30
0.0
 10
-7.8288113472
 20
7.4045534995
 30
0.0
 10
-7.8288113477
 20
7.321703028
 30
0.0
  0
SPLINE
  5
3D5
100
AcDbEntity
  8
SMUSSO
100
AcDbSpline
 62
7
  6
CONTINUOUS
 70
0
 71
3
 72
11
 73
7
 74
0
 42
0.0000001
 43
0.0000001
 44
0.0000000001
 40
0.0
 40
0.0
 40
0.0
 40
0.0
 40
0.2372212577
 40
0.5000061067
 40
0.7627876313
 40
1.0
 40
1.0
 40
1.0
 40
1.0
 10
-38.94150972
 20
13.2020092559
 30
0.0
 10
-39.0619650021
 20
13.2715586258
 30
0.0
 10
-39.2899343492
 20
13.463424967
 30
0.0
 10
-39.5560158855
 20
13.8270306543
 30
0.0
 10
-39.7378654129
 20
14.23926179
 30
0.0
 10
-39.7900378574
 20
14.5326162926
 30
0.0
 10
-39.7900378574
 20
14.6717031
 30
0.0
  0
SPLINE
  5
3D6
100
AcDbEntity
  8
SMUSSO
100
AcDbSpline
 62
7
  6
CONTINUOUS
 70
0
 71
3
 72
11
 73
7
 74
0
 42
0.0000001
 43
0.0000001
 44
0.0000000001
 40
0.0
 40
0.0
 40
0.0
 40
0.0
 40
0.2372123692
 40
0.4999938933
 40
0.7627787423
 40
1.0
 40
1.0
 40
1.0
 40
1.0
 10
-39.6486165011
 20
14.7533580187
 30
0.0
 10
-39.6486165009
 20
14.614271211
 30
0.0
 10
-39.5964440568
 20
14.3209167083
 30
0.0
 10
-39.4145945289
 20
13.9086855729
 30
0.0
 10
-39.1485129933
 20
13.5450798851
 30
0.0
 10
-38.9205436452
 20
13.3532135456
 30
0.0
 10
-38.8000883637
 20
13.2836641746
 30
0.0
  0
SPLINE
  5
3D7
100
AcDbEntity
  8
SMUSSO
100
AcDbSpline
 62
7
  6
CONTINUOUS
 70
0
 71
3
 72
15
 73
11
 74
0
 42
0.0000001
 43
0.0000001
 44
0.0000000001
 40
0.0
 40
0.0
 40
0.0
 40
0.0
 40
0.1449018481
 40
0.2745170406
 40
0.3911053286
 40
0.4999889043
 40
0.6088744936
 40
0.7254681391
 40
0.8550905429
 40
1.0
 40
1.0
 40
1.0
 40
1.0
 10
7.2325630915
 20
-1.9461302406
 30
0.0
 10
7.2325630917
 20
-1.85996672
 30
0.0
 10
7.2455835488
 20
-1.6961581864
 30
0.0
 10
7.3119583438
 20
-1.4711521357
 30
0.0
 10
7.4237293223
 20
-1.2884426626
 30
0.0
 10
7.578878791
 20
-1.1579633222
 30
0.0
 10
7.7694626086
 20
-1.0888604376
 30
0.0
 10
7.9835877765
 20
-1.0834374616
 30
0.0
 10
8.2116442027
 20
-1.1384743231
 30
0.0
 10
8.3600221054
 20
-1.2091114743
 30
0.0
 10
8.4346446195
 20
-1.2521975787
 30
0.0
  0
SPLINE
  5
3D8
100
AcDbEntity
  8
SMUSSO
100
AcDbSpline
 62
7
  6
CONTINUOUS
 70
0
 71
3
 72
9
 73
5
 74
0
 42
0.0000001
 43
0.0000001
 44
0.0000000001
 40
0.0
 40
0.0
 40
0.0
 40
0.0
 40
0.2698702211
 40
1.0
 40
1.0
 40
1.0
 40
1.0
 10
-29.3248574958
 20
7.812784624
 30
0.0
 10
-29.2996660166
 20
7.7982393797
 30
0.0
 10
-29.2043921777
 20
7.7480097681
 30
0.0
 10
-29.1000090044
 20
7.7130751788
 30
0.0
 10
-29.0220286938
 20
7.7024557394
 30
0.0
  0
SPLINE
  5
3D9
100
AcDbEntity
  8
SMUSSO
100
AcDbSpline
 62
7
  6
CONTINUOUS
 70
0
 71
3
 72
11
 73
7
 74
0
 42
0.0000001
 43
0.0000001
 44
0.0000000001
 40
0.0
 40
0.0
 40
0.0
 40
0.0
 40
0.2839245087
 40
0.5435005414
 40
0.7805115514
 40
1.0
 40
1.0
 40
1.0
 40
1.0
 10
-39.7900378574
 20
25.6124048091
 30
0.0
 10
-39.7900378575
 20
25.6624749509
 30
0.0
 10
-39.7837206167
 20
25.7585229119
 30
0.0
 10
-39.7523568458
 20
25.8932880711
 30
0.0
 10
-39.699934852
 20
26.0091819492
 30
0.0
 10
-39.6498684903
 20
26.0735256358
 30
0.0
 10
-39.6221365348
 20
26.1005285496
 30
0.0
  0
SPLINE
  5
3DA
100
AcDbEntity
  8
SMUSSO
100
AcDbSpline
 62
7
  6
CONTINUOUS
 70
0
 71
3
 72
9
 73
5
 74
0
 42
0.0000001
 43
0.0000001
 44
0.0000000001
 40
0.0
 40
0.0
 40
0.0
 40
0.0
 40
0.2525081685
 40
1.0
 40
1.0
 40
1.0
 40
1.0
 10
-39.6221365348
 20
26.1005285496
 30
0.0
 10
-39.6160263741
 20
26.106478081
 30
0.0
 10
-39.5911306804
 20
26.1293112516
 30
0.0
 10
-39.5634003332
 20
26.1490626922
 30
0.0
 10
-39.541537098
 20
26.1616862469
 30
0.0
  0
SPLINE
  5
3DB
100
AcDbEntity
  8
SMUSSO
100
AcDbSpline
 62
7
  6
CONTINUOUS
 70
0
 71
3
 72
11
 73
7
 74
0
 42
0.0000001
 43
0.0000001
 44
0.0000000001
 40
0.0
 40
0.0
 40
0.0
 40
0.0
 40
0.2372212577
 40
0.5000061067
 40
0.7627876313
 40
1.0
 40
1.0
 40
1.0
 40
1.0
 10
-23.0316071433
 20
4.015830906
 30
0.0
 10
-23.1520624254
 20
4.0853802759
 30
0.0
 10
-23.3800317725
 20
4.2772466171
 30
0.0
 10
-23.6461133088
 20
4.6408523044
 30
0.0
 10
-23.8279628362
 20
5.0530834401
 30
0.0
 10
-23.8801352807
 20
5.3464379428
 30
0.0
 10
-23.8801352807
 20
5.4855247502
 30
0.0
  0
SPLINE
  5
3DC
100
AcDbEntity
  8
SMUSSO
100
AcDbSpline
 62
7
  6
CONTINUOUS
 70
0
 71
3
 72
11
 73
7
 74
0
 42
0.0000001
 43
0.0000001
 44
0.0000000001
 40
0.0
 40
0.0
 40
0.0
 40
0.0
 40
0.2372123692
 40
0.4999938933
 40
0.7627787423
 40
1.0
 40
1.0
 40
1.0
 40
1.0
 10
-23.7387139244
 20
5.5671796688
 30
0.0
 10
-23.7387139242
 20
5.4280928611
 30
0.0
 10
-23.6865414801
 20
5.1347383584
 30
0.0
 10
-23.5046919522
 20
4.722507223
 30
0.0
 10
-23.2386104166
 20
4.3589015352
 30
0.0
 10
-23.0106410685
 20
4.1670351957
 30
0.0
 10
-22.890185787
 20
4.0974858247
 30
0.0
  0
SPLINE
  5
3DD
100
AcDbEntity
  8
SMUSSO
100
AcDbSpline
 62
7
  6
CONTINUOUS
 70
0
 71
3
 72
9
 73
5
 74
0
 42
0.0000001
 43
0.0000001
 44
0.0000000001
 40
0.0
 40
0.0
 40
0.0
 40
0.0
 40
0.2698702211
 40
1.0
 40
1.0
 40
1.0
 40
1.0
 10
-13.4149549191
 20
-1.3733937259
 30
0.0
 10
-13.3897634399
 20
-1.3879389702
 30
0.0
 10
-13.294489601
 20
-1.4381685818
 30
0.0
 10
-13.1901064277
 20
-1.473103171
 30
0.0
 10
-13.1121261171
 20
-1.4837226105
 30
0.0
  0
SPLINE
  5
3DE
100
AcDbEntity
  8
SMUSSO
100
AcDbSpline
 62
7
  6
CONTINUOUS
 70
0
 71
3
 72
11
 73
7
 74
0
 42
0.0000001
 43
0.0000001
 44
0.0000000001
 40
0.0
 40
0.0
 40
0.0
 40
0.0
 40
0.2839245087
 40
0.5435005414
 40
0.7805115514
 40
1.0
 40
1.0
 40
1.0
 40
1.0
 10
-23.8801352807
 20
16.4262264592
 30
0.0
 10
-23.8801352808
 20
16.4762966011
 30
0.0
 10
-23.87381804
 20
16.5723445621
 30
0.0
 10
-23.8424542691
 20
16.7071097212
 30
0.0
 10
-23.7900322753
 20
16.8230035993
 30
0.0
 10
-23.7399659136
 20
16.8873472859
 30
0.0
 10
-23.7122339581
 20
16.9143501997
 30
0.0
  0
SPLINE
  5
3DF
100
AcDbEntity
  8
SMUSSO
100
AcDbSpline
 62
7
  6
CONTINUOUS
 70
0
 71
3
 72
9
 73
5
 74
0
 42
0.0000001
 43
0.0000001
 44
0.0000000001
 40
0.0
 40
0.0
 40
0.0
 40
0.0
 40
0.2525081685
 40
1.0
 40
1.0
 40
1.0
 40
1.0
 10
-23.7122339581
 20
16.9143501997
 30
0.0
 10
-23.7061237974
 20
16.9202997311
 30
0.0
 10
-23.6812281037
 20
16.9431329017
 30
0.0
 10
-23.6534977565
 20
16.9628843423
 30
0.0
 10
-23.6316345213
 20
16.975507897
 30
0.0
  0
SPLINE
  5
3E0
100
AcDbEntity
  8
SMUSSO
100
AcDbSpline
 62
7
  6
CONTINUOUS
 70
0
 71
3
 72
11
 73
7
 74
0
 42
0.0000001
 43
0.0000001
 44
0.0000000001
 40
0.0
 40
0.0
 40
0.0
 40
0.0
 40
0.2372212577
 40
0.5000061067
 40
0.7627876313
 40
1.0
 40
1.0
 40
1.0
 40
1.0
 10
-7.1217045666
 20
-5.1703474439
 30
0.0
 10
-7.2421598487
 20
-5.100798074
 30
0.0
 10
-7.4701291958
 20
-4.9089317328
 30
0.0
 10
-7.7362107321
 20
-4.5453260455
 30
0.0
 10
-7.9180602595
 20
-4.1330949097
 30
0.0
 10
-7.970232704
 20
-3.8397404071
 30
0.0
 10
-7.970232704
 20
-3.7006535997
 30
0.0
  0
SPLINE
  5
3E1
100
AcDbEntity
  8
SMUSSO
100
AcDbSpline
 62
7
  6
CONTINUOUS
 70
0
 71
3
 72
11
 73
7
 74
0
 42
0.0000001
 43
0.0000001
 44
0.0000000001
 40
0.0
 40
0.0
 40
0.0
 40
0.0
 40
0.2372123692
 40
0.4999938933
 40
0.7627787423
 40
1.0
 40
1.0
 40
1.0
 40
1.0
 10
-7.8288113477
 20
-3.618998681
 30
0.0
 10
-7.8288113475
 20
-3.7580854887
 30
0.0
 10
-7.7766389034
 20
-4.0514399914
 30
0.0
 10
-7.5947893755
 20
-4.4636711269
 30
0.0
 10
-7.3287078399
 20
-4.8272768146
 30
0.0
 10
-7.1007384918
 20
-5.0191431542
 30
0.0
 10
-6.9802832103
 20
-5.0886925252
 30
0.0
  0
SPLINE
  5
3E2
100
AcDbEntity
  8
SMUSSO
100
AcDbSpline
 62
7
  6
CONTINUOUS
 70
0
 71
3
 72
9
 73
5
 74
0
 42
0.0000001
 43
0.0000001
 44
0.0000000001
 40
0.0
 40
0.0
 40
0.0
 40
0.0
 40
0.2698702211
 40
1.0
 40
1.0
 40
1.0
 40
1.0
 10
2.4949476576
 20
-10.5595720758
 30
0.0
 10
2.5201391368
 20
-10.5741173201
 30
0.0
 10
2.6154129757
 20
-10.6243469316
 30
0.0
 10
2.719796149
 20
-10.6592815209
 30
0.0
 10
2.7977764596
 20
-10.6699009604
 30
0.0
  0
SPLINE
  5
3E3
100
AcDbEntity
  8
SMUSSO
100
AcDbSpline
 62
7
  6
CONTINUOUS
 70
0
 71
3
 72
11
 73
7
 74
0
 42
0.0000001
 43
0.0000001
 44
0.0000000001
 40
0.0
 40
0.0
 40
0.0
 40
0.0
 40
0.2839245087
 40
0.5435005414
 40
0.7805115514
 40
1.0
 40
1.0
 40
1.0
 40
1.0
 10
-7.970232704
 20
7.2400481093
 30
0.0
 10
-7.9702327041
 20
7.2901182512
 30
0.0
 10
-7.9639154633
 20
7.3861662122
 30
0.0
 10
-7.9325516924
 20
7.5209313714
 30
0.0
 10
-7.8801296986
 20
7.6368252494
 30
0.0
 10
-7.8300633369
 20
7.701168936
 30
0.0
 10
-7.8023313814
 20
7.7281718498
 30
0.0
  0
SPLINE
  5
3E4
100
AcDbEntity
  8
SMUSSO
100
AcDbSpline
 62
7
  6
CONTINUOUS
 70
0
 71
3
 72
9
 73
5
 74
0
 42
0.0000001
 43
0.0000001
 44
0.0000000001
 40
0.0
 40
0.0
 40
0.0
 40
0.0
 40
0.2525081685
 40
1.0
 40
1.0
 40
1.0
 40
1.0
 10
-7.8023313814
 20
7.7281718498
 30
0.0
 10
-7.7962212207
 20
7.7341213812
 30
0.0
 10
-7.771325527
 20
7.7569545519
 30
0.0
 10
-7.7435951798
 20
7.7767059924
 30
0.0
 10
-7.7217319446
 20
7.7893295471
 30
0.0
  0
SPLINE
  5
3E5
100
AcDbEntity
  8
SMUSSO
100
AcDbSpline
 62
7
  6
CONTINUOUS
 70
0
 71
3
 72
11
 73
7
 74
0
 42
0.0000001
 43
0.0000001
 44
0.0000000001
 40
0.0
 40
0.0
 40
0.0
 40
0.0
 40
0.2372212577
 40
0.5000061067
 40
0.7627876313
 40
1.0
 40
1.0
 40
1.0
 40
1.0
 10
8.7881980101
 20
-14.3565257937
 30
0.0
 10
8.667742728
 20
-14.2869764238
 30
0.0
 10
8.4397733809
 20
-14.0951100826
 30
0.0
 10
8.1736918446
 20
-13.7315043954
 30
0.0
 10
7.9918423172
 20
-13.3192732596
 30
0.0
 10
7.9396698727
 20
-13.025918757
 30
0.0
 10
7.9396698727
 20
-12.8868319496
 30
0.0
  0
SPLINE
  5
3E6
100
AcDbEntity
  8
SMUSSO
100
AcDbSpline
 62
7
  6
CONTINUOUS
 70
0
 71
3
 72
11
 73
7
 74
0
 42
0.0000001
 43
0.0000001
 44
0.0000000001
 40
0.0
 40
0.0
 40
0.0
 40
0.0
 40
0.2372123692
 40
0.4999938933
 40
0.7627787423
 40
1.0
 40
1.0
 40
1.0
 40
1.0
 10
8.081091229
 20
-12.8051770309
 30
0.0
 10
8.0810912292
 20
-12.9442638386
 30
0.0
 10
8.1332636733
 20
-13.2376183413
 30
0.0
 10
8.3151132012
 20
-13.6498494767
 30
0.0
 10
8.5811947368
 20
-14.0134551645
 30
0.0
 10
8.8091640849
 20
-14.2053215041
 30
0.0
 10
8.9296193664
 20
-14.2748708751
 30
0.0
  0
SPLINE
  5
3E7
100
AcDbEntity
  8
SMUSSO
100
AcDbSpline
 62
7
  6
CONTINUOUS
 70
0
 71
3
 72
9
 73
5
 74
0
 42
0.0000001
 43
0.0000001
 44
0.0000000001
 40
0.0
 40
0.0
 40
0.0
 40
0.0
 40
0.2698702211
 40
1.0
 40
1.0
 40
1.0
 40
1.0
 10
18.4048502343
 20
-19.7457504257
 30
0.0
 10
18.4300417135
 20
-19.76029567
 30
0.0
 10
18.5253155524
 20
-19.8105252815
 30
0.0
 10
18.6296987257
 20
-19.8454598708
 30
0.0
 10
18.7076790363
 20
-19.8560793102
 30
0.0
  0
SPLINE
  5
3E8
100
AcDbEntity
  8
SMUSSO
100
AcDbSpline
 62
7
  6
CONTINUOUS
 70
0
 71
3
 72
11
 73
7
 74
0
 42
0.0000001
 43
0.0000001
 44
0.0000000001
 40
0.0
 40
0.0
 40
0.0
 40
0.0
 40
0.2839245087
 40
0.5435005414
 40
0.7805115514
 40
1.0
 40
1.0
 40
1.0
 40
1.0
 10
7.9396698727
 20
-1.9461302406
 30
0.0
 10
7.9396698726
 20
-1.8960600987
 30
0.0
 10
7.9459871134
 20
-1.8000121377
 30
0.0
 10
7.9773508843
 20
-1.6652469785
 30
0.0
 10
8.0297728781
 20
-1.5493531004
 30
0.0
 10
8.0798392398
 20
-1.4850094138
 30
0.0
 10
8.1075711953
 20
-1.4580065001
 30
0.0
  0
SPLINE
  5
3E9
100
AcDbEntity
  8
SMUSSO
100
AcDbSpline
 62
7
  6
CONTINUOUS
 70
0
 71
3
 72
9
 73
5
 74
0
 42
0.0000001
 43
0.0000001
 44
0.0000000001
 40
0.0
 40
0.0
 40
0.0
 40
0.0
 40
0.2525081685
 40
1.0
 40
1.0
 40
1.0
 40
1.0
 10
8.1075711953
 20
-1.4580065001
 30
0.0
 10
8.113681356
 20
-1.4520569686
 30
0.0
 10
8.1385770497
 20
-1.429223798
 30
0.0
 10
8.1663073969
 20
-1.4094723574
 30
0.0
 10
8.1881706321
 20
-1.3968488028
 30
0.0
  0
SPLINE
  5
3EA
100
AcDbEntity
  8
SMUSSO
100
AcDbSpline
 62
7
  6
CONTINUOUS
 70
0
 71
3
 72
9
 73
5
 74
0
 42
0.0000001
 43
0.0000001
 44
0.0000000001
 40
0.0
 40
0.0
 40
0.0
 40
0.0
 40
0.2314216155
 40
1.0
 40
1.0
 40
1.0
 40
1.0
 10
8.136940302
 20
-1.5471450127
 30
0.0
 10
8.1274975833
 20
-1.570235403
 30
0.0
 10
8.0927775341
 20
-1.6725048381
 30
0.0
 10
8.0810912295
 20
-1.7816248504
 30
0.0
 10
8.081091229
 20
-1.8644753219
 30
0.0
  0
SPLINE
  5
3EB
100
AcDbEntity
  8
SMUSSO
100
AcDbSpline
 62
7
  6
CONTINUOUS
 70
0
 71
3
 72
13
 73
9
 74
0
 42
0.0000001
 43
0.0000001
 44
0.0000000001
 40
0.0
 40
0.0
 40
0.0
 40
0.0
 40
0.1142615865
 40
0.2375404667
 40
0.5000060664
 40
0.7624683449
 40
0.8857433485
 40
1.0
 40
1.0
 40
1.0
 40
1.0
 10
8.4346446195
 20
-14.9688982288
 30
0.0
 10
8.352350633
 20
-14.9213827121
 30
0.0
 10
8.1897888812
 20
-14.807441837
 30
0.0
 10
7.8854840905
 20
-14.5225801916
 30
0.0
 10
7.564004943
 20
-14.0835028815
 30
0.0
 10
7.3444927907
 20
-13.5855580803
 30
0.0
 10
7.2499535068
 20
-13.1796004916
 30
0.0
 10
7.2325630916
 20
-12.9818542866
 30
0.0
 10
7.2325630915
 20
-12.8868319496
 30
0.0
  0
SPLINE
  5
3EC
100
AcDbEntity
  8
SMUSSO
100
AcDbSpline
 62
7
  6
CONTINUOUS
 70
0
 71
3
 72
11
 73
7
 74
0
 42
0.0000001
 43
0.0000001
 44
0.0000000001
 40
0.0
 40
0.0
 40
0.0
 40
0.0
 40
0.2372212577
 40
0.5000061067
 40
0.7627876313
 40
1.0
 40
1.0
 40
1.0
 40
1.0
 10
24.6981005868
 20
-23.5427041436
 30
0.0
 10
24.5776453047
 20
-23.4731547737
 30
0.0
 10
24.3496759576
 20
-23.2812884325
 30
0.0
 10
24.0835944213
 20
-22.9176827452
 30
0.0
 10
23.9017448939
 20
-22.5054516095
 30
0.0
 10
23.8495724494
 20
-22.2120971069
 30
0.0
 10
23.8495724494
 20
-22.0730102995
 30
0.0
  0
SPLINE
  5
3ED
100
AcDbEntity
  8
SMUSSO
100
AcDbSpline
 62
7
  6
CONTINUOUS
 70
0
 71
3
 72
11
 73
7
 74
0
 42
0.0000001
 43
0.0000001
 44
0.0000000001
 40
0.0
 40
0.0
 40
0.0
 40
0.0
 40
0.2372123692
 40
0.4999938933
 40
0.7627787423
 40
1.0
 40
1.0
 40
1.0
 40
1.0
 10
23.9909938056
 20
-21.9913553808
 30
0.0
 10
23.9909938059
 20
-22.1304421885
 30
0.0
 10
24.04316625
 20
-22.4237966912
 30
0.0
 10
24.2250157779
 20
-22.8360278266
 30
0.0
 10
24.4910973135
 20
-23.1996335144
 30
0.0
 10
24.7190666616
 20
-23.3914998539
 30
0.0
 10
24.8395219431
 20
-23.4610492249
 30
0.0
  0
SPLINE
  5
3EE
100
AcDbEntity
  8
SMUSSO
100
AcDbSpline
 62
7
  6
CONTINUOUS
 70
0
 71
3
 72
9
 73
5
 74
0
 42
0.0000001
 43
0.0000001
 44
0.0000000001
 40
0.0
 40
0.0
 40
0.0
 40
0.0
 40
0.2698702211
 40
1.0
 40
1.0
 40
1.0
 40
1.0
 10
34.314752811
 20
-28.9319287755
 30
0.0
 10
34.3399442902
 20
-28.9464740198
 30
0.0
 10
34.4352181291
 20
-28.9967036314
 30
0.0
 10
34.5396013024
 20
-29.0316382206
 30
0.0
 10
34.617581613
 20
-29.0422576601
 30
0.0
  0
SPLINE
  5
3EF
100
AcDbEntity
  8
SMUSSO
100
AcDbSpline
 62
7
  6
CONTINUOUS
 70
0
 71
3
 72
11
 73
7
 74
0
 42
0.0000001
 43
0.0000001
 44
0.0000000001
 40
0.0
 40
0.0
 40
0.0
 40
0.0
 40
0.2839245087
 40
0.5435005414
 40
0.7805115514
 40
1.0
 40
1.0
 40
1.0
 40
1.0
 10
23.8495724494
 20
-11.1323085904
 30
0.0
 10
23.8495724493
 20
-11.0822384486
 30
0.0
 10
23.8558896901
 20
-10.9861904876
 30
0.0
 10
23.887253461
 20
-10.8514253284
 30
0.0
 10
23.9396754548
 20
-10.7355314503
 30
0.0
 10
23.9897418165
 20
-10.6711877637
 30
0.0
 10
24.017473772
 20
-10.6441848499
 30
0.0
  0
SPLINE
  5
3F0
100
AcDbEntity
  8
SMUSSO
100
AcDbSpline
 62
7
  6
CONTINUOUS
 70
0
 71
3
 72
9
 73
5
 74
0
 42
0.0000001
 43
0.0000001
 44
0.0000000001
 40
0.0
 40
0.0
 40
0.0
 40
0.0
 40
0.2525081685
 40
1.0
 40
1.0
 40
1.0
 40
1.0
 10
24.017473772
 20
-10.6441848499
 30
0.0
 10
24.0235839327
 20
-10.6382353185
 30
0.0
 10
24.0484796264
 20
-10.6154021479
 30
0.0
 10
24.0762099736
 20
-10.5956507073
 30
0.0
 10
24.0980732088
 20
-10.5830271526
 30
0.0
  0
SPLINE
  5
3F1
100
AcDbEntity
  8
ASSI
100
AcDbSpline
 62
7
  6
CONTINUOUS
 70
0
 71
3
 72
9
 73
5
 74
0
 42
0.0000001
 43
0.0000001
 44
0.0000000001
 40
0.0
 40
0.0
 40
0.0
 40
0.0
 40
0.2403060145
 40
1.0
 40
1.0
 40
1.0
 40
1.0
 10
33.8197780641
 20
-15.9092554791
 30
0.0
 10
33.8433981265
 20
-15.9228934072
 30
0.0
 10
33.940228149
 20
-15.9821637744
 30
0.0
 10
34.0312288766
 20
-16.0507651936
 30
0.0
 10
34.0968956516
 20
-16.1066451121
 30
0.0
  0
SPLINE
  5
3F2
100
AcDbEntity
  8
ASSI
100
AcDbSpline
 62
7
  6
CONTINUOUS
 70
0
 71
3
 72
11
 73
7
 74
0
 42
0.0000001
 43
0.0000001
 44
0.0000000001
 40
0.0
 40
0.0
 40
0.0
 40
0.0
 40
0.2436408454
 40
0.5000044213
 40
0.7563656951
 40
1.0
 40
1.0
 40
1.0
 40
1.0
 10
34.0968956516
 20
-16.1066451121
 30
0.0
 10
34.2091790177
 20
-16.2021939697
 30
0.0
 10
34.4202245646
 20
-16.4216757875
 30
0.0
 10
34.6802854219
 20
-16.8005031638
 30
0.0
 10
34.8783275503
 20
-17.2151325437
 30
0.0
 10
34.9628786034
 20
-17.5076397461
 30
0.0
 10
34.9894820444
 20
-17.652650878
 30
0.0
  0
SPLINE
  5
3F3
100
AcDbEntity
  8
ASSI
100
AcDbSpline
 62
7
  6
CONTINUOUS
 70
0
 71
3
 72
9
 73
5
 74
0
 42
0.0000001
 43
0.0000001
 44
0.0000000001
 40
0.0
 40
0.0
 40
0.0
 40
0.0
 40
0.2594906421
 40
1.0
 40
1.0
 40
1.0
 40
1.0
 10
34.9894820444
 20
-17.652650878
 30
0.0
 10
34.9947961087
 20
-17.6816169984
 30
0.0
 10
35.0129950468
 20
-17.7936357009
 30
0.0
 10
35.0218595921
 20
-17.9072815023
 30
0.0
 10
35.0218595922
 20
-17.9913217583
 30
0.0
  0
SPLINE
  5
3F4
100
AcDbEntity
  8
ASSI
100
AcDbSpline
 62
7
  6
CONTINUOUS
 70
0
 71
3
 72
9
 73
5
 74
0
 42
0.0000001
 43
0.0000001
 44
0.0000000001
 40
0.0
 40
0.0
 40
0.0
 40
0.0
 40
0.2403060145
 40
1.0
 40
1.0
 40
1.0
 40
1.0
 10
17.9098754874
 20
-6.7230771293
 30
0.0
 10
17.9334955498
 20
-6.7367150573
 30
0.0
 10
18.0303255723
 20
-6.7959854245
 30
0.0
 10
18.1213262999
 20
-6.8645868437
 30
0.0
 10
18.1869930749
 20
-6.9204667622
 30
0.0
  0
SPLINE
  5
3F5
100
AcDbEntity
  8
ASSI
100
AcDbSpline
 62
7
  6
CONTINUOUS
 70
0
 71
3
 72
11
 73
7
 74
0
 42
0.0000001
 43
0.0000001
 44
0.0000000001
 40
0.0
 40
0.0
 40
0.0
 40
0.0
 40
0.2436408454
 40
0.5000044213
 40
0.7563656951
 40
1.0
 40
1.0
 40
1.0
 40
1.0
 10
18.1869930749
 20
-6.9204667622
 30
0.0
 10
18.299276441
 20
-7.0160156199
 30
0.0
 10
18.5103219879
 20
-7.2354974377
 30
0.0
 10
18.7703828452
 20
-7.6143248139
 30
0.0
 10
18.9684249736
 20
-8.0289541938
 30
0.0
 10
19.0529760267
 20
-8.3214613962
 30
0.0
 10
19.0795794677
 20
-8.4664725281
 30
0.0
  0
SPLINE
  5
3F6
100
AcDbEntity
  8
ASSI
100
AcDbSpline
 62
7
  6
CONTINUOUS
 70
0
 71
3
 72
9
 73
5
 74
0
 42
0.0000001
 43
0.0000001
 44
0.0000000001
 40
0.0
 40
0.0
 40
0.0
 40
0.0
 40
0.2594906421
 40
1.0
 40
1.0
 40
1.0
 40
1.0
 10
19.0795794677
 20
-8.4664725281
 30
0.0
 10
19.084893532
 20
-8.4954386485
 30
0.0
 10
19.1030924701
 20
-8.607457351
 30
0.0
 10
19.1119570154
 20
-8.7211031524
 30
0.0
 10
19.1119570155
 20
-8.8051434085
 30
0.0
  0
SPLINE
  5
3F7
100
AcDbEntity
  8
ASSI
100
AcDbSpline
 62
7
  6
CONTINUOUS
 70
0
 71
3
 72
9
 73
5
 74
0
 42
0.0000001
 43
0.0000001
 44
0.0000000001
 40
0.0
 40
0.0
 40
0.0
 40
0.0
 40
0.2403060145
 40
1.0
 40
1.0
 40
1.0
 40
1.0
 10
1.9999729107
 20
2.4631012206
 30
0.0
 10
2.0235929731
 20
2.4494632926
 30
0.0
 10
2.1204229956
 20
2.3901929253
 30
0.0
 10
2.2114237232
 20
2.3215915061
 30
0.0
 10
2.2770904982
 20
2.2657115877
 30
0.0
  0
SPLINE
  5
3F8
100
AcDbEntity
  8
ASSI
100
AcDbSpline
 62
7
  6
CONTINUOUS
 70
0
 71
3
 72
11
 73
7
 74
0
 42
0.0000001
 43
0.0000001
 44
0.0000000001
 40
0.0
 40
0.0
 40
0.0
 40
0.0
 40
0.2436408454
 40
0.5000044213
 40
0.7563656951
 40
1.0
 40
1.0
 40
1.0
 40
1.0
 10
2.2770904982
 20
2.2657115877
 30
0.0
 10
2.3893738643
 20
2.17016273
 30
0.0
 10
2.6004194112
 20
1.9506809122
 30
0.0
 10
2.8604802685
 20
1.5718535359
 30
0.0
 10
3.0585223969
 20
1.157224156
 30
0.0
 10
3.14307345
 20
0.8647169537
 30
0.0
 10
3.169676891
 20
0.7197058218
 30
0.0
  0
SPLINE
  5
3F9
100
AcDbEntity
  8
ASSI
100
AcDbSpline
 62
7
  6
CONTINUOUS
 70
0
 71
3
 72
9
 73
5
 74
0
 42
0.0000001
 43
0.0000001
 44
0.0000000001
 40
0.0
 40
0.0
 40
0.0
 40
0.0
 40
0.2594906421
 40
1.0
 40
1.0
 40
1.0
 40
1.0
 10
3.169676891
 20
0.7197058218
 30
0.0
 10
3.1749909553
 20
0.6907397014
 30
0.0
 10
3.1931898934
 20
0.5787209988
 30
0.0
 10
3.2020544387
 20
0.4650751974
 30
0.0
 10
3.2020544388
 20
0.3810349414
 30
0.0
  0
SPLINE
  5
3FA
100
AcDbEntity
  8
ASSI
100
AcDbSpline
 62
7
  6
CONTINUOUS
 70
0
 71
3
 72
9
 73
5
 74
0
 42
0.0000001
 43
0.0000001
 44
0.0000000001
 40
0.0
 40
0.0
 40
0.0
 40
0.0
 40
0.2403060145
 40
1.0
 40
1.0
 40
1.0
 40
1.0
 10
-13.909929666
 20
11.6492795705
 30
0.0
 10
-13.8863096036
 20
11.6356416425
 30
0.0
 10
-13.7894795811
 20
11.5763712752
 30
0.0
 10
-13.6984788535
 20
11.507769856
 30
0.0
 10
-13.6328120785
 20
11.4518899376
 30
0.0
  0
SPLINE
  5
3FB
100
AcDbEntity
  8
ASSI
100
AcDbSpline
 62
7
  6
CONTINUOUS
 70
0
 71
3
 72
11
 73
7
 74
0
 42
0.0000001
 43
0.0000001
 44
0.0000000001
 40
0.0
 40
0.0
 40
0.0
 40
0.0
 40
0.2436408454
 40
0.5000044213
 40
0.7563656951
 40
1.0
 40
1.0
 40
1.0
 40
1.0
 10
-13.6328120785
 20
11.4518899376
 30
0.0
 10
-13.5205287124
 20
11.3563410799
 30
0.0
 10
-13.3094831655
 20
11.1368592621
 30
0.0
 10
-13.0494223082
 20
10.7580318858
 30
0.0
 10
-12.8513801798
 20
10.3434025059
 30
0.0
 10
-12.7668291267
 20
10.0508953036
 30
0.0
 10
-12.7402256857
 20
9.9058841716
 30
0.0
  0
SPLINE
  5
3FC
100
AcDbEntity
  8
ASSI
100
AcDbSpline
 62
7
  6
CONTINUOUS
 70
0
 71
3
 72
9
 73
5
 74
0
 42
0.0000001
 43
0.0000001
 44
0.0000000001
 40
0.0
 40
0.0
 40
0.0
 40
0.0
 40
0.2594906421
 40
1.0
 40
1.0
 40
1.0
 40
1.0
 10
-12.7402256857
 20
9.9058841716
 30
0.0
 10
-12.7349116214
 20
9.8769180512
 30
0.0
 10
-12.7167126833
 20
9.7648993487
 30
0.0
 10
-12.707848138
 20
9.6512535473
 30
0.0
 10
-12.7078481379
 20
9.5672132913
 30
0.0
  0
SPLINE
  5
3FD
100
AcDbEntity
  8
ASSI
100
AcDbSpline
 62
7
  6
CONTINUOUS
 70
0
 71
3
 72
9
 73
5
 74
0
 42
0.0000001
 43
0.0000001
 44
0.0000000001
 40
0.0
 40
0.0
 40
0.0
 40
0.0
 40
0.2403060145
 40
1.0
 40
1.0
 40
1.0
 40
1.0
 10
-29.8198322426
 20
20.8354579204
 30
0.0
 10
-29.7962121803
 20
20.8218199923
 30
0.0
 10
-29.6993821578
 20
20.7625496251
 30
0.0
 10
-29.6083814302
 20
20.6939482059
 30
0.0
 10
-29.5427146552
 20
20.6380682874
 30
0.0
  0
SPLINE
  5
3FE
100
AcDbEntity
  8
ASSI
100
AcDbSpline
 62
7
  6
CONTINUOUS
 70
0
 71
3
 72
11
 73
7
 74
0
 42
0.0000001
 43
0.0000001
 44
0.0000000001
 40
0.0
 40
0.0
 40
0.0
 40
0.0
 40
0.2436408454
 40
0.5000044213
 40
0.7563656951
 40
1.0
 40
1.0
 40
1.0
 40
1.0
 10
-29.5427146552
 20
20.6380682874
 30
0.0
 10
-29.4304312891
 20
20.5425194298
 30
0.0
 10
-29.2193857422
 20
20.323037612
 30
0.0
 10
-28.9593248849
 20
19.9442102357
 30
0.0
 10
-28.7612827565
 20
19.5295808558
 30
0.0
 10
-28.6767317034
 20
19.2370736534
 30
0.0
 10
-28.6501282624
 20
19.0920625215
 30
0.0
  0
SPLINE
  5
3FF
100
AcDbEntity
  8
ASSI
100
AcDbSpline
 62
7
  6
CONTINUOUS
 70
0
 71
3
 72
9
 73
5
 74
0
 42
0.0000001
 43
0.0000001
 44
0.0000000001
 40
0.0
 40
0.0
 40
0.0
 40
0.0
 40
0.2594906421
 40
1.0
 40
1.0
 40
1.0
 40
1.0
 10
-28.6501282624
 20
19.0920625215
 30
0.0
 10
-28.6448141981
 20
19.0630964011
 30
0.0
 10
-28.62661526
 20
18.9510776986
 30
0.0
 10
-28.6177507147
 20
18.8374318972
 30
0.0
 10
-28.6177507146
 20
18.7533916412
 30
0.0
  0
SPLINE
  5
400
100
AcDbEntity
  8
ASSI
100
AcDbSpline
 62
7
  6
CONTINUOUS
 70
0
 71
3
 72
15
 73
11
 74
0
 42
0.0000001
 43
0.0000001
 44
0.0000000001
 40
0.0
 40
0.0
 40
0.0
 40
0.0
 40
0.1141552314
 40
0.2373201618
 40
0.366969896
 40
0.4999939478
 40
0.6330188419
 40
0.7626710351
 40
0.8858398382
 40
1.0
 40
1.0
 40
1.0
 40
1.0
 10
24.3496239945
 20
-21.2185649332
 30
0.0
 10
24.3496239946
 20
-21.3243655429
 30
0.0
 10
24.3690011517
 20
-21.5445228906
 30
0.0
 10
24.4462607861
 20
-21.8766555321
 30
0.0
 10
24.5700107611
 20
-22.2130831575
 30
0.0
 10
24.7356446084
 20
-22.5411574298
 30
0.0
 10
24.9369496926
 20
-22.8486395081
 30
0.0
 10
25.166433112
 20
-23.1240295846
 30
0.0
 10
25.4154441618
 20
-23.3570139355
 30
0.0
 10
25.5964215835
 20
-23.4838817676
 30
0.0
 10
25.6880500805
 20
-23.5367869139
 30
0.0
  0
SPLINE
  5
401
100
AcDbEntity
  8
ASSI
100
AcDbSpline
 62
7
  6
CONTINUOUS
 70
0
 71
3
 72
15
 73
11
 74
0
 42
0.0000001
 43
0.0000001
 44
0.0000000001
 40
0.0
 40
0.0
 40
0.0
 40
0.0
 40
0.1141552314
 40
0.2373201618
 40
0.366969896
 40
0.4999939478
 40
0.6330188419
 40
0.7626710351
 40
0.8858398382
 40
1.0
 40
1.0
 40
1.0
 40
1.0
 10
8.4397214178
 20
-12.0323865833
 30
0.0
 10
8.4397214179
 20
-12.138187193
 30
0.0
 10
8.459098575
 20
-12.3583445407
 30
0.0
 10
8.5363582094
 20
-12.6904771823
 30
0.0
 10
8.6601081844
 20
-13.0269048077
 30
0.0
 10
8.8257420317
 20
-13.35497908
 30
0.0
 10
9.0270471159
 20
-13.6624611582
 30
0.0
 10
9.2565305353
 20
-13.9378512347
 30
0.0
 10
9.5055415851
 20
-14.1708355856
 30
0.0
 10
9.6865190068
 20
-14.2977034177
 30
0.0
 10
9.7781475038
 20
-14.350608564
 30
0.0
  0
SPLINE
  5
402
100
AcDbEntity
  8
ASSI
100
AcDbSpline
 62
7
  6
CONTINUOUS
 70
0
 71
3
 72
15
 73
11
 74
0
 42
0.0000001
 43
0.0000001
 44
0.0000000001
 40
0.0
 40
0.0
 40
0.0
 40
0.0
 40
0.1141552314
 40
0.2373201618
 40
0.366969896
 40
0.4999939478
 40
0.6330188419
 40
0.7626710351
 40
0.8858398382
 40
1.0
 40
1.0
 40
1.0
 40
1.0
 10
-7.4701811589
 20
-2.8462082334
 30
0.0
 10
-7.4701811588
 20
-2.9520088432
 30
0.0
 10
-7.4508040017
 20
-3.1721661909
 30
0.0
 10
-7.3735443673
 20
-3.5042988324
 30
0.0
 10
-7.2497943923
 20
-3.8407264578
 30
0.0
 10
-7.084160545
 20
-4.1688007301
 30
0.0
 10
-6.8828554608
 20
-4.4762828084
 30
0.0
 10
-6.6533720414
 20
-4.7516728848
 30
0.0
 10
-6.4043609916
 20
-4.9846572358
 30
0.0
 10
-6.2233835699
 20
-5.1115250678
 30
0.0
 10
-6.1317550729
 20
-5.1644302141
 30
0.0
  0
SPLINE
  5
403
100
AcDbEntity
  8
ASSI
100
AcDbSpline
 62
7
  6
CONTINUOUS
 70
0
 71
3
 72
15
 73
11
 74
0
 42
0.0000001
 43
0.0000001
 44
0.0000000001
 40
0.0
 40
0.0
 40
0.0
 40
0.0
 40
0.1141552314
 40
0.2373201618
 40
0.366969896
 40
0.4999939478
 40
0.6330188419
 40
0.7626710351
 40
0.8858398382
 40
1.0
 40
1.0
 40
1.0
 40
1.0
 10
-23.3800837356
 20
6.3399701165
 30
0.0
 10
-23.3800837354
 20
6.2341695067
 30
0.0
 10
-23.3607065784
 20
6.014012159
 30
0.0
 10
-23.2834469439
 20
5.6818795175
 30
0.0
 10
-23.159696969
 20
5.3454518921
 30
0.0
 10
-22.9940631217
 20
5.0173776198
 30
0.0
 10
-22.7927580375
 20
4.7098955415
 30
0.0
 10
-22.5632746181
 20
4.4345054651
 30
0.0
 10
-22.3142635682
 20
4.2015211141
 30
0.0
 10
-22.1332861466
 20
4.074653282
 30
0.0
 10
-22.0416576496
 20
4.0217481358
 30
0.0
  0
SPLINE
  5
404
100
AcDbEntity
  8
ASSI
100
AcDbSpline
 62
7
  6
CONTINUOUS
 70
0
 71
3
 72
15
 73
11
 74
0
 42
0.0000001
 43
0.0000001
 44
0.0000000001
 40
0.0
 40
0.0
 40
0.0
 40
0.0
 40
0.1141552314
 40
0.2373201618
 40
0.366969896
 40
0.4999939478
 40
0.6330188419
 40
0.7626710351
 40
0.8858398382
 40
1.0
 40
1.0
 40
1.0
 40
1.0
 10
-39.2899863123
 20
15.5261484663
 30
0.0
 10
-39.2899863121
 20
15.4203478566
 30
0.0
 10
-39.2706091551
 20
15.2001905089
 30
0.0
 10
-39.1933495206
 20
14.8680578673
 30
0.0
 10
-39.0695995457
 20
14.531630242
 30
0.0
 10
-38.9039656984
 20
14.2035559697
 30
0.0
 10
-38.7026606142
 20
13.8960738914
 30
0.0
 10
-38.4731771948
 20
13.6206838149
 30
0.0
 10
-38.2241661449
 20
13.387699464
 30
0.0
 10
-38.0431887233
 20
13.2608316319
 30
0.0
 10
-37.9515602263
 20
13.2079264856
 30
0.0
  0
SPLINE
  5
405
100
AcDbEntity
  8
ASSI
100
AcDbSpline
 62
7
  6
CONTINUOUS
 70
0
 71
3
 72
9
 73
5
 74
0
 42
0.0000001
 43
0.0000001
 44
0.0000000001
 40
0.0
 40
0.0
 40
0.0
 40
0.0
 40
0.5167962532
 40
1.0
 40
1.0
 40
1.0
 40
1.0
 10
-29.0220286938
 20
7.7024557394
 30
0.0
 10
-28.9837234819
 20
7.697239296
 30
0.0
 10
-28.9083684251
 20
7.6940700426
 30
0.0
 10
-28.834056838
 20
7.7083447435
 30
0.0
 10
-28.7997542305
 20
7.7197402163
 30
0.0
  0
SPLINE
  5
406
100
AcDbEntity
  8
ASSI
100
AcDbSpline
 62
7
  6
CONTINUOUS
 70
0
 71
3
 72
9
 73
5
 74
0
 42
0.0000001
 43
0.0000001
 44
0.0000000001
 40
0.0
 40
0.0
 40
0.0
 40
0.0
 40
0.5167962532
 40
1.0
 40
1.0
 40
1.0
 40
1.0
 10
-13.1121261171
 20
-1.4837226105
 30
0.0
 10
-13.0738209052
 20
-1.4889390539
 30
0.0
 10
-12.9984658484
 20
-1.4921083073
 30
0.0
 10
-12.9241542613
 20
-1.4778336064
 30
0.0
 10
-12.8898516538
 20
-1.4664381336
 30
0.0
  0
SPLINE
  5
407
100
AcDbEntity
  8
ASSI
100
AcDbSpline
 62
7
  6
CONTINUOUS
 70
0
 71
3
 72
9
 73
5
 74
0
 42
0.0000001
 43
0.0000001
 44
0.0000000001
 40
0.0
 40
0.0
 40
0.0
 40
0.0
 40
0.5167962532
 40
1.0
 40
1.0
 40
1.0
 40
1.0
 10
2.7977764596
 20
-10.6699009604
 30
0.0
 10
2.8360816715
 20
-10.6751174038
 30
0.0
 10
2.9114367283
 20
-10.6782866572
 30
0.0
 10
2.9857483154
 20
-10.6640119562
 30
0.0
 10
3.0200509229
 20
-10.6526164834
 30
0.0
  0
SPLINE
  5
408
100
AcDbEntity
  8
ASSI
100
AcDbSpline
 62
7
  6
CONTINUOUS
 70
0
 71
3
 72
9
 73
5
 74
0
 42
0.0000001
 43
0.0000001
 44
0.0000000001
 40
0.0
 40
0.0
 40
0.0
 40
0.0
 40
0.5167962532
 40
1.0
 40
1.0
 40
1.0
 40
1.0
 10
18.7076790363
 20
-19.8560793102
 30
0.0
 10
18.7459842482
 20
-19.8612957537
 30
0.0
 10
18.821339305
 20
-19.8644650071
 30
0.0
 10
18.8956508921
 20
-19.8501903061
 30
0.0
 10
18.9299534996
 20
-19.8387948333
 30
0.0
  0
SPLINE
  5
409
100
AcDbEntity
  8
ASSI
100
AcDbSpline
 62
7
  6
CONTINUOUS
 70
0
 71
3
 72
9
 73
5
 74
0
 42
0.0000001
 43
0.0000001
 44
0.0000000001
 40
0.0
 40
0.0
 40
0.0
 40
0.0
 40
0.5167962532
 40
1.0
 40
1.0
 40
1.0
 40
1.0
 10
34.617581613
 20
-29.0422576601
 30
0.0
 10
34.6558868249
 20
-29.0474741035
 30
0.0
 10
34.7312418817
 20
-29.0506433569
 30
0.0
 10
34.8055534688
 20
-29.036368656
 30
0.0
 10
34.8398560763
 20
-29.0249731832
 30
0.0
  0
SPLINE
  5
40A
100
AcDbEntity
  8
ASSI
100
AcDbSpline
 62
7
  6
CONTINUOUS
 70
0
 71
3
 72
9
 73
5
 74
0
 42
0.0000001
 43
0.0000001
 44
0.0000000001
 40
0.0
 40
0.0
 40
0.0
 40
0.0
 40
0.2435928246
 40
1.0
 40
1.0
 40
1.0
 40
1.0
 10
-39.4666724311
 20
26.1952494663
 30
0.0
 10
-39.4755545577
 20
26.1873561583
 30
0.0
 10
-39.5106324185
 20
26.1534047053
 30
0.0
 10
-39.5398361164
 20
26.1135598237
 30
0.0
 10
-39.5583649938
 20
26.0816514428
 30
0.0
  0
SPLINE
  5
40B
100
AcDbEntity
  8
ASSI
100
AcDbSpline
 62
7
  6
CONTINUOUS
 70
0
 71
3
 72
9
 73
5
 74
0
 42
0.0000001
 43
0.0000001
 44
0.0000000001
 40
0.0
 40
0.0
 40
0.0
 40
0.0
 40
0.245123693
 40
1.0
 40
1.0
 40
1.0
 40
1.0
 10
-39.5583649938
 20
26.0816514428
 30
0.0
 10
-39.5615763515
 20
26.0761211981
 30
0.0
 10
-39.5742646484
 20
26.0533219775
 30
0.0
 10
-39.5853129114
 20
26.0296186534
 30
0.0
 10
-39.5927674281
 20
26.0113900369
 30
0.0
  0
SPLINE
  5
40C
100
AcDbEntity
  8
ASSI
100
AcDbSpline
 62
7
  6
CONTINUOUS
 70
0
 71
3
 72
11
 73
7
 74
0
 42
0.0000001
 43
0.0000001
 44
0.0000000001
 40
0.0
 40
0.0
 40
0.0
 40
0.0
 40
0.2177664931
 40
0.4509473057
 40
0.7101859194
 40
1.0
 40
1.0
 40
1.0
 40
1.0
 10
-39.541537098
 20
26.1616862469
 30
0.0
 10
-39.5019549803
 20
26.1845404596
 30
0.0
 10
-39.4109991736
 20
26.2175772233
 30
0.0
 10
-39.2599452572
 20
26.2213535677
 30
0.0
 10
-39.0989228218
 20
26.1825235905
 30
0.0
 10
-38.9941874948
 20
26.1326551162
 30
0.0
 10
-38.94150972
 20
26.1022396292
 30
0.0
  0
SPLINE
  5
40D
100
AcDbEntity
  8
ASSI
100
AcDbSpline
 62
7
  6
CONTINUOUS
 70
0
 71
3
 72
9
 73
5
 74
0
 42
0.0000001
 43
0.0000001
 44
0.0000000001
 40
0.0
 40
0.0
 40
0.0
 40
0.0
 40
0.2435928246
 40
1.0
 40
1.0
 40
1.0
 40
1.0
 10
-23.5567698544
 20
17.0090711165
 30
0.0
 10
-23.565651981
 20
17.0011778084
 30
0.0
 10
-23.6007298418
 20
16.9672263554
 30
0.0
 10
-23.6299335397
 20
16.9273814739
 30
0.0
 10
-23.6484624171
 20
16.8954730929
 30
0.0
  0
SPLINE
  5
40E
100
AcDbEntity
  8
ASSI
100
AcDbSpline
 62
7
  6
CONTINUOUS
 70
0
 71
3
 72
9
 73
5
 74
0
 42
0.0000001
 43
0.0000001
 44
0.0000000001
 40
0.0
 40
0.0
 40
0.0
 40
0.0
 40
0.245123693
 40
1.0
 40
1.0
 40
1.0
 40
1.0
 10
-23.6484624171
 20
16.8954730929
 30
0.0
 10
-23.6516737748
 20
16.8899428482
 30
0.0
 10
-23.6643620717
 20
16.8671436276
 30
0.0
 10
-23.6754103347
 20
16.8434403035
 30
0.0
 10
-23.6828648514
 20
16.825211687
 30
0.0
  0
SPLINE
  5
40F
100
AcDbEntity
  8
ASSI
100
AcDbSpline
 62
7
  6
CONTINUOUS
 70
0
 71
3
 72
11
 73
7
 74
0
 42
0.0000001
 43
0.0000001
 44
0.0000000001
 40
0.0
 40
0.0
 40
0.0
 40
0.0
 40
0.2177664931
 40
0.4509473057
 40
0.7101859194
 40
1.0
 40
1.0
 40
1.0
 40
1.0
 10
-23.6316345213
 20
16.975507897
 30
0.0
 10
-23.5920524036
 20
16.9983621097
 30
0.0
 10
-23.5010965969
 20
17.0313988734
 30
0.0
 10
-23.3500426805
 20
17.0351752178
 30
0.0
 10
-23.1890202451
 20
16.9963452406
 30
0.0
 10
-23.0842849181
 20
16.9464767663
 30
0.0
 10
-23.0316071433
 20
16.9160612793
 30
0.0
  0
SPLINE
  5
410
100
AcDbEntity
  8
ASSI
100
AcDbSpline
 62
7
  6
CONTINUOUS
 70
0
 71
3
 72
9
 73
5
 74
0
 42
0.0000001
 43
0.0000001
 44
0.0000000001
 40
0.0
 40
0.0
 40
0.0
 40
0.0
 40
0.2435928246
 40
1.0
 40
1.0
 40
1.0
 40
1.0
 10
-7.6468672777
 20
7.8228927666
 30
0.0
 10
-7.6557494043
 20
7.8149994585
 30
0.0
 10
-7.6908272651
 20
7.7810480055
 30
0.0
 10
-7.720030963
 20
7.741203124
 30
0.0
 10
-7.7385598404
 20
7.709294743
 30
0.0
  0
SPLINE
  5
411
100
AcDbEntity
  8
ASSI
100
AcDbSpline
 62
7
  6
CONTINUOUS
 70
0
 71
3
 72
9
 73
5
 74
0
 42
0.0000001
 43
0.0000001
 44
0.0000000001
 40
0.0
 40
0.0
 40
0.0
 40
0.0
 40
0.245123693
 40
1.0
 40
1.0
 40
1.0
 40
1.0
 10
-7.7385598404
 20
7.709294743
 30
0.0
 10
-7.7417711981
 20
7.7037644984
 30
0.0
 10
-7.754459495
 20
7.6809652777
 30
0.0
 10
-7.765507758
 20
7.6572619536
 30
0.0
 10
-7.7729622747
 20
7.6390333371
 30
0.0
  0
SPLINE
  5
412
100
AcDbEntity
  8
ASSI
100
AcDbSpline
 62
7
  6
CONTINUOUS
 70
0
 71
3
 72
11
 73
7
 74
0
 42
0.0000001
 43
0.0000001
 44
0.0000000001
 40
0.0
 40
0.0
 40
0.0
 40
0.0
 40
0.2177664931
 40
0.4509473057
 40
0.7101859194
 40
1.0
 40
1.0
 40
1.0
 40
1.0
 10
-7.7217319446
 20
7.7893295471
 30
0.0
 10
-7.6821498269
 20
7.8121837598
 30
0.0
 10
-7.5911940202
 20
7.8452205236
 30
0.0
 10
-7.4401401038
 20
7.848996868
 30
0.0
 10
-7.2791176684
 20
7.8101668907
 30
0.0
 10
-7.1743823414
 20
7.7602984164
 30
0.0
 10
-7.1217045666
 20
7.7298829295
 30
0.0
  0
SPLINE
  5
413
100
AcDbEntity
  8
ASSI
100
AcDbSpline
 62
7
  6
CONTINUOUS
 70
0
 71
3
 72
9
 73
5
 74
0
 42
0.0000001
 43
0.0000001
 44
0.0000000001
 40
0.0
 40
0.0
 40
0.0
 40
0.0
 40
0.2435928246
 40
1.0
 40
1.0
 40
1.0
 40
1.0
 10
8.263035299
 20
-1.3632855833
 30
0.0
 10
8.2541531724
 20
-1.3711788913
 30
0.0
 10
8.2190753116
 20
-1.4051303444
 30
0.0
 10
8.1898716137
 20
-1.4449752259
 30
0.0
 10
8.1713427363
 20
-1.4768836068
 30
0.0
  0
SPLINE
  5
414
100
AcDbEntity
  8
ASSI
100
AcDbSpline
 62
7
  6
CONTINUOUS
 70
0
 71
3
 72
9
 73
5
 74
0
 42
0.0000001
 43
0.0000001
 44
0.0000000001
 40
0.0
 40
0.0
 40
0.0
 40
0.0
 40
0.245123693
 40
1.0
 40
1.0
 40
1.0
 40
1.0
 10
8.1713427363
 20
-1.4768836068
 30
0.0
 10
8.1681313786
 20
-1.4824138515
 30
0.0
 10
8.1554430817
 20
-1.5052130722
 30
0.0
 10
8.1443948187
 20
-1.5289163962
 30
0.0
 10
8.136940302
 20
-1.5471450127
 30
0.0
  0
SPLINE
  5
415
100
AcDbEntity
  8
ASSI
100
AcDbSpline
 62
7
  6
CONTINUOUS
 70
0
 71
3
 72
11
 73
7
 74
0
 42
0.0000001
 43
0.0000001
 44
0.0000000001
 40
0.0
 40
0.0
 40
0.0
 40
0.0
 40
0.2177664931
 40
0.4509473057
 40
0.7101859194
 40
1.0
 40
1.0
 40
1.0
 40
1.0
 10
8.1881706321
 20
-1.3968488028
 30
0.0
 10
8.2277527498
 20
-1.3739945901
 30
0.0
 10
8.3187085564
 20
-1.3409578263
 30
0.0
 10
8.4697624728
 20
-1.3371814819
 30
0.0
 10
8.6307849083
 20
-1.3760114591
 30
0.0
 10
8.7355202353
 20
-1.4258799334
 30
0.0
 10
8.7881980101
 20
-1.4562954204
 30
0.0
  0
SPLINE
  5
416
100
AcDbEntity
  8
ASSI
100
AcDbSpline
 62
7
  6
CONTINUOUS
 70
0
 71
3
 72
9
 73
5
 74
0
 42
0.0000001
 43
0.0000001
 44
0.0000000001
 40
0.0
 40
0.0
 40
0.0
 40
0.0
 40
0.2435928246
 40
1.0
 40
1.0
 40
1.0
 40
1.0
 10
24.1729378757
 20
-10.5494639332
 30
0.0
 10
24.1640557491
 20
-10.5573572412
 30
0.0
 10
24.1289778883
 20
-10.5913086942
 30
0.0
 10
24.0997741904
 20
-10.6311535757
 30
0.0
 10
24.081245313
 20
-10.6630619567
 30
0.0
  0
SPLINE
  5
417
100
AcDbEntity
  8
ASSI
100
AcDbSpline
 62
7
  6
CONTINUOUS
 70
0
 71
3
 72
9
 73
5
 74
0
 42
0.0000001
 43
0.0000001
 44
0.0000000001
 40
0.0
 40
0.0
 40
0.0
 40
0.0
 40
0.245123693
 40
1.0
 40
1.0
 40
1.0
 40
1.0
 10
24.081245313
 20
-10.6630619567
 30
0.0
 10
24.0780339553
 20
-10.6685922014
 30
0.0
 10
24.0653456584
 20
-10.691391422
 30
0.0
 10
24.0542973954
 20
-10.7150947461
 30
0.0
 10
24.0468428787
 20
-10.7333233626
 30
0.0
  0
SPLINE
  5
418
100
AcDbEntity
  8
ASSI
100
AcDbSpline
 62
7
  6
CONTINUOUS
 70
0
 71
3
 72
11
 73
7
 74
0
 42
0.0000001
 43
0.0000001
 44
0.0000000001
 40
0.0
 40
0.0
 40
0.0
 40
0.0
 40
0.2177664931
 40
0.4509473057
 40
0.7101859194
 40
1.0
 40
1.0
 40
1.0
 40
1.0
 10
24.0980732088
 20
-10.5830271526
 30
0.0
 10
24.1376553265
 20
-10.5601729399
 30
0.0
 10
24.2286111331
 20
-10.5271361762
 30
0.0
 10
24.3796650495
 20
-10.5233598318
 30
0.0
 10
24.540687485
 20
-10.562189809
 30
0.0
 10
24.645422812
 20
-10.6120582833
 30
0.0
 10
24.6981005868
 20
-10.6424737703
 30
0.0
  0
SPLINE
  5
419
100
AcDbEntity
  8
ASSI
100
AcDbSpline
 62
7
  6
CONTINUOUS
 70
0
 71
3
 72
11
 73
7
 74
0
 42
0.0000001
 43
0.0000001
 44
0.0000000001
 40
0.0
 40
0.0
 40
0.0
 40
0.0
 40
0.2898085351
 40
0.5490451078
 40
0.7822281625
 40
1.0
 40
1.0
 40
1.0
 40
1.0
 10
35.0218595922
 20
-28.523748874
 30
0.0
 10
35.021859592
 20
-28.5845666516
 30
0.0
 10
35.0126777551
 20
-28.7001851742
 30
0.0
 10
34.9657986267
 20
-28.8590238302
 30
0.0
 10
34.8870123127
 20
-28.9879334313
 30
0.0
 10
34.8129360044
 20
-29.0501789549
 30
0.0
 10
34.7733588328
 20
-29.0730303118
 30
0.0
  0
SPLINE
  5
41A
100
AcDbEntity
  8
ASSI
100
AcDbSpline
 62
7
  6
CONTINUOUS
 70
0
 71
3
 72
11
 73
7
 74
0
 42
0.0000001
 43
0.0000001
 44
0.0000000001
 40
0.0
 40
0.0
 40
0.0
 40
0.0
 40
0.2898085351
 40
0.5490451078
 40
0.7822281625
 40
1.0
 40
1.0
 40
1.0
 40
1.0
 10
19.1119570155
 20
-19.3375705242
 30
0.0
 10
19.1119570153
 20
-19.3983883017
 30
0.0
 10
19.1027751784
 20
-19.5140068244
 30
0.0
 10
19.05589605
 20
-19.6728454804
 30
0.0
 10
18.977109736
 20
-19.8017550814
 30
0.0
 10
18.9030334277
 20
-19.8640006051
 30
0.0
 10
18.8634562561
 20
-19.886851962
 30
0.0
  0
SPLINE
  5
41B
100
AcDbEntity
  8
ASSI
100
AcDbSpline
 62
7
  6
CONTINUOUS
 70
0
 71
3
 72
11
 73
7
 74
0
 42
0.0000001
 43
0.0000001
 44
0.0000000001
 40
0.0
 40
0.0
 40
0.0
 40
0.0
 40
0.2898085351
 40
0.5490451078
 40
0.7822281625
 40
1.0
 40
1.0
 40
1.0
 40
1.0
 10
-28.6177507146
 20
8.2209645255
 30
0.0
 10
-28.6177507148
 20
8.1601467479
 30
0.0
 10
-28.6269325517
 20
8.0445282253
 30
0.0
 10
-28.6738116801
 20
7.8856895693
 30
0.0
 10
-28.7525979941
 20
7.7567799682
 30
0.0
 10
-28.8266743024
 20
7.6945344446
 30
0.0
 10
-28.866251474
 20
7.6716830877
 30
0.0
  0
SPLINE
  5
41C
100
AcDbEntity
  8
ASSI
100
AcDbSpline
 62
7
  6
CONTINUOUS
 70
0
 71
3
 72
11
 73
7
 74
0
 42
0.0000001
 43
0.0000001
 44
0.0000000001
 40
0.0
 40
0.0
 40
0.0
 40
0.0
 40
0.2898085351
 40
0.5490451078
 40
0.7822281625
 40
1.0
 40
1.0
 40
1.0
 40
1.0
 10
3.2020544388
 20
-10.1513921743
 30
0.0
 10
3.2020544386
 20
-10.2122099518
 30
0.0
 10
3.1928726017
 20
-10.3278284745
 30
0.0
 10
3.1459934733
 20
-10.4866671305
 30
0.0
 10
3.0672071593
 20
-10.6155767316
 30
0.0
 10
2.993130851
 20
-10.6778222552
 30
0.0
 10
2.9535536794
 20
-10.7006736121
 30
0.0
  0
SPLINE
  5
41D
100
AcDbEntity
  8
ASSI
100
AcDbSpline
 62
7
  6
CONTINUOUS
 70
0
 71
3
 72
11
 73
7
 74
0
 42
0.0000001
 43
0.0000001
 44
0.0000000001
 40
0.0
 40
0.0
 40
0.0
 40
0.0
 40
0.2898085351
 40
0.5490451078
 40
0.7822281625
 40
1.0
 40
1.0
 40
1.0
 40
1.0
 10
-12.7078481379
 20
-0.9652138244
 30
0.0
 10
-12.7078481381
 20
-1.0260316019
 30
0.0
 10
-12.717029975
 20
-1.1416501246
 30
0.0
 10
-12.7639091034
 20
-1.3004887806
 30
0.0
 10
-12.8426954174
 20
-1.4293983817
 30
0.0
 10
-12.9167717257
 20
-1.4916439053
 30
0.0
 10
-12.9563488973
 20
-1.5144952622
 30
0.0
  0
SPLINE
  5
41E
100
AcDbEntity
  8
ASSI
100
AcDbSpline
 62
7
  6
CONTINUOUS
 70
0
 71
3
 72
15
 73
11
 74
0
 42
0.0000001
 43
0.0000001
 44
0.0000000001
 40
0.0
 40
0.0
 40
0.0
 40
0.0
 40
0.1449018481
 40
0.2745170406
 40
0.3911053286
 40
0.4999889043
 40
0.6088744936
 40
0.7254681391
 40
0.8550905429
 40
1.0
 40
1.0
 40
1.0
 40
1.0
 10
35.0218595922
 20
-28.9320234674
 30
0.0
 10
35.021859592
 20
-29.0181869879
 30
0.0
 10
35.0088391349
 20
-29.1819955215
 30
0.0
 10
34.9424643399
 20
-29.4070015722
 30
0.0
 10
34.8306933614
 20
-29.5897110454
 30
0.0
 10
34.6755438926
 20
-29.7201903857
 30
0.0
 10
34.4849600751
 20
-29.7892932703
 30
0.0
 10
34.2708349072
 20
-29.7947162463
 30
0.0
 10
34.042778481
 20
-29.7396793848
 30
0.0
 10
33.8944005783
 20
-29.6690422336
 30
0.0
 10
33.8197780641
 20
-29.6259561293
 30
0.0
  0
SPLINE
  5
41F
100
AcDbEntity
  8
ASSI
100
AcDbSpline
 62
7
  6
CONTINUOUS
 70
0
 71
3
 72
15
 73
11
 74
0
 42
0.0000001
 43
0.0000001
 44
0.0000000001
 40
0.0
 40
0.0
 40
0.0
 40
0.0
 40
0.1449018481
 40
0.2745170406
 40
0.3911053286
 40
0.4999889043
 40
0.6088744936
 40
0.7254681391
 40
0.8550905429
 40
1.0
 40
1.0
 40
1.0
 40
1.0
 10
7.2325630915
 20
-1.9461302406
 30
0.0
 10
7.2325630917
 20
-1.85996672
 30
0.0
 10
7.2455835488
 20
-1.6961581864
 30
0.0
 10
7.3119583438
 20
-1.4711521357
 30
0.0
 10
7.4237293223
 20
-1.2884426626
 30
0.0
 10
7.578878791
 20
-1.1579633222
 30
0.0
 10
7.7694626086
 20
-1.0888604376
 30
0.0
 10
7.9835877765
 20
-1.0834374616
 30
0.0
 10
8.2116442027
 20
-1.1384743231
 30
0.0
 10
8.3600221054
 20
-1.2091114743
 30
0.0
 10
8.4346446195
 20
-1.2521975787
 30
0.0
  0
SPLINE
  5
420
100
AcDbEntity
  8
ASSI
100
AcDbSpline
 62
7
  6
CONTINUOUS
 70
0
 71
3
 72
13
 73
9
 74
0
 42
0.0000001
 43
0.0000001
 44
0.0000000001
 40
0.0
 40
0.0
 40
0.0
 40
0.0
 40
0.1142615865
 40
0.2375404667
 40
0.5000060664
 40
0.7624683449
 40
0.8857433485
 40
1.0
 40
1.0
 40
1.0
 40
1.0
 10
8.4346446195
 20
-14.9688982288
 30
0.0
 10
8.352350633
 20
-14.9213827121
 30
0.0
 10
8.1897888812
 20
-14.807441837
 30
0.0
 10
7.8854840905
 20
-14.5225801916
 30
0.0
 10
7.564004943
 20
-14.0835028815
 30
0.0
 10
7.3444927907
 20
-13.5855580803
 30
0.0
 10
7.2499535068
 20
-13.1796004916
 30
0.0
 10
7.2325630916
 20
-12.9818542866
 30
0.0
 10
7.2325630915
 20
-12.8868319496
 30
0.0
  0
SPLINE
  5
421
100
AcDbEntity
  8
ASSI
100
AcDbSpline
 62
7
  6
CONTINUOUS
 70
0
 71
3
 72
11
 73
7
 74
0
 42
0.0000001
 43
0.0000001
 44
0.0000000001
 40
0.0
 40
0.0
 40
0.0
 40
0.0
 40
0.2177664931
 40
0.4509473057
 40
0.7101859194
 40
1.0
 40
1.0
 40
1.0
 40
1.0
 10
34.7733588328
 20
-29.0730303118
 30
0.0
 10
34.7337767151
 20
-29.0958845245
 30
0.0
 10
34.6428209084
 20
-29.1289212883
 30
0.0
 10
34.491766992
 20
-29.1326976327
 30
0.0
 10
34.3307445566
 20
-29.0938676554
 30
0.0
 10
34.2260092296
 20
-29.0439991812
 30
0.0
 10
34.1733314547
 20
-29.0135836942
 30
0.0
  0
SPLINE
  5
422
100
AcDbEntity
  8
ASSI
100
AcDbSpline
 62
7
  6
CONTINUOUS
 70
0
 71
3
 72
15
 73
11
 74
0
 42
0.0000001
 43
0.0000001
 44
0.0000000001
 40
0.0
 40
0.0
 40
0.0
 40
0.0
 40
0.1449018481
 40
0.2745170406
 40
0.3911053286
 40
0.4999889043
 40
0.6088744936
 40
0.7254681391
 40
0.8550905429
 40
1.0
 40
1.0
 40
1.0
 40
1.0
 10
19.1119570155
 20
-19.7458451175
 30
0.0
 10
19.1119570153
 20
-19.8320086381
 30
0.0
 10
19.0989365582
 20
-19.9958171716
 30
0.0
 10
19.0325617632
 20
-20.2208232223
 30
0.0
 10
18.9207907847
 20
-20.4035326955
 30
0.0
 10
18.765641316
 20
-20.5340120358
 30
0.0
 10
18.5750574984
 20
-20.6031149205
 30
0.0
 10
18.3609323305
 20
-20.6085378964
 30
0.0
 10
18.1328759043
 20
-20.5535010349
 30
0.0
 10
17.9844980016
 20
-20.4828638838
 30
0.0
 10
17.9098754874
 20
-20.4397777794
 30
0.0
  0
SPLINE
  5
423
100
AcDbEntity
  8
ASSI
100
AcDbSpline
 62
7
  6
CONTINUOUS
 70
0
 71
3
 72
11
 73
7
 74
0
 42
0.0000001
 43
0.0000001
 44
0.0000000001
 40
0.0
 40
0.0
 40
0.0
 40
0.0
 40
0.2177664931
 40
0.4509473057
 40
0.7101859194
 40
1.0
 40
1.0
 40
1.0
 40
1.0
 10
-12.9563488973
 20
-1.5144952622
 30
0.0
 10
-12.995931015
 20
-1.5373494749
 30
0.0
 10
-13.0868868217
 20
-1.5703862387
 30
0.0
 10
-13.2379407381
 20
-1.5741625831
 30
0.0
 10
-13.3989631735
 20
-1.5353326058
 30
0.0
 10
-13.5036985005
 20
-1.4854641316
 30
0.0
 10
-13.5563762754
 20
-1.4550486446
 30
0.0
  0
SPLINE
  5
424
100
AcDbEntity
  8
ASSI
100
AcDbSpline
 62
7
  6
CONTINUOUS
 70
0
 71
3
 72
13
 73
9
 74
0
 42
0.0000001
 43
0.0000001
 44
0.0000000001
 40
0.0
 40
0.0
 40
0.0
 40
0.0
 40
0.1142615865
 40
0.2375404667
 40
0.5000060664
 40
0.7624683449
 40
0.8857433485
 40
1.0
 40
1.0
 40
1.0
 40
1.0
 10
24.3445471962
 20
-24.1550765787
 30
0.0
 10
24.2622532097
 20
-24.107561062
 30
0.0
 10
24.0996914579
 20
-23.9936201868
 30
0.0
 10
23.7953866672
 20
-23.7087585415
 30
0.0
 10
23.4739075197
 20
-23.2696812313
 30
0.0
 10
23.2543953674
 20
-22.7717364301
 30
0.0
 10
23.1598560835
 20
-22.3657788415
 30
0.0
 10
23.1424656683
 20
-22.1680326364
 30
0.0
 10
23.1424656682
 20
-22.0730102995
 30
0.0
  0
SPLINE
  5
425
100
AcDbEntity
  8
ASSI
100
AcDbSpline
 62
7
  6
CONTINUOUS
 70
0
 71
3
 72
15
 73
11
 74
0
 42
0.0000001
 43
0.0000001
 44
0.0000000001
 40
0.0
 40
0.0
 40
0.0
 40
0.0
 40
0.1449018481
 40
0.2745170406
 40
0.3911053286
 40
0.4999889043
 40
0.6088744936
 40
0.7254681391
 40
0.8550905429
 40
1.0
 40
1.0
 40
1.0
 40
1.0
 10
-8.6773394852
 20
7.2400481093
 30
0.0
 10
-8.677339485
 20
7.3262116299
 30
0.0
 10
-8.6643190279
 20
7.4900201635
 30
0.0
 10
-8.5979442329
 20
7.7150262141
 30
0.0
 10
-8.4861732544
 20
7.8977356873
 30
0.0
 10
-8.3310237857
 20
8.0282150276
 30
0.0
 10
-8.1404399681
 20
8.0973179123
 30
0.0
 10
-7.9263148002
 20
8.1027408883
 30
0.0
 10
-7.698258374
 20
8.0477040268
 30
0.0
 10
-7.5498804713
 20
7.9770668756
 30
0.0
 10
-7.4752579572
 20
7.9339807712
 30
0.0
  0
SPLINE
  5
426
100
AcDbEntity
  8
ASSI
100
AcDbSpline
 62
7
  6
CONTINUOUS
 70
0
 71
3
 72
13
 73
9
 74
0
 42
0.0000001
 43
0.0000001
 44
0.0000000001
 40
0.0
 40
0.0
 40
0.0
 40
0.0
 40
0.1142615865
 40
0.2375404667
 40
0.5000060664
 40
0.7624683449
 40
0.8857433485
 40
1.0
 40
1.0
 40
1.0
 40
1.0
 10
-7.4752579572
 20
-5.7827198789
 30
0.0
 10
-7.5575519437
 20
-5.7352043623
 30
0.0
 10
-7.7201136955
 20
-5.6212634871
 30
0.0
 10
-8.0244184862
 20
-5.3364018418
 30
0.0
 10
-8.3458976337
 20
-4.8973245316
 30
0.0
 10
-8.565409786
 20
-4.3993797304
 30
0.0
 10
-8.6599490699
 20
-3.9934221417
 30
0.0
 10
-8.6773394851
 20
-3.7956759367
 30
0.0
 10
-8.6773394852
 20
-3.7006535997
 30
0.0
  0
SPLINE
  5
427
100
AcDbEntity
  8
ASSI
100
AcDbSpline
 62
7
  6
CONTINUOUS
 70
0
 71
3
 72
15
 73
11
 74
0
 42
0.0000001
 43
0.0000001
 44
0.0000000001
 40
0.0
 40
0.0
 40
0.0
 40
0.0
 40
0.1449018481
 40
0.2745170406
 40
0.3911053286
 40
0.4999889043
 40
0.6088744936
 40
0.7254681391
 40
0.8550905429
 40
1.0
 40
1.0
 40
1.0
 40
1.0
 10
23.1424656682
 20
-11.1323085904
 30
0.0
 10
23.1424656684
 20
-11.0461450699
 30
0.0
 10
23.1554861255
 20
-10.8823365363
 30
0.0
 10
23.2218609205
 20
-10.6573304856
 30
0.0
 10
23.333631899
 20
-10.4746210124
 30
0.0
 10
23.4887813677
 20
-10.3441416721
 30
0.0
 10
23.6793651852
 20
-10.2750387875
 30
0.0
 10
23.8934903532
 20
-10.2696158115
 30
0.0
 10
24.1215467794
 20
-10.324652673
 30
0.0
 10
24.2699246821
 20
-10.3952898242
 30
0.0
 10
24.3445471962
 20
-10.4383759285
 30
0.0
  0
SPLINE
  5
428
100
AcDbEntity
  8
ASSI
100
AcDbSpline
 62
7
  6
CONTINUOUS
 70
0
 71
3
 72
11
 73
7
 74
0
 42
0.0000001
 43
0.0000001
 44
0.0000000001
 40
0.0
 40
0.0
 40
0.0
 40
0.0
 40
0.2177664931
 40
0.4509473057
 40
0.7101859194
 40
1.0
 40
1.0
 40
1.0
 40
1.0
 10
2.9535536794
 20
-10.7006736121
 30
0.0
 10
2.9139715617
 20
-10.7235278248
 30
0.0
 10
2.823015755
 20
-10.7565645885
 30
0.0
 10
2.6719618386
 20
-10.7603409329
 30
0.0
 10
2.5109394032
 20
-10.7215109557
 30
0.0
 10
2.4062040762
 20
-10.6716424815
 30
0.0
 10
2.3535263013
 20
-10.6412269944
 30
0.0
  0
SPLINE
  5
429
100
AcDbEntity
  8
ASSI
100
AcDbSpline
 62
7
  6
CONTINUOUS
 70
0
 71
3
 72
15
 73
11
 74
0
 42
0.0000001
 43
0.0000001
 44
0.0000000001
 40
0.0
 40
0.0
 40
0.0
 40
0.0
 40
0.1449018481
 40
0.2745170406
 40
0.3911053286
 40
0.4999889043
 40
0.6088744936
 40
0.7254681391
 40
0.8550905429
 40
1.0
 40
1.0
 40
1.0
 40
1.0
 10
3.2020544388
 20
-10.5596667676
 30
0.0
 10
3.2020544386
 20
-10.6458302882
 30
0.0
 10
3.1890339815
 20
-10.8096388218
 30
0.0
 10
3.1226591865
 20
-11.0346448724
 30
0.0
 10
3.010888208
 20
-11.2173543456
 30
0.0
 10
2.8557387393
 20
-11.347833686
 30
0.0
 10
2.6651549217
 20
-11.4169365706
 30
0.0
 10
2.4510297538
 20
-11.4223595466
 30
0.0
 10
2.2229733276
 20
-11.3673226851
 30
0.0
 10
2.0745954249
 20
-11.2966855339
 30
0.0
 10
1.9999729107
 20
-11.2535994295
 30
0.0
  0
SPLINE
  5
42A
100
AcDbEntity
  8
ASSI
100
AcDbSpline
 62
7
  6
CONTINUOUS
 70
0
 71
3
 72
11
 73
7
 74
0
 42
0.0000001
 43
0.0000001
 44
0.0000000001
 40
0.0
 40
0.0
 40
0.0
 40
0.0
 40
0.2177664931
 40
0.4509473057
 40
0.7101859194
 40
1.0
 40
1.0
 40
1.0
 40
1.0
 10
18.8634562561
 20
-19.886851962
 30
0.0
 10
18.8238741384
 20
-19.9097061747
 30
0.0
 10
18.7329183317
 20
-19.9427429384
 30
0.0
 10
18.5818644153
 20
-19.9465192828
 30
0.0
 10
18.4208419799
 20
-19.9076893056
 30
0.0
 10
18.3161066529
 20
-19.8578208313
 30
0.0
 10
18.263428878
 20
-19.8274053443
 30
0.0
  0
SPLINE
  5
42B
100
AcDbEntity
  8
ASSI
100
AcDbSpline
 62
7
  6
CONTINUOUS
 70
0
 71
3
 72
9
 73
5
 74
0
 42
0.0000001
 43
0.0000001
 44
0.0000000001
 40
0.0
 40
0.0
 40
0.0
 40
0.0
 40
0.2314216155
 40
1.0
 40
1.0
 40
1.0
 40
1.0
 10
-39.5927674281
 20
26.0113900369
 30
0.0
 10
-39.6022101468
 20
25.9882996466
 30
0.0
 10
-39.636930196
 20
25.8860302115
 30
0.0
 10
-39.6486165006
 20
25.7769101992
 30
0.0
 10
-39.6486165011
 20
25.6940597277
 30
0.0
  0
SPLINE
  5
42C
100
AcDbEntity
  8
ASSI
100
AcDbSpline
 62
7
  6
CONTINUOUS
 70
0
 71
3
 72
15
 73
11
 74
0
 42
0.0000001
 43
0.0000001
 44
0.0000000001
 40
0.0
 40
0.0
 40
0.0
 40
0.0
 40
0.1449018481
 40
0.2745170406
 40
0.3911053286
 40
0.4999889043
 40
0.6088744936
 40
0.7254681391
 40
0.8550905429
 40
1.0
 40
1.0
 40
1.0
 40
1.0
 10
-24.5872420619
 20
16.4262264592
 30
0.0
 10
-24.5872420617
 20
16.5123899798
 30
0.0
 10
-24.5742216046
 20
16.6761985133
 30
0.0
 10
-24.5078468096
 20
16.901204564
 30
0.0
 10
-24.3960758311
 20
17.0839140372
 30
0.0
 10
-24.2409263624
 20
17.2143933775
 30
0.0
 10
-24.0503425448
 20
17.2834962622
 30
0.0
 10
-23.8362173769
 20
17.2889192381
 30
0.0
 10
-23.6081609507
 20
17.2338823766
 30
0.0
 10
-23.459783048
 20
17.1632452255
 30
0.0
 10
-23.3851605339
 20
17.1201591211
 30
0.0
  0
SPLINE
  5
42D
100
AcDbEntity
  8
ASSI
100
AcDbSpline
 62
7
  6
CONTINUOUS
 70
0
 71
3
 72
9
 73
5
 74
0
 42
0.0000001
 43
0.0000001
 44
0.0000000001
 40
0.0
 40
0.0
 40
0.0
 40
0.0
 40
0.2314216155
 40
1.0
 40
1.0
 40
1.0
 40
1.0
 10
-23.6828648514
 20
16.825211687
 30
0.0
 10
-23.6923075701
 20
16.8021212967
 30
0.0
 10
-23.7270276193
 20
16.6998518616
 30
0.0
 10
-23.7387139239
 20
16.5907318494
 30
0.0
 10
-23.7387139244
 20
16.5078813779
 30
0.0
  0
SPLINE
  5
42E
100
AcDbEntity
  8
ASSI
100
AcDbSpline
 62
7
  6
CONTINUOUS
 70
0
 71
3
 72
13
 73
9
 74
0
 42
0.0000001
 43
0.0000001
 44
0.0000000001
 40
0.0
 40
0.0
 40
0.0
 40
0.0
 40
0.1142615865
 40
0.2375404667
 40
0.5000060664
 40
0.7624683449
 40
0.8857433485
 40
1.0
 40
1.0
 40
1.0
 40
1.0
 10
-23.3851605339
 20
3.403458471
 30
0.0
 10
-23.4674545204
 20
3.4509739876
 30
0.0
 10
-23.6300162722
 20
3.5649148628
 30
0.0
 10
-23.9343210629
 20
3.8497765081
 30
0.0
 10
-24.2558002104
 20
4.2888538183
 30
0.0
 10
-24.4753123627
 20
4.7867986195
 30
0.0
 10
-24.5698516466
 20
5.1927562081
 30
0.0
 10
-24.5872420618
 20
5.3905024132
 30
0.0
 10
-24.5872420619
 20
5.4855247502
 30
0.0
  0
SPLINE
  5
42F
100
AcDbEntity
  8
ASSI
100
AcDbSpline
 62
7
  6
CONTINUOUS
 70
0
 71
3
 72
11
 73
7
 74
0
 42
0.0000001
 43
0.0000001
 44
0.0000000001
 40
0.0
 40
0.0
 40
0.0
 40
0.0
 40
0.2839245087
 40
0.5435005414
 40
0.7805115514
 40
1.0
 40
1.0
 40
1.0
 40
1.0
 10
23.8495724494
 20
-11.1323085904
 30
0.0
 10
23.8495724493
 20
-11.0822384486
 30
0.0
 10
23.8558896901
 20
-10.9861904876
 30
0.0
 10
23.887253461
 20
-10.8514253284
 30
0.0
 10
23.9396754548
 20
-10.7355314503
 30
0.0
 10
23.9897418165
 20
-10.6711877637
 30
0.0
 10
24.017473772
 20
-10.6441848499
 30
0.0
  0
SPLINE
  5
430
100
AcDbEntity
  8
ASSI
100
AcDbSpline
 62
7
  6
CONTINUOUS
 70
0
 71
3
 72
9
 73
5
 74
0
 42
0.0000001
 43
0.0000001
 44
0.0000000001
 40
0.0
 40
0.0
 40
0.0
 40
0.0
 40
0.2525081685
 40
1.0
 40
1.0
 40
1.0
 40
1.0
 10
24.017473772
 20
-10.6441848499
 30
0.0
 10
24.0235839327
 20
-10.6382353185
 30
0.0
 10
24.0484796264
 20
-10.6154021479
 30
0.0
 10
24.0762099736
 20
-10.5956507073
 30
0.0
 10
24.0980732088
 20
-10.5830271526
 30
0.0
  0
SPLINE
  5
431
100
AcDbEntity
  8
ASSI
100
AcDbSpline
 62
7
  6
CONTINUOUS
 70
0
 71
3
 72
9
 73
5
 74
0
 42
0.0000001
 43
0.0000001
 44
0.0000000001
 40
0.0
 40
0.0
 40
0.0
 40
0.0
 40
0.2698702211
 40
1.0
 40
1.0
 40
1.0
 40
1.0
 10
34.314752811
 20
-28.9319287755
 30
0.0
 10
34.3399442902
 20
-28.9464740198
 30
0.0
 10
34.4352181291
 20
-28.9967036314
 30
0.0
 10
34.5396013024
 20
-29.0316382206
 30
0.0
 10
34.617581613
 20
-29.0422576601
 30
0.0
  0
SPLINE
  5
432
100
AcDbEntity
  8
ASSI
100
AcDbSpline
 62
7
  6
CONTINUOUS
 70
0
 71
3
 72
11
 73
7
 74
0
 42
0.0000001
 43
0.0000001
 44
0.0000000001
 40
0.0
 40
0.0
 40
0.0
 40
0.0
 40
0.2372123692
 40
0.4999938933
 40
0.7627787423
 40
1.0
 40
1.0
 40
1.0
 40
1.0
 10
23.9909938056
 20
-21.9913553808
 30
0.0
 10
23.9909938059
 20
-22.1304421885
 30
0.0
 10
24.04316625
 20
-22.4237966912
 30
0.0
 10
24.2250157779
 20
-22.8360278266
 30
0.0
 10
24.4910973135
 20
-23.1996335144
 30
0.0
 10
24.7190666616
 20
-23.3914998539
 30
0.0
 10
24.8395219431
 20
-23.4610492249
 30
0.0
  0
SPLINE
  5
433
100
AcDbEntity
  8
ASSI
100
AcDbSpline
 62
7
  6
CONTINUOUS
 70
0
 71
3
 72
11
 73
7
 74
0
 42
0.0000001
 43
0.0000001
 44
0.0000000001
 40
0.0
 40
0.0
 40
0.0
 40
0.0
 40
0.2372212577
 40
0.5000061067
 40
0.7627876313
 40
1.0
 40
1.0
 40
1.0
 40
1.0
 10
24.6981005868
 20
-23.5427041436
 30
0.0
 10
24.5776453047
 20
-23.4731547737
 30
0.0
 10
24.3496759576
 20
-23.2812884325
 30
0.0
 10
24.0835944213
 20
-22.9176827452
 30
0.0
 10
23.9017448939
 20
-22.5054516095
 30
0.0
 10
23.8495724494
 20
-22.2120971069
 30
0.0
 10
23.8495724494
 20
-22.0730102995
 30
0.0
  0
SPLINE
  5
434
100
AcDbEntity
  8
ASSI
100
AcDbSpline
 62
7
  6
CONTINUOUS
 70
0
 71
3
 72
15
 73
11
 74
0
 42
0.0000001
 43
0.0000001
 44
0.0000000001
 40
0.0
 40
0.0
 40
0.0
 40
0.0
 40
0.1449018481
 40
0.2745170406
 40
0.3911053286
 40
0.4999889043
 40
0.6088744936
 40
0.7254681391
 40
0.8550905429
 40
1.0
 40
1.0
 40
1.0
 40
1.0
 10
-12.7078481379
 20
-1.3734884177
 30
0.0
 10
-12.7078481381
 20
-1.4596519383
 30
0.0
 10
-12.7208685952
 20
-1.6234604719
 30
0.0
 10
-12.7872433902
 20
-1.8484665226
 30
0.0
 10
-12.8990143687
 20
-2.0311759957
 30
0.0
 10
-13.0541638374
 20
-2.1616553361
 30
0.0
 10
-13.244747655
 20
-2.2307582207
 30
0.0
 10
-13.4588728229
 20
-2.2361811967
 30
0.0
 10
-13.6869292491
 20
-2.1811443352
 30
0.0
 10
-13.8353071518
 20
-2.110507184
 30
0.0
 10
-13.909929666
 20
-2.0674210796
 30
0.0
  0
SPLINE
  5
435
100
AcDbEntity
  8
ASSI
100
AcDbSpline
 62
7
  6
CONTINUOUS
 70
0
 71
3
 72
9
 73
5
 74
0
 42
0.0000001
 43
0.0000001
 44
0.0000000001
 40
0.0
 40
0.0
 40
0.0
 40
0.0
 40
0.2314216155
 40
1.0
 40
1.0
 40
1.0
 40
1.0
 10
-7.7729622747
 20
7.6390333371
 30
0.0
 10
-7.7824049934
 20
7.6159429468
 30
0.0
 10
-7.8171250426
 20
7.5136735118
 30
0.0
 10
-7.8288113472
 20
7.4045534995
 30
0.0
 10
-7.8288113477
 20
7.321703028
 30
0.0
  0
SPLINE
  5
436
100
AcDbEntity
  8
ASSI
100
AcDbSpline
 62
7
  6
CONTINUOUS
 70
0
 71
3
 72
15
 73
11
 74
0
 42
0.0000001
 43
0.0000001
 44
0.0000000001
 40
0.0
 40
0.0
 40
0.0
 40
0.0
 40
0.1449018481
 40
0.2745170406
 40
0.3911053286
 40
0.4999889043
 40
0.6088744936
 40
0.7254681391
 40
0.8550905429
 40
1.0
 40
1.0
 40
1.0
 40
1.0
 10
-40.4971446386
 20
25.6124048091
 30
0.0
 10
-40.4971446384
 20
25.6985683296
 30
0.0
 10
-40.4841241813
 20
25.8623768632
 30
0.0
 10
-40.4177493863
 20
26.0873829139
 30
0.0
 10
-40.3059784078
 20
26.2700923871
 30
0.0
 10
-40.1508289391
 20
26.4005717274
 30
0.0
 10
-39.9602451215
 20
26.469674612
 30
0.0
 10
-39.7461199536
 20
26.475097588
 30
0.0
 10
-39.5180635274
 20
26.4200607265
 30
0.0
 10
-39.3696856247
 20
26.3494235753
 30
0.0
 10
-39.2950631105
 20
26.306337471
 30
0.0
  0
SPLINE
  5
437
100
AcDbEntity
  8
ASSI
100
AcDbSpline
 62
7
  6
CONTINUOUS
 70
0
 71
3
 72
11
 73
7
 74
0
 42
0.0000001
 43
0.0000001
 44
0.0000000001
 40
0.0
 40
0.0
 40
0.0
 40
0.0
 40
0.2372212577
 40
0.5000061067
 40
0.7627876313
 40
1.0
 40
1.0
 40
1.0
 40
1.0
 10
-38.94150972
 20
13.2020092559
 30
0.0
 10
-39.0619650021
 20
13.2715586258
 30
0.0
 10
-39.2899343492
 20
13.463424967
 30
0.0
 10
-39.5560158855
 20
13.8270306543
 30
0.0
 10
-39.7378654129
 20
14.23926179
 30
0.0
 10
-39.7900378574
 20
14.5326162926
 30
0.0
 10
-39.7900378574
 20
14.6717031
 30
0.0
  0
SPLINE
  5
438
100
AcDbEntity
  8
ASSI
100
AcDbSpline
 62
7
  6
CONTINUOUS
 70
0
 71
3
 72
11
 73
7
 74
0
 42
0.0000001
 43
0.0000001
 44
0.0000000001
 40
0.0
 40
0.0
 40
0.0
 40
0.0
 40
0.2839245087
 40
0.5435005414
 40
0.7805115514
 40
1.0
 40
1.0
 40
1.0
 40
1.0
 10
7.9396698727
 20
-1.9461302406
 30
0.0
 10
7.9396698726
 20
-1.8960600987
 30
0.0
 10
7.9459871134
 20
-1.8000121377
 30
0.0
 10
7.9773508843
 20
-1.6652469785
 30
0.0
 10
8.0297728781
 20
-1.5493531004
 30
0.0
 10
8.0798392398
 20
-1.4850094138
 30
0.0
 10
8.1075711953
 20
-1.4580065001
 30
0.0
  0
SPLINE
  5
439
100
AcDbEntity
  8
ASSI
100
AcDbSpline
 62
7
  6
CONTINUOUS
 70
0
 71
3
 72
9
 73
5
 74
0
 42
0.0000001
 43
0.0000001
 44
0.0000000001
 40
0.0
 40
0.0
 40
0.0
 40
0.0
 40
0.2525081685
 40
1.0
 40
1.0
 40
1.0
 40
1.0
 10
8.1075711953
 20
-1.4580065001
 30
0.0
 10
8.113681356
 20
-1.4520569686
 30
0.0
 10
8.1385770497
 20
-1.429223798
 30
0.0
 10
8.1663073969
 20
-1.4094723574
 30
0.0
 10
8.1881706321
 20
-1.3968488028
 30
0.0
  0
SPLINE
  5
43A
100
AcDbEntity
  8
ASSI
100
AcDbSpline
 62
7
  6
CONTINUOUS
 70
0
 71
3
 72
9
 73
5
 74
0
 42
0.0000001
 43
0.0000001
 44
0.0000000001
 40
0.0
 40
0.0
 40
0.0
 40
0.0
 40
0.2698702211
 40
1.0
 40
1.0
 40
1.0
 40
1.0
 10
18.4048502343
 20
-19.7457504257
 30
0.0
 10
18.4300417135
 20
-19.76029567
 30
0.0
 10
18.5253155524
 20
-19.8105252815
 30
0.0
 10
18.6296987257
 20
-19.8454598708
 30
0.0
 10
18.7076790363
 20
-19.8560793102
 30
0.0
  0
SPLINE
  5
43B
100
AcDbEntity
  8
ASSI
100
AcDbSpline
 62
7
  6
CONTINUOUS
 70
0
 71
3
 72
11
 73
7
 74
0
 42
0.0000001
 43
0.0000001
 44
0.0000000001
 40
0.0
 40
0.0
 40
0.0
 40
0.0
 40
0.2372123692
 40
0.4999938933
 40
0.7627787423
 40
1.0
 40
1.0
 40
1.0
 40
1.0
 10
8.081091229
 20
-12.8051770309
 30
0.0
 10
8.0810912292
 20
-12.9442638386
 30
0.0
 10
8.1332636733
 20
-13.2376183413
 30
0.0
 10
8.3151132012
 20
-13.6498494767
 30
0.0
 10
8.5811947368
 20
-14.0134551645
 30
0.0
 10
8.8091640849
 20
-14.2053215041
 30
0.0
 10
8.9296193664
 20
-14.2748708751
 30
0.0
  0
SPLINE
  5
43C
100
AcDbEntity
  8
ASSI
100
AcDbSpline
 62
7
  6
CONTINUOUS
 70
0
 71
3
 72
11
 73
7
 74
0
 42
0.0000001
 43
0.0000001
 44
0.0000000001
 40
0.0
 40
0.0
 40
0.0
 40
0.0
 40
0.2372212577
 40
0.5000061067
 40
0.7627876313
 40
1.0
 40
1.0
 40
1.0
 40
1.0
 10
8.7881980101
 20
-14.3565257937
 30
0.0
 10
8.667742728
 20
-14.2869764238
 30
0.0
 10
8.4397733809
 20
-14.0951100826
 30
0.0
 10
8.1736918446
 20
-13.7315043954
 30
0.0
 10
7.9918423172
 20
-13.3192732596
 30
0.0
 10
7.9396698727
 20
-13.025918757
 30
0.0
 10
7.9396698727
 20
-12.8868319496
 30
0.0
  0
SPLINE
  5
43D
100
AcDbEntity
  8
ASSI
100
AcDbSpline
 62
7
  6
CONTINUOUS
 70
0
 71
3
 72
11
 73
7
 74
0
 42
0.0000001
 43
0.0000001
 44
0.0000000001
 40
0.0
 40
0.0
 40
0.0
 40
0.0
 40
0.2372123692
 40
0.4999938933
 40
0.7627787423
 40
1.0
 40
1.0
 40
1.0
 40
1.0
 10
-39.6486165011
 20
14.7533580187
 30
0.0
 10
-39.6486165009
 20
14.614271211
 30
0.0
 10
-39.5964440568
 20
14.3209167083
 30
0.0
 10
-39.4145945289
 20
13.9086855729
 30
0.0
 10
-39.1485129933
 20
13.5450798851
 30
0.0
 10
-38.9205436452
 20
13.3532135456
 30
0.0
 10
-38.8000883637
 20
13.2836641746
 30
0.0
  0
SPLINE
  5
43E
100
AcDbEntity
  8
ASSI
100
AcDbSpline
 62
7
  6
CONTINUOUS
 70
0
 71
3
 72
9
 73
5
 74
0
 42
0.0000001
 43
0.0000001
 44
0.0000000001
 40
0.0
 40
0.0
 40
0.0
 40
0.0
 40
0.2698702211
 40
1.0
 40
1.0
 40
1.0
 40
1.0
 10
-29.3248574958
 20
7.812784624
 30
0.0
 10
-29.2996660166
 20
7.7982393797
 30
0.0
 10
-29.2043921777
 20
7.7480097681
 30
0.0
 10
-29.1000090044
 20
7.7130751788
 30
0.0
 10
-29.0220286938
 20
7.7024557394
 30
0.0
  0
SPLINE
  5
43F
100
AcDbEntity
  8
ASSI
100
AcDbSpline
 62
7
  6
CONTINUOUS
 70
0
 71
3
 72
11
 73
7
 74
0
 42
0.0000001
 43
0.0000001
 44
0.0000000001
 40
0.0
 40
0.0
 40
0.0
 40
0.0
 40
0.2839245087
 40
0.5435005414
 40
0.7805115514
 40
1.0
 40
1.0
 40
1.0
 40
1.0
 10
-39.7900378574
 20
25.6124048091
 30
0.0
 10
-39.7900378575
 20
25.6624749509
 30
0.0
 10
-39.7837206167
 20
25.7585229119
 30
0.0
 10
-39.7523568458
 20
25.8932880711
 30
0.0
 10
-39.699934852
 20
26.0091819492
 30
0.0
 10
-39.6498684903
 20
26.0735256358
 30
0.0
 10
-39.6221365348
 20
26.1005285496
 30
0.0
  0
SPLINE
  5
440
100
AcDbEntity
  8
ASSI
100
AcDbSpline
 62
7
  6
CONTINUOUS
 70
0
 71
3
 72
9
 73
5
 74
0
 42
0.0000001
 43
0.0000001
 44
0.0000000001
 40
0.0
 40
0.0
 40
0.0
 40
0.0
 40
0.2525081685
 40
1.0
 40
1.0
 40
1.0
 40
1.0
 10
-39.6221365348
 20
26.1005285496
 30
0.0
 10
-39.6160263741
 20
26.106478081
 30
0.0
 10
-39.5911306804
 20
26.1293112516
 30
0.0
 10
-39.5634003332
 20
26.1490626922
 30
0.0
 10
-39.541537098
 20
26.1616862469
 30
0.0
  0
SPLINE
  5
441
100
AcDbEntity
  8
ASSI
100
AcDbSpline
 62
7
  6
CONTINUOUS
 70
0
 71
3
 72
11
 73
7
 74
0
 42
0.0000001
 43
0.0000001
 44
0.0000000001
 40
0.0
 40
0.0
 40
0.0
 40
0.0
 40
0.2839245087
 40
0.5435005414
 40
0.7805115514
 40
1.0
 40
1.0
 40
1.0
 40
1.0
 10
-7.970232704
 20
7.2400481093
 30
0.0
 10
-7.9702327041
 20
7.2901182512
 30
0.0
 10
-7.9639154633
 20
7.3861662122
 30
0.0
 10
-7.9325516924
 20
7.5209313714
 30
0.0
 10
-7.8801296986
 20
7.6368252494
 30
0.0
 10
-7.8300633369
 20
7.701168936
 30
0.0
 10
-7.8023313814
 20
7.7281718498
 30
0.0
  0
SPLINE
  5
442
100
AcDbEntity
  8
ASSI
100
AcDbSpline
 62
7
  6
CONTINUOUS
 70
0
 71
3
 72
9
 73
5
 74
0
 42
0.0000001
 43
0.0000001
 44
0.0000000001
 40
0.0
 40
0.0
 40
0.0
 40
0.0
 40
0.2525081685
 40
1.0
 40
1.0
 40
1.0
 40
1.0
 10
-7.8023313814
 20
7.7281718498
 30
0.0
 10
-7.7962212207
 20
7.7341213812
 30
0.0
 10
-7.771325527
 20
7.7569545519
 30
0.0
 10
-7.7435951798
 20
7.7767059924
 30
0.0
 10
-7.7217319446
 20
7.7893295471
 30
0.0
  0
SPLINE
  5
443
100
AcDbEntity
  8
ASSI
100
AcDbSpline
 62
7
  6
CONTINUOUS
 70
0
 71
3
 72
9
 73
5
 74
0
 42
0.0000001
 43
0.0000001
 44
0.0000000001
 40
0.0
 40
0.0
 40
0.0
 40
0.0
 40
0.2698702211
 40
1.0
 40
1.0
 40
1.0
 40
1.0
 10
2.4949476576
 20
-10.5595720758
 30
0.0
 10
2.5201391368
 20
-10.5741173201
 30
0.0
 10
2.6154129757
 20
-10.6243469316
 30
0.0
 10
2.719796149
 20
-10.6592815209
 30
0.0
 10
2.7977764596
 20
-10.6699009604
 30
0.0
  0
SPLINE
  5
444
100
AcDbEntity
  8
ASSI
100
AcDbSpline
 62
7
  6
CONTINUOUS
 70
0
 71
3
 72
11
 73
7
 74
0
 42
0.0000001
 43
0.0000001
 44
0.0000000001
 40
0.0
 40
0.0
 40
0.0
 40
0.0
 40
0.2372123692
 40
0.4999938933
 40
0.7627787423
 40
1.0
 40
1.0
 40
1.0
 40
1.0
 10
-7.8288113477
 20
-3.618998681
 30
0.0
 10
-7.8288113475
 20
-3.7580854887
 30
0.0
 10
-7.7766389034
 20
-4.0514399914
 30
0.0
 10
-7.5947893755
 20
-4.4636711269
 30
0.0
 10
-7.3287078399
 20
-4.8272768146
 30
0.0
 10
-7.1007384918
 20
-5.0191431542
 30
0.0
 10
-6.9802832103
 20
-5.0886925252
 30
0.0
  0
SPLINE
  5
445
100
AcDbEntity
  8
ASSI
100
AcDbSpline
 62
7
  6
CONTINUOUS
 70
0
 71
3
 72
11
 73
7
 74
0
 42
0.0000001
 43
0.0000001
 44
0.0000000001
 40
0.0
 40
0.0
 40
0.0
 40
0.0
 40
0.2372212577
 40
0.5000061067
 40
0.7627876313
 40
1.0
 40
1.0
 40
1.0
 40
1.0
 10
-7.1217045666
 20
-5.1703474439
 30
0.0
 10
-7.2421598487
 20
-5.100798074
 30
0.0
 10
-7.4701291958
 20
-4.9089317328
 30
0.0
 10
-7.7362107321
 20
-4.5453260455
 30
0.0
 10
-7.9180602595
 20
-4.1330949097
 30
0.0
 10
-7.970232704
 20
-3.8397404071
 30
0.0
 10
-7.970232704
 20
-3.7006535997
 30
0.0
  0
SPLINE
  5
446
100
AcDbEntity
  8
ASSI
100
AcDbSpline
 62
7
  6
CONTINUOUS
 70
0
 71
3
 72
9
 73
5
 74
0
 42
0.0000001
 43
0.0000001
 44
0.0000000001
 40
0.0
 40
0.0
 40
0.0
 40
0.0
 40
0.2314216155
 40
1.0
 40
1.0
 40
1.0
 40
1.0
 10
8.136940302
 20
-1.5471450127
 30
0.0
 10
8.1274975833
 20
-1.570235403
 30
0.0
 10
8.0927775341
 20
-1.6725048381
 30
0.0
 10
8.0810912295
 20
-1.7816248504
 30
0.0
 10
8.081091229
 20
-1.8644753219
 30
0.0
  0
SPLINE
  5
447
100
AcDbEntity
  8
ASSI
100
AcDbSpline
 62
7
  6
CONTINUOUS
 70
0
 71
3
 72
13
 73
9
 74
0
 42
0.0000001
 43
0.0000001
 44
0.0000000001
 40
0.0
 40
0.0
 40
0.0
 40
0.0
 40
0.1142615865
 40
0.2375404667
 40
0.5000060664
 40
0.7624683449
 40
0.8857433485
 40
1.0
 40
1.0
 40
1.0
 40
1.0
 10
-39.2950631105
 20
12.5896368208
 30
0.0
 10
-39.3773570971
 20
12.6371523375
 30
0.0
 10
-39.5399188489
 20
12.7510932127
 30
0.0
 10
-39.8442236396
 20
13.035954858
 30
0.0
 10
-40.1657027871
 20
13.4750321682
 30
0.0
 10
-40.3852149394
 20
13.9729769694
 30
0.0
 10
-40.4797542233
 20
14.378934558
 30
0.0
 10
-40.4971446385
 20
14.5766807631
 30
0.0
 10
-40.4971446386
 20
14.6717031
 30
0.0
  0
SPLINE
  5
448
100
AcDbEntity
  8
ASSI
100
AcDbSpline
 62
7
  6
CONTINUOUS
 70
0
 71
3
 72
9
 73
5
 74
0
 42
0.0000001
 43
0.0000001
 44
0.0000000001
 40
0.0
 40
0.0
 40
0.0
 40
0.0
 40
0.2314216155
 40
1.0
 40
1.0
 40
1.0
 40
1.0
 10
24.0468428787
 20
-10.7333233626
 30
0.0
 10
24.03740016
 20
-10.7564137529
 30
0.0
 10
24.0026801108
 20
-10.858683188
 30
0.0
 10
23.9909938062
 20
-10.9678032003
 30
0.0
 10
23.9909938056
 20
-11.0506536718
 30
0.0
  0
SPLINE
  5
449
100
AcDbEntity
  8
ASSI
100
AcDbSpline
 62
7
  6
CONTINUOUS
 70
0
 71
3
 72
15
 73
11
 74
0
 42
0.0000001
 43
0.0000001
 44
0.0000000001
 40
0.0
 40
0.0
 40
0.0
 40
0.0
 40
0.1449018481
 40
0.2745170406
 40
0.3911053286
 40
0.4999889043
 40
0.6088744936
 40
0.7254681391
 40
0.8550905429
 40
1.0
 40
1.0
 40
1.0
 40
1.0
 10
-28.6177507146
 20
7.8126899321
 30
0.0
 10
-28.6177507148
 20
7.7265264116
 30
0.0
 10
-28.6307711719
 20
7.562717878
 30
0.0
 10
-28.6971459669
 20
7.3377118273
 30
0.0
 10
-28.8089169454
 20
7.1550023541
 30
0.0
 10
-28.9640664141
 20
7.0245230138
 30
0.0
 10
-29.1546502317
 20
6.9554201292
 30
0.0
 10
-29.3687753996
 20
6.9499971532
 30
0.0
 10
-29.5968318258
 20
7.0050340147
 30
0.0
 10
-29.7452097285
 20
7.0756711659
 30
0.0
 10
-29.8198322426
 20
7.1187572702
 30
0.0
  0
SPLINE
  5
44A
100
AcDbEntity
  8
ASSI
100
AcDbSpline
 62
7
  6
CONTINUOUS
 70
0
 71
3
 72
11
 73
7
 74
0
 42
0.0000001
 43
0.0000001
 44
0.0000000001
 40
0.0
 40
0.0
 40
0.0
 40
0.0
 40
0.2372212577
 40
0.5000061067
 40
0.7627876313
 40
1.0
 40
1.0
 40
1.0
 40
1.0
 10
-23.0316071433
 20
4.015830906
 30
0.0
 10
-23.1520624254
 20
4.0853802759
 30
0.0
 10
-23.3800317725
 20
4.2772466171
 30
0.0
 10
-23.6461133088
 20
4.6408523044
 30
0.0
 10
-23.8279628362
 20
5.0530834401
 30
0.0
 10
-23.8801352807
 20
5.3464379428
 30
0.0
 10
-23.8801352807
 20
5.4855247502
 30
0.0
  0
SPLINE
  5
44B
100
AcDbEntity
  8
ASSI
100
AcDbSpline
 62
7
  6
CONTINUOUS
 70
0
 71
3
 72
11
 73
7
 74
0
 42
0.0000001
 43
0.0000001
 44
0.0000000001
 40
0.0
 40
0.0
 40
0.0
 40
0.0
 40
0.2372123692
 40
0.4999938933
 40
0.7627787423
 40
1.0
 40
1.0
 40
1.0
 40
1.0
 10
-23.7387139244
 20
5.5671796688
 30
0.0
 10
-23.7387139242
 20
5.4280928611
 30
0.0
 10
-23.6865414801
 20
5.1347383584
 30
0.0
 10
-23.5046919522
 20
4.722507223
 30
0.0
 10
-23.2386104166
 20
4.3589015352
 30
0.0
 10
-23.0106410685
 20
4.1670351957
 30
0.0
 10
-22.890185787
 20
4.0974858247
 30
0.0
  0
SPLINE
  5
44C
100
AcDbEntity
  8
ASSI
100
AcDbSpline
 62
7
  6
CONTINUOUS
 70
0
 71
3
 72
11
 73
7
 74
0
 42
0.0000001
 43
0.0000001
 44
0.0000000001
 40
0.0
 40
0.0
 40
0.0
 40
0.0
 40
0.2839245087
 40
0.5435005414
 40
0.7805115514
 40
1.0
 40
1.0
 40
1.0
 40
1.0
 10
-23.8801352807
 20
16.4262264592
 30
0.0
 10
-23.8801352808
 20
16.4762966011
 30
0.0
 10
-23.87381804
 20
16.5723445621
 30
0.0
 10
-23.8424542691
 20
16.7071097212
 30
0.0
 10
-23.7900322753
 20
16.8230035993
 30
0.0
 10
-23.7399659136
 20
16.8873472859
 30
0.0
 10
-23.7122339581
 20
16.9143501997
 30
0.0
  0
SPLINE
  5
44D
100
AcDbEntity
  8
ASSI
100
AcDbSpline
 62
7
  6
CONTINUOUS
 70
0
 71
3
 72
9
 73
5
 74
0
 42
0.0000001
 43
0.0000001
 44
0.0000000001
 40
0.0
 40
0.0
 40
0.0
 40
0.0
 40
0.2525081685
 40
1.0
 40
1.0
 40
1.0
 40
1.0
 10
-23.7122339581
 20
16.9143501997
 30
0.0
 10
-23.7061237974
 20
16.9202997311
 30
0.0
 10
-23.6812281037
 20
16.9431329017
 30
0.0
 10
-23.6534977565
 20
16.9628843423
 30
0.0
 10
-23.6316345213
 20
16.975507897
 30
0.0
  0
SPLINE
  5
44E
100
AcDbEntity
  8
ASSI
100
AcDbSpline
 62
7
  6
CONTINUOUS
 70
0
 71
3
 72
9
 73
5
 74
0
 42
0.0000001
 43
0.0000001
 44
0.0000000001
 40
0.0
 40
0.0
 40
0.0
 40
0.0
 40
0.2698702211
 40
1.0
 40
1.0
 40
1.0
 40
1.0
 10
-13.4149549191
 20
-1.3733937259
 30
0.0
 10
-13.3897634399
 20
-1.3879389702
 30
0.0
 10
-13.294489601
 20
-1.4381685818
 30
0.0
 10
-13.1901064277
 20
-1.473103171
 30
0.0
 10
-13.1121261171
 20
-1.4837226105
 30
0.0
  0
SPLINE
  5
44F
100
AcDbEntity
  8
ASSI
100
AcDbSpline
 62
7
  6
CONTINUOUS
 70
0
 71
3
 72
11
 73
7
 74
0
 42
0.0000001
 43
0.0000001
 44
0.0000000001
 40
0.0
 40
0.0
 40
0.0
 40
0.0
 40
0.2177664931
 40
0.4509473057
 40
0.7101859194
 40
1.0
 40
1.0
 40
1.0
 40
1.0
 10
-28.866251474
 20
7.6716830877
 30
0.0
 10
-28.9058335917
 20
7.648828875
 30
0.0
 10
-28.9967893984
 20
7.6157921112
 30
0.0
 10
-29.1478433148
 20
7.6120157668
 30
0.0
 10
-29.3088657502
 20
7.6508457441
 30
0.0
 10
-29.4136010772
 20
7.7007142183
 30
0.0
 10
-29.4662788521
 20
7.7311297053
 30
0.0
  0
SPLINE
  5
450
100
AcDbEntity
  8
CURVE
100
AcDbSpline
 62
250
  6
CONTINUOUS
 70
0
 71
3
 72
9
 73
5
 74
0
 42
0.0000001
 43
0.0000001
 44
0.0000000001
 40
0.0
 40
0.0
 40
0.0
 40
0.0
 40
0.5206208722
 40
1.0
 40
1.0
 40
1.0
 40
1.0
 10
55.8132060822
 20
-56.8205490608
 30
0.0
 10
55.8922398199
 20
-56.7766340717
 30
0.0
 10
56.0648882423
 20
-56.746007799
 30
0.0
 10
56.095680935
 20
-56.9181651076
 30
0.0
 10
56.0973061603
 20
-56.998521905
 30
0.0
  0
SPLINE
  5
451
100
AcDbEntity
  8
CURVE
100
AcDbSpline
 62
250
  6
CONTINUOUS
 70
0
 71
3
 72
9
 73
5
 74
0
 42
0.0000001
 43
0.0000001
 44
0.0000000001
 40
0.0
 40
0.0
 40
0.0
 40
0.0
 40
0.5013510385
 40
1.0
 40
1.0
 40
1.0
 40
1.0
 10
55.5846702378
 20
-57.184252789
 30
0.0
 10
55.5911637067
 20
-57.1183172183
 30
0.0
 10
55.6404182635
 20
-56.9655065949
 30
0.0
 10
55.7572106383
 20
-56.8516759922
 30
0.0
 10
55.8132060822
 20
-56.8205490608
 30
0.0
  0
SPLINE
  5
452
100
AcDbEntity
  8
CURVE
100
AcDbSpline
 62
250
  6
CONTINUOUS
 70
0
 71
3
 72
9
 73
5
 74
0
 42
0.0000001
 43
0.0000001
 44
0.0000000001
 40
0.0
 40
0.0
 40
0.0
 40
0.0
 40
0.2703953699
 40
1.0
 40
1.0
 40
1.0
 40
1.0
 10
55.5954321237
 20
-57.5122131816
 30
0.0
 10
55.5908872597
 20
-57.4849252956
 30
0.0
 10
55.5759395642
 20
-57.3826610237
 30
0.0
 10
55.5762640618
 20
-57.2696291514
 30
0.0
 10
55.5846702378
 20
-57.184252789
 30
0.0
  0
SPLINE
  5
453
100
AcDbEntity
  8
CURVE
100
AcDbSpline
 62
250
  6
CONTINUOUS
 70
0
 71
3
 72
9
 73
5
 74
0
 42
0.0000001
 43
0.0000001
 44
0.0000000001
 40
0.0
 40
0.0
 40
0.0
 40
0.0
 40
0.2957417834
 40
1.0
 40
1.0
 40
1.0
 40
1.0
 10
55.3245890438
 20
-57.0168560249
 30
0.0
 10
55.2928285391
 20
-57.132099711
 30
0.0
 10
55.2410570234
 20
-57.5127397475
 30
0.0
 10
55.2729429907
 20
-57.8501871281
 30
0.0
 10
55.3053410338
 20
-58.0785924647
 30
0.0
  0
SPLINE
  5
454
100
AcDbEntity
  8
CURVE
100
AcDbSpline
 62
250
  6
CONTINUOUS
 70
0
 71
3
 72
17
 73
13
 74
0
 42
0.0000001
 43
0.0000001
 44
0.0000000001
 40
0.0
 40
0.0
 40
0.0
 40
0.0
 40
0.0559780952
 40
0.1687540387
 40
0.321006234
 40
0.4122750837
 40
0.516613223
 40
0.6013931059
 40
0.6776022439
 40
0.8103422694
 40
0.9200404832
 40
1.0
 40
1.0
 40
1.0
 40
1.0
 10
56.2479862723
 20
-56.47575298
 30
0.0
 10
56.2452665328
 20
-56.4536862659
 30
0.0
 10
56.2030699435
 20
-56.4165928896
 30
0.0
 10
56.1226314725
 20
-56.3607099266
 30
0.0
 10
55.998808935
 20
-56.3543411925
 30
0.0
 10
55.8696340012
 20
-56.3913553193
 30
0.0
 10
55.7624215027
 20
-56.4460241981
 30
0.0
 10
55.6622858988
 20
-56.5160488505
 30
0.0
 10
55.5558840081
 20
-56.6123816501
 30
0.0
 10
55.4516078356
 20
-56.741858208
 30
0.0
 10
55.3700611294
 20
-56.8893037534
 30
0.0
 10
55.3348907819
 20
-56.9794297396
 30
0.0
 10
55.3245890438
 20
-57.0168560249
 30
0.0
  0
SPLINE
  5
455
100
AcDbEntity
  8
CURVE
100
AcDbSpline
 62
250
  6
CONTINUOUS
 70
0
 71
3
 72
9
 73
5
 74
0
 42
0.0000001
 43
0.0000001
 44
0.0000000001
 40
0.0
 40
0.0
 40
0.0
 40
0.0
 40
0.2426586216
 40
1.0
 40
1.0
 40
1.0
 40
1.0
 10
56.6173588731
 20
-56.0313066841
 30
0.0
 10
56.5841375705
 20
-56.0592975805
 30
0.0
 10
56.449981855
 20
-56.1701249913
 30
0.0
 10
56.2985924459
 20
-56.3370683852
 30
0.0
 10
56.2587892864
 20
-56.4699363939
 30
0.0
  0
SPLINE
  5
456
100
AcDbEntity
  8
CURVE
100
AcDbSpline
 62
250
  6
CONTINUOUS
 70
0
 71
3
 72
9
 73
5
 74
0
 42
0.0000001
 43
0.0000001
 44
0.0000000001
 40
0.0
 40
0.0
 40
0.0
 40
0.0
 40
0.1980141723
 40
1.0
 40
1.0
 40
1.0
 40
1.0
 10
57.1121725642
 20
-55.6192460354
 30
0.0
 10
57.0795772521
 20
-55.646679188
 30
0.0
 10
56.9145962439
 20
-55.7838820367
 30
0.0
 10
56.7493462309
 20
-55.9200974418
 30
0.0
 10
56.6173588731
 20
-56.0313066841
 30
0.0
  0
SPLINE
  5
457
100
AcDbEntity
  8
CURVE
100
AcDbSpline
 62
250
  6
CONTINUOUS
 70
0
 71
3
 72
9
 73
5
 74
0
 42
0.0000001
 43
0.0000001
 44
0.0000000001
 40
0.0
 40
0.0
 40
0.0
 40
0.0
 40
0.5586214172
 40
1.0
 40
1.0
 40
1.0
 40
1.0
 10
56.5578052013
 20
-56.513811422
 30
0.0
 10
56.6587240862
 20
-56.4171480985
 30
0.0
 10
56.8455973742
 20
-56.2608684336
 30
0.0
 10
57.0303091526
 20
-56.0993881568
 30
0.0
 10
57.1121725642
 20
-56.0290358135
 30
0.0
  0
SPLINE
  5
458
100
AcDbEntity
  8
CURVE
100
AcDbSpline
 62
250
  6
CONTINUOUS
 70
0
 71
3
 72
9
 73
5
 74
0
 42
0.0000001
 43
0.0000001
 44
0.0000000001
 40
0.0
 40
0.0
 40
0.0
 40
0.0
 40
0.3559141631
 40
1.0
 40
1.0
 40
1.0
 40
1.0
 10
56.3967196481
 20
-56.8382292358
 30
0.0
 10
56.3967196481
 20
-56.8011039369
 30
0.0
 10
56.4168566099
 20
-56.683462214
 30
0.0
 10
56.5014618123
 20
-56.567753863
 30
0.0
 10
56.5578052013
 20
-56.513811422
 30
0.0
  0
ENDSEC
  0
SECTION
  2
OBJECTS
  0
DICTIONARY
  5
C
100
AcDbDictionary
280
0
281
1
  3
ACAD_GROUP
350
D
  3
ACAD_MLINESTYLE
350
17
  3
ACAD_LAYOUT
350
1A
  3
ACAD_PLOTSETTINGS
350
19
  3
ACAD_PLOTSTYLENAME
350
E
  0
DICTIONARY
  5
D
102
{ACAD_REACTORS
330
C
102
}
100
AcDbDictionary
280
0
281
1
  0
ACDBDICTIONARYWDFLT
  5
E
102
{ACAD_REACTORS
330
C
102
}
100
AcDbDictionary
281
1
  3
Normal
350
F
100
AcDbDictionaryWithDefault
340
F
  0
DICTIONARY
  5
17
102
{ACAD_REACTORS
330
C
102
}
100
AcDbDictionary
280
0
281
1
  3
Standard
350
18
  0
DICTIONARY
  5
19
102
{ACAD_REACTORS
330
C
102
}
100
AcDbDictionary
281
1
  0
DICTIONARY
  5
1A
102
{ACAD_REACTORS
330
C
102
}
100
AcDbDictionary
281
1
  3
Model
350
459
  3
Layout1
350
45A
  0
ACDBPLACEHOLDER
  5
F
102
{ACAD_REACTORS
330
E
102
}
  0
MLINESTYLE
  5
18
102
{ACAD_REACTORS
330
17
102
}
100
AcDbMlineStyle
  2
STANDARD
 70
0
  3

 62
256
 51
90.0
 52
90.0
 71
2
 49
0.5
 62
256
  6
BYLAYER
 49
-0.5
 62
256
  6
BYLAYER
  0
LAYOUT
  5
459
102
{ACAD_REACTORS
330
1A
102
}
100
AcDbPlotSettings
  1

  2
none_device
  4
ISO_A4_(297.00_x_210.00_MM)
  6

 40
0.0
 41
0.0
 42
0.0
 43
0.0
 44
297.0
 45
210.0
 46
0.0
 47
0.0
 48
0.0
 49
0.0
140
0.0
141
0.0
142
1.0
143
1.0
 70
1024
 72
1
 73
0
 74
0
  7

 75
0
147
1.0
148
0.0
149
0.0
100
AcDbLayout
  1
Model
 70
0
 71
0
 10
0.0
 20
0.0
 11
297.0
 21
210.0
 12
0.0
 22
0.0
 32
0.0
 14
0.0
 24
0.0
 34
0.0
 15
0.0
 25
0.0
 35
0.0
146
0.0
 13
0.0
 23
0.0
 33
0.0
 16
1.0
 26
0.0
 36
0.0
 17
0.0
 27
1.0
 37
0.0
 76
0
330
21E
345
0
346
0
  0
LAYOUT
  5
45A
102
{ACAD_REACTORS
330
1A
102
}
100
AcDbPlotSettings
  1

  2
none_device
  4
ISO_A4_(297.00_x_210.00_MM)
  6

 40
0.0
 41
0.0
 42
0.0
 43
0.0
 44
297.0
 45
210.0
 46
0.0
 47
0.0
 48
0.0
 49
0.0
140
0.0
141
0.0
142
1.0
143
1.0
 70
0
 72
1
 73
0
 74
0
  7

 75
0
147
1.0
148
0.0
149
0.0
100
AcDbLayout
  1
Layout1
 70
0
 71
1
 10
0.0
 20
0.0
 11
297.0
 21
210.0
 12
0.0
 22
0.0
 32
0.0
 14
0.0
 24
0.0
 34
0.0
 15
0.0
 25
0.0
 35
0.0
146
0.0
 13
0.0
 23
0.0
 33
0.0
 16
1.0
 26
0.0
 36
0.0
 17
0.0
 27
1.0
 37
0.0
 76
0
330
21F
345
0
346
0
  0
ENDSEC
  0
EOF
