  0
SECTION
  2
HEADER
  9
$ACADVER
  1
AC1024
  9
$DWGCODEPAGE
  3
ANSI_1252
  9
$EXTMAX
 10
297.0
 20
210.0
 30
0.0
  9
$EXTMIN
 10
0.0
 20
0.0
 30
0.0
  9
$LIMMIN
 10
0.0
 20
0.0
  9
$LIMMAX
 10
297.0
 20
210.0
  9
$VIEWCTR
 10
148.5
 20
105.0
  9
$VIEWSIZE
 40
210.0
  9
$CLAYER
  8
0
  9
$LTSCALE
 40
16.335
  9
$CELTYPE
  6
BYLAYER
  9
$DIMSCALE
 40
1.0
  9
$DIMASZ
 40
3.0
  9
$DIMEXO
 40
0.5
  9
$DIMDLI
 40
11.286
  9
$DIMEXE
 40
1.5
  9
$DIMCEN
 40
2.673
  9
$DIMLFAC
 40
1.0
  9
$DIMBLK
  1
_FILLED
  9
$DIMALT
 70
0
  9
$DIMALTF
 40
0.0393700787
  9
$DIMTXT
 40
3.0
  9
$DIMTOL
 70
1
  9
$DIMLIM
 70
0
  9
$DIMTFAC
 40
1.0
  9
$DIMTP
 40
0.01
  9
$DIMTM
 40
0.01
  9
$DIMGAP
 40
0.625
  9
$DIMDSEP
 70
44
  9
$AUNITS
 70
0
  9
$PDMODE
 70
3
  9
$PDSIZE
 40
3.0
  9
$HANDSEED
  5
458
  9
$TILEMODE
 70
1
  9
$MEASUREMENT
 70
1
  9
$INSUNITS
 70
4
  0
ENDSEC
  0
SECTION
  2
CLASSES
  0
CLASS
  1
ACDBDICTIONARYWDFLT
  2
AcDbDictionaryWithDefault
  3
AutoCAD 2000
 90
0
 91
1
280
0
281
0
  0
CLASS
  1
ACDBPLACEHOLDER
  2
AcDbPlaceHolder
  3
AutoCAD 2000
 90
0
 91
1
280
0
281
0
  0
CLASS
  1
LAYOUT
  2
AcDbLayout
  3
AutoCAD 2000
 90
0
 91
0
280
0
281
0
  0
ENDSEC
  0
SECTION
  2
TABLES
  0
TABLE
  2
VPORT
  5
8
100
AcDbSymbolTable
 70
2
  0
VPORT
  5
1F4
100
AcDbSymbolTableRecord
100
AcDbViewportTableRecord
  2
*ACTIVE
 70
0
 10
0.0
 20
0.0
 11
1.0
 21
1.0
 12
148.5
 22
105.0
 13
0.0
 23
0.0
 14
1.0
 24
1.0
 15
0.0
 25
0.0
 16
0.0
 26
0.0
 36
1.0
 17
0.0
 27
0.0
 37
0.0
 40
210.0
 41
1.4142857143
 42
50.0
 43
0.0
 44
0.0
 50
0.0
 51
0.0
 71
0
 72
100
 73
1
 74
1
 75
0
 76
0
 77
0
 78
0
  0
ENDTAB
  0
TABLE
  2
LTYPE
  5
5
100
AcDbSymbolTable
 70
6
  0
LTYPE
  5
14
100
AcDbSymbolTableRecord
100
AcDbLinetypeTableRecord
  2
BYBLOCK
 70
0
  3

 72
65
 73
0
 40
0.0
  0
LTYPE
  5
15
100
AcDbSymbolTableRecord
100
AcDbLinetypeTableRecord
  2
BYLAYER
 70
0
  3

 72
65
 73
0
 40
0.0
  0
LTYPE
  5
16
100
AcDbSymbolTableRecord
100
AcDbLinetypeTableRecord
  2
CONTINUOUS
 70
64
  3
Solid line
 72
65
 73
0
 40
0.0
  0
LTYPE
  5
1F5
100
AcDbSymbolTableRecord
100
AcDbLinetypeTableRecord
  2
CENTER
 70
64
  3
____ _ ____ _ ____ _ ____ _ ____ _ ____ _ ____
 72
65
 73
4
 40
0.6
 49
0.375
 74
0
 49
-0.075
 74
0
 49
0.075
 74
0
 49
-0.075
 74
0
  0
LTYPE
  5
1F6
100
AcDbSymbolTableRecord
100
AcDbLinetypeTableRecord
  2
HIDDEN
 70
64
  3
- - - - - - - - - - - - - - - - - - - -
 72
65
 73
2
 40
0.2
 49
0.1
 74
0
 49
-0.1
 74
0
  0
LTYPE
  5
1F7
100
AcDbSymbolTableRecord
100
AcDbLinetypeTableRecord
  2
PHANTOM
 70
64
  3
_____ _ _ _____ _ _ _____ _ _ _____
 72
65
 73
6
 40
0.8
 49
0.45
 74
0
 49
-0.05
 74
0
 49
0.1
 74
0
 49
-0.05
 74
0
 49
0.1
 74
0
 49
-0.05
 74
0
  0
LTYPE
  5
1F8
100
AcDbSymbolTableRecord
100
AcDbLinetypeTableRecord
  2
DOT
 70
64
  3
. . . . . . . . . . . . . . . . . . . .
 72
65
 73
2
 40
0.2
 49
0.1
 74
0
 49
-0.1
 74
0
  0
LTYPE
  5
1F9
100
AcDbSymbolTableRecord
100
AcDbLinetypeTableRecord
  2
DASHED
 70
64
  3
- - - - - - - - - - - - - - - - - - - -
 72
65
 73
2
 40
0.2
 49
0.1
 74
0
 49
-0.1
 74
0
  0
ENDTAB
  0
TABLE
  2
LAYER
  5
2
100
AcDbSymbolTable
 70
36
  0
LAYER
  5
10
100
AcDbSymbolTableRecord
100
AcDbLayerTableRecord
  2
0
 70
0
 62
7
  6
CONTINUOUS
370
-3
390
F
  0
LAYER
  5
1FA
100
AcDbSymbolTableRecord
100
AcDbLayerTableRecord
  2
DEFAULT_1
 70
0
 62
7
  6
CENTER
370
-3
390
F
  0
LAYER
  5
1FB
100
AcDbSymbolTableRecord
100
AcDbLayerTableRecord
  2
DEFAULT_2
 70
0
 62
7
  6
HIDDEN
370
-3
390
F
  0
LAYER
  5
1FC
100
AcDbSymbolTableRecord
100
AcDbLayerTableRecord
  2
DEFAULT_3
 70
0
 62
7
  6
PHANTOM
370
-3
390
F
  0
LAYER
  5
1FD
100
AcDbSymbolTableRecord
100
AcDbLayerTableRecord
  2
ASSI
 70
0
 62
7
  6
CONTINUOUS
370
-3
390
F
  0
LAYER
  5
1FE
100
AcDbSymbolTableRecord
100
AcDbLayerTableRecord
  2
COORDINATE
 70
0
 62
7
  6
CONTINUOUS
370
-3
390
F
  0
LAYER
  5
1FF
100
AcDbSymbolTableRecord
100
AcDbLayerTableRecord
  2
COORD_ORIGINE
 70
0
 62
7
  6
CONTINUOUS
370
-3
390
F
  0
LAYER
  5
200
100
AcDbSymbolTableRecord
100
AcDbLayerTableRecord
  2
COPY_PUBLISH
 70
0
 62
7
  6
CONTINUOUS
370
-3
390
F
  0
LAYER
  5
201
100
AcDbSymbolTableRecord
100
AcDbLayerTableRecord
  2
COSMETIC
 70
0
 62
7
  6
CONTINUOUS
370
-3
390
F
  0
LAYER
  5
202
100
AcDbSymbolTableRecord
100
AcDbLayerTableRecord
  2
COSMETICI
 70
0
 62
7
  6
CONTINUOUS
370
-3
390
F
  0
LAYER
  5
203
100
AcDbSymbolTableRecord
100
AcDbLayerTableRecord
  2
CURVE
 70
0
 62
7
  6
CONTINUOUS
370
-3
390
F
  0
LAYER
  5
204
100
AcDbSymbolTableRecord
100
AcDbLayerTableRecord
  2
DRAFT
 70
0
 62
7
  6
CONTINUOUS
370
-3
390
F
  0
LAYER
  5
205
100
AcDbSymbolTableRecord
100
AcDbLayerTableRecord
  2
IMPORT_IGES
 70
0
 62
7
  6
CONTINUOUS
370
-3
390
F
  0
LAYER
  5
206
100
AcDbSymbolTableRecord
100
AcDbLayerTableRecord
  2
INTFCLR_2
 70
0
 62
7
  6
CONTINUOUS
370
-3
390
F
  0
LAYER
  5
207
100
AcDbSymbolTableRecord
100
AcDbLayerTableRecord
  2
INTF_1
 70
0
 62
7
  6
CONTINUOUS
370
-3
390
F
  0
LAYER
  5
208
100
AcDbSymbolTableRecord
100
AcDbLayerTableRecord
  2
INTF_21
 70
0
 62
7
  6
CONTINUOUS
370
-3
390
F
  0
LAYER
  5
209
100
AcDbSymbolTableRecord
100
AcDbLayerTableRecord
  2
INTF_6
 70
0
 62
7
  6
CONTINUOUS
370
-3
390
F
  0
LAYER
  5
20A
100
AcDbSymbolTableRecord
100
AcDbLayerTableRecord
  2
INTF_7
 70
0
 62
7
  6
CONTINUOUS
370
-3
390
F
  0
LAYER
  5
20B
100
AcDbSymbolTableRecord
100
AcDbLayerTableRecord
  2
INTF_CYAN
 70
0
 62
7
  6
CONTINUOUS
370
-3
390
F
  0
LAYER
  5
20C
100
AcDbSymbolTableRecord
100
AcDbLayerTableRecord
  2
LINEA_CHIUSURA
 70
0
 62
7
  6
CONTINUOUS
370
-3
390
F
  0
LAYER
  5
20D
100
AcDbSymbolTableRecord
100
AcDbLayerTableRecord
  2
LIVELLO_1
 70
0
 62
7
  6
CONTINUOUS
370
-3
390
F
  0
LAYER
  5
20E
100
AcDbSymbolTableRecord
100
AcDbLayerTableRecord
  2
NOTE
 70
0
 62
7
  6
CONTINUOUS
370
-3
390
F
  0
LAYER
  5
20F
100
AcDbSymbolTableRecord
100
AcDbLayerTableRecord
  2
PIANI
 70
0
 62
7
  6
CONTINUOUS
370
-3
390
F
  0
LAYER
  5
210
100
AcDbSymbolTableRecord
100
AcDbLayerTableRecord
  2
PIANI_ORIGINE
 70
0
 62
7
  6
CONTINUOUS
370
-3
390
F
  0
LAYER
  5
211
100
AcDbSymbolTableRecord
100
AcDbLayerTableRecord
  2
PIANI_RIFERIMENTO
 70
0
 62
7
  6
CONTINUOUS
370
-3
390
F
  0
LAYER
  5
212
100
AcDbSymbolTableRecord
100
AcDbLayerTableRecord
  2
PUNTI
 70
0
 62
7
  6
CONTINUOUS
370
-3
390
F
  0
LAYER
  5
213
100
AcDbSymbolTableRecord
100
AcDbLayerTableRecord
  2
RACCORDO
 70
0
 62
7
  6
CONTINUOUS
370
-3
390
F
  0
LAYER
  5
214
100
AcDbSymbolTableRecord
100
AcDbLayerTableRecord
  2
RGB__255__255__255__
 70
0
 62
7
  6
CONTINUOUS
370
-3
390
F
  0
LAYER
  5
215
100
AcDbSymbolTableRecord
100
AcDbLayerTableRecord
  2
RGB____0____0____0__
 70
0
 62
7
  6
CONTINUOUS
370
-3
390
F
  0
LAYER
  5
216
100
AcDbSymbolTableRecord
100
AcDbLayerTableRecord
  2
SIMBOLI
 70
0
 62
7
  6
CONTINUOUS
370
-3
390
F
  0
LAYER
  5
217
100
AcDbSymbolTableRecord
100
AcDbLayerTableRecord
  2
SMUSSO
 70
0
 62
7
  6
CONTINUOUS
370
-3
390
F
  0
LAYER
  5
218
100
AcDbSymbolTableRecord
100
AcDbLayerTableRecord
  2
SUPERFICI
 70
0
 62
7
  6
CONTINUOUS
370
-3
390
F
  0
LAYER
  5
219
100
AcDbSymbolTableRecord
100
AcDbLayerTableRecord
  2
TRASH
 70
0
 62
7
  6
CONTINUOUS
370
-3
390
F
  0
LAYER
  5
21A
100
AcDbSymbolTableRecord
100
AcDbLayerTableRecord
  2
WHITE
 70
0
 62
7
  6
CONTINUOUS
370
-3
390
F
  0
LAYER
  5
21B
100
AcDbSymbolTableRecord
100
AcDbLayerTableRecord
  2
XSEC_DATUMS
 70
0
 62
7
  6
CONTINUOUS
370
-3
390
F
  0
ENDTAB
  0
TABLE
  2
STYLE
  5
3
100
AcDbSymbolTable
 70
1
  0
STYLE
  5
11
100
AcDbSymbolTableRecord
100
AcDbTextStyleTableRecord
  2
STANDARD
 70
0
 40
0.0
 41
0.8
 50
0.0
 71
0
 42
0.2
  3
txt
  4

  0
STYLE
  5
21C
100
AcDbSymbolTableRecord
100
AcDbTextStyleTableRecord
  2
TEXTSTYLE_1
 70
0
 40
0.0
 41
0.8
 50
0.0
 71
0
 42
0.2
  3
gdt
  4

  0
ENDTAB
  0
TABLE
  2
VIEW
  5
6
100
AcDbSymbolTable
 70
0
  0
ENDTAB
  0
TABLE
  2
UCS
  5
7
100
AcDbSymbolTable
 70
0
  0
ENDTAB
  0
TABLE
  2
APPID
  5
9
100
AcDbSymbolTable
 70
1
  0
APPID
  5
21D
100
AcDbSymbolTableRecord
100
AcDbRegAppTableRecord
  2
ACAD
 70
0
  0
ENDTAB
  0
TABLE
  2
BLOCK_RECORD
  5
1
100
AcDbSymbolTable
 70
0
  0
BLOCK_RECORD
  5
21E
100
AcDbSymbolTableRecord
100
AcDbBlockTableRecord
  2
*Model_Space
  0
BLOCK_RECORD
  5
21F
100
AcDbSymbolTableRecord
100
AcDbBlockTableRecord
  2
*Paper_Space
  0
BLOCK_RECORD
  5
220
100
AcDbSymbolTableRecord
100
AcDbBlockTableRecord
  2
_FILLED
  0
ENDTAB
  0
TABLE
  2
DIMSTYLE
  5
A
100
AcDbSymbolTable
 70
1
100
AcDbDimStyleTable
 71
0
  0
DIMSTYLE
105
221
100
AcDbSymbolTableRecord
100
AcDbDimStyleTableRecord
  2
STANDARD
 70
0
  3

  4

 40
1.0
 41
3.0
 42
0.5
 43
0.38
 44
1.5
 45
0.0
 46
0.0
 47
0.01
 48
0.01
140
3.0
141
0.09
142
0.0
143
25.4
144
1.0
145
0.0
146
1.0
147
0.625
 71
1
 72
0
 73
0
 74
0
 75
0
 76
0
 77
1
 78
8
 79
2
170
0
171
1
172
0
173
0
174
0
175
0
176
0
177
0
178
0
270
2
179
2
271
2
272
2
273
2
274
2
275
0
280
0
281
0
282
0
283
1
284
8
285
0
286
0
287
3
288
0
340
11
278
44
341
220
342
220
343
220
344
220
  0
ENDTAB
  0
ENDSEC
  0
SECTION
  2
BLOCKS
  0
BLOCK
  5
20
100
AcDbEntity
  8
0
100
AcDbBlockBegin
  2
*Model_Space
 70
0
 10
0.0
 20
0.0
 30
0.0
  3
*Model_Space
  1

  0
ENDBLK
  5
21
100
AcDbEntity
  8
0
100
AcDbBlockEnd
  0
BLOCK
  5
1C
100
AcDbEntity
  8
0
100
AcDbBlockBegin
  2
*Paper_Space
 70
0
 10
0.0
 20
0.0
 30
0.0
  3
*Paper_Space
  1

  0
ENDBLK
  5
1D
100
AcDbEntity
  8
0
100
AcDbBlockEnd
  0
BLOCK
  5
222
100
AcDbEntity
  8
0
100
AcDbBlockBegin
  2
_FILLED
 70
64
 10
0.0
 20
0.0
  3
_FILLED
  1

  0
SOLID
  5
223
100
AcDbEntity
  8
0
  6
BYBLOCK
 62
0
100
AcDbTrace
 10
0.0
 20
0.0
 11
-1.0
 21
0.3166666667
 12
-1.0
 22
-0.3166666667
 13
-1.0
 23
-0.3166666667
  0
ENDBLK
  5
224
100
AcDbEntity
  8
0
  6
BYBLOCK
 62
0
100
AcDbBlockEnd
  0
ENDSEC
  0
SECTION
  2
ENTITIES
  0
LINE
  5
225
100
AcDbEntity
  8
ASSI
100
AcDbLine
 62
7
  6
CONTINUOUS
 10
70.6661851889
 20
146.8947138344
 11
74.453998976
 21
149.3982807258
  0
LINE
  5
226
100
AcDbEntity
  8
ASSI
100
AcDbLine
 62
7
  6
CONTINUOUS
 10
71.3737224582
 20
147.3031580283
 11
75.1615362453
 21
149.8067249196
  0
LINE
  5
227
100
AcDbEntity
  8
ASSI
100
AcDbLine
 62
7
  6
CONTINUOUS
 10
71.352958844
 20
147.2903186773
 11
71.3737224582
 21
147.3031580283
  0
LINE
  5
228
100
AcDbEntity
  8
ASSI
100
AcDbLine
 62
7
  6
CONTINUOUS
 10
74.453998976
 20
149.3982807258
 11
75.1615362453
 21
149.8067249196
  0
LINE
  5
229
100
AcDbEntity
  8
ASSI
100
AcDbLine
 62
7
  6
CONTINUOUS
 10
71.352958844
 20
147.2903186773
 11
70.6665604964
 21
146.8940774729
  0
LINE
  5
22A
100
AcDbEntity
  8
ASSI
100
AcDbLine
 62
7
  6
CONTINUOUS
 10
70.9702695441
 20
145.8750902389
 11
70.69129361
 21
145.7140441633
  0
LINE
  5
22B
100
AcDbEntity
  8
ASSI
100
AcDbLine
 62
7
  6
CONTINUOUS
 10
70.9702695441
 20
145.8750902389
 11
71.352958844
 21
147.2903186773
  0
LINE
  5
22C
100
AcDbEntity
  8
ASSI
100
AcDbLine
 62
7
  6
CONTINUOUS
 10
70.69129361
 20
74.882410564
 11
70.6665604964
 21
75.3386461415
  0
LINE
  5
22D
100
AcDbEntity
  8
ASSI
100
AcDbLine
 62
7
  6
CONTINUOUS
 10
70.69129361
 20
145.7140441633
 11
70.6665604964
 21
146.8940774729
  0
LINE
  5
22E
100
AcDbEntity
  8
ASSI
100
AcDbLine
 62
7
  6
CONTINUOUS
 10
70.6665604964
 20
75.3386461415
 11
70.6661851889
 21
75.3628390022
  0
LINE
  5
22F
100
AcDbEntity
  8
ASSI
100
AcDbLine
 62
7
  6
CONTINUOUS
 10
70.6661851889
 20
146.8947138344
 11
70.6661851889
 21
75.3628390022
  0
LINE
  5
230
100
AcDbEntity
  8
ASSI
100
AcDbLine
 62
7
  6
CONTINUOUS
 10
70.69129361
 20
145.7140441633
 11
70.69129361
 21
74.882410564
  0
LINE
  5
231
100
AcDbEntity
  8
ASSI
100
AcDbLine
 62
7
  6
CONTINUOUS
 10
181.5957157515
 20
10.8475871783
 11
183.0126748824
 21
10.4714077225
  0
LINE
  5
232
100
AcDbEntity
  8
ASSI
100
AcDbLine
 62
7
  6
CONTINUOUS
 10
70.69129361
 20
74.882410564
 11
70.9702695441
 21
74.3992100725
  0
LWPOLYLINE
  5
233
100
AcDbEntity
  8
SMUSSO
100
AcDbPolyline
 62
7
  6
CONTINUOUS
 90
8
 70
0
 10
89.2883792213
 20
105.9520156017
 10
89.283697226
 20
105.9402219685
 10
89.2681725591
 20
105.8950849931
 10
89.255398701
 20
105.8474098342
 10
89.245418904
 20
105.7973588829
 10
89.2382666799
 20
105.7451020534
 10
89.2339658614
 20
105.6908160529
 10
89.2325307028
 20
105.6346847277
  0
LWPOLYLINE
  5
234
100
AcDbEntity
  8
ASSI
100
AcDbPolyline
 62
7
  6
CONTINUOUS
 90
8
 70
0
 10
89.2883792213
 20
105.9520156017
 10
89.283697226
 20
105.9402219685
 10
89.2681725591
 20
105.8950849931
 10
89.255398701
 20
105.8474098342
 10
89.245418904
 20
105.7973588829
 10
89.2382666799
 20
105.7451020534
 10
89.2339658614
 20
105.6908160529
 10
89.2325307028
 20
105.6346847277
  0
LINE
  5
235
100
AcDbEntity
  8
SMUSSO
100
AcDbLine
 62
250
  6
CONTINUOUS
 10
89.4719397146
 20
106.1505726902
 11
89.2325307028
 21
105.6346847277
  0
LINE
  5
236
100
AcDbEntity
  8
ASSI
100
AcDbLine
 62
250
  6
CONTINUOUS
 10
89.4719397146
 20
106.1505726902
 11
89.2325307028
 21
105.6346847277
  0
LINE
  5
237
100
AcDbEntity
  8
SMUSSO
100
AcDbLine
 62
250
  6
CONTINUOUS
 10
89.5911608917
 20
95.4667734663
 11
89.2325307028
 21
94.6939830187
  0
LINE
  5
238
100
AcDbEntity
  8
ASSI
100
AcDbLine
 62
250
  6
CONTINUOUS
 10
89.5911608917
 20
95.4667734663
 11
89.2325307028
 21
94.6939830187
  0
LWPOLYLINE
  5
239
100
AcDbEntity
  8
SMUSSO
100
AcDbPolyline
 62
7
  6
CONTINUOUS
 90
3
 70
0
 10
89.3227801293
 20
106.0222788507
 10
89.3019202509
 20
105.9826678042
 10
89.2883792213
 20
105.9520156017
  0
LWPOLYLINE
  5
23A
100
AcDbEntity
  8
ASSI
100
AcDbPolyline
 62
7
  6
CONTINUOUS
 90
3
 70
0
 10
89.3227801293
 20
106.0222788507
 10
89.3019202509
 20
105.9826678042
 10
89.2883792213
 20
105.9520156017
  0
LWPOLYLINE
  5
23B
100
AcDbEntity
  8
SMUSSO
100
AcDbPolyline
 62
7
  6
CONTINUOUS
 90
4
 70
0
 10
89.2590095838
 20
106.0411551091
 10
89.2896248179
 20
106.0681865323
 10
89.3224396081
 20
106.0918166249
 10
89.3396084918
 20
106.1023140424
  0
LWPOLYLINE
  5
23C
100
AcDbEntity
  8
ASSI
100
AcDbPolyline
 62
7
  6
CONTINUOUS
 90
4
 70
0
 10
89.2590095838
 20
106.0411551091
 10
89.2896248179
 20
106.0681865323
 10
89.3224396081
 20
106.0918166249
 10
89.3396084918
 20
106.1023140424
  0
LWPOLYLINE
  5
23D
100
AcDbEntity
  8
SMUSSO
100
AcDbPolyline
 62
7
  6
CONTINUOUS
 90
5
 70
0
 10
89.4147552149
 20
106.1354575064
 10
89.4004308729
 20
106.1228099624
 10
89.3721188957
 20
106.0924687242
 10
89.3462061111
 20
106.0589205254
 10
89.3227801293
 20
106.0222788507
  0
LWPOLYLINE
  5
23E
100
AcDbEntity
  8
ASSI
100
AcDbPolyline
 62
7
  6
CONTINUOUS
 90
5
 70
0
 10
89.4147552149
 20
106.1354575064
 10
89.4004308729
 20
106.1228099624
 10
89.3721188957
 20
106.0924687242
 10
89.3462061111
 20
106.0589205254
 10
89.3227801293
 20
106.0222788507
  0
LINE
  5
23F
100
AcDbEntity
  8
SMUSSO
100
AcDbLine
 62
250
  6
CONTINUOUS
 10
89.0911093466
 20
105.5530298091
 11
89.2325307028
 21
105.6346847277
  0
LINE
  5
240
100
AcDbEntity
  8
ASSI
100
AcDbLine
 62
250
  6
CONTINUOUS
 10
89.0911093466
 20
105.5530298091
 11
89.2325307028
 21
105.6346847277
  0
LWPOLYLINE
  5
241
100
AcDbEntity
  8
SMUSSO
100
AcDbPolyline
 62
7
  6
CONTINUOUS
 90
15
 70
0
 10
89.3396084918
 20
106.1023140424
 10
89.3573429679
 20
106.1119654992
 10
89.3942168387
 20
106.1285650071
 10
89.4329365108
 20
106.14155899
 10
89.4733708953
 20
106.1509034382
 10
89.515383008
 20
106.1565667106
 10
89.5588308283
 20
106.1585296776
 10
89.6035671626
 20
106.1567857037
 10
89.6494399287
 20
106.1513408327
 10
89.6962938091
 20
106.1422136948
 10
89.7439702452
 20
106.129435368
 10
89.792307263
 20
106.1130495137
 10
89.8411410583
 20
106.0931119911
 10
89.8903065816
 20
106.069690513
 10
89.939637484
 20
106.0428646292
  0
LWPOLYLINE
  5
242
100
AcDbEntity
  8
ASSI
100
AcDbPolyline
 62
7
  6
CONTINUOUS
 90
15
 70
0
 10
89.3396084918
 20
106.1023140424
 10
89.3573429679
 20
106.1119654992
 10
89.3942168387
 20
106.1285650071
 10
89.4329365108
 20
106.14155899
 10
89.4733708953
 20
106.1509034382
 10
89.515383008
 20
106.1565667106
 10
89.5588308283
 20
106.1585296776
 10
89.6035671626
 20
106.1567857037
 10
89.6494399287
 20
106.1513408327
 10
89.6962938091
 20
106.1422136948
 10
89.7439702452
 20
106.129435368
 10
89.792307263
 20
106.1130495137
 10
89.8411410583
 20
106.0931119911
 10
89.8903065816
 20
106.069690513
 10
89.939637484
 20
106.0428646292
  0
LWPOLYLINE
  5
243
100
AcDbEntity
  8
CURVE
100
AcDbPolyline
 62
250
  6
CONTINUOUS
 90
73
 70
0
 10
179.1802999206
 20
15.2248447707
 10
179.1839721197
 20
15.2235785398
 10
179.1875336714
 20
15.2228891581
 10
179.1910038002
 20
15.2226417593
 10
179.1944017306
 20
15.222701477
 10
179.1977466871
 20
15.2229334447
 10
179.2080705593
 20
15.2239953847
 10
179.2180894477
 20
15.2255163825
 10
179.2278340943
 20
15.2275836178
 10
179.2376773432
 20
15.2303705861
 10
179.2472610308
 20
15.2337742678
 10
179.2565874568
 20
15.2377301971
 10
179.2656589208
 20
15.2421739078
 10
179.2764154066
 20
15.2482017087
 10
179.2867838211
 20
15.25486353
 10
179.2967545527
 20
15.2621593133
 10
179.3063179897
 20
15.270089
 10
179.314782071
 20
15.2779755911
 10
179.3228817481
 20
15.2863916643
 10
179.3306083898
 20
15.2953258002
 10
179.3379533653
 20
15.3047665793
 10
179.3449080434
 20
15.3147025824
 10
179.3522717643
 20
15.326485159
 10
179.3591218596
 20
15.3388642993
 10
179.3654518782
 20
15.3518214857
 10
179.3712553687
 20
15.365338201
 10
179.3765258801
 20
15.3793959276
 10
179.3809857535
 20
15.3930720043
 10
179.384973312
 20
15.4071855521
 10
179.3884919501
 20
15.421713269
 10
179.3915450618
 20
15.4366318526
 10
179.3941360417
 20
15.4519180009
 10
179.3962682838
 20
15.4675484116
 10
179.3980950606
 20
15.4851697559
 10
179.3993845371
 20
15.5031551793
 10
179.4001539434
 20
15.5214778859
 10
179.4004182526
 20
15.5415082705
 10
179.4001087705
 20
15.5618708321
 10
179.3992320388
 20
15.582539411
 10
179.3981125843
 20
15.5994197892
 10
179.39661217
 20
15.6164770813
 10
179.3947147445
 20
15.6337060701
 10
179.3925455186
 20
15.6501269536
 10
179.3900025037
 20
15.6666876223
 10
179.3870802105
 20
15.683379423
 10
179.383388293
 20
15.7020403798
 10
179.37922075
 20
15.7208295898
 10
179.3745756129
 20
15.7397245324
 10
179.3694509128
 20
15.7587026869
 10
179.3638446813
 20
15.7777415328
 10
179.3583150469
 20
15.7951278192
 10
179.3523895589
 20
15.8125271313
 10
179.3460740166
 20
15.8299207852
 10
179.3393742192
 20
15.8472900976
 10
179.3322959662
 20
15.8646163847
 10
179.3237259346
 20
15.8843981031
 10
179.3146789618
 20
15.9040725326
 10
179.3051676448
 20
15.9236134478
 10
179.2952045806
 20
15.9429946234
 10
179.2849702283
 20
15.96188922
 10
179.2743255606
 20
15.9805813504
 10
179.2632856735
 20
15.9990486953
 10
179.2518656635
 20
16.0172689356
 10
179.2400806268
 20
16.0352197523
 10
179.2279456595
 20
16.0528788264
 10
179.215475858
 20
16.0702238386
 10
179.2061831525
 20
16.082651179
 10
179.1967199115
 20
16.0948621609
 10
179.1870854767
 20
16.1068191454
 10
179.1772791898
 20
16.1184844938
 10
179.1673003927
 20
16.1298205674
 10
179.157148427
 20
16.1407897271
 10
179.1468226347
 20
16.1513543344
  0
LWPOLYLINE
  5
244
100
AcDbEntity
  8
CURVE
100
AcDbPolyline
 62
250
  6
CONTINUOUS
 90
23
 70
0
 10
178.6581475768
 20
16.1674227508
 10
178.6699572729
 20
16.1628753421
 10
178.6817878966
 20
16.1582014867
 10
178.6936382431
 20
16.1533902554
 10
178.7055071074
 20
16.1484307188
 10
178.7173932845
 20
16.1433119476
 10
178.7292955694
 20
16.1380230127
 10
178.7412127573
 20
16.1325529849
 10
178.753143643
 20
16.1268909347
 10
178.7650870217
 20
16.121025933
 10
178.7770416884
 20
16.1149470506
 10
178.7890064382
 20
16.1086433581
 10
178.8002487485
 20
16.1025125495
 10
178.8114962239
 20
16.0961800496
 10
178.8227462018
 20
16.0896520082
 10
178.8339960199
 20
16.0829345746
 10
178.8452430156
 20
16.0760338987
 10
178.8564845267
 20
16.06895613
 10
178.8677178907
 20
16.0617074181
 10
178.8789404451
 20
16.0542939126
 10
178.8901495276
 20
16.0467217632
 10
178.9013424757
 20
16.0389971195
 10
178.912516627
 20
16.031126131
  0
LWPOLYLINE
  5
245
100
AcDbEntity
  8
SMUSSO
100
AcDbPolyline
 62
7
  6
CONTINUOUS
 90
28
 70
0
 10
89.2325307028
 20
94.6939830187
 10
89.2339658851
 20
94.6361939256
 10
89.2382667595
 20
94.5769410978
 10
89.2454190494
 20
94.5164248558
 10
89.2553988857
 20
94.4548495145
 10
89.2681727418
 20
94.3924236209
 10
89.2836974051
 20
94.3293592878
 10
89.3019204726
 20
94.2658699101
 10
89.3227804193
 20
94.2021702859
 10
89.3462064446
 20
94.1384768495
 10
89.3721191947
 20
94.0750053784
 10
89.4004310853
 20
94.0119704242
 10
89.4310462465
 20
93.9495854638
 10
89.4638610446
 20
93.8880616707
 10
89.4987644648
 20
93.8276071816
 10
89.5356384091
 20
93.7684265552
 10
89.5743581691
 20
93.7107199626
 10
89.6147926555
 20
93.6546827947
 10
89.6568048285
 20
93.6005049503
 10
89.7002525948
 20
93.5483696322
 10
89.7449888198
 20
93.4984533597
 10
89.7908615691
 20
93.4509255504
 10
89.8377156794
 20
93.4059468106
 10
89.8853924547
 20
93.3636693324
 10
89.9337296272
 20
93.3242367492
 10
89.9825632848
 20
93.2877823963
 10
90.0317284719
 20
93.254429036
 10
90.0810588402
 20
93.2242891746
  0
LWPOLYLINE
  5
246
100
AcDbEntity
  8
ASSI
100
AcDbPolyline
 62
7
  6
CONTINUOUS
 90
28
 70
0
 10
89.2325307028
 20
94.6939830187
 10
89.2339658851
 20
94.6361939256
 10
89.2382667595
 20
94.5769410978
 10
89.2454190494
 20
94.5164248558
 10
89.2553988857
 20
94.4548495145
 10
89.2681727418
 20
94.3924236209
 10
89.2836974051
 20
94.3293592878
 10
89.3019204726
 20
94.2658699101
 10
89.3227804193
 20
94.2021702859
 10
89.3462064446
 20
94.1384768495
 10
89.3721191947
 20
94.0750053784
 10
89.4004310853
 20
94.0119704242
 10
89.4310462465
 20
93.9495854638
 10
89.4638610446
 20
93.8880616707
 10
89.4987644648
 20
93.8276071816
 10
89.5356384091
 20
93.7684265552
 10
89.5743581691
 20
93.7107199626
 10
89.6147926555
 20
93.6546827947
 10
89.6568048285
 20
93.6005049503
 10
89.7002525948
 20
93.5483696322
 10
89.7449888198
 20
93.4984533597
 10
89.7908615691
 20
93.4509255504
 10
89.8377156794
 20
93.4059468106
 10
89.8853924547
 20
93.3636693324
 10
89.9337296272
 20
93.3242367492
 10
89.9825632848
 20
93.2877823963
 10
90.0317284719
 20
93.254429036
 10
90.0810588402
 20
93.2242891746
  0
LWPOLYLINE
  5
247
100
AcDbEntity
  8
SMUSSO
100
AcDbPolyline
 62
7
  6
CONTINUOUS
 90
31
 70
0
 10
89.5911608917
 20
95.4667734663
 10
89.5930362387
 20
95.3844491905
 10
89.5985283624
 20
95.3006964125
 10
89.6076372626
 20
95.2155151324
 10
89.6204075349
 20
95.1286642735
 10
89.6367945838
 20
95.0403849124
 10
89.6566646225
 20
94.9514002797
 10
89.6800464782
 20
94.8617042953
 10
89.7069113237
 20
94.7713030394
 10
89.7370388911
 20
94.6809379831
 10
89.7704559312
 20
94.5906098576
 10
89.8071356931
 20
94.5003179318
 10
89.8467776563
 20
94.4108014833
 10
89.8894059413
 20
94.3220672051
 10
89.9349964276
 20
94.2341084042
 10
89.9831762322
 20
94.1476442792
 10
90.0339665228
 20
94.0626870428
 10
90.0873461317
 20
93.9792244824
 10
90.1428786732
 20
93.8979391582
 10
90.200582114
 20
93.8188485076
 10
90.2604384875
 20
93.7419350934
 10
90.321957508
 20
93.6678291637
 10
90.385152943
 20
93.5965537834
 10
90.450011025
 20
93.5280858877
 10
90.5160001655
 20
93.4629865312
 10
90.5831297268
 20
93.4012834852
 10
90.6513903466
 20
93.3429489784
 10
90.7202223492
 20
93.288460751
 10
90.7894391759
 20
93.2379780498
 10
90.8592273854
 20
93.191341628
 10
90.9295869777
 20
93.1485514856
  0
LWPOLYLINE
  5
248
100
AcDbEntity
  8
ASSI
100
AcDbPolyline
 62
7
  6
CONTINUOUS
 90
31
 70
0
 10
89.5911608917
 20
95.4667734663
 10
89.5930362387
 20
95.3844491905
 10
89.5985283624
 20
95.3006964125
 10
89.6076372626
 20
95.2155151324
 10
89.6204075349
 20
95.1286642735
 10
89.6367945838
 20
95.0403849124
 10
89.6566646225
 20
94.9514002797
 10
89.6800464782
 20
94.8617042953
 10
89.7069113237
 20
94.7713030394
 10
89.7370388911
 20
94.6809379831
 10
89.7704559312
 20
94.5906098576
 10
89.8071356931
 20
94.5003179318
 10
89.8467776563
 20
94.4108014833
 10
89.8894059413
 20
94.3220672051
 10
89.9349964276
 20
94.2341084042
 10
89.9831762322
 20
94.1476442792
 10
90.0339665228
 20
94.0626870428
 10
90.0873461317
 20
93.9792244824
 10
90.1428786732
 20
93.8979391582
 10
90.200582114
 20
93.8188485076
 10
90.2604384875
 20
93.7419350934
 10
90.321957508
 20
93.6678291637
 10
90.385152943
 20
93.5965537834
 10
90.450011025
 20
93.5280858877
 10
90.5160001655
 20
93.4629865312
 10
90.5831297268
 20
93.4012834852
 10
90.6513903466
 20
93.3429489784
 10
90.7202223492
 20
93.288460751
 10
90.7894391759
 20
93.2379780498
 10
90.8592273854
 20
93.191341628
 10
90.9295869777
 20
93.1485514856
  0
LINE
  5
249
100
AcDbEntity
  8
SMUSSO
100
AcDbLine
 62
7
  6
CONTINUOUS
 10
88.3840025654
 20
94.6123281
 11
88.3840025654
 21
105.5530298091
  0
LINE
  5
24A
100
AcDbEntity
  8
ASSI
100
AcDbLine
 62
7
  6
CONTINUOUS
 10
88.3840025654
 20
94.6123281
 11
88.3840025654
 21
105.5530298091
  0
LINE
  5
24B
100
AcDbEntity
  8
SMUSSO
100
AcDbLine
 62
7
  6
CONTINUOUS
 10
89.0911093466
 20
94.6123281
 11
89.0911093466
 21
105.5530298091
  0
LINE
  5
24C
100
AcDbEntity
  8
ASSI
100
AcDbLine
 62
7
  6
CONTINUOUS
 10
89.0911093466
 20
94.6123281
 11
89.0911093466
 21
105.5530298091
  0
LINE
  5
24D
100
AcDbEntity
  8
SMUSSO
100
AcDbLine
 62
7
  6
CONTINUOUS
 10
89.2325307028
 20
105.6346847277
 11
89.2325307028
 21
94.6939830187
  0
LINE
  5
24E
100
AcDbEntity
  8
ASSI
100
AcDbLine
 62
7
  6
CONTINUOUS
 10
89.2325307028
 20
105.6346847277
 11
89.2325307028
 21
94.6939830187
  0
LINE
  5
24F
100
AcDbEntity
  8
SMUSSO
100
AcDbLine
 62
7
  6
CONTINUOUS
 10
89.5911608917
 20
106.1572693421
 11
89.5911608917
 21
95.4667734663
  0
LINE
  5
250
100
AcDbEntity
  8
ASSI
100
AcDbLine
 62
7
  6
CONTINUOUS
 10
89.5911608917
 20
106.1572693421
 11
89.5911608917
 21
95.4667734663
  0
LWPOLYLINE
  5
251
100
AcDbEntity
  8
SMUSSO
100
AcDbPolyline
 62
7
  6
CONTINUOUS
 90
12
 70
0
 10
89.0911093466
 20
105.5530298091
 10
89.0925445035
 20
105.6091611027
 10
89.0968453181
 20
105.6634470829
 10
89.1039975375
 20
105.7157039027
 10
89.1139773301
 20
105.7657548528
 10
89.126751186
 20
105.8134300192
 10
89.1422758551
 20
105.8585670116
 10
89.1604988915
 20
105.9010128788
 10
89.1813587903
 20
105.9406239617
 10
89.2047847923
 20
105.9772656599
 10
89.2306975936
 20
106.0108138693
 10
89.2590095838
 20
106.0411551091
  0
LWPOLYLINE
  5
252
100
AcDbEntity
  8
ASSI
100
AcDbPolyline
 62
7
  6
CONTINUOUS
 90
12
 70
0
 10
89.0911093466
 20
105.5530298091
 10
89.0925445035
 20
105.6091611027
 10
89.0968453181
 20
105.6634470829
 10
89.1039975375
 20
105.7157039027
 10
89.1139773301
 20
105.7657548528
 10
89.126751186
 20
105.8134300192
 10
89.1422758551
 20
105.8585670116
 10
89.1604988915
 20
105.9010128788
 10
89.1813587903
 20
105.9406239617
 10
89.2047847923
 20
105.9772656599
 10
89.2306975936
 20
106.0108138693
 10
89.2590095838
 20
106.0411551091
  0
LWPOLYLINE
  5
253
100
AcDbEntity
  8
SMUSSO
100
AcDbPolyline
 62
7
  6
CONTINUOUS
 90
28
 70
0
 10
88.3840025654
 20
105.5530298091
 10
88.3860920549
 20
105.6329665964
 10
88.3921781605
 20
105.7097850106
 10
88.4022608821
 20
105.7834850514
 10
88.4164010648
 20
105.8542951661
 10
88.4345378636
 20
105.9219869076
 10
88.4564887433
 20
105.9858749342
 10
88.482292532
 20
106.0459203805
 10
88.5119104016
 20
106.102162112
 10
88.5450433322
 20
106.1540313831
 10
88.5817269716
 20
106.2014836589
 10
88.6219256721
 20
106.2445634743
 10
88.6652334706
 20
106.2828356894
 10
88.7116817886
 20
106.3162515032
 10
88.7612392047
 20
106.3448597166
 10
88.813405492
 20
106.3683715926
 10
88.8682071511
 20
106.3867355257
 10
88.9256176813
 20
106.4000031213
 10
88.9850573538
 20
106.4080404583
 10
89.0465469851
 20
106.4107944117
 10
89.1100657587
 20
106.4083181066
 10
89.1749714958
 20
106.4006369973
 10
89.2412784224
 20
106.387698009
 10
89.3089723125
 20
106.3695542164
 10
89.3773683103
 20
106.3463902985
 10
89.4462381304
 20
106.3182678147
 10
89.5158100581
 20
106.2851252055
 10
89.5860840934
 20
106.246962471
  0
LWPOLYLINE
  5
254
100
AcDbEntity
  8
ASSI
100
AcDbPolyline
 62
7
  6
CONTINUOUS
 90
28
 70
0
 10
88.3840025654
 20
105.5530298091
 10
88.3860920549
 20
105.6329665964
 10
88.3921781605
 20
105.7097850106
 10
88.4022608821
 20
105.7834850514
 10
88.4164010648
 20
105.8542951661
 10
88.4345378636
 20
105.9219869076
 10
88.4564887433
 20
105.9858749342
 10
88.482292532
 20
106.0459203805
 10
88.5119104016
 20
106.102162112
 10
88.5450433322
 20
106.1540313831
 10
88.5817269716
 20
106.2014836589
 10
88.6219256721
 20
106.2445634743
 10
88.6652334706
 20
106.2828356894
 10
88.7116817886
 20
106.3162515032
 10
88.7612392047
 20
106.3448597166
 10
88.813405492
 20
106.3683715926
 10
88.8682071511
 20
106.3867355257
 10
88.9256176813
 20
106.4000031213
 10
88.9850573538
 20
106.4080404583
 10
89.0465469851
 20
106.4107944117
 10
89.1100657587
 20
106.4083181066
 10
89.1749714958
 20
106.4006369973
 10
89.2412784224
 20
106.387698009
 10
89.3089723125
 20
106.3695542164
 10
89.3773683103
 20
106.3463902985
 10
89.4462381304
 20
106.3182678147
 10
89.5158100581
 20
106.2851252055
 10
89.5860840934
 20
106.246962471
  0
LINE
  5
255
100
AcDbEntity
  8
SMUSSO
100
AcDbLine
 62
250
  6
CONTINUOUS
 10
89.5860840934
 20
92.5302618208
 11
89.939637484
 21
93.1426342559
  0
LINE
  5
256
100
AcDbEntity
  8
ASSI
100
AcDbLine
 62
250
  6
CONTINUOUS
 10
89.5860840934
 20
92.5302618208
 11
89.939637484
 21
93.1426342559
  0
LINE
  5
257
100
AcDbEntity
  8
ASSI
100
AcDbLine
 62
7
  6
CONTINUOUS
 10
70.9702695441
 20
74.3992100725
 11
71.352958844
 21
74.1497693304
  0
LINE
  5
258
100
AcDbEntity
  8
SMUSSO
100
AcDbLine
 62
250
  6
CONTINUOUS
 10
89.0911093466
 20
94.6123281
 11
89.2325307028
 21
94.6939830187
  0
LINE
  5
259
100
AcDbEntity
  8
ASSI
100
AcDbLine
 62
250
  6
CONTINUOUS
 10
89.0911093466
 20
94.6123281
 11
89.2325307028
 21
94.6939830187
  0
LINE
  5
25A
100
AcDbEntity
  8
SMUSSO
100
AcDbLine
 62
250
  6
CONTINUOUS
 10
89.939637484
 20
93.1426342559
 11
90.0810588402
 21
93.2242891746
  0
LINE
  5
25B
100
AcDbEntity
  8
ASSI
100
AcDbLine
 62
250
  6
CONTINUOUS
 10
89.939637484
 20
93.1426342559
 11
90.0810588402
 21
93.2242891746
  0
LINE
  5
25C
100
AcDbEntity
  8
ASSI
100
AcDbLine
 62
7
  6
CONTINUOUS
 10
71.3737224582
 20
74.1373485048
 11
182.326638965
 21
10.0745250804
  0
LINE
  5
25D
100
AcDbEntity
  8
ASSI
100
AcDbLine
 62
7
  6
CONTINUOUS
 10
70.9702695441
 20
74.3992100725
 11
181.3167398174
 21
10.6865411028
  0
LINE
  5
25E
100
AcDbEntity
  8
CURVE
100
AcDbLine
 62
250
  6
CONTINUOUS
 10
178.3455257163
 20
14.8578237886
 11
178.6689139653
 21
14.6711034667
  0
LINE
  5
25F
100
AcDbEntity
  8
CURVE
100
AcDbLine
 62
250
  6
CONTINUOUS
 10
179.1661391453
 20
14.3840118795
 11
179.4784577273
 21
14.2036830445
  0
LINE
  5
260
100
AcDbEntity
  8
CURVE
100
AcDbLine
 62
250
  6
CONTINUOUS
 10
178.2501794667
 20
14.9128758584
 11
177.9079649867
 21
15.1104662102
  0
LINE
  5
261
100
AcDbEntity
  8
CURVE
100
AcDbLine
 62
250
  6
CONTINUOUS
 10
177.2920758164
 20
15.4660728982
 11
176.9709038904
 21
15.6515135431
  0
LINE
  5
262
100
AcDbEntity
  8
CURVE
100
AcDbLine
 62
250
  6
CONTINUOUS
 10
176.9199183286
 20
15.6809519674
 11
176.6022806568
 21
15.8643519782
  0
LINE
  5
263
100
AcDbEntity
  8
CURVE
100
AcDbLine
 62
250
  6
CONTINUOUS
 10
176.1495086896
 20
16.1257768375
 11
176.103970813
 21
16.1520698367
  0
LINE
  5
264
100
AcDbEntity
  8
CURVE
100
AcDbLine
 62
250
  6
CONTINUOUS
 10
175.6529952337
 20
16.4124574842
 11
175.3423682896
 21
16.5918095886
  0
LINE
  5
265
100
AcDbEntity
  8
CURVE
100
AcDbLine
 62
250
  6
CONTINUOUS
 10
174.2223837954
 20
17.2384745989
 11
173.9362462477
 21
17.4036868328
  0
LINE
  5
266
100
AcDbEntity
  8
CURVE
100
AcDbLine
 62
250
  6
CONTINUOUS
 10
174.8428798672
 20
16.8802079437
 11
175.1675749357
 21
16.6927330805
  0
LINE
  5
267
100
AcDbEntity
  8
CURVE
100
AcDbLine
 62
250
  6
CONTINUOUS
 10
177.8238518105
 20
15.5175938743
 11
177.3816714943
 21
15.772903247
  0
LINE
  5
268
100
AcDbEntity
  8
CURVE
100
AcDbLine
 62
250
  6
CONTINUOUS
 10
177.4480896945
 20
16.0120082938
 11
177.7589618363
 21
15.8325146153
  0
LINE
  5
269
100
AcDbEntity
  8
CURVE
100
AcDbLine
 62
250
  6
CONTINUOUS
 10
178.6689139653
 20
15.3739913446
 11
178.8430075166
 21
15.27347191
  0
LINE
  5
26A
100
AcDbEntity
  8
CURVE
100
AcDbLine
 62
250
  6
CONTINUOUS
 10
178.8437073902
 20
15.5672228935
 11
178.6581475768
 21
15.6743628041
  0
LINE
  5
26B
100
AcDbEntity
  8
CURVE
100
AcDbLine
 62
250
  6
CONTINUOUS
 10
173.4431211126
 20
19.4844942358
 11
173.7958398318
 21
19.280838868
  0
LINE
  5
26C
100
AcDbEntity
  8
CURVE
100
AcDbLine
 62
250
  6
CONTINUOUS
 10
174.3979120015
 20
18.9332099429
 11
174.7223855773
 21
18.7458629669
  0
LINE
  5
26D
100
AcDbEntity
  8
CURVE
100
AcDbLine
 62
250
  6
CONTINUOUS
 10
175.4828213746
 20
18.306796868
 11
175.8072475405
 21
18.1194772658
  0
LINE
  5
26E
100
AcDbEntity
  8
CURVE
100
AcDbLine
 62
250
  6
CONTINUOUS
 10
176.4532078732
 20
17.7465078655
 11
176.7744612849
 21
17.5610201719
  0
LINE
  5
26F
100
AcDbEntity
  8
CURVE
100
AcDbLine
 62
250
  6
CONTINUOUS
 10
177.4588095002
 20
17.1658860893
 11
177.772912177
 21
16.9845271403
  0
LINE
  5
270
100
AcDbEntity
  8
CURVE
100
AcDbLine
 62
250
  6
CONTINUOUS
 10
175.1675749357
 20
18.4889239849
 11
174.8428798672
 21
18.6763988481
  0
LWPOLYLINE
  5
271
100
AcDbEntity
  8
CURVE
100
AcDbPolyline
 62
250
  6
CONTINUOUS
 90
46
 70
0
 10
178.8430075166
 20
15.27347191
 10
178.848318962
 20
15.2703187566
 10
178.8536388238
 20
15.2669879724
 10
178.8589612168
 20
15.263482972
 10
178.8642802557
 20
15.2598071705
 10
178.8695900553
 20
15.2559639828
 10
178.8748847302
 20
15.2519568237
 10
178.8801583953
 20
15.2477891082
 10
178.8854051653
 20
15.2434642512
 10
178.8906191549
 20
15.2389856677
 10
178.8957944789
 20
15.2343567724
 10
178.9009252519
 20
15.2295809804
 10
178.9060055888
 20
15.2246617065
 10
178.9110296043
 20
15.2196023657
 10
178.9159914131
 20
15.2144063728
 10
178.92088513
 20
15.2090771428
 10
178.9257048696
 20
15.2036180906
 10
178.9303250517
 20
15.1981774756
 10
178.9348670601
 20
15.1926224579
 10
178.9393285495
 20
15.1869586571
 10
178.9437071747
 20
15.1811916931
 10
178.9480005907
 20
15.1753271855
 10
178.9522064523
 20
15.1693707541
 10
178.9563224143
 20
15.1633280187
 10
178.9603461316
 20
15.157204599
 10
178.9642752589
 20
15.1510061148
 10
178.9681074513
 20
15.1447381858
 10
178.9718403634
 20
15.1384064318
 10
178.9754716501
 20
15.1320164725
 10
178.9789989664
 20
15.1255739276
 10
178.9826861785
 20
15.1185699958
 10
178.9862511196
 20
15.1115167889
 10
178.9896952832
 20
15.1044197056
 10
178.9930201625
 20
15.0972841447
 10
178.996227251
 20
15.090115505
 10
178.9993180419
 20
15.0829191852
 10
179.0022940287
 20
15.0757005841
 10
179.0051567047
 20
15.0684651003
 10
179.0079075632
 20
15.0612181327
 10
179.0105480977
 20
15.05396508
 10
179.0130798014
 20
15.046711341
 10
179.0155041677
 20
15.0394623143
 10
179.0178226901
 20
15.0322233988
 10
179.0200368617
 20
15.0249999932
 10
179.022148176
 20
15.0177974963
 10
179.0241581264
 20
15.0106213067
  0
LINE
  5
272
100
AcDbEntity
  8
ASSI
100
AcDbLine
 62
7
  6
CONTINUOUS
 10
71.3737224582
 20
74.1373485048
 11
71.352958844
 21
74.1497693304
  0
LINE
  5
273
100
AcDbEntity
  8
ASSI
100
AcDbLine
 62
7
  6
CONTINUOUS
 10
181.3167398174
 20
10.6865411028
 11
182.3262765348
 21
10.0751665181
  0
LWPOLYLINE
  5
274
100
AcDbEntity
  8
SMUSSO
100
AcDbPolyline
 62
7
  6
CONTINUOUS
 90
28
 70
0
 10
105.1424332795
 20
85.5078046688
 10
105.1438684618
 20
85.4500155757
 10
105.1481693362
 20
85.3907627479
 10
105.1553216261
 20
85.3302465059
 10
105.1653014624
 20
85.2686711646
 10
105.1780753185
 20
85.206245271
 10
105.1935999818
 20
85.1431809379
 10
105.2118230493
 20
85.0796915602
 10
105.232682996
 20
85.0159919361
 10
105.2561090213
 20
84.9522984996
 10
105.2820217714
 20
84.8888270285
 10
105.310333662
 20
84.8257920743
 10
105.3409488232
 20
84.763407114
 10
105.3737636213
 20
84.7018833208
 10
105.4086670415
 20
84.6414288317
 10
105.4455409858
 20
84.5822482053
 10
105.4842607458
 20
84.5245416127
 10
105.5246952322
 20
84.4685044448
 10
105.5667074052
 20
84.4143266004
 10
105.6101551715
 20
84.3621912823
 10
105.6548913965
 20
84.3122750099
 10
105.7007641458
 20
84.2647472006
 10
105.7476182561
 20
84.2197684607
 10
105.7952950314
 20
84.1774909825
 10
105.8436322039
 20
84.1380583993
 10
105.8924658615
 20
84.1016040464
 10
105.9416310486
 20
84.0682506861
 10
105.9909614169
 20
84.0381108247
  0
LWPOLYLINE
  5
275
100
AcDbEntity
  8
ASSI
100
AcDbPolyline
 62
7
  6
CONTINUOUS
 90
28
 70
0
 10
105.1424332795
 20
85.5078046688
 10
105.1438684618
 20
85.4500155757
 10
105.1481693362
 20
85.3907627479
 10
105.1553216261
 20
85.3302465059
 10
105.1653014624
 20
85.2686711646
 10
105.1780753185
 20
85.206245271
 10
105.1935999818
 20
85.1431809379
 10
105.2118230493
 20
85.0796915602
 10
105.232682996
 20
85.0159919361
 10
105.2561090213
 20
84.9522984996
 10
105.2820217714
 20
84.8888270285
 10
105.310333662
 20
84.8257920743
 10
105.3409488232
 20
84.763407114
 10
105.3737636213
 20
84.7018833208
 10
105.4086670415
 20
84.6414288317
 10
105.4455409858
 20
84.5822482053
 10
105.4842607458
 20
84.5245416127
 10
105.5246952322
 20
84.4685044448
 10
105.5667074052
 20
84.4143266004
 10
105.6101551715
 20
84.3621912823
 10
105.6548913965
 20
84.3122750099
 10
105.7007641458
 20
84.2647472006
 10
105.7476182561
 20
84.2197684607
 10
105.7952950314
 20
84.1774909825
 10
105.8436322039
 20
84.1380583993
 10
105.8924658615
 20
84.1016040464
 10
105.9416310486
 20
84.0682506861
 10
105.9909614169
 20
84.0381108247
  0
LINE
  5
276
100
AcDbEntity
  8
SMUSSO
100
AcDbLine
 62
7
  6
CONTINUOUS
 10
100.2633964893
 20
98.6940166412
 11
100.2633964893
 21
87.7533149321
  0
LINE
  5
277
100
AcDbEntity
  8
ASSI
100
AcDbLine
 62
7
  6
CONTINUOUS
 10
100.2633964893
 20
98.6940166412
 11
100.2633964893
 21
87.7533149321
  0
LINE
  5
278
100
AcDbEntity
  8
SMUSSO
100
AcDbLine
 62
7
  6
CONTINUOUS
 10
104.2939051421
 20
85.4261497502
 11
104.2939051421
 21
96.3668514592
  0
LINE
  5
279
100
AcDbEntity
  8
ASSI
100
AcDbLine
 62
7
  6
CONTINUOUS
 10
104.2939051421
 20
85.4261497502
 11
104.2939051421
 21
96.3668514592
  0
LINE
  5
27A
100
AcDbEntity
  8
SMUSSO
100
AcDbLine
 62
7
  6
CONTINUOUS
 10
105.0010119233
 20
85.4261497502
 11
105.0010119233
 21
96.3668514592
  0
LINE
  5
27B
100
AcDbEntity
  8
ASSI
100
AcDbLine
 62
7
  6
CONTINUOUS
 10
105.0010119233
 20
85.4261497502
 11
105.0010119233
 21
96.3668514592
  0
LINE
  5
27C
100
AcDbEntity
  8
SMUSSO
100
AcDbLine
 62
7
  6
CONTINUOUS
 10
105.1424332795
 20
96.4485063779
 11
105.1424332795
 21
85.5078046688
  0
LINE
  5
27D
100
AcDbEntity
  8
ASSI
100
AcDbLine
 62
7
  6
CONTINUOUS
 10
105.1424332795
 20
96.4485063779
 11
105.1424332795
 21
85.5078046688
  0
LWPOLYLINE
  5
27E
100
AcDbEntity
  8
SMUSSO
100
AcDbPolyline
 62
7
  6
CONTINUOUS
 90
15
 70
0
 10
100.2633964893
 20
88.1615895255
 10
100.2619613323
 20
88.1054582318
 10
100.2576605178
 20
88.0511722516
 10
100.2505082984
 20
87.9989154318
 10
100.2405285058
 20
87.9488644817
 10
100.2277546499
 20
87.9011893154
 10
100.2122299808
 20
87.8560523229
 10
100.1940069444
 20
87.8136064557
 10
100.1731470456
 20
87.7739953729
 10
100.1497210436
 20
87.7373536746
 10
100.1238082423
 20
87.7038054652
 10
100.0954962521
 20
87.6734642254
 10
100.0648810179
 20
87.6464328022
 10
100.0320662278
 20
87.6228027096
 10
100.0148973441
 20
87.6123052921
  0
LWPOLYLINE
  5
27F
100
AcDbEntity
  8
ASSI
100
AcDbPolyline
 62
7
  6
CONTINUOUS
 90
15
 70
0
 10
100.2633964893
 20
88.1615895255
 10
100.2619613323
 20
88.1054582318
 10
100.2576605178
 20
88.0511722516
 10
100.2505082984
 20
87.9989154318
 10
100.2405285058
 20
87.9488644817
 10
100.2277546499
 20
87.9011893154
 10
100.2122299808
 20
87.8560523229
 10
100.1940069444
 20
87.8136064557
 10
100.1731470456
 20
87.7739953729
 10
100.1497210436
 20
87.7373536746
 10
100.1238082423
 20
87.7038054652
 10
100.0954962521
 20
87.6734642254
 10
100.0648810179
 20
87.6464328022
 10
100.0320662278
 20
87.6228027096
 10
100.0148973441
 20
87.6123052921
  0
LWPOLYLINE
  5
280
100
AcDbEntity
  8
SMUSSO
100
AcDbPolyline
 62
7
  6
CONTINUOUS
 90
12
 70
0
 10
105.0010119233
 20
96.3668514592
 10
105.0024470802
 20
96.4229827528
 10
105.0067478948
 20
96.477268733
 10
105.0139001142
 20
96.5295255529
 10
105.0238799068
 20
96.5795765029
 10
105.0366537627
 20
96.6272516693
 10
105.0521784318
 20
96.6723886617
 10
105.0704014682
 20
96.714834529
 10
105.091261367
 20
96.7544456118
 10
105.114687369
 20
96.7910873101
 10
105.1406001703
 20
96.8246355194
 10
105.1689121605
 20
96.8549767593
  0
LWPOLYLINE
  5
281
100
AcDbEntity
  8
ASSI
100
AcDbPolyline
 62
7
  6
CONTINUOUS
 90
12
 70
0
 10
105.0010119233
 20
96.3668514592
 10
105.0024470802
 20
96.4229827528
 10
105.0067478948
 20
96.477268733
 10
105.0139001142
 20
96.5295255529
 10
105.0238799068
 20
96.5795765029
 10
105.0366537627
 20
96.6272516693
 10
105.0521784318
 20
96.6723886617
 10
105.0704014682
 20
96.714834529
 10
105.091261367
 20
96.7544456118
 10
105.114687369
 20
96.7910873101
 10
105.1406001703
 20
96.8246355194
 10
105.1689121605
 20
96.8549767593
  0
LWPOLYLINE
  5
282
100
AcDbEntity
  8
SMUSSO
100
AcDbPolyline
 62
7
  6
CONTINUOUS
 90
28
 70
0
 10
100.2633964893
 20
87.7533149321
 10
100.2613069998
 20
87.6733781447
 10
100.2552208942
 20
87.5965597306
 10
100.2451381726
 20
87.5228596898
 10
100.2309979898
 20
87.4520495751
 10
100.2128611911
 20
87.3843578336
 10
100.1909103114
 20
87.320469807
 10
100.1651065227
 20
87.2604243607
 10
100.1354886531
 20
87.2041826292
 10
100.1023557225
 20
87.152313358
 10
100.0656720831
 20
87.1048610823
 10
100.0254733826
 20
87.0617812669
 10
99.9821655841
 20
87.0235090518
 10
99.9357172661
 20
86.990093238
 10
99.88615985
 20
86.9614850246
 10
99.8339935627
 20
86.9379731486
 10
99.7791919036
 20
86.9196092155
 10
99.7217813734
 20
86.9063416199
 10
99.6623417009
 20
86.8983042829
 10
99.6008520696
 20
86.8955503295
 10
99.537333296
 20
86.8980266346
 10
99.4724275589
 20
86.9057077439
 10
99.4061206323
 20
86.9186467322
 10
99.3384267422
 20
86.9367905248
 10
99.2700307444
 20
86.9599544427
 10
99.2011609243
 20
86.9880769265
 10
99.1315889966
 20
87.0212195357
 10
99.0613149613
 20
87.0593822702
  0
LWPOLYLINE
  5
283
100
AcDbEntity
  8
ASSI
100
AcDbPolyline
 62
7
  6
CONTINUOUS
 90
28
 70
0
 10
100.2633964893
 20
87.7533149321
 10
100.2613069998
 20
87.6733781447
 10
100.2552208942
 20
87.5965597306
 10
100.2451381726
 20
87.5228596898
 10
100.2309979898
 20
87.4520495751
 10
100.2128611911
 20
87.3843578336
 10
100.1909103114
 20
87.320469807
 10
100.1651065227
 20
87.2604243607
 10
100.1354886531
 20
87.2041826292
 10
100.1023557225
 20
87.152313358
 10
100.0656720831
 20
87.1048610823
 10
100.0254733826
 20
87.0617812669
 10
99.9821655841
 20
87.0235090518
 10
99.9357172661
 20
86.990093238
 10
99.88615985
 20
86.9614850246
 10
99.8339935627
 20
86.9379731486
 10
99.7791919036
 20
86.9196092155
 10
99.7217813734
 20
86.9063416199
 10
99.6623417009
 20
86.8983042829
 10
99.6008520696
 20
86.8955503295
 10
99.537333296
 20
86.8980266346
 10
99.4724275589
 20
86.9057077439
 10
99.4061206323
 20
86.9186467322
 10
99.3384267422
 20
86.9367905248
 10
99.2700307444
 20
86.9599544427
 10
99.2011609243
 20
86.9880769265
 10
99.1315889966
 20
87.0212195357
 10
99.0613149613
 20
87.0593822702
  0
LWPOLYLINE
  5
284
100
AcDbEntity
  8
SMUSSO
100
AcDbPolyline
 62
7
  6
CONTINUOUS
 90
28
 70
0
 10
104.2939051421
 20
96.3668514592
 10
104.2959946316
 20
96.4467882466
 10
104.3020807372
 20
96.5236066607
 10
104.3121634588
 20
96.5973067015
 10
104.3263036415
 20
96.6681168163
 10
104.3444404403
 20
96.7358085577
 10
104.36639132
 20
96.7996965843
 10
104.3921951087
 20
96.8597420307
 10
104.4218129783
 20
96.9159837621
 10
104.4549459089
 20
96.9678530333
 10
104.4916295483
 20
97.015305309
 10
104.5318282488
 20
97.0583851244
 10
104.5751360473
 20
97.0966573395
 10
104.6215843653
 20
97.1300731533
 10
104.6711417814
 20
97.1586813668
 10
104.7233080686
 20
97.1821932427
 10
104.7781097278
 20
97.2005571758
 10
104.835520258
 20
97.2138247714
 10
104.8949599305
 20
97.2218621084
 10
104.9564495618
 20
97.2246160619
 10
105.0199683354
 20
97.2221397568
 10
105.0848740725
 20
97.2144586475
 10
105.151180999
 20
97.2015196591
 10
105.2188748892
 20
97.1833758666
 10
105.287270887
 20
97.1602119486
 10
105.3561407071
 20
97.1320894648
 10
105.4257126348
 20
97.0989468557
 10
105.4959866701
 20
97.0607841211
  0
LWPOLYLINE
  5
285
100
AcDbEntity
  8
ASSI
100
AcDbPolyline
 62
7
  6
CONTINUOUS
 90
28
 70
0
 10
104.2939051421
 20
96.3668514592
 10
104.2959946316
 20
96.4467882466
 10
104.3020807372
 20
96.5236066607
 10
104.3121634588
 20
96.5973067015
 10
104.3263036415
 20
96.6681168163
 10
104.3444404403
 20
96.7358085577
 10
104.36639132
 20
96.7996965843
 10
104.3921951087
 20
96.8597420307
 10
104.4218129783
 20
96.9159837621
 10
104.4549459089
 20
96.9678530333
 10
104.4916295483
 20
97.015305309
 10
104.5318282488
 20
97.0583851244
 10
104.5751360473
 20
97.0966573395
 10
104.6215843653
 20
97.1300731533
 10
104.6711417814
 20
97.1586813668
 10
104.7233080686
 20
97.1821932427
 10
104.7781097278
 20
97.2005571758
 10
104.835520258
 20
97.2138247714
 10
104.8949599305
 20
97.2218621084
 10
104.9564495618
 20
97.2246160619
 10
105.0199683354
 20
97.2221397568
 10
105.0848740725
 20
97.2144586475
 10
105.151180999
 20
97.2015196591
 10
105.2188748892
 20
97.1833758666
 10
105.287270887
 20
97.1602119486
 10
105.3561407071
 20
97.1320894648
 10
105.4257126348
 20
97.0989468557
 10
105.4959866701
 20
97.0607841211
  0
LWPOLYLINE
  5
286
100
AcDbEntity
  8
SMUSSO
100
AcDbPolyline
 62
7
  6
CONTINUOUS
 90
8
 70
0
 10
105.198281798
 20
96.7658372518
 10
105.1935998027
 20
96.7540436186
 10
105.1780751358
 20
96.7089066433
 10
105.1653012777
 20
96.6612314843
 10
105.1553214807
 20
96.611180533
 10
105.1481692566
 20
96.5589237035
 10
105.1438684381
 20
96.504637703
 10
105.1424332795
 20
96.4485063779
  0
LWPOLYLINE
  5
287
100
AcDbEntity
  8
ASSI
100
AcDbPolyline
 62
7
  6
CONTINUOUS
 90
8
 70
0
 10
105.198281798
 20
96.7658372518
 10
105.1935998027
 20
96.7540436186
 10
105.1780751358
 20
96.7089066433
 10
105.1653012777
 20
96.6612314843
 10
105.1553214807
 20
96.611180533
 10
105.1481692566
 20
96.5589237035
 10
105.1438684381
 20
96.504637703
 10
105.1424332795
 20
96.4485063779
  0
LINE
  5
288
100
AcDbEntity
  8
SMUSSO
100
AcDbLine
 62
250
  6
CONTINUOUS
 10
105.3818422913
 20
96.9643943403
 11
105.1424332795
 21
96.4485063779
  0
LINE
  5
289
100
AcDbEntity
  8
ASSI
100
AcDbLine
 62
250
  6
CONTINUOUS
 10
105.3818422913
 20
96.9643943403
 11
105.1424332795
 21
96.4485063779
  0
LINE
  5
28A
100
AcDbEntity
  8
SMUSSO
100
AcDbLine
 62
250
  6
CONTINUOUS
 10
105.5010634684
 20
86.2805951165
 11
105.1424332795
 21
85.5078046688
  0
LINE
  5
28B
100
AcDbEntity
  8
ASSI
100
AcDbLine
 62
250
  6
CONTINUOUS
 10
105.5010634684
 20
86.2805951165
 11
105.1424332795
 21
85.5078046688
  0
LWPOLYLINE
  5
28C
100
AcDbEntity
  8
SMUSSO
100
AcDbPolyline
 62
7
  6
CONTINUOUS
 90
3
 70
0
 10
105.232682706
 20
96.8361005008
 10
105.2118228276
 20
96.7964894543
 10
105.198281798
 20
96.7658372518
  0
LWPOLYLINE
  5
28D
100
AcDbEntity
  8
ASSI
100
AcDbPolyline
 62
7
  6
CONTINUOUS
 90
3
 70
0
 10
105.232682706
 20
96.8361005008
 10
105.2118228276
 20
96.7964894543
 10
105.198281798
 20
96.7658372518
  0
LINE
  5
28E
100
AcDbEntity
  8
SMUSSO
100
AcDbLine
 62
250
  6
CONTINUOUS
 10
99.0613149613
 20
87.0593822702
 11
99.4148683519
 21
87.6717547053
  0
LINE
  5
28F
100
AcDbEntity
  8
ASSI
100
AcDbLine
 62
250
  6
CONTINUOUS
 10
99.0613149613
 20
87.0593822702
 11
99.4148683519
 21
87.6717547053
  0
LWPOLYLINE
  5
290
100
AcDbEntity
  8
SMUSSO
100
AcDbPolyline
 62
7
  6
CONTINUOUS
 90
4
 70
0
 10
105.1689121605
 20
96.8549767593
 10
105.1995273946
 20
96.8820081824
 10
105.2323421848
 20
96.905638275
 10
105.2495110685
 20
96.9161356926
  0
LWPOLYLINE
  5
291
100
AcDbEntity
  8
ASSI
100
AcDbPolyline
 62
7
  6
CONTINUOUS
 90
4
 70
0
 10
105.1689121605
 20
96.8549767593
 10
105.1995273946
 20
96.8820081824
 10
105.2323421848
 20
96.905638275
 10
105.2495110685
 20
96.9161356926
  0
LWPOLYLINE
  5
292
100
AcDbEntity
  8
SMUSSO
100
AcDbPolyline
 62
7
  6
CONTINUOUS
 90
5
 70
0
 10
105.3246577916
 20
96.9492791565
 10
105.3103334496
 20
96.9366316126
 10
105.2820214724
 20
96.9062903743
 10
105.2561086878
 20
96.8727421755
 10
105.232682706
 20
96.8361005008
  0
LWPOLYLINE
  5
293
100
AcDbEntity
  8
ASSI
100
AcDbPolyline
 62
7
  6
CONTINUOUS
 90
5
 70
0
 10
105.3246577916
 20
96.9492791565
 10
105.3103334496
 20
96.9366316126
 10
105.2820214724
 20
96.9062903743
 10
105.2561086878
 20
96.8727421755
 10
105.232682706
 20
96.8361005008
  0
LINE
  5
294
100
AcDbEntity
  8
SMUSSO
100
AcDbLine
 62
250
  6
CONTINUOUS
 10
105.0010119233
 20
96.3668514592
 11
105.1424332795
 21
96.4485063779
  0
LINE
  5
295
100
AcDbEntity
  8
ASSI
100
AcDbLine
 62
250
  6
CONTINUOUS
 10
105.0010119233
 20
96.3668514592
 11
105.1424332795
 21
96.4485063779
  0
LWPOLYLINE
  5
296
100
AcDbEntity
  8
SMUSSO
100
AcDbPolyline
 62
7
  6
CONTINUOUS
 90
15
 70
0
 10
105.2495110685
 20
96.9161356926
 10
105.2672455446
 20
96.9257871493
 10
105.3041194154
 20
96.9423866573
 10
105.3428390875
 20
96.9553806401
 10
105.383273472
 20
96.9647250884
 10
105.4252855847
 20
96.9703883607
 10
105.468733405
 20
96.9723513277
 10
105.5134697393
 20
96.9706073538
 10
105.5593425054
 20
96.9651624828
 10
105.6061963858
 20
96.956035345
 10
105.6538728219
 20
96.9432570182
 10
105.7022098397
 20
96.9268711638
 10
105.751043635
 20
96.9069336412
 10
105.8002091583
 20
96.8835121632
 10
105.8495400607
 20
96.8566862793
  0
LWPOLYLINE
  5
297
100
AcDbEntity
  8
ASSI
100
AcDbPolyline
 62
7
  6
CONTINUOUS
 90
15
 70
0
 10
105.2495110685
 20
96.9161356926
 10
105.2672455446
 20
96.9257871493
 10
105.3041194154
 20
96.9423866573
 10
105.3428390875
 20
96.9553806401
 10
105.383273472
 20
96.9647250884
 10
105.4252855847
 20
96.9703883607
 10
105.468733405
 20
96.9723513277
 10
105.5134697393
 20
96.9706073538
 10
105.5593425054
 20
96.9651624828
 10
105.6061963858
 20
96.956035345
 10
105.6538728219
 20
96.9432570182
 10
105.7022098397
 20
96.9268711638
 10
105.751043635
 20
96.9069336412
 10
105.8002091583
 20
96.8835121632
 10
105.8495400607
 20
96.8566862793
  0
LINE
  5
298
100
AcDbEntity
  8
SMUSSO
100
AcDbLine
 62
250
  6
CONTINUOUS
 10
163.7625130243
 20
50.9581216378
 11
163.1959000149
 21
51.0086962245
  0
LINE
  5
299
100
AcDbEntity
  8
ASSI
100
AcDbLine
 62
250
  6
CONTINUOUS
 10
163.7625130243
 20
50.9581216378
 11
163.1959000149
 21
51.0086962245
  0
LWPOLYLINE
  5
29A
100
AcDbEntity
  8
SMUSSO
100
AcDbPolyline
 62
7
  6
CONTINUOUS
 90
7
 70
0
 10
163.4987290304
 20
50.8983665716
 10
163.5319705492
 20
50.8947751331
 10
163.5767068378
 20
50.8930311765
 10
163.6201546043
 20
50.8949941532
 10
163.6621666543
 20
50.9006574247
 10
163.7026009713
 20
50.9100018589
 10
163.7207822836
 20
50.9161033464
  0
LWPOLYLINE
  5
29B
100
AcDbEntity
  8
ASSI
100
AcDbPolyline
 62
7
  6
CONTINUOUS
 90
7
 70
0
 10
163.4987290304
 20
50.8983665716
 10
163.5319705492
 20
50.8947751331
 10
163.5767068378
 20
50.8930311765
 10
163.6201546043
 20
50.8949941532
 10
163.6621666543
 20
50.9006574247
 10
163.7026009713
 20
50.9100018589
 10
163.7207822836
 20
50.9161033464
  0
LWPOLYLINE
  5
29C
100
AcDbEntity
  8
SMUSSO
100
AcDbPolyline
 62
7
  6
CONTINUOUS
 90
5
 70
0
 10
100.2309981941
 20
99.0326938249
 10
100.2451383104
 20
98.9455551478
 10
100.2552209785
 20
98.8602120852
 10
100.2613070381
 20
98.7763659163
 10
100.2633964893
 20
98.6940166412
  0
LWPOLYLINE
  5
29D
100
AcDbEntity
  8
ASSI
100
AcDbPolyline
 62
7
  6
CONTINUOUS
 90
5
 70
0
 10
100.2309981941
 20
99.0326938249
 10
100.2451383104
 20
98.9455551478
 10
100.2552209785
 20
98.8602120852
 10
100.2613070381
 20
98.7763659163
 10
100.2633964893
 20
98.6940166412
  0
LWPOLYLINE
  5
29E
100
AcDbEntity
  8
SMUSSO
100
AcDbPolyline
 62
7
  6
CONTINUOUS
 90
31
 70
0
 10
105.5010634684
 20
86.2805951165
 10
105.5029388154
 20
86.1982708406
 10
105.5084309391
 20
86.1145180626
 10
105.5175398393
 20
86.0293367826
 10
105.5303101116
 20
85.9424859236
 10
105.5466971605
 20
85.8542065625
 10
105.5665671992
 20
85.7652219299
 10
105.5899490549
 20
85.6755259455
 10
105.6168139004
 20
85.5851246895
 10
105.6469414678
 20
85.4947596332
 10
105.6803585079
 20
85.4044315077
 10
105.7170382698
 20
85.3141395819
 10
105.756680233
 20
85.2246231334
 10
105.799308518
 20
85.1358888552
 10
105.8448990043
 20
85.0479300543
 10
105.8930788089
 20
84.9614659293
 10
105.9438690995
 20
84.8765086929
 10
105.9972487084
 20
84.7930461325
 10
106.0527812499
 20
84.7117608083
 10
106.1104846907
 20
84.6326701578
 10
106.1703410642
 20
84.5557567435
 10
106.2318600847
 20
84.4816508139
 10
106.2950555197
 20
84.4103754335
 10
106.3599136017
 20
84.3419075378
 10
106.4259027422
 20
84.2768081813
 10
106.4930323035
 20
84.2151051353
 10
106.5612929233
 20
84.1567706285
 10
106.6301249259
 20
84.1022824011
 10
106.6993417526
 20
84.0517996999
 10
106.7691299621
 20
84.0051632781
 10
106.8394895544
 20
83.9623731358
  0
LWPOLYLINE
  5
29F
100
AcDbEntity
  8
ASSI
100
AcDbPolyline
 62
7
  6
CONTINUOUS
 90
31
 70
0
 10
105.5010634684
 20
86.2805951165
 10
105.5029388154
 20
86.1982708406
 10
105.5084309391
 20
86.1145180626
 10
105.5175398393
 20
86.0293367826
 10
105.5303101116
 20
85.9424859236
 10
105.5466971605
 20
85.8542065625
 10
105.5665671992
 20
85.7652219299
 10
105.5899490549
 20
85.6755259455
 10
105.6168139004
 20
85.5851246895
 10
105.6469414678
 20
85.4947596332
 10
105.6803585079
 20
85.4044315077
 10
105.7170382698
 20
85.3141395819
 10
105.756680233
 20
85.2246231334
 10
105.799308518
 20
85.1358888552
 10
105.8448990043
 20
85.0479300543
 10
105.8930788089
 20
84.9614659293
 10
105.9438690995
 20
84.8765086929
 10
105.9972487084
 20
84.7930461325
 10
106.0527812499
 20
84.7117608083
 10
106.1104846907
 20
84.6326701578
 10
106.1703410642
 20
84.5557567435
 10
106.2318600847
 20
84.4816508139
 10
106.2950555197
 20
84.4103754335
 10
106.3599136017
 20
84.3419075378
 10
106.4259027422
 20
84.2768081813
 10
106.4930323035
 20
84.2151051353
 10
106.5612929233
 20
84.1567706285
 10
106.6301249259
 20
84.1022824011
 10
106.6993417526
 20
84.0517996999
 10
106.7691299621
 20
84.0051632781
 10
106.8394895544
 20
83.9623731358
  0
LINE
  5
2A0
100
AcDbEntity
  8
SMUSSO
100
AcDbLine
 62
7
  6
CONTINUOUS
 10
105.5010634684
 20
96.9710909923
 11
105.5010634684
 21
86.2805951165
  0
LINE
  5
2A1
100
AcDbEntity
  8
ASSI
100
AcDbLine
 62
7
  6
CONTINUOUS
 10
105.5010634684
 20
96.9710909923
 11
105.5010634684
 21
86.2805951165
  0
LINE
  5
2A2
100
AcDbEntity
  8
SMUSSO
100
AcDbLine
 62
250
  6
CONTINUOUS
 10
105.4959866701
 20
83.344083471
 11
105.8495400607
 21
83.956455906
  0
LINE
  5
2A3
100
AcDbEntity
  8
ASSI
100
AcDbLine
 62
250
  6
CONTINUOUS
 10
105.4959866701
 20
83.344083471
 11
105.8495400607
 21
83.956455906
  0
LINE
  5
2A4
100
AcDbEntity
  8
SMUSSO
100
AcDbLine
 62
250
  6
CONTINUOUS
 10
99.4148683519
 20
87.6717547053
 11
99.5562897081
 21
87.753409624
  0
LINE
  5
2A5
100
AcDbEntity
  8
ASSI
100
AcDbLine
 62
250
  6
CONTINUOUS
 10
99.4148683519
 20
87.6717547053
 11
99.5562897081
 21
87.753409624
  0
LWPOLYLINE
  5
2A6
100
AcDbEntity
  8
SMUSSO
100
AcDbPolyline
 62
7
  6
CONTINUOUS
 90
15
 70
0
 10
100.0148973441
 20
87.6123052921
 10
99.997162868
 20
87.6026538353
 10
99.9602889972
 20
87.5860543274
 10
99.9215693251
 20
87.5730603445
 10
99.8811349406
 20
87.5637158963
 10
99.8391228279
 20
87.558052624
 10
99.7956750076
 20
87.556089657
 10
99.7509386732
 20
87.5578336309
 10
99.7050659072
 20
87.5632785018
 10
99.6582120268
 20
87.5724056397
 10
99.6105355907
 20
87.5851839665
 10
99.5621985728
 20
87.6015698208
 10
99.5133647775
 20
87.6215073434
 10
99.4641992543
 20
87.6449288215
 10
99.4148683519
 20
87.6717547053
  0
LWPOLYLINE
  5
2A7
100
AcDbEntity
  8
ASSI
100
AcDbPolyline
 62
7
  6
CONTINUOUS
 90
15
 70
0
 10
100.0148973441
 20
87.6123052921
 10
99.997162868
 20
87.6026538353
 10
99.9602889972
 20
87.5860543274
 10
99.9215693251
 20
87.5730603445
 10
99.8811349406
 20
87.5637158963
 10
99.8391228279
 20
87.558052624
 10
99.7956750076
 20
87.556089657
 10
99.7509386732
 20
87.5578336309
 10
99.7050659072
 20
87.5632785018
 10
99.6582120268
 20
87.5724056397
 10
99.6105355907
 20
87.5851839665
 10
99.5621985728
 20
87.6015698208
 10
99.5133647775
 20
87.6215073434
 10
99.4641992543
 20
87.6449288215
 10
99.4148683519
 20
87.6717547053
  0
LINE
  5
2A8
100
AcDbEntity
  8
SMUSSO
100
AcDbLine
 62
250
  6
CONTINUOUS
 10
152.0236128722
 20
57.8676147005
 11
152.7307196534
 21
57.8676147005
  0
LINE
  5
2A9
100
AcDbEntity
  8
ASSI
100
AcDbLine
 62
250
  6
CONTINUOUS
 10
152.0236128722
 20
57.8676147005
 11
152.7307196534
 21
57.8676147005
  0
LINE
  5
2AA
100
AcDbEntity
  8
SMUSSO
100
AcDbLine
 62
250
  6
CONTINUOUS
 10
154.5691972844
 20
56.4038380861
 11
153.720669147
 21
56.4795757751
  0
LINE
  5
2AB
100
AcDbEntity
  8
ASSI
100
AcDbLine
 62
250
  6
CONTINUOUS
 10
154.5691972844
 20
56.4038380861
 11
153.720669147
 21
56.4795757751
  0
LINE
  5
2AC
100
AcDbEntity
  8
SMUSSO
100
AcDbLine
 62
250
  6
CONTINUOUS
 10
147.8526104476
 20
60.1442999877
 11
147.2859974382
 21
60.1948745743
  0
LINE
  5
2AD
100
AcDbEntity
  8
ASSI
100
AcDbLine
 62
250
  6
CONTINUOUS
 10
147.8526104476
 20
60.1442999877
 11
147.2859974382
 21
60.1948745743
  0
LWPOLYLINE
  5
2AE
100
AcDbEntity
  8
SMUSSO
100
AcDbPolyline
 62
7
  6
CONTINUOUS
 90
7
 70
0
 10
147.5888264537
 20
60.0845449214
 10
147.6220679725
 20
60.080953483
 10
147.6668042611
 20
60.0792095264
 10
147.7102520276
 20
60.0811725031
 10
147.7522640776
 20
60.0868357746
 10
147.7926983946
 20
60.0961802088
 10
147.8108797069
 20
60.1022816963
  0
LWPOLYLINE
  5
2AF
100
AcDbEntity
  8
ASSI
100
AcDbPolyline
 62
7
  6
CONTINUOUS
 90
7
 70
0
 10
147.5888264537
 20
60.0845449214
 10
147.6220679725
 20
60.080953483
 10
147.6668042611
 20
60.0792095264
 10
147.7102520276
 20
60.0811725031
 10
147.7522640776
 20
60.0868357746
 10
147.7926983946
 20
60.0961802088
 10
147.8108797069
 20
60.1022816963
  0
LWPOLYLINE
  5
2B0
100
AcDbEntity
  8
CURVE
100
AcDbPolyline
 62
250
  6
CONTINUOUS
 90
49
 70
0
 10
178.912516627
 20
16.031126131
 10
178.9184674812
 20
16.0267997121
 10
178.9244187412
 20
16.0222873237
 10
178.9303638524
 20
16.0175932724
 10
178.9362962603
 20
16.0127218647
 10
178.9422094104
 20
16.0076774075
 10
178.9480967482
 20
16.0024642073
 10
178.9539517192
 20
15.9970865707
 10
178.9597677688
 20
15.9915488044
 10
178.9655383426
 20
15.9858552149
 10
178.9712568861
 20
15.9800101091
 10
178.9769168448
 20
15.9740177934
 10
178.9825116641
 20
15.9678825745
 10
178.9880347896
 20
15.9616087591
 10
178.9934796667
 20
15.9552006538
 10
178.998839741
 20
15.9486625652
 10
179.0041084579
 20
15.9419988
 10
179.0092792629
 20
15.9352136648
 10
179.0143456015
 20
15.9283114662
 10
179.0193009193
 20
15.9212965108
 10
179.0241386616
 20
15.9141731054
 10
179.0288522741
 20
15.9069455565
 10
179.0334352022
 20
15.8996181708
 10
179.0378808913
 20
15.8921952549
 10
179.0421827871
 20
15.8846811154
 10
179.0463131354
 20
15.8771220788
 10
179.050292869
 20
15.869486264
 10
179.0541201049
 20
15.8617828755
 10
179.0577929598
 20
15.8540211178
 10
179.0613095509
 20
15.8462101952
 10
179.064667995
 20
15.8383593122
 10
179.067866409
 20
15.8304776733
 10
179.0709029099
 20
15.8225744828
 10
179.0737756147
 20
15.8146589452
 10
179.0764826402
 20
15.8067402649
 10
179.0790221034
 20
15.7988276463
 10
179.0813921213
 20
15.7909302939
 10
179.0835908107
 20
15.7830574121
 10
179.0856162886
 20
15.7752182053
 10
179.0874666719
 20
15.767421878
 10
179.0891400777
 20
15.7596776346
 10
179.0906346227
 20
15.7519946794
 10
179.091948424
 20
15.744382217
 10
179.0930795985
 20
15.7368494518
 10
179.0940262631
 20
15.7294055882
 10
179.0947865347
 20
15.7220598306
 10
179.0953585304
 20
15.7148213835
 10
179.0957403669
 20
15.7076994512
 10
179.0959301613
 20
15.7007032383
  0
LINE
  5
2B1
100
AcDbEntity
  8
SMUSSO
100
AcDbLine
 62
7
  6
CONTINUOUS
 10
116.173299066
 20
89.5078382913
 11
116.173299066
 21
78.5671365823
  0
LINE
  5
2B2
100
AcDbEntity
  8
ASSI
100
AcDbLine
 62
7
  6
CONTINUOUS
 10
116.173299066
 20
89.5078382913
 11
116.173299066
 21
78.5671365823
  0
LWPOLYLINE
  5
2B3
100
AcDbEntity
  8
SMUSSO
100
AcDbPolyline
 62
7
  6
CONTINUOUS
 90
15
 70
0
 10
116.173299066
 20
78.9754111756
 10
116.171863909
 20
78.919279882
 10
116.1675630945
 20
78.8649939017
 10
116.1604108751
 20
78.8127370819
 10
116.1504310825
 20
78.7626861318
 10
116.1376572266
 20
78.7150109655
 10
116.1221325575
 20
78.669873973
 10
116.1039095211
 20
78.6274281058
 10
116.0830496223
 20
78.587817023
 10
116.0596236203
 20
78.5511753247
 10
116.033710819
 20
78.5176271153
 10
116.0053988288
 20
78.4872858755
 10
115.9747835946
 20
78.4602544524
 10
115.9419688045
 20
78.4366243597
 10
115.9247999208
 20
78.4261269422
  0
LWPOLYLINE
  5
2B4
100
AcDbEntity
  8
ASSI
100
AcDbPolyline
 62
7
  6
CONTINUOUS
 90
15
 70
0
 10
116.173299066
 20
78.9754111756
 10
116.171863909
 20
78.919279882
 10
116.1675630945
 20
78.8649939017
 10
116.1604108751
 20
78.8127370819
 10
116.1504310825
 20
78.7626861318
 10
116.1376572266
 20
78.7150109655
 10
116.1221325575
 20
78.669873973
 10
116.1039095211
 20
78.6274281058
 10
116.0830496223
 20
78.587817023
 10
116.0596236203
 20
78.5511753247
 10
116.033710819
 20
78.5176271153
 10
116.0053988288
 20
78.4872858755
 10
115.9747835946
 20
78.4602544524
 10
115.9419688045
 20
78.4366243597
 10
115.9247999208
 20
78.4261269422
  0
LWPOLYLINE
  5
2B5
100
AcDbEntity
  8
SMUSSO
100
AcDbPolyline
 62
7
  6
CONTINUOUS
 90
28
 70
0
 10
116.173299066
 20
78.5671365823
 10
116.1712095765
 20
78.4871997949
 10
116.1651234709
 20
78.4103813808
 10
116.1550407493
 20
78.3366813399
 10
116.1409005665
 20
78.2658712252
 10
116.1227637678
 20
78.1981794837
 10
116.1008128881
 20
78.1342914571
 10
116.0750090994
 20
78.0742460108
 10
116.0453912298
 20
78.0180042793
 10
116.0122582992
 20
77.9661350082
 10
115.9755746598
 20
77.9186827324
 10
115.9353759593
 20
77.875602917
 10
115.8920681608
 20
77.8373307019
 10
115.8456198428
 20
77.8039148881
 10
115.7960624267
 20
77.7753066747
 10
115.7438961394
 20
77.7517947987
 10
115.6890944803
 20
77.7334308656
 10
115.6316839501
 20
77.7201632701
 10
115.5722442776
 20
77.712125933
 10
115.5107546463
 20
77.7093719796
 10
115.4472358727
 20
77.7118482847
 10
115.3823301356
 20
77.719529394
 10
115.316023209
 20
77.7324683823
 10
115.2483293189
 20
77.7506121749
 10
115.1799333211
 20
77.7737760929
 10
115.111063501
 20
77.8018985766
 10
115.0414915733
 20
77.8350411858
 10
114.971217538
 20
77.8732039204
  0
LWPOLYLINE
  5
2B6
100
AcDbEntity
  8
ASSI
100
AcDbPolyline
 62
7
  6
CONTINUOUS
 90
28
 70
0
 10
116.173299066
 20
78.5671365823
 10
116.1712095765
 20
78.4871997949
 10
116.1651234709
 20
78.4103813808
 10
116.1550407493
 20
78.3366813399
 10
116.1409005665
 20
78.2658712252
 10
116.1227637678
 20
78.1981794837
 10
116.1008128881
 20
78.1342914571
 10
116.0750090994
 20
78.0742460108
 10
116.0453912298
 20
78.0180042793
 10
116.0122582992
 20
77.9661350082
 10
115.9755746598
 20
77.9186827324
 10
115.9353759593
 20
77.875602917
 10
115.8920681608
 20
77.8373307019
 10
115.8456198428
 20
77.8039148881
 10
115.7960624267
 20
77.7753066747
 10
115.7438961394
 20
77.7517947987
 10
115.6890944803
 20
77.7334308656
 10
115.6316839501
 20
77.7201632701
 10
115.5722442776
 20
77.712125933
 10
115.5107546463
 20
77.7093719796
 10
115.4472358727
 20
77.7118482847
 10
115.3823301356
 20
77.719529394
 10
115.316023209
 20
77.7324683823
 10
115.2483293189
 20
77.7506121749
 10
115.1799333211
 20
77.7737760929
 10
115.111063501
 20
77.8018985766
 10
115.0414915733
 20
77.8350411858
 10
114.971217538
 20
77.8732039204
  0
LINE
  5
2B7
100
AcDbEntity
  8
SMUSSO
100
AcDbLine
 62
250
  6
CONTINUOUS
 10
105.0010119233
 20
85.4261497502
 11
105.1424332795
 21
85.5078046688
  0
LINE
  5
2B8
100
AcDbEntity
  8
ASSI
100
AcDbLine
 62
250
  6
CONTINUOUS
 10
105.0010119233
 20
85.4261497502
 11
105.1424332795
 21
85.5078046688
  0
LINE
  5
2B9
100
AcDbEntity
  8
SMUSSO
100
AcDbLine
 62
250
  6
CONTINUOUS
 10
105.8495400607
 20
83.956455906
 11
105.9909614169
 21
84.0381108247
  0
LINE
  5
2BA
100
AcDbEntity
  8
ASSI
100
AcDbLine
 62
250
  6
CONTINUOUS
 10
105.8495400607
 20
83.956455906
 11
105.9909614169
 21
84.0381108247
  0
LINE
  5
2BB
100
AcDbEntity
  8
SMUSSO
100
AcDbLine
 62
250
  6
CONTINUOUS
 10
136.1137102955
 20
67.0537930504
 11
136.8208170767
 21
67.0537930504
  0
LINE
  5
2BC
100
AcDbEntity
  8
ASSI
100
AcDbLine
 62
250
  6
CONTINUOUS
 10
136.1137102955
 20
67.0537930504
 11
136.8208170767
 21
67.0537930504
  0
LINE
  5
2BD
100
AcDbEntity
  8
SMUSSO
100
AcDbLine
 62
250
  6
CONTINUOUS
 10
138.6592947077
 20
65.590016436
 11
137.8107665703
 21
65.6657541249
  0
LINE
  5
2BE
100
AcDbEntity
  8
ASSI
100
AcDbLine
 62
250
  6
CONTINUOUS
 10
138.6592947077
 20
65.590016436
 11
137.8107665703
 21
65.6657541249
  0
LINE
  5
2BF
100
AcDbEntity
  8
ASSI
100
AcDbLine
 62
7
  6
CONTINUOUS
 10
70.6661851889
 20
146.8947138344
 11
70.6665604964
 21
146.8940774729
  0
LWPOLYLINE
  5
2C0
100
AcDbEntity
  8
SMUSSO
100
AcDbPolyline
 62
7
  6
CONTINUOUS
 90
28
 70
0
 10
121.0523358562
 20
76.321626319
 10
121.0537710385
 20
76.2638372259
 10
121.0580719129
 20
76.204584398
 10
121.0652242028
 20
76.144068156
 10
121.0752040391
 20
76.0824928148
 10
121.0879778952
 20
76.0200669212
 10
121.1035025585
 20
75.957002588
 10
121.121725626
 20
75.8935132104
 10
121.1425855727
 20
75.8298135862
 10
121.166011598
 20
75.7661201497
 10
121.1919243481
 20
75.7026486786
 10
121.2202362387
 20
75.6396137244
 10
121.2508513999
 20
75.5772287641
 10
121.283666198
 20
75.515704971
 10
121.3185696182
 20
75.4552504819
 10
121.3554435625
 20
75.3960698555
 10
121.3941633225
 20
75.3383632629
 10
121.4345978089
 20
75.282326095
 10
121.4766099819
 20
75.2281482505
 10
121.5200577482
 20
75.1760129324
 10
121.5647939732
 20
75.12609666
 10
121.6106667225
 20
75.0785688507
 10
121.6575208328
 20
75.0335901108
 10
121.7051976081
 20
74.9913126326
 10
121.7535347806
 20
74.9518800494
 10
121.8023684382
 20
74.9154256965
 10
121.8515336253
 20
74.8820723362
 10
121.9008639936
 20
74.8519324748
  0
LWPOLYLINE
  5
2C1
100
AcDbEntity
  8
ASSI
100
AcDbPolyline
 62
7
  6
CONTINUOUS
 90
28
 70
0
 10
121.0523358562
 20
76.321626319
 10
121.0537710385
 20
76.2638372259
 10
121.0580719129
 20
76.204584398
 10
121.0652242028
 20
76.144068156
 10
121.0752040391
 20
76.0824928148
 10
121.0879778952
 20
76.0200669212
 10
121.1035025585
 20
75.957002588
 10
121.121725626
 20
75.8935132104
 10
121.1425855727
 20
75.8298135862
 10
121.166011598
 20
75.7661201497
 10
121.1919243481
 20
75.7026486786
 10
121.2202362387
 20
75.6396137244
 10
121.2508513999
 20
75.5772287641
 10
121.283666198
 20
75.515704971
 10
121.3185696182
 20
75.4552504819
 10
121.3554435625
 20
75.3960698555
 10
121.3941633225
 20
75.3383632629
 10
121.4345978089
 20
75.282326095
 10
121.4766099819
 20
75.2281482505
 10
121.5200577482
 20
75.1760129324
 10
121.5647939732
 20
75.12609666
 10
121.6106667225
 20
75.0785688507
 10
121.6575208328
 20
75.0335901108
 10
121.7051976081
 20
74.9913126326
 10
121.7535347806
 20
74.9518800494
 10
121.8023684382
 20
74.9154256965
 10
121.8515336253
 20
74.8820723362
 10
121.9008639936
 20
74.8519324748
  0
LWPOLYLINE
  5
2C2
100
AcDbEntity
  8
SMUSSO
100
AcDbPolyline
 62
7
  6
CONTINUOUS
 90
31
 70
0
 10
121.4109660451
 20
77.0944167666
 10
121.4128413921
 20
77.0120924907
 10
121.4183335158
 20
76.9283397127
 10
121.4274424159
 20
76.8431584327
 10
121.4402126883
 20
76.7563075737
 10
121.4565997372
 20
76.6680282126
 10
121.4764697759
 20
76.57904358
 10
121.4998516316
 20
76.4893475956
 10
121.5267164771
 20
76.3989463396
 10
121.5568440445
 20
76.3085812833
 10
121.5902610846
 20
76.2182531579
 10
121.6269408465
 20
76.127961232
 10
121.6665828097
 20
76.0384447835
 10
121.7092110947
 20
75.9497105053
 10
121.754801581
 20
75.8617517044
 10
121.8029813856
 20
75.7752875794
 10
121.8537716762
 20
75.6903303431
 10
121.9071512851
 20
75.6068677826
 10
121.9626838266
 20
75.5255824585
 10
122.0203872674
 20
75.4464918079
 10
122.0802436409
 20
75.3695783936
 10
122.1417626614
 20
75.295472464
 10
122.2049580964
 20
75.2241970836
 10
122.2698161784
 20
75.155729188
 10
122.3358053189
 20
75.0906298314
 10
122.4029348802
 20
75.0289267855
 10
122.4711955
 20
74.9705922786
 10
122.5400275026
 20
74.9161040512
 10
122.6092443293
 20
74.86562135
 10
122.6790325388
 20
74.8189849282
 10
122.749392131
 20
74.7761947859
  0
LWPOLYLINE
  5
2C3
100
AcDbEntity
  8
ASSI
100
AcDbPolyline
 62
7
  6
CONTINUOUS
 90
31
 70
0
 10
121.4109660451
 20
77.0944167666
 10
121.4128413921
 20
77.0120924907
 10
121.4183335158
 20
76.9283397127
 10
121.4274424159
 20
76.8431584327
 10
121.4402126883
 20
76.7563075737
 10
121.4565997372
 20
76.6680282126
 10
121.4764697759
 20
76.57904358
 10
121.4998516316
 20
76.4893475956
 10
121.5267164771
 20
76.3989463396
 10
121.5568440445
 20
76.3085812833
 10
121.5902610846
 20
76.2182531579
 10
121.6269408465
 20
76.127961232
 10
121.6665828097
 20
76.0384447835
 10
121.7092110947
 20
75.9497105053
 10
121.754801581
 20
75.8617517044
 10
121.8029813856
 20
75.7752875794
 10
121.8537716762
 20
75.6903303431
 10
121.9071512851
 20
75.6068677826
 10
121.9626838266
 20
75.5255824585
 10
122.0203872674
 20
75.4464918079
 10
122.0802436409
 20
75.3695783936
 10
122.1417626614
 20
75.295472464
 10
122.2049580964
 20
75.2241970836
 10
122.2698161784
 20
75.155729188
 10
122.3358053189
 20
75.0906298314
 10
122.4029348802
 20
75.0289267855
 10
122.4711955
 20
74.9705922786
 10
122.5400275026
 20
74.9161040512
 10
122.6092443293
 20
74.86562135
 10
122.6790325388
 20
74.8189849282
 10
122.749392131
 20
74.7761947859
  0
LINE
  5
2C4
100
AcDbEntity
  8
SMUSSO
100
AcDbLine
 62
7
  6
CONTINUOUS
 10
120.2038077188
 20
76.2399714003
 11
120.2038077188
 21
87.1806731093
  0
LINE
  5
2C5
100
AcDbEntity
  8
ASSI
100
AcDbLine
 62
7
  6
CONTINUOUS
 10
120.2038077188
 20
76.2399714003
 11
120.2038077188
 21
87.1806731093
  0
LINE
  5
2C6
100
AcDbEntity
  8
SMUSSO
100
AcDbLine
 62
7
  6
CONTINUOUS
 10
120.9109145
 20
76.2399714003
 11
120.9109145
 21
87.1806731093
  0
LINE
  5
2C7
100
AcDbEntity
  8
ASSI
100
AcDbLine
 62
7
  6
CONTINUOUS
 10
120.9109145
 20
76.2399714003
 11
120.9109145
 21
87.1806731093
  0
LINE
  5
2C8
100
AcDbEntity
  8
SMUSSO
100
AcDbLine
 62
7
  6
CONTINUOUS
 10
121.0523358562
 20
87.262328028
 11
121.0523358562
 21
76.321626319
  0
LINE
  5
2C9
100
AcDbEntity
  8
ASSI
100
AcDbLine
 62
7
  6
CONTINUOUS
 10
121.0523358562
 20
87.262328028
 11
121.0523358562
 21
76.321626319
  0
LINE
  5
2CA
100
AcDbEntity
  8
SMUSSO
100
AcDbLine
 62
7
  6
CONTINUOUS
 10
121.4109660451
 20
87.7849126424
 11
121.4109660451
 21
77.0944167666
  0
LINE
  5
2CB
100
AcDbEntity
  8
ASSI
100
AcDbLine
 62
7
  6
CONTINUOUS
 10
121.4109660451
 20
87.7849126424
 11
121.4109660451
 21
77.0944167666
  0
LWPOLYLINE
  5
2CC
100
AcDbEntity
  8
SMUSSO
100
AcDbPolyline
 62
7
  6
CONTINUOUS
 90
12
 70
0
 10
120.9109145
 20
87.1806731093
 10
120.9123496569
 20
87.2368044029
 10
120.9166504715
 20
87.2910903832
 10
120.9238026909
 20
87.343347203
 10
120.9337824835
 20
87.3933981531
 10
120.9465563394
 20
87.4410733194
 10
120.9620810085
 20
87.4862103119
 10
120.9803040449
 20
87.5286561791
 10
121.0011639437
 20
87.5682672619
 10
121.0245899457
 20
87.6049089602
 10
121.050502747
 20
87.6384571696
 10
121.0788147372
 20
87.6687984094
  0
LWPOLYLINE
  5
2CD
100
AcDbEntity
  8
ASSI
100
AcDbPolyline
 62
7
  6
CONTINUOUS
 90
12
 70
0
 10
120.9109145
 20
87.1806731093
 10
120.9123496569
 20
87.2368044029
 10
120.9166504715
 20
87.2910903832
 10
120.9238026909
 20
87.343347203
 10
120.9337824835
 20
87.3933981531
 10
120.9465563394
 20
87.4410733194
 10
120.9620810085
 20
87.4862103119
 10
120.9803040449
 20
87.5286561791
 10
121.0011639437
 20
87.5682672619
 10
121.0245899457
 20
87.6049089602
 10
121.050502747
 20
87.6384571696
 10
121.0788147372
 20
87.6687984094
  0
LWPOLYLINE
  5
2CE
100
AcDbEntity
  8
SMUSSO
100
AcDbPolyline
 62
7
  6
CONTINUOUS
 90
28
 70
0
 10
120.2038077188
 20
87.1806731093
 10
120.2058972083
 20
87.2606098967
 10
120.2119833139
 20
87.3374283108
 10
120.2220660355
 20
87.4111283516
 10
120.2362062182
 20
87.4819384664
 10
120.254343017
 20
87.5496302079
 10
120.2762938967
 20
87.6135182344
 10
120.3020976854
 20
87.6735636808
 10
120.331715555
 20
87.7298054122
 10
120.3648484856
 20
87.7816746834
 10
120.401532125
 20
87.8291269591
 10
120.4417308255
 20
87.8722067745
 10
120.485038624
 20
87.9104789896
 10
120.531486942
 20
87.9438948034
 10
120.5810443581
 20
87.9725030169
 10
120.6332106453
 20
87.9960148929
 10
120.6880123044
 20
88.0143788259
 10
120.7454228347
 20
88.0276464215
 10
120.8048625072
 20
88.0356837586
 10
120.8663521385
 20
88.038437712
 10
120.9298709121
 20
88.0359614069
 10
120.9947766492
 20
88.0282802976
 10
121.0610835757
 20
88.0153413092
 10
121.1287774659
 20
87.9971975167
 10
121.1971734637
 20
87.9740335987
 10
121.2660432838
 20
87.945911115
 10
121.3356152115
 20
87.9127685058
 10
121.4058892468
 20
87.8746057712
  0
LWPOLYLINE
  5
2CF
100
AcDbEntity
  8
ASSI
100
AcDbPolyline
 62
7
  6
CONTINUOUS
 90
28
 70
0
 10
120.2038077188
 20
87.1806731093
 10
120.2058972083
 20
87.2606098967
 10
120.2119833139
 20
87.3374283108
 10
120.2220660355
 20
87.4111283516
 10
120.2362062182
 20
87.4819384664
 10
120.254343017
 20
87.5496302079
 10
120.2762938967
 20
87.6135182344
 10
120.3020976854
 20
87.6735636808
 10
120.331715555
 20
87.7298054122
 10
120.3648484856
 20
87.7816746834
 10
120.401532125
 20
87.8291269591
 10
120.4417308255
 20
87.8722067745
 10
120.485038624
 20
87.9104789896
 10
120.531486942
 20
87.9438948034
 10
120.5810443581
 20
87.9725030169
 10
120.6332106453
 20
87.9960148929
 10
120.6880123044
 20
88.0143788259
 10
120.7454228347
 20
88.0276464215
 10
120.8048625072
 20
88.0356837586
 10
120.8663521385
 20
88.038437712
 10
120.9298709121
 20
88.0359614069
 10
120.9947766492
 20
88.0282802976
 10
121.0610835757
 20
88.0153413092
 10
121.1287774659
 20
87.9971975167
 10
121.1971734637
 20
87.9740335987
 10
121.2660432838
 20
87.945911115
 10
121.3356152115
 20
87.9127685058
 10
121.4058892468
 20
87.8746057712
  0
LWPOLYLINE
  5
2D0
100
AcDbEntity
  8
SMUSSO
100
AcDbPolyline
 62
7
  6
CONTINUOUS
 90
8
 70
0
 10
121.1081843747
 20
87.5796589019
 10
121.1035023794
 20
87.5678652688
 10
121.0879777125
 20
87.5227282934
 10
121.0752038544
 20
87.4750531344
 10
121.0652240574
 20
87.4250021832
 10
121.0580718333
 20
87.3727453536
 10
121.0537710148
 20
87.3184593531
 10
121.0523358562
 20
87.262328028
  0
LWPOLYLINE
  5
2D1
100
AcDbEntity
  8
ASSI
100
AcDbPolyline
 62
7
  6
CONTINUOUS
 90
8
 70
0
 10
121.1081843747
 20
87.5796589019
 10
121.1035023794
 20
87.5678652688
 10
121.0879777125
 20
87.5227282934
 10
121.0752038544
 20
87.4750531344
 10
121.0652240574
 20
87.4250021832
 10
121.0580718333
 20
87.3727453536
 10
121.0537710148
 20
87.3184593531
 10
121.0523358562
 20
87.262328028
  0
LINE
  5
2D2
100
AcDbEntity
  8
SMUSSO
100
AcDbLine
 62
250
  6
CONTINUOUS
 10
121.291744868
 20
87.7782159904
 11
121.0523358562
 21
87.262328028
  0
LINE
  5
2D3
100
AcDbEntity
  8
ASSI
100
AcDbLine
 62
250
  6
CONTINUOUS
 10
121.291744868
 20
87.7782159904
 11
121.0523358562
 21
87.262328028
  0
LINE
  5
2D4
100
AcDbEntity
  8
SMUSSO
100
AcDbLine
 62
250
  6
CONTINUOUS
 10
121.4109660451
 20
77.0944167666
 11
121.0523358562
 21
76.321626319
  0
LINE
  5
2D5
100
AcDbEntity
  8
ASSI
100
AcDbLine
 62
250
  6
CONTINUOUS
 10
121.4109660451
 20
77.0944167666
 11
121.0523358562
 21
76.321626319
  0
LWPOLYLINE
  5
2D6
100
AcDbEntity
  8
SMUSSO
100
AcDbPolyline
 62
7
  6
CONTINUOUS
 90
3
 70
0
 10
121.1425852827
 20
87.649922151
 10
121.1217254043
 20
87.6103111044
 10
121.1081843747
 20
87.5796589019
  0
LWPOLYLINE
  5
2D7
100
AcDbEntity
  8
ASSI
100
AcDbPolyline
 62
7
  6
CONTINUOUS
 90
3
 70
0
 10
121.1425852827
 20
87.649922151
 10
121.1217254043
 20
87.6103111044
 10
121.1081843747
 20
87.5796589019
  0
LINE
  5
2D8
100
AcDbEntity
  8
SMUSSO
100
AcDbLine
 62
250
  6
CONTINUOUS
 10
114.971217538
 20
77.8732039204
 11
115.3247709286
 21
78.4855763554
  0
LINE
  5
2D9
100
AcDbEntity
  8
ASSI
100
AcDbLine
 62
250
  6
CONTINUOUS
 10
114.971217538
 20
77.8732039204
 11
115.3247709286
 21
78.4855763554
  0
LWPOLYLINE
  5
2DA
100
AcDbEntity
  8
SMUSSO
100
AcDbPolyline
 62
7
  6
CONTINUOUS
 90
4
 70
0
 10
121.0788147372
 20
87.6687984094
 10
121.1094299713
 20
87.6958298325
 10
121.1422447615
 20
87.7194599252
 10
121.1594136452
 20
87.7299573427
  0
LWPOLYLINE
  5
2DB
100
AcDbEntity
  8
ASSI
100
AcDbPolyline
 62
7
  6
CONTINUOUS
 90
4
 70
0
 10
121.0788147372
 20
87.6687984094
 10
121.1094299713
 20
87.6958298325
 10
121.1422447615
 20
87.7194599252
 10
121.1594136452
 20
87.7299573427
  0
LWPOLYLINE
  5
2DC
100
AcDbEntity
  8
SMUSSO
100
AcDbPolyline
 62
7
  6
CONTINUOUS
 90
5
 70
0
 10
121.2345603683
 20
87.7631008066
 10
121.2202360263
 20
87.7504532627
 10
121.191924049
 20
87.7201120244
 10
121.1660112645
 20
87.6865638256
 10
121.1425852827
 20
87.649922151
  0
LWPOLYLINE
  5
2DD
100
AcDbEntity
  8
ASSI
100
AcDbPolyline
 62
7
  6
CONTINUOUS
 90
5
 70
0
 10
121.2345603683
 20
87.7631008066
 10
121.2202360263
 20
87.7504532627
 10
121.191924049
 20
87.7201120244
 10
121.1660112645
 20
87.6865638256
 10
121.1425852827
 20
87.649922151
  0
LINE
  5
2DE
100
AcDbEntity
  8
SMUSSO
100
AcDbLine
 62
250
  6
CONTINUOUS
 10
120.9109145
 20
87.1806731093
 11
121.0523358562
 21
87.262328028
  0
LINE
  5
2DF
100
AcDbEntity
  8
ASSI
100
AcDbLine
 62
250
  6
CONTINUOUS
 10
120.9109145
 20
87.1806731093
 11
121.0523358562
 21
87.262328028
  0
LINE
  5
2E0
100
AcDbEntity
  8
SMUSSO
100
AcDbLine
 62
250
  6
CONTINUOUS
 10
115.3247709286
 20
78.4855763554
 11
115.4661922848
 21
78.5672312741
  0
LINE
  5
2E1
100
AcDbEntity
  8
ASSI
100
AcDbLine
 62
250
  6
CONTINUOUS
 10
115.3247709286
 20
78.4855763554
 11
115.4661922848
 21
78.5672312741
  0
LWPOLYLINE
  5
2E2
100
AcDbEntity
  8
SMUSSO
100
AcDbPolyline
 62
7
  6
CONTINUOUS
 90
15
 70
0
 10
121.1594136452
 20
87.7299573427
 10
121.1771481213
 20
87.7396087995
 10
121.2140219921
 20
87.7562083074
 10
121.2527416642
 20
87.7692022903
 10
121.2931760487
 20
87.7785467385
 10
121.3351881614
 20
87.7842100108
 10
121.3786359817
 20
87.7861729778
 10
121.423372316
 20
87.7844290039
 10
121.4692450821
 20
87.7789841329
 10
121.5160989625
 20
87.7698569951
 10
121.5637753986
 20
87.7570786683
 10
121.6121124164
 20
87.7406928139
 10
121.6609462117
 20
87.7207552913
 10
121.710111735
 20
87.6973338133
 10
121.7594426374
 20
87.6705079295
  0
LWPOLYLINE
  5
2E3
100
AcDbEntity
  8
ASSI
100
AcDbPolyline
 62
7
  6
CONTINUOUS
 90
15
 70
0
 10
121.1594136452
 20
87.7299573427
 10
121.1771481213
 20
87.7396087995
 10
121.2140219921
 20
87.7562083074
 10
121.2527416642
 20
87.7692022903
 10
121.2931760487
 20
87.7785467385
 10
121.3351881614
 20
87.7842100108
 10
121.3786359817
 20
87.7861729778
 10
121.423372316
 20
87.7844290039
 10
121.4692450821
 20
87.7789841329
 10
121.5160989625
 20
87.7698569951
 10
121.5637753986
 20
87.7570786683
 10
121.6121124164
 20
87.7406928139
 10
121.6609462117
 20
87.7207552913
 10
121.710111735
 20
87.6973338133
 10
121.7594426374
 20
87.6705079295
  0
LINE
  5
2E4
100
AcDbEntity
  8
ASSI
100
AcDbLine
 62
7
  6
CONTINUOUS
 10
181.5957157515
 20
81.6792207777
 11
183.0126748824
 21
82.0268390539
  0
LINE
  5
2E5
100
AcDbEntity
  8
SMUSSO
100
AcDbLine
 62
250
  6
CONTINUOUS
 10
152.0236128722
 20
68.8083164096
 11
152.7307196534
 21
68.8083164096
  0
LINE
  5
2E6
100
AcDbEntity
  8
ASSI
100
AcDbLine
 62
250
  6
CONTINUOUS
 10
152.0236128722
 20
68.8083164096
 11
152.7307196534
 21
68.8083164096
  0
LINE
  5
2E7
100
AcDbEntity
  8
SMUSSO
100
AcDbLine
 62
250
  6
CONTINUOUS
 10
131.9427078709
 20
69.3304783375
 11
131.3760948615
 21
69.3810529242
  0
LINE
  5
2E8
100
AcDbEntity
  8
ASSI
100
AcDbLine
 62
250
  6
CONTINUOUS
 10
131.9427078709
 20
69.3304783375
 11
131.3760948615
 21
69.3810529242
  0
LINE
  5
2E9
100
AcDbEntity
  8
SMUSSO
100
AcDbLine
 62
250
  6
CONTINUOUS
 10
122.749392131
 20
74.7761947859
 11
121.9008639936
 21
74.8519324748
  0
LINE
  5
2EA
100
AcDbEntity
  8
ASSI
100
AcDbLine
 62
250
  6
CONTINUOUS
 10
122.749392131
 20
74.7761947859
 11
121.9008639936
 21
74.8519324748
  0
LWPOLYLINE
  5
2EB
100
AcDbEntity
  8
SMUSSO
100
AcDbPolyline
 62
7
  6
CONTINUOUS
 90
7
 70
0
 10
131.678923877
 20
69.2707232713
 10
131.7121653958
 20
69.2671318329
 10
131.7569016844
 20
69.2653878763
 10
131.8003494509
 20
69.267350853
 10
131.8423615009
 20
69.2730141244
 10
131.8827958179
 20
69.2823585587
 10
131.9009771302
 20
69.2884600462
  0
LWPOLYLINE
  5
2EC
100
AcDbEntity
  8
ASSI
100
AcDbPolyline
 62
7
  6
CONTINUOUS
 90
7
 70
0
 10
131.678923877
 20
69.2707232713
 10
131.7121653958
 20
69.2671318329
 10
131.7569016844
 20
69.2653878763
 10
131.8003494509
 20
69.267350853
 10
131.8423615009
 20
69.2730141244
 10
131.8827958179
 20
69.2823585587
 10
131.9009771302
 20
69.2884600462
  0
LWPOLYLINE
  5
2ED
100
AcDbEntity
  8
SMUSSO
100
AcDbPolyline
 62
7
  6
CONTINUOUS
 90
8
 70
0
 10
163.1959000149
 20
51.0086962245
 10
163.2452307895
 20
50.9818704058
 10
163.2943962518
 20
50.9584489461
 10
163.3432300525
 20
50.9385114085
 10
163.3915671799
 20
50.9221255081
 10
163.439243786
 20
50.9093471366
 10
163.4860977782
 20
50.9002199883
 10
163.4987290304
 20
50.8983665716
  0
LWPOLYLINE
  5
2EE
100
AcDbEntity
  8
ASSI
100
AcDbPolyline
 62
7
  6
CONTINUOUS
 90
8
 70
0
 10
163.1959000149
 20
51.0086962245
 10
163.2452307895
 20
50.9818704058
 10
163.2943962518
 20
50.9584489461
 10
163.3432300525
 20
50.9385114085
 10
163.3915671799
 20
50.9221255081
 10
163.439243786
 20
50.9093471366
 10
163.4860977782
 20
50.9002199883
 10
163.4987290304
 20
50.8983665716
  0
LWPOLYLINE
  5
2EF
100
AcDbEntity
  8
SMUSSO
100
AcDbPolyline
 62
7
  6
CONTINUOUS
 90
8
 70
0
 10
147.2859974382
 20
60.1948745743
 10
147.3353282128
 20
60.1680487557
 10
147.3844936751
 20
60.144627296
 10
147.4333274758
 20
60.1246897584
 10
147.4816646032
 20
60.108303858
 10
147.5293412093
 20
60.0955254864
 10
147.5761952015
 20
60.0863983382
 10
147.5888264537
 20
60.0845449214
  0
LWPOLYLINE
  5
2F0
100
AcDbEntity
  8
ASSI
100
AcDbPolyline
 62
7
  6
CONTINUOUS
 90
8
 70
0
 10
147.2859974382
 20
60.1948745743
 10
147.3353282128
 20
60.1680487557
 10
147.3844936751
 20
60.144627296
 10
147.4333274758
 20
60.1246897584
 10
147.4816646032
 20
60.108303858
 10
147.5293412093
 20
60.0955254864
 10
147.5761952015
 20
60.0863983382
 10
147.5888264537
 20
60.0845449214
  0
LWPOLYLINE
  5
2F1
100
AcDbEntity
  8
SMUSSO
100
AcDbPolyline
 62
7
  6
CONTINUOUS
 90
8
 70
0
 10
131.3760948615
 20
69.3810529242
 10
131.4254256361
 20
69.3542271056
 10
131.4745910984
 20
69.3308056459
 10
131.5234248991
 20
69.3108681083
 10
131.5717620265
 20
69.2944822078
 10
131.6194386326
 20
69.2817038363
 10
131.6662926248
 20
69.2725766881
 10
131.678923877
 20
69.2707232713
  0
LWPOLYLINE
  5
2F2
100
AcDbEntity
  8
ASSI
100
AcDbPolyline
 62
7
  6
CONTINUOUS
 90
8
 70
0
 10
131.3760948615
 20
69.3810529242
 10
131.4254256361
 20
69.3542271056
 10
131.4745910984
 20
69.3308056459
 10
131.5234248991
 20
69.3108681083
 10
131.5717620265
 20
69.2944822078
 10
131.6194386326
 20
69.2817038363
 10
131.6662926248
 20
69.2725766881
 10
131.678923877
 20
69.2707232713
  0
LWPOLYLINE
  5
2F3
100
AcDbEntity
  8
SMUSSO
100
AcDbPolyline
 62
7
  6
CONTINUOUS
 90
8
 70
0
 10
115.4661922848
 20
78.5672312741
 10
115.5155230594
 20
78.5404054555
 10
115.5646885217
 20
78.5169839958
 10
115.6135223224
 20
78.4970464582
 10
115.6618594498
 20
78.4806605577
 10
115.7095360559
 20
78.4678821862
 10
115.7563900482
 20
78.4587550379
 10
115.7690213003
 20
78.4569016212
  0
LWPOLYLINE
  5
2F4
100
AcDbEntity
  8
ASSI
100
AcDbPolyline
 62
7
  6
CONTINUOUS
 90
8
 70
0
 10
115.4661922848
 20
78.5672312741
 10
115.5155230594
 20
78.5404054555
 10
115.5646885217
 20
78.5169839958
 10
115.6135223224
 20
78.4970464582
 10
115.6618594498
 20
78.4806605577
 10
115.7095360559
 20
78.4678821862
 10
115.7563900482
 20
78.4587550379
 10
115.7690213003
 20
78.4569016212
  0
LWPOLYLINE
  5
2F5
100
AcDbEntity
  8
SMUSSO
100
AcDbPolyline
 62
7
  6
CONTINUOUS
 90
8
 70
0
 10
99.5562897081
 20
87.753409624
 10
99.6056204827
 20
87.7265838053
 10
99.654785945
 20
87.7031623456
 10
99.7036197457
 20
87.683224808
 10
99.7519568731
 20
87.6668389076
 10
99.7996334792
 20
87.6540605361
 10
99.8464874715
 20
87.6449333878
 10
99.8591187236
 20
87.643079971
  0
LWPOLYLINE
  5
2F6
100
AcDbEntity
  8
ASSI
100
AcDbPolyline
 62
7
  6
CONTINUOUS
 90
8
 70
0
 10
99.5562897081
 20
87.753409624
 10
99.6056204827
 20
87.7265838053
 10
99.654785945
 20
87.7031623456
 10
99.7036197457
 20
87.683224808
 10
99.7519568731
 20
87.6668389076
 10
99.7996334792
 20
87.6540605361
 10
99.8464874715
 20
87.6449333878
 10
99.8591187236
 20
87.643079971
  0
LINE
  5
2F7
100
AcDbEntity
  8
SMUSSO
100
AcDbLine
 62
7
  6
CONTINUOUS
 10
162.7009252681
 20
50.3146688707
 11
153.2256944002
 21
55.7855484213
  0
LINE
  5
2F8
100
AcDbEntity
  8
ASSI
100
AcDbLine
 62
7
  6
CONTINUOUS
 10
162.7009252681
 20
50.3146688707
 11
153.2256944002
 21
55.7855484213
  0
LINE
  5
2F9
100
AcDbEntity
  8
SMUSSO
100
AcDbLine
 62
7
  6
CONTINUOUS
 10
146.7910226914
 20
59.5008472206
 11
137.3157918235
 21
64.9717267712
  0
LINE
  5
2FA
100
AcDbEntity
  8
ASSI
100
AcDbLine
 62
7
  6
CONTINUOUS
 10
146.7910226914
 20
59.5008472206
 11
137.3157918235
 21
64.9717267712
  0
LINE
  5
2FB
100
AcDbEntity
  8
SMUSSO
100
AcDbLine
 62
7
  6
CONTINUOUS
 10
130.8811201147
 20
68.6870255705
 11
121.4058892468
 21
74.1579051211
  0
LINE
  5
2FC
100
AcDbEntity
  8
ASSI
100
AcDbLine
 62
7
  6
CONTINUOUS
 10
130.8811201147
 20
68.6870255705
 11
121.4058892468
 21
74.1579051211
  0
LINE
  5
2FD
100
AcDbEntity
  8
SMUSSO
100
AcDbLine
 62
7
  6
CONTINUOUS
 10
114.971217538
 20
77.8732039204
 11
105.4959866701
 21
83.344083471
  0
LINE
  5
2FE
100
AcDbEntity
  8
ASSI
100
AcDbLine
 62
7
  6
CONTINUOUS
 10
114.971217538
 20
77.8732039204
 11
105.4959866701
 21
83.344083471
  0
LINE
  5
2FF
100
AcDbEntity
  8
SMUSSO
100
AcDbLine
 62
7
  6
CONTINUOUS
 10
99.0613149613
 20
87.0593822702
 11
89.5860840934
 21
92.5302618208
  0
LINE
  5
300
100
AcDbEntity
  8
ASSI
100
AcDbLine
 62
7
  6
CONTINUOUS
 10
99.0613149613
 20
87.0593822702
 11
89.5860840934
 21
92.5302618208
  0
LINE
  5
301
100
AcDbEntity
  8
SMUSSO
100
AcDbLine
 62
7
  6
CONTINUOUS
 10
163.0544786587
 20
50.9270413058
 11
153.5792477908
 21
56.3979208564
  0
LINE
  5
302
100
AcDbEntity
  8
ASSI
100
AcDbLine
 62
7
  6
CONTINUOUS
 10
163.0544786587
 20
50.9270413058
 11
153.5792477908
 21
56.3979208564
  0
LINE
  5
303
100
AcDbEntity
  8
SMUSSO
100
AcDbLine
 62
7
  6
CONTINUOUS
 10
147.144576082
 20
60.1132196557
 11
137.6693452141
 21
65.5840992063
  0
LINE
  5
304
100
AcDbEntity
  8
ASSI
100
AcDbLine
 62
7
  6
CONTINUOUS
 10
147.144576082
 20
60.1132196557
 11
137.6693452141
 21
65.5840992063
  0
LINE
  5
305
100
AcDbEntity
  8
SMUSSO
100
AcDbLine
 62
7
  6
CONTINUOUS
 10
131.2346735053
 20
69.2993980056
 11
121.7594426374
 21
74.7702775561
  0
LINE
  5
306
100
AcDbEntity
  8
ASSI
100
AcDbLine
 62
7
  6
CONTINUOUS
 10
131.2346735053
 20
69.2993980056
 11
121.7594426374
 21
74.7702775561
  0
LINE
  5
307
100
AcDbEntity
  8
SMUSSO
100
AcDbLine
 62
7
  6
CONTINUOUS
 10
115.3247709286
 20
78.4855763554
 11
105.8495400607
 21
83.956455906
  0
LINE
  5
308
100
AcDbEntity
  8
ASSI
100
AcDbLine
 62
7
  6
CONTINUOUS
 10
115.3247709286
 20
78.4855763554
 11
105.8495400607
 21
83.956455906
  0
LINE
  5
309
100
AcDbEntity
  8
SMUSSO
100
AcDbLine
 62
7
  6
CONTINUOUS
 10
99.4148683519
 20
87.6717547053
 11
89.939637484
 21
93.1426342559
  0
LINE
  5
30A
100
AcDbEntity
  8
ASSI
100
AcDbLine
 62
7
  6
CONTINUOUS
 10
99.4148683519
 20
87.6717547053
 11
89.939637484
 21
93.1426342559
  0
LINE
  5
30B
100
AcDbEntity
  8
SMUSSO
100
AcDbLine
 62
7
  6
CONTINUOUS
 10
90.0810588402
 20
93.2242891746
 11
99.5562897081
 21
87.753409624
  0
LINE
  5
30C
100
AcDbEntity
  8
ASSI
100
AcDbLine
 62
7
  6
CONTINUOUS
 10
90.0810588402
 20
93.2242891746
 11
99.5562897081
 21
87.753409624
  0
LINE
  5
30D
100
AcDbEntity
  8
SMUSSO
100
AcDbLine
 62
7
  6
CONTINUOUS
 10
105.9909614169
 20
84.0381108247
 11
115.4661922848
 21
78.5672312741
  0
LINE
  5
30E
100
AcDbEntity
  8
ASSI
100
AcDbLine
 62
7
  6
CONTINUOUS
 10
105.9909614169
 20
84.0381108247
 11
115.4661922848
 21
78.5672312741
  0
LINE
  5
30F
100
AcDbEntity
  8
SMUSSO
100
AcDbLine
 62
7
  6
CONTINUOUS
 10
121.9008639936
 20
74.8519324748
 11
131.3760948615
 21
69.3810529242
  0
LINE
  5
310
100
AcDbEntity
  8
ASSI
100
AcDbLine
 62
7
  6
CONTINUOUS
 10
121.9008639936
 20
74.8519324748
 11
131.3760948615
 21
69.3810529242
  0
LINE
  5
311
100
AcDbEntity
  8
SMUSSO
100
AcDbLine
 62
7
  6
CONTINUOUS
 10
137.8107665703
 20
65.6657541249
 11
147.2859974382
 21
60.1948745743
  0
LINE
  5
312
100
AcDbEntity
  8
ASSI
100
AcDbLine
 62
7
  6
CONTINUOUS
 10
137.8107665703
 20
65.6657541249
 11
147.2859974382
 21
60.1948745743
  0
LINE
  5
313
100
AcDbEntity
  8
SMUSSO
100
AcDbLine
 62
7
  6
CONTINUOUS
 10
153.720669147
 20
56.4795757751
 11
163.1959000149
 21
51.0086962245
  0
LINE
  5
314
100
AcDbEntity
  8
ASSI
100
AcDbLine
 62
7
  6
CONTINUOUS
 10
153.720669147
 20
56.4795757751
 11
163.1959000149
 21
51.0086962245
  0
LINE
  5
315
100
AcDbEntity
  8
SMUSSO
100
AcDbLine
 62
7
  6
CONTINUOUS
 10
90.9295869777
 20
93.1485514856
 11
100.1882665416
 21
87.8027059439
  0
LINE
  5
316
100
AcDbEntity
  8
ASSI
100
AcDbLine
 62
7
  6
CONTINUOUS
 10
90.9295869777
 20
93.1485514856
 11
100.1882665416
 21
87.8027059439
  0
LINE
  5
317
100
AcDbEntity
  8
SMUSSO
100
AcDbLine
 62
7
  6
CONTINUOUS
 10
106.8394895544
 20
83.9623731358
 11
116.0981691183
 21
78.6165275941
  0
LINE
  5
318
100
AcDbEntity
  8
ASSI
100
AcDbLine
 62
7
  6
CONTINUOUS
 10
106.8394895544
 20
83.9623731358
 11
116.0981691183
 21
78.6165275941
  0
LINE
  5
319
100
AcDbEntity
  8
SMUSSO
100
AcDbLine
 62
7
  6
CONTINUOUS
 10
122.749392131
 20
74.7761947859
 11
132.008071695
 21
69.4303492442
  0
LINE
  5
31A
100
AcDbEntity
  8
ASSI
100
AcDbLine
 62
7
  6
CONTINUOUS
 10
122.749392131
 20
74.7761947859
 11
132.008071695
 21
69.4303492442
  0
LINE
  5
31B
100
AcDbEntity
  8
SMUSSO
100
AcDbLine
 62
7
  6
CONTINUOUS
 10
138.6592947077
 20
65.590016436
 11
147.9179742717
 21
60.2441708943
  0
LINE
  5
31C
100
AcDbEntity
  8
ASSI
100
AcDbLine
 62
7
  6
CONTINUOUS
 10
138.6592947077
 20
65.590016436
 11
147.9179742717
 21
60.2441708943
  0
LINE
  5
31D
100
AcDbEntity
  8
SMUSSO
100
AcDbLine
 62
7
  6
CONTINUOUS
 10
154.5691972844
 20
56.4038380861
 11
163.8278768484
 21
51.0579925445
  0
LINE
  5
31E
100
AcDbEntity
  8
ASSI
100
AcDbLine
 62
7
  6
CONTINUOUS
 10
154.5691972844
 20
56.4038380861
 11
163.8278768484
 21
51.0579925445
  0
LWPOLYLINE
  5
31F
100
AcDbEntity
  8
SMUSSO
100
AcDbPolyline
 62
7
  6
CONTINUOUS
 90
28
 70
0
 10
89.939637484
 20
93.1426342559
 10
89.8903071438
 20
93.1727740992
 10
89.8411419762
 20
93.2061274437
 10
89.7923083294
 20
93.2425817849
 10
89.7439711601
 20
93.2820143613
 10
89.6962943795
 20
93.3242918399
 10
89.6494402533
 20
93.3692705914
 10
89.6035674709
 20
93.4167984332
 10
89.5588312043
 20
93.4667147531
 10
89.5153834074
 20
93.5188501123
 10
89.473371217
 20
93.5730279861
 10
89.4329367227
 20
93.6290651735
 10
89.3942169729
 20
93.6867717603
 10
89.3573430722
 20
93.7459523235
 10
89.3224397065
 20
93.8064067194
 10
89.2896249305
 20
93.8679304665
 10
89.2590097416
 20
93.9303154788
 10
89.2306978051
 20
93.9933505375
 10
89.2047850229
 20
94.0568220995
 10
89.1813589791
 20
94.1205156088
 10
89.1604990245
 20
94.1842152904
 10
89.1422759732
 20
94.247704653
 10
89.1267513567
 20
94.31076883
 10
89.1139775469
 20
94.3731945005
 10
89.1039977255
 20
94.4347697068
 10
89.0968454253
 20
94.4952859484
 10
89.0925445363
 20
94.5545388551
 10
89.0911093466
 20
94.6123281
  0
LWPOLYLINE
  5
320
100
AcDbEntity
  8
ASSI
100
AcDbPolyline
 62
7
  6
CONTINUOUS
 90
28
 70
0
 10
89.939637484
 20
93.1426342559
 10
89.8903071438
 20
93.1727740992
 10
89.8411419762
 20
93.2061274437
 10
89.7923083294
 20
93.2425817849
 10
89.7439711601
 20
93.2820143613
 10
89.6962943795
 20
93.3242918399
 10
89.6494402533
 20
93.3692705914
 10
89.6035674709
 20
93.4167984332
 10
89.5588312043
 20
93.4667147531
 10
89.5153834074
 20
93.5188501123
 10
89.473371217
 20
93.5730279861
 10
89.4329367227
 20
93.6290651735
 10
89.3942169729
 20
93.6867717603
 10
89.3573430722
 20
93.7459523235
 10
89.3224397065
 20
93.8064067194
 10
89.2896249305
 20
93.8679304665
 10
89.2590097416
 20
93.9303154788
 10
89.2306978051
 20
93.9933505375
 10
89.2047850229
 20
94.0568220995
 10
89.1813589791
 20
94.1205156088
 10
89.1604990245
 20
94.1842152904
 10
89.1422759732
 20
94.247704653
 10
89.1267513567
 20
94.31076883
 10
89.1139775469
 20
94.3731945005
 10
89.1039977255
 20
94.4347697068
 10
89.0968454253
 20
94.4952859484
 10
89.0925445363
 20
94.5545388551
 10
89.0911093466
 20
94.6123281
  0
LWPOLYLINE
  5
321
100
AcDbEntity
  8
SMUSSO
100
AcDbPolyline
 62
7
  6
CONTINUOUS
 90
28
 70
0
 10
105.8495400607
 20
83.956455906
 10
105.8002097205
 20
83.9865957493
 10
105.7510445529
 20
84.0199490938
 10
105.7022109061
 20
84.056403435
 10
105.6538737368
 20
84.0958360114
 10
105.6061969562
 20
84.13811349
 10
105.55934283
 20
84.1830922415
 10
105.5134700476
 20
84.2306200833
 10
105.468733781
 20
84.2805364033
 10
105.4252859841
 20
84.3326717624
 10
105.3832737937
 20
84.3868496363
 10
105.3428392994
 20
84.4428868237
 10
105.3041195495
 20
84.5005934104
 10
105.2672456489
 20
84.5597739736
 10
105.2323422832
 20
84.6202283696
 10
105.1995275072
 20
84.6817521166
 10
105.1689123183
 20
84.7441371289
 10
105.1406003818
 20
84.8071721876
 10
105.1146875996
 20
84.8706437496
 10
105.0912615558
 20
84.934337259
 10
105.0704016012
 20
84.9980369405
 10
105.0521785499
 20
85.0615263031
 10
105.0366539334
 20
85.1245904801
 10
105.0238801236
 20
85.1870161506
 10
105.0139003022
 20
85.2485913569
 10
105.006748002
 20
85.3091075985
 10
105.002447113
 20
85.3683605052
 10
105.0010119233
 20
85.4261497502
  0
LWPOLYLINE
  5
322
100
AcDbEntity
  8
ASSI
100
AcDbPolyline
 62
7
  6
CONTINUOUS
 90
28
 70
0
 10
105.8495400607
 20
83.956455906
 10
105.8002097205
 20
83.9865957493
 10
105.7510445529
 20
84.0199490938
 10
105.7022109061
 20
84.056403435
 10
105.6538737368
 20
84.0958360114
 10
105.6061969562
 20
84.13811349
 10
105.55934283
 20
84.1830922415
 10
105.5134700476
 20
84.2306200833
 10
105.468733781
 20
84.2805364033
 10
105.4252859841
 20
84.3326717624
 10
105.3832737937
 20
84.3868496363
 10
105.3428392994
 20
84.4428868237
 10
105.3041195495
 20
84.5005934104
 10
105.2672456489
 20
84.5597739736
 10
105.2323422832
 20
84.6202283696
 10
105.1995275072
 20
84.6817521166
 10
105.1689123183
 20
84.7441371289
 10
105.1406003818
 20
84.8071721876
 10
105.1146875996
 20
84.8706437496
 10
105.0912615558
 20
84.934337259
 10
105.0704016012
 20
84.9980369405
 10
105.0521785499
 20
85.0615263031
 10
105.0366539334
 20
85.1245904801
 10
105.0238801236
 20
85.1870161506
 10
105.0139003022
 20
85.2485913569
 10
105.006748002
 20
85.3091075985
 10
105.002447113
 20
85.3683605052
 10
105.0010119233
 20
85.4261497502
  0
LWPOLYLINE
  5
323
100
AcDbEntity
  8
SMUSSO
100
AcDbPolyline
 62
7
  6
CONTINUOUS
 90
28
 70
0
 10
121.7594426374
 20
74.7702775561
 10
121.7101122972
 20
74.8004173994
 10
121.6609471296
 20
74.8337707439
 10
121.6121134828
 20
74.8702250851
 10
121.5637763135
 20
74.9096576616
 10
121.5160995329
 20
74.9519351402
 10
121.4692454067
 20
74.9969138917
 10
121.4233726243
 20
75.0444417334
 10
121.3786363577
 20
75.0943580534
 10
121.3351885608
 20
75.1464934125
 10
121.2931763704
 20
75.2006712864
 10
121.2527418761
 20
75.2567084738
 10
121.2140221262
 20
75.3144150605
 10
121.1771482256
 20
75.3735956238
 10
121.1422448599
 20
75.4340500197
 10
121.1094300839
 20
75.4955737668
 10
121.078814895
 20
75.557958779
 10
121.0505029585
 20
75.6209938377
 10
121.0245901763
 20
75.6844653997
 10
121.0011641325
 20
75.7481589091
 10
120.9803041779
 20
75.8118585906
 10
120.9620811266
 20
75.8753479533
 10
120.9465565101
 20
75.9384121302
 10
120.9337827003
 20
76.0008378008
 10
120.9238028789
 20
76.062413007
 10
120.9166505787
 20
76.1229292486
 10
120.9123496897
 20
76.1821821553
 10
120.9109145
 20
76.2399714003
  0
LWPOLYLINE
  5
324
100
AcDbEntity
  8
ASSI
100
AcDbPolyline
 62
7
  6
CONTINUOUS
 90
28
 70
0
 10
121.7594426374
 20
74.7702775561
 10
121.7101122972
 20
74.8004173994
 10
121.6609471296
 20
74.8337707439
 10
121.6121134828
 20
74.8702250851
 10
121.5637763135
 20
74.9096576616
 10
121.5160995329
 20
74.9519351402
 10
121.4692454067
 20
74.9969138917
 10
121.4233726243
 20
75.0444417334
 10
121.3786363577
 20
75.0943580534
 10
121.3351885608
 20
75.1464934125
 10
121.2931763704
 20
75.2006712864
 10
121.2527418761
 20
75.2567084738
 10
121.2140221262
 20
75.3144150605
 10
121.1771482256
 20
75.3735956238
 10
121.1422448599
 20
75.4340500197
 10
121.1094300839
 20
75.4955737668
 10
121.078814895
 20
75.557958779
 10
121.0505029585
 20
75.6209938377
 10
121.0245901763
 20
75.6844653997
 10
121.0011641325
 20
75.7481589091
 10
120.9803041779
 20
75.8118585906
 10
120.9620811266
 20
75.8753479533
 10
120.9465565101
 20
75.9384121302
 10
120.9337827003
 20
76.0008378008
 10
120.9238028789
 20
76.062413007
 10
120.9166505787
 20
76.1229292486
 10
120.9123496897
 20
76.1821821553
 10
120.9109145
 20
76.2399714003
  0
LWPOLYLINE
  5
325
100
AcDbEntity
  8
SMUSSO
100
AcDbPolyline
 62
7
  6
CONTINUOUS
 90
28
 70
0
 10
137.6693452141
 20
65.5840992063
 10
137.6200148739
 20
65.6142390496
 10
137.5708497063
 20
65.6475923941
 10
137.5220160595
 20
65.6840467352
 10
137.4736788902
 20
65.7234793117
 10
137.4260021096
 20
65.7657567903
 10
137.3791479834
 20
65.8107355418
 10
137.333275201
 20
65.8582633835
 10
137.2885389344
 20
65.9081797035
 10
137.2450911375
 20
65.9603150627
 10
137.203078947
 20
66.0144929365
 10
137.1626444528
 20
66.0705301239
 10
137.1239247029
 20
66.1282367106
 10
137.0870508023
 20
66.1874172739
 10
137.0521474366
 20
66.2478716698
 10
137.0193326606
 20
66.3093954169
 10
136.9887174717
 20
66.3717804291
 10
136.9604055352
 20
66.4348154878
 10
136.934492753
 20
66.4982870499
 10
136.9110667092
 20
66.5619805592
 10
136.8902067546
 20
66.6256802408
 10
136.8719837033
 20
66.6891696034
 10
136.8564590868
 20
66.7522337803
 10
136.843685277
 20
66.8146594509
 10
136.8337054556
 20
66.8762346571
 10
136.8265531554
 20
66.9367508987
 10
136.8222522664
 20
66.9960038054
 10
136.8208170767
 20
67.0537930504
  0
LWPOLYLINE
  5
326
100
AcDbEntity
  8
ASSI
100
AcDbPolyline
 62
7
  6
CONTINUOUS
 90
28
 70
0
 10
137.6693452141
 20
65.5840992063
 10
137.6200148739
 20
65.6142390496
 10
137.5708497063
 20
65.6475923941
 10
137.5220160595
 20
65.6840467352
 10
137.4736788902
 20
65.7234793117
 10
137.4260021096
 20
65.7657567903
 10
137.3791479834
 20
65.8107355418
 10
137.333275201
 20
65.8582633835
 10
137.2885389344
 20
65.9081797035
 10
137.2450911375
 20
65.9603150627
 10
137.203078947
 20
66.0144929365
 10
137.1626444528
 20
66.0705301239
 10
137.1239247029
 20
66.1282367106
 10
137.0870508023
 20
66.1874172739
 10
137.0521474366
 20
66.2478716698
 10
137.0193326606
 20
66.3093954169
 10
136.9887174717
 20
66.3717804291
 10
136.9604055352
 20
66.4348154878
 10
136.934492753
 20
66.4982870499
 10
136.9110667092
 20
66.5619805592
 10
136.8902067546
 20
66.6256802408
 10
136.8719837033
 20
66.6891696034
 10
136.8564590868
 20
66.7522337803
 10
136.843685277
 20
66.8146594509
 10
136.8337054556
 20
66.8762346571
 10
136.8265531554
 20
66.9367508987
 10
136.8222522664
 20
66.9960038054
 10
136.8208170767
 20
67.0537930504
  0
LWPOLYLINE
  5
327
100
AcDbEntity
  8
SMUSSO
100
AcDbPolyline
 62
7
  6
CONTINUOUS
 90
28
 70
0
 10
153.5792477908
 20
56.3979208564
 10
153.5299174506
 20
56.4280606997
 10
153.480752283
 20
56.4614140442
 10
153.4319186361
 20
56.4978683854
 10
153.3835814669
 20
56.5373009618
 10
153.3359046863
 20
56.5795784404
 10
153.2890505601
 20
56.6245571919
 10
153.2431777777
 20
56.6720850337
 10
153.1984415111
 20
56.7220013537
 10
153.1549937142
 20
56.7741367128
 10
153.1129815237
 20
56.8283145866
 10
153.0725470295
 20
56.884351774
 10
153.0338272796
 20
56.9420583608
 10
152.996953379
 20
57.001238924
 10
152.9620500133
 20
57.06169332
 10
152.9292352373
 20
57.123217067
 10
152.8986200484
 20
57.1856020793
 10
152.8703081119
 20
57.248637138
 10
152.8443953297
 20
57.3121087
 10
152.8209692859
 20
57.3758022093
 10
152.8001093313
 20
57.4395018909
 10
152.78188628
 20
57.5029912535
 10
152.7663616635
 20
57.5660554305
 10
152.7535878537
 20
57.628481101
 10
152.7436080323
 20
57.6900563073
 10
152.7364557321
 20
57.7505725489
 10
152.7321548431
 20
57.8098254556
 10
152.7307196534
 20
57.8676147005
  0
LWPOLYLINE
  5
328
100
AcDbEntity
  8
ASSI
100
AcDbPolyline
 62
7
  6
CONTINUOUS
 90
28
 70
0
 10
153.5792477908
 20
56.3979208564
 10
153.5299174506
 20
56.4280606997
 10
153.480752283
 20
56.4614140442
 10
153.4319186361
 20
56.4978683854
 10
153.3835814669
 20
56.5373009618
 10
153.3359046863
 20
56.5795784404
 10
153.2890505601
 20
56.6245571919
 10
153.2431777777
 20
56.6720850337
 10
153.1984415111
 20
56.7220013537
 10
153.1549937142
 20
56.7741367128
 10
153.1129815237
 20
56.8283145866
 10
153.0725470295
 20
56.884351774
 10
153.0338272796
 20
56.9420583608
 10
152.996953379
 20
57.001238924
 10
152.9620500133
 20
57.06169332
 10
152.9292352373
 20
57.123217067
 10
152.8986200484
 20
57.1856020793
 10
152.8703081119
 20
57.248637138
 10
152.8443953297
 20
57.3121087
 10
152.8209692859
 20
57.3758022093
 10
152.8001093313
 20
57.4395018909
 10
152.78188628
 20
57.5029912535
 10
152.7663616635
 20
57.5660554305
 10
152.7535878537
 20
57.628481101
 10
152.7436080323
 20
57.6900563073
 10
152.7364557321
 20
57.7505725489
 10
152.7321548431
 20
57.8098254556
 10
152.7307196534
 20
57.8676147005
  0
LWPOLYLINE
  5
329
100
AcDbEntity
  8
SMUSSO
100
AcDbPolyline
 62
7
  6
CONTINUOUS
 90
28
 70
0
 10
89.5860840934
 20
92.5302618208
 10
89.5158097288
 20
92.5732500152
 10
89.4462375405
 20
92.6204475277
 10
89.3773675286
 20
92.6718543585
 10
89.30897142
 20
92.727672565
 10
89.2412774878
 20
92.7877000896
 10
89.1749705507
 20
92.8513307601
 10
89.1100648522
 20
92.9186011858
 10
89.0465461488
 20
92.9894747572
 10
88.9850565287
 20
93.0632354736
 10
88.9256167361
 20
93.1399125184
 10
88.8682060268
 20
93.2194767081
 10
88.8134042564
 20
93.3011244907
 10
88.7612379769
 20
93.3848768167
 10
88.7116806362
 20
93.4707127356
 10
88.6652324339
 20
93.5577658449
 10
88.6219248112
 20
93.6460485902
 10
88.5817263267
 20
93.7355485258
 10
88.5450428558
 20
93.8253619129
 10
88.5119099983
 20
93.9154922325
 10
88.4822921543
 20
94.0059360036
 10
88.4564883993
 20
94.0957790435
 10
88.4345375855
 20
94.1850153455
 10
88.4164008606
 20
94.2736509163
 10
88.4022607443
 20
94.3607895934
 10
88.3921780762
 20
94.446132656
 10
88.3860920166
 20
94.5299788249
 10
88.3840025654
 20
94.6123281
  0
LWPOLYLINE
  5
32A
100
AcDbEntity
  8
ASSI
100
AcDbPolyline
 62
7
  6
CONTINUOUS
 90
28
 70
0
 10
89.5860840934
 20
92.5302618208
 10
89.5158097288
 20
92.5732500152
 10
89.4462375405
 20
92.6204475277
 10
89.3773675286
 20
92.6718543585
 10
89.30897142
 20
92.727672565
 10
89.2412774878
 20
92.7877000896
 10
89.1749705507
 20
92.8513307601
 10
89.1100648522
 20
92.9186011858
 10
89.0465461488
 20
92.9894747572
 10
88.9850565287
 20
93.0632354736
 10
88.9256167361
 20
93.1399125184
 10
88.8682060268
 20
93.2194767081
 10
88.8134042564
 20
93.3011244907
 10
88.7612379769
 20
93.3848768167
 10
88.7116806362
 20
93.4707127356
 10
88.6652324339
 20
93.5577658449
 10
88.6219248112
 20
93.6460485902
 10
88.5817263267
 20
93.7355485258
 10
88.5450428558
 20
93.8253619129
 10
88.5119099983
 20
93.9154922325
 10
88.4822921543
 20
94.0059360036
 10
88.4564883993
 20
94.0957790435
 10
88.4345375855
 20
94.1850153455
 10
88.4164008606
 20
94.2736509163
 10
88.4022607443
 20
94.3607895934
 10
88.3921780762
 20
94.446132656
 10
88.3860920166
 20
94.5299788249
 10
88.3840025654
 20
94.6123281
  0
LWPOLYLINE
  5
32B
100
AcDbEntity
  8
SMUSSO
100
AcDbPolyline
 62
7
  6
CONTINUOUS
 90
28
 70
0
 10
105.4959866701
 20
83.344083471
 10
105.4257123055
 20
83.3870716653
 10
105.3561401172
 20
83.4342691778
 10
105.2872701053
 20
83.4856760086
 10
105.2188739967
 20
83.5414942151
 10
105.1511800645
 20
83.6015217398
 10
105.0848731274
 20
83.6651524102
 10
105.0199674289
 20
83.7324228359
 10
104.9564487255
 20
83.8032964074
 10
104.8949591054
 20
83.8770571237
 10
104.8355193128
 20
83.9537341685
 10
104.7781086035
 20
84.0332983582
 10
104.7233068331
 20
84.1149461409
 10
104.6711405536
 20
84.1986984668
 10
104.6215832129
 20
84.2845343857
 10
104.5751350106
 20
84.371587495
 10
104.5318273879
 20
84.4598702403
 10
104.4916289034
 20
84.5493701759
 10
104.4549454325
 20
84.639183563
 10
104.421812575
 20
84.7293138827
 10
104.392194731
 20
84.8197576537
 10
104.366390976
 20
84.9096006936
 10
104.3444401621
 20
84.9988369956
 10
104.3263034373
 20
85.0874725664
 10
104.312163321
 20
85.1746112435
 10
104.3020806529
 20
85.2599543061
 10
104.2959945933
 20
85.343800475
 10
104.2939051421
 20
85.4261497502
  0
LWPOLYLINE
  5
32C
100
AcDbEntity
  8
ASSI
100
AcDbPolyline
 62
7
  6
CONTINUOUS
 90
28
 70
0
 10
105.4959866701
 20
83.344083471
 10
105.4257123055
 20
83.3870716653
 10
105.3561401172
 20
83.4342691778
 10
105.2872701053
 20
83.4856760086
 10
105.2188739967
 20
83.5414942151
 10
105.1511800645
 20
83.6015217398
 10
105.0848731274
 20
83.6651524102
 10
105.0199674289
 20
83.7324228359
 10
104.9564487255
 20
83.8032964074
 10
104.8949591054
 20
83.8770571237
 10
104.8355193128
 20
83.9537341685
 10
104.7781086035
 20
84.0332983582
 10
104.7233068331
 20
84.1149461409
 10
104.6711405536
 20
84.1986984668
 10
104.6215832129
 20
84.2845343857
 10
104.5751350106
 20
84.371587495
 10
104.5318273879
 20
84.4598702403
 10
104.4916289034
 20
84.5493701759
 10
104.4549454325
 20
84.639183563
 10
104.421812575
 20
84.7293138827
 10
104.392194731
 20
84.8197576537
 10
104.366390976
 20
84.9096006936
 10
104.3444401621
 20
84.9988369956
 10
104.3263034373
 20
85.0874725664
 10
104.312163321
 20
85.1746112435
 10
104.3020806529
 20
85.2599543061
 10
104.2959945933
 20
85.343800475
 10
104.2939051421
 20
85.4261497502
  0
LWPOLYLINE
  5
32D
100
AcDbEntity
  8
SMUSSO
100
AcDbPolyline
 62
7
  6
CONTINUOUS
 90
28
 70
0
 10
121.4058892468
 20
74.1579051211
 10
121.3356148822
 20
74.2008933154
 10
121.2660426939
 20
74.248090828
 10
121.197172682
 20
74.2994976587
 10
121.1287765734
 20
74.3553158652
 10
121.0610826412
 20
74.4153433899
 10
120.9947757041
 20
74.4789740603
 10
120.9298700056
 20
74.546244486
 10
120.8663513022
 20
74.6171180575
 10
120.8048616821
 20
74.6908787738
 10
120.7454218895
 20
74.7675558186
 10
120.6880111802
 20
74.8471200083
 10
120.6332094098
 20
74.928767791
 10
120.5810431303
 20
75.0125201169
 10
120.5314857896
 20
75.0983560358
 10
120.4850375873
 20
75.1854091452
 10
120.4417299646
 20
75.2736918904
 10
120.4015314801
 20
75.3631918261
 10
120.3648480092
 20
75.4530052131
 10
120.3317151517
 20
75.5431355328
 10
120.3020973077
 20
75.6335793038
 10
120.2762935527
 20
75.7234223437
 10
120.2543427388
 20
75.8126586457
 10
120.236206014
 20
75.9012942165
 10
120.2220658977
 20
75.9884328937
 10
120.2119832296
 20
76.0737759562
 10
120.20589717
 20
76.1576221251
 10
120.2038077188
 20
76.2399714003
  0
LWPOLYLINE
  5
32E
100
AcDbEntity
  8
ASSI
100
AcDbPolyline
 62
7
  6
CONTINUOUS
 90
28
 70
0
 10
121.4058892468
 20
74.1579051211
 10
121.3356148822
 20
74.2008933154
 10
121.2660426939
 20
74.248090828
 10
121.197172682
 20
74.2994976587
 10
121.1287765734
 20
74.3553158652
 10
121.0610826412
 20
74.4153433899
 10
120.9947757041
 20
74.4789740603
 10
120.9298700056
 20
74.546244486
 10
120.8663513022
 20
74.6171180575
 10
120.8048616821
 20
74.6908787738
 10
120.7454218895
 20
74.7675558186
 10
120.6880111802
 20
74.8471200083
 10
120.6332094098
 20
74.928767791
 10
120.5810431303
 20
75.0125201169
 10
120.5314857896
 20
75.0983560358
 10
120.4850375873
 20
75.1854091452
 10
120.4417299646
 20
75.2736918904
 10
120.4015314801
 20
75.3631918261
 10
120.3648480092
 20
75.4530052131
 10
120.3317151517
 20
75.5431355328
 10
120.3020973077
 20
75.6335793038
 10
120.2762935527
 20
75.7234223437
 10
120.2543427388
 20
75.8126586457
 10
120.236206014
 20
75.9012942165
 10
120.2220658977
 20
75.9884328937
 10
120.2119832296
 20
76.0737759562
 10
120.20589717
 20
76.1576221251
 10
120.2038077188
 20
76.2399714003
  0
LWPOLYLINE
  5
32F
100
AcDbEntity
  8
SMUSSO
100
AcDbPolyline
 62
7
  6
CONTINUOUS
 90
28
 70
0
 10
137.3157918235
 20
64.9717267712
 10
137.2455174589
 20
65.0147149655
 10
137.1759452706
 20
65.0619124781
 10
137.1070752587
 20
65.1133193089
 10
137.0386791501
 20
65.1691375153
 10
136.9709852179
 20
65.22916504
 10
136.9046782808
 20
65.2927957105
 10
136.8397725823
 20
65.3600661362
 10
136.7762538789
 20
65.4309397076
 10
136.7147642588
 20
65.5047004239
 10
136.6553244662
 20
65.5813774688
 10
136.5979137569
 20
65.6609416584
 10
136.5431119865
 20
65.7425894411
 10
136.490945707
 20
65.826341767
 10
136.4413883663
 20
65.912177686
 10
136.394940164
 20
65.9992307953
 10
136.3516325413
 20
66.0875135405
 10
136.3114340568
 20
66.1770134762
 10
136.2747505859
 20
66.2668268633
 10
136.2416177284
 20
66.3569571829
 10
136.2119998844
 20
66.447400954
 10
136.1861961294
 20
66.5372439938
 10
136.1642453155
 20
66.6264802958
 10
136.1461085907
 20
66.7151158667
 10
136.1319684744
 20
66.8022545438
 10
136.1218858063
 20
66.8875976064
 10
136.1157997467
 20
66.9714437752
 10
136.1137102955
 20
67.0537930504
  0
LWPOLYLINE
  5
330
100
AcDbEntity
  8
ASSI
100
AcDbPolyline
 62
7
  6
CONTINUOUS
 90
28
 70
0
 10
137.3157918235
 20
64.9717267712
 10
137.2455174589
 20
65.0147149655
 10
137.1759452706
 20
65.0619124781
 10
137.1070752587
 20
65.1133193089
 10
137.0386791501
 20
65.1691375153
 10
136.9709852179
 20
65.22916504
 10
136.9046782808
 20
65.2927957105
 10
136.8397725823
 20
65.3600661362
 10
136.7762538789
 20
65.4309397076
 10
136.7147642588
 20
65.5047004239
 10
136.6553244662
 20
65.5813774688
 10
136.5979137569
 20
65.6609416584
 10
136.5431119865
 20
65.7425894411
 10
136.490945707
 20
65.826341767
 10
136.4413883663
 20
65.912177686
 10
136.394940164
 20
65.9992307953
 10
136.3516325413
 20
66.0875135405
 10
136.3114340568
 20
66.1770134762
 10
136.2747505859
 20
66.2668268633
 10
136.2416177284
 20
66.3569571829
 10
136.2119998844
 20
66.447400954
 10
136.1861961294
 20
66.5372439938
 10
136.1642453155
 20
66.6264802958
 10
136.1461085907
 20
66.7151158667
 10
136.1319684744
 20
66.8022545438
 10
136.1218858063
 20
66.8875976064
 10
136.1157997467
 20
66.9714437752
 10
136.1137102955
 20
67.0537930504
  0
LWPOLYLINE
  5
331
100
AcDbEntity
  8
SMUSSO
100
AcDbPolyline
 62
7
  6
CONTINUOUS
 90
28
 70
0
 10
153.2256944002
 20
55.7855484213
 10
153.1554200356
 20
55.8285366157
 10
153.0858478473
 20
55.8757341282
 10
153.0169778354
 20
55.927140959
 10
152.9485817268
 20
55.9829591655
 10
152.8808877946
 20
56.0429866901
 10
152.8145808575
 20
56.1066173606
 10
152.749675159
 20
56.1738877863
 10
152.6861564556
 20
56.2447613578
 10
152.6246668355
 20
56.3185220741
 10
152.5652270429
 20
56.3951991189
 10
152.5078163336
 20
56.4747633086
 10
152.4530145632
 20
56.5564110913
 10
152.4008482837
 20
56.6401634172
 10
152.351290943
 20
56.7259993361
 10
152.3048427407
 20
56.8130524454
 10
152.261535118
 20
56.9013351907
 10
152.2213366335
 20
56.9908351263
 10
152.1846531626
 20
57.0806485134
 10
152.1515203051
 20
57.170778833
 10
152.1219024611
 20
57.2612226041
 10
152.0960987061
 20
57.351065644
 10
152.0741478922
 20
57.440301946
 10
152.0560111674
 20
57.5289375168
 10
152.0418710511
 20
57.6160761939
 10
152.031788383
 20
57.7014192565
 10
152.0257023234
 20
57.7852654254
 10
152.0236128722
 20
57.8676147005
  0
LWPOLYLINE
  5
332
100
AcDbEntity
  8
ASSI
100
AcDbPolyline
 62
7
  6
CONTINUOUS
 90
28
 70
0
 10
153.2256944002
 20
55.7855484213
 10
153.1554200356
 20
55.8285366157
 10
153.0858478473
 20
55.8757341282
 10
153.0169778354
 20
55.927140959
 10
152.9485817268
 20
55.9829591655
 10
152.8808877946
 20
56.0429866901
 10
152.8145808575
 20
56.1066173606
 10
152.749675159
 20
56.1738877863
 10
152.6861564556
 20
56.2447613578
 10
152.6246668355
 20
56.3185220741
 10
152.5652270429
 20
56.3951991189
 10
152.5078163336
 20
56.4747633086
 10
152.4530145632
 20
56.5564110913
 10
152.4008482837
 20
56.6401634172
 10
152.351290943
 20
56.7259993361
 10
152.3048427407
 20
56.8130524454
 10
152.261535118
 20
56.9013351907
 10
152.2213366335
 20
56.9908351263
 10
152.1846531626
 20
57.0806485134
 10
152.1515203051
 20
57.170778833
 10
152.1219024611
 20
57.2612226041
 10
152.0960987061
 20
57.351065644
 10
152.0741478922
 20
57.440301946
 10
152.0560111674
 20
57.5289375168
 10
152.0418710511
 20
57.6160761939
 10
152.031788383
 20
57.7014192565
 10
152.0257023234
 20
57.7852654254
 10
152.0236128722
 20
57.8676147005
  0
LWPOLYLINE
  5
333
100
AcDbEntity
  8
CURVE
100
AcDbPolyline
 62
250
  6
CONTINUOUS
 90
30
 70
0
 10
179.1468226347
 20
16.1513543344
 10
179.1280260486
 20
16.1696817809
 10
179.1090469403
 20
16.1874811488
 10
179.089901938
 20
16.2047710768
 10
179.0706076695
 20
16.2215702041
 10
179.0511807631
 20
16.2378971693
 10
179.0316378468
 20
16.2537706116
 10
179.0119955486
 20
16.2692091697
 10
178.9922704966
 20
16.2842314825
 10
178.9724793189
 20
16.2988561891
 10
178.9526386436
 20
16.3131019281
 10
178.9327650986
 20
16.3269873387
 10
178.9128753122
 20
16.3405310596
 10
178.8836407575
 20
16.3598515812
 10
178.8544082676
 20
16.3785138256
 10
178.8251790723
 20
16.3965572812
 10
178.7959544013
 20
16.4140214362
 10
178.7667354846
 20
16.4309457788
 10
178.7375235519
 20
16.4473697972
 10
178.7083198332
 20
16.4633329796
 10
178.6791255581
 20
16.4788748142
 10
178.6419236927
 20
16.4981302978
 10
178.6047441111
 20
16.5167909356
 10
178.5675917507
 20
16.5348824821
 10
178.5304715486
 20
16.5524306919
 10
178.4933884422
 20
16.5694613197
 10
178.4563473685
 20
16.58600012
 10
178.4193532648
 20
16.6020728474
 10
178.3824110683
 20
16.6177052566
 10
178.3455257163
 20
16.632923102
  0
LWPOLYLINE
  5
334
100
AcDbEntity
  8
SMUSSO
100
AcDbPolyline
 62
7
  6
CONTINUOUS
 90
5
 70
0
 10
116.1409007708
 20
89.846515475
 10
116.1550408871
 20
89.7593767979
 10
116.1651235552
 20
89.6740337353
 10
116.1712096148
 20
89.5901875665
 10
116.173299066
 20
89.5078382913
  0
LWPOLYLINE
  5
335
100
AcDbEntity
  8
ASSI
100
AcDbPolyline
 62
7
  6
CONTINUOUS
 90
5
 70
0
 10
116.1409007708
 20
89.846515475
 10
116.1550408871
 20
89.7593767979
 10
116.1651235552
 20
89.6740337353
 10
116.1712096148
 20
89.5901875665
 10
116.173299066
 20
89.5078382913
  0
LINE
  5
336
100
AcDbEntity
  8
SMUSSO
100
AcDbLine
 62
250
  6
CONTINUOUS
 10
121.4058892468
 20
74.1579051211
 11
121.7594426374
 21
74.7702775561
  0
LINE
  5
337
100
AcDbEntity
  8
ASSI
100
AcDbLine
 62
250
  6
CONTINUOUS
 10
121.4058892468
 20
74.1579051211
 11
121.7594426374
 21
74.7702775561
  0
LINE
  5
338
100
AcDbEntity
  8
SMUSSO
100
AcDbLine
 62
250
  6
CONTINUOUS
 10
120.9109145
 20
76.2399714003
 11
121.0523358562
 21
76.321626319
  0
LINE
  5
339
100
AcDbEntity
  8
ASSI
100
AcDbLine
 62
250
  6
CONTINUOUS
 10
120.9109145
 20
76.2399714003
 11
121.0523358562
 21
76.321626319
  0
LWPOLYLINE
  5
33A
100
AcDbEntity
  8
SMUSSO
100
AcDbPolyline
 62
7
  6
CONTINUOUS
 90
15
 70
0
 10
115.9247999208
 20
78.4261269422
 10
115.9070654446
 20
78.4164754854
 10
115.8701915739
 20
78.3998759775
 10
115.8314719018
 20
78.3868819946
 10
115.7910375173
 20
78.3775375464
 10
115.7490254046
 20
78.3718742741
 10
115.7055775843
 20
78.3699113071
 10
115.6608412499
 20
78.371655281
 10
115.6149684839
 20
78.377100152
 10
115.5681146035
 20
78.3862272898
 10
115.5204381674
 20
78.3990056166
 10
115.4721011495
 20
78.415391471
 10
115.4232673542
 20
78.4353289936
 10
115.374101831
 20
78.4587504716
 10
115.3247709286
 20
78.4855763554
  0
LWPOLYLINE
  5
33B
100
AcDbEntity
  8
ASSI
100
AcDbPolyline
 62
7
  6
CONTINUOUS
 90
15
 70
0
 10
115.9247999208
 20
78.4261269422
 10
115.9070654446
 20
78.4164754854
 10
115.8701915739
 20
78.3998759775
 10
115.8314719018
 20
78.3868819946
 10
115.7910375173
 20
78.3775375464
 10
115.7490254046
 20
78.3718742741
 10
115.7055775843
 20
78.3699113071
 10
115.6608412499
 20
78.371655281
 10
115.6149684839
 20
78.377100152
 10
115.5681146035
 20
78.3862272898
 10
115.5204381674
 20
78.3990056166
 10
115.4721011495
 20
78.415391471
 10
115.4232673542
 20
78.4353289936
 10
115.374101831
 20
78.4587504716
 10
115.3247709286
 20
78.4855763554
  0
LINE
  5
33C
100
AcDbEntity
  8
SMUSSO
100
AcDbLine
 62
250
  6
CONTINUOUS
 10
120.2038077188
 20
76.2399714003
 11
120.9109145
 21
76.2399714003
  0
LINE
  5
33D
100
AcDbEntity
  8
ASSI
100
AcDbLine
 62
250
  6
CONTINUOUS
 10
120.2038077188
 20
76.2399714003
 11
120.9109145
 21
76.2399714003
  0
LINE
  5
33E
100
AcDbEntity
  8
SMUSSO
100
AcDbLine
 62
250
  6
CONTINUOUS
 10
136.1137102955
 20
77.9944947594
 11
136.8208170767
 21
77.9944947594
  0
LINE
  5
33F
100
AcDbEntity
  8
ASSI
100
AcDbLine
 62
250
  6
CONTINUOUS
 10
136.1137102955
 20
77.9944947594
 11
136.8208170767
 21
77.9944947594
  0
LINE
  5
340
100
AcDbEntity
  8
SMUSSO
100
AcDbLine
 62
250
  6
CONTINUOUS
 10
116.0328052942
 20
78.5166566874
 11
115.4661922848
 21
78.5672312741
  0
LINE
  5
341
100
AcDbEntity
  8
ASSI
100
AcDbLine
 62
250
  6
CONTINUOUS
 10
116.0328052942
 20
78.5166566874
 11
115.4661922848
 21
78.5672312741
  0
LWPOLYLINE
  5
342
100
AcDbEntity
  8
SMUSSO
100
AcDbPolyline
 62
7
  6
CONTINUOUS
 90
7
 70
0
 10
115.7690213003
 20
78.4569016212
 10
115.8022628191
 20
78.4533101828
 10
115.8469991077
 20
78.4515662262
 10
115.8904468742
 20
78.4535292029
 10
115.9324589242
 20
78.4591924743
 10
115.9728932412
 20
78.4685369085
 10
115.9910745536
 20
78.4746383961
  0
LWPOLYLINE
  5
343
100
AcDbEntity
  8
ASSI
100
AcDbPolyline
 62
7
  6
CONTINUOUS
 90
7
 70
0
 10
115.7690213003
 20
78.4569016212
 10
115.8022628191
 20
78.4533101828
 10
115.8469991077
 20
78.4515662262
 10
115.8904468742
 20
78.4535292029
 10
115.9324589242
 20
78.4591924743
 10
115.9728932412
 20
78.4685369085
 10
115.9910745536
 20
78.4746383961
  0
LWPOLYLINE
  5
344
100
AcDbEntity
  8
SMUSSO
100
AcDbPolyline
 62
7
  6
CONTINUOUS
 90
20
 70
0
 10
99.3384276347
 20
100.5786721762
 10
99.4061215669
 20
100.5186446516
 10
99.472428504
 20
100.4550139811
 10
99.5373342025
 20
100.3877435554
 10
99.6008529059
 20
100.3168699839
 10
99.662342526
 20
100.2431092676
 10
99.7217823186
 20
100.1664322228
 10
99.7791930279
 20
100.0868680331
 10
99.8339947983
 20
100.0052202504
 10
99.8861610778
 20
99.9214679245
 10
99.9357184185
 20
99.8356320056
 10
99.9821666208
 20
99.7485788963
 10
100.0254742435
 20
99.660296151
 10
100.065672728
 20
99.5707962154
 10
100.1023561989
 20
99.4809828283
 10
100.1354890564
 20
99.3908525087
 10
100.1651069004
 20
99.3004087376
 10
100.1909106554
 20
99.2105656977
 10
100.2128614692
 20
99.1213293957
 10
100.2309981941
 20
99.0326938249
  0
LWPOLYLINE
  5
345
100
AcDbEntity
  8
ASSI
100
AcDbPolyline
 62
7
  6
CONTINUOUS
 90
20
 70
0
 10
99.3384276347
 20
100.5786721762
 10
99.4061215669
 20
100.5186446516
 10
99.472428504
 20
100.4550139811
 10
99.5373342025
 20
100.3877435554
 10
99.6008529059
 20
100.3168699839
 10
99.662342526
 20
100.2431092676
 10
99.7217823186
 20
100.1664322228
 10
99.7791930279
 20
100.0868680331
 10
99.8339947983
 20
100.0052202504
 10
99.8861610778
 20
99.9214679245
 10
99.9357184185
 20
99.8356320056
 10
99.9821666208
 20
99.7485788963
 10
100.0254742435
 20
99.660296151
 10
100.065672728
 20
99.5707962154
 10
100.1023561989
 20
99.4809828283
 10
100.1354890564
 20
99.3908525087
 10
100.1651069004
 20
99.3004087376
 10
100.1909106554
 20
99.2105656977
 10
100.2128614692
 20
99.1213293957
 10
100.2309981941
 20
99.0326938249
  0
LWPOLYLINE
  5
346
100
AcDbEntity
  8
SMUSSO
100
AcDbPolyline
 62
7
  6
CONTINUOUS
 90
20
 70
0
 10
115.2483302113
 20
91.3924938264
 10
115.3160241436
 20
91.3324663017
 10
115.3823310807
 20
91.2688356312
 10
115.4472367792
 20
91.2015652055
 10
115.5107554826
 20
91.1306916341
 10
115.5722451027
 20
91.0569309178
 10
115.6316848953
 20
90.9802538729
 10
115.6890956046
 20
90.9006896832
 10
115.743897375
 20
90.8190419006
 10
115.7960636545
 20
90.7352895747
 10
115.8456209952
 20
90.6494536557
 10
115.8920691975
 20
90.5624005464
 10
115.9353768202
 20
90.4741178012
 10
115.9755753047
 20
90.3846178655
 10
116.0122587756
 20
90.2948044784
 10
116.0453916331
 20
90.2046741588
 10
116.0750094771
 20
90.1142303877
 10
116.1008132321
 20
90.0243873479
 10
116.1227640459
 20
89.9351510459
 10
116.1409007708
 20
89.846515475
  0
LWPOLYLINE
  5
347
100
AcDbEntity
  8
ASSI
100
AcDbPolyline
 62
7
  6
CONTINUOUS
 90
20
 70
0
 10
115.2483302113
 20
91.3924938264
 10
115.3160241436
 20
91.3324663017
 10
115.3823310807
 20
91.2688356312
 10
115.4472367792
 20
91.2015652055
 10
115.5107554826
 20
91.1306916341
 10
115.5722451027
 20
91.0569309178
 10
115.6316848953
 20
90.9802538729
 10
115.6890956046
 20
90.9006896832
 10
115.743897375
 20
90.8190419006
 10
115.7960636545
 20
90.7352895747
 10
115.8456209952
 20
90.6494536557
 10
115.8920691975
 20
90.5624005464
 10
115.9353768202
 20
90.4741178012
 10
115.9755753047
 20
90.3846178655
 10
116.0122587756
 20
90.2948044784
 10
116.0453916331
 20
90.2046741588
 10
116.0750094771
 20
90.1142303877
 10
116.1008132321
 20
90.0243873479
 10
116.1227640459
 20
89.9351510459
 10
116.1409007708
 20
89.846515475
  0
LINE
  5
348
100
AcDbEntity
  8
SMUSSO
100
AcDbLine
 62
7
  6
CONTINUOUS
 10
132.0832016427
 20
80.3216599414
 11
132.0832016427
 21
69.3809582324
  0
LINE
  5
349
100
AcDbEntity
  8
ASSI
100
AcDbLine
 62
7
  6
CONTINUOUS
 10
132.0832016427
 20
80.3216599414
 11
132.0832016427
 21
69.3809582324
  0
LWPOLYLINE
  5
34A
100
AcDbEntity
  8
SMUSSO
100
AcDbPolyline
 62
7
  6
CONTINUOUS
 90
15
 70
0
 10
132.0832016427
 20
69.7892328257
 10
132.0817664857
 20
69.7331015321
 10
132.0774656712
 20
69.6788155519
 10
132.0703134518
 20
69.626558732
 10
132.0603336592
 20
69.576507782
 10
132.0475598033
 20
69.5288326156
 10
132.0320351342
 20
69.4836956232
 10
132.0138120978
 20
69.4412497559
 10
131.992952199
 20
69.4016386731
 10
131.969526197
 20
69.3649969748
 10
131.9436133957
 20
69.3314487655
 10
131.9153014055
 20
69.3011075256
 10
131.8846861713
 20
69.2740761025
 10
131.8518713812
 20
69.2504460099
 10
131.8347024975
 20
69.2399485923
  0
LWPOLYLINE
  5
34B
100
AcDbEntity
  8
ASSI
100
AcDbPolyline
 62
7
  6
CONTINUOUS
 90
15
 70
0
 10
132.0832016427
 20
69.7892328257
 10
132.0817664857
 20
69.7331015321
 10
132.0774656712
 20
69.6788155519
 10
132.0703134518
 20
69.626558732
 10
132.0603336592
 20
69.576507782
 10
132.0475598033
 20
69.5288326156
 10
132.0320351342
 20
69.4836956232
 10
132.0138120978
 20
69.4412497559
 10
131.992952199
 20
69.4016386731
 10
131.969526197
 20
69.3649969748
 10
131.9436133957
 20
69.3314487655
 10
131.9153014055
 20
69.3011075256
 10
131.8846861713
 20
69.2740761025
 10
131.8518713812
 20
69.2504460099
 10
131.8347024975
 20
69.2399485923
  0
LWPOLYLINE
  5
34C
100
AcDbEntity
  8
SMUSSO
100
AcDbPolyline
 62
7
  6
CONTINUOUS
 90
28
 70
0
 10
132.0832016427
 20
69.3809582324
 10
132.0811121532
 20
69.301021445
 10
132.0750260476
 20
69.2242030309
 10
132.064943326
 20
69.1505029901
 10
132.0508031432
 20
69.0796928753
 10
132.0326663445
 20
69.0120011338
 10
132.0107154648
 20
68.9481131072
 10
131.9849116761
 20
68.8880676609
 10
131.9552938065
 20
68.8318259295
 10
131.9221608759
 20
68.7799566583
 10
131.8854772365
 20
68.7325043826
 10
131.845278536
 20
68.6894245671
 10
131.8019707375
 20
68.6511523521
 10
131.7555224195
 20
68.6177365383
 10
131.7059650034
 20
68.5891283248
 10
131.6537987161
 20
68.5656164488
 10
131.598997057
 20
68.5472525158
 10
131.5415865268
 20
68.5339849202
 10
131.4821468543
 20
68.5259475831
 10
131.420657223
 20
68.5231936297
 10
131.3571384494
 20
68.5256699348
 10
131.2922327123
 20
68.5333510441
 10
131.2259257857
 20
68.5462900325
 10
131.1582318956
 20
68.564433825
 10
131.0898358978
 20
68.587597743
 10
131.0209660777
 20
68.6157202267
 10
130.95139415
 20
68.6488628359
 10
130.8811201147
 20
68.6870255705
  0
LWPOLYLINE
  5
34D
100
AcDbEntity
  8
ASSI
100
AcDbPolyline
 62
7
  6
CONTINUOUS
 90
28
 70
0
 10
132.0832016427
 20
69.3809582324
 10
132.0811121532
 20
69.301021445
 10
132.0750260476
 20
69.2242030309
 10
132.064943326
 20
69.1505029901
 10
132.0508031432
 20
69.0796928753
 10
132.0326663445
 20
69.0120011338
 10
132.0107154648
 20
68.9481131072
 10
131.9849116761
 20
68.8880676609
 10
131.9552938065
 20
68.8318259295
 10
131.9221608759
 20
68.7799566583
 10
131.8854772365
 20
68.7325043826
 10
131.845278536
 20
68.6894245671
 10
131.8019707375
 20
68.6511523521
 10
131.7555224195
 20
68.6177365383
 10
131.7059650034
 20
68.5891283248
 10
131.6537987161
 20
68.5656164488
 10
131.598997057
 20
68.5472525158
 10
131.5415865268
 20
68.5339849202
 10
131.4821468543
 20
68.5259475831
 10
131.420657223
 20
68.5231936297
 10
131.3571384494
 20
68.5256699348
 10
131.2922327123
 20
68.5333510441
 10
131.2259257857
 20
68.5462900325
 10
131.1582318956
 20
68.564433825
 10
131.0898358978
 20
68.587597743
 10
131.0209660777
 20
68.6157202267
 10
130.95139415
 20
68.6488628359
 10
130.8811201147
 20
68.6870255705
  0
LWPOLYLINE
  5
34E
100
AcDbEntity
  8
SMUSSO
100
AcDbPolyline
 62
7
  6
CONTINUOUS
 90
4
 70
0
 10
136.9887173139
 20
78.4826200595
 10
137.019332548
 20
78.5096514827
 10
137.0521473382
 20
78.5332815753
 10
137.0693162219
 20
78.5437789928
  0
LWPOLYLINE
  5
34F
100
AcDbEntity
  8
ASSI
100
AcDbPolyline
 62
7
  6
CONTINUOUS
 90
4
 70
0
 10
136.9887173139
 20
78.4826200595
 10
137.019332548
 20
78.5096514827
 10
137.0521473382
 20
78.5332815753
 10
137.0693162219
 20
78.5437789928
  0
LWPOLYLINE
  5
350
100
AcDbEntity
  8
SMUSSO
100
AcDbPolyline
 62
7
  6
CONTINUOUS
 90
5
 70
0
 10
137.144462945
 20
78.5769224567
 10
137.130138603
 20
78.5642749128
 10
137.1018266257
 20
78.5339336745
 10
137.0759138412
 20
78.5003854757
 10
137.0524878594
 20
78.4637438011
  0
LWPOLYLINE
  5
351
100
AcDbEntity
  8
ASSI
100
AcDbPolyline
 62
7
  6
CONTINUOUS
 90
5
 70
0
 10
137.144462945
 20
78.5769224567
 10
137.130138603
 20
78.5642749128
 10
137.1018266257
 20
78.5339336745
 10
137.0759138412
 20
78.5003854757
 10
137.0524878594
 20
78.4637438011
  0
LINE
  5
352
100
AcDbEntity
  8
SMUSSO
100
AcDbLine
 62
250
  6
CONTINUOUS
 10
121.7594426374
 20
74.7702775561
 11
121.9008639936
 21
74.8519324748
  0
LINE
  5
353
100
AcDbEntity
  8
ASSI
100
AcDbLine
 62
250
  6
CONTINUOUS
 10
121.7594426374
 20
74.7702775561
 11
121.9008639936
 21
74.8519324748
  0
LINE
  5
354
100
AcDbEntity
  8
SMUSSO
100
AcDbLine
 62
250
  6
CONTINUOUS
 10
136.8208170767
 20
77.9944947594
 11
136.9622384329
 21
78.0761496781
  0
LINE
  5
355
100
AcDbEntity
  8
ASSI
100
AcDbLine
 62
250
  6
CONTINUOUS
 10
136.8208170767
 20
77.9944947594
 11
136.9622384329
 21
78.0761496781
  0
LWPOLYLINE
  5
356
100
AcDbEntity
  8
SMUSSO
100
AcDbPolyline
 62
7
  6
CONTINUOUS
 90
15
 70
0
 10
137.0693162219
 20
78.5437789928
 10
137.087050698
 20
78.5534304496
 10
137.1239245688
 20
78.5700299575
 10
137.1626442409
 20
78.5830239404
 10
137.2030786254
 20
78.5923683886
 10
137.2450907381
 20
78.5980316609
 10
137.2885385584
 20
78.5999946279
 10
137.3332748927
 20
78.598250654
 10
137.3791476588
 20
78.5928057831
 10
137.4260015392
 20
78.5836786452
 10
137.4736779753
 20
78.5709003184
 10
137.5220149931
 20
78.5545144641
 10
137.5708487884
 20
78.5345769415
 10
137.6200143117
 20
78.5111554634
 10
137.6693452141
 20
78.4843295796
  0
LWPOLYLINE
  5
357
100
AcDbEntity
  8
ASSI
100
AcDbPolyline
 62
7
  6
CONTINUOUS
 90
15
 70
0
 10
137.0693162219
 20
78.5437789928
 10
137.087050698
 20
78.5534304496
 10
137.1239245688
 20
78.5700299575
 10
137.1626442409
 20
78.5830239404
 10
137.2030786254
 20
78.5923683886
 10
137.2450907381
 20
78.5980316609
 10
137.2885385584
 20
78.5999946279
 10
137.3332748927
 20
78.598250654
 10
137.3791476588
 20
78.5928057831
 10
137.4260015392
 20
78.5836786452
 10
137.4736779753
 20
78.5709003184
 10
137.5220149931
 20
78.5545144641
 10
137.5708487884
 20
78.5345769415
 10
137.6200143117
 20
78.5111554634
 10
137.6693452141
 20
78.4843295796
  0
LINE
  5
358
100
AcDbEntity
  8
SMUSSO
100
AcDbLine
 62
250
  6
CONTINUOUS
 10
104.2939051421
 20
85.4261497502
 11
105.0010119233
 21
85.4261497502
  0
LINE
  5
359
100
AcDbEntity
  8
ASSI
100
AcDbLine
 62
250
  6
CONTINUOUS
 10
104.2939051421
 20
85.4261497502
 11
105.0010119233
 21
85.4261497502
  0
LINE
  5
35A
100
AcDbEntity
  8
SMUSSO
100
AcDbLine
 62
250
  6
CONTINUOUS
 10
106.8394895544
 20
83.9623731358
 11
105.9909614169
 21
84.0381108247
  0
LINE
  5
35B
100
AcDbEntity
  8
ASSI
100
AcDbLine
 62
250
  6
CONTINUOUS
 10
106.8394895544
 20
83.9623731358
 11
105.9909614169
 21
84.0381108247
  0
LINE
  5
35C
100
AcDbEntity
  8
SMUSSO
100
AcDbLine
 62
250
  6
CONTINUOUS
 10
100.1229027175
 20
87.7028350373
 11
99.5562897081
 21
87.753409624
  0
LINE
  5
35D
100
AcDbEntity
  8
ASSI
100
AcDbLine
 62
250
  6
CONTINUOUS
 10
100.1229027175
 20
87.7028350373
 11
99.5562897081
 21
87.753409624
  0
LWPOLYLINE
  5
35E
100
AcDbEntity
  8
SMUSSO
100
AcDbPolyline
 62
7
  6
CONTINUOUS
 90
7
 70
0
 10
99.8591187236
 20
87.643079971
 10
99.8923602424
 20
87.6394885326
 10
99.937096531
 20
87.637744576
 10
99.9805442975
 20
87.6397075527
 10
100.0225563475
 20
87.6453708242
 10
100.0629906645
 20
87.6547152584
 10
100.0811719769
 20
87.6608167459
  0
LWPOLYLINE
  5
35F
100
AcDbEntity
  8
ASSI
100
AcDbPolyline
 62
7
  6
CONTINUOUS
 90
7
 70
0
 10
99.8591187236
 20
87.643079971
 10
99.8923602424
 20
87.6394885326
 10
99.937096531
 20
87.637744576
 10
99.9805442975
 20
87.6397075527
 10
100.0225563475
 20
87.6453708242
 10
100.0629906645
 20
87.6547152584
 10
100.0811719769
 20
87.6608167459
  0
LINE
  5
360
100
AcDbEntity
  8
SMUSSO
100
AcDbLine
 62
7
  6
CONTINUOUS
 10
89.5860840934
 20
106.246962471
 11
99.0613149613
 21
100.7760829204
  0
LINE
  5
361
100
AcDbEntity
  8
ASSI
100
AcDbLine
 62
7
  6
CONTINUOUS
 10
89.5860840934
 20
106.246962471
 11
99.0613149613
 21
100.7760829204
  0
LINE
  5
362
100
AcDbEntity
  8
SMUSSO
100
AcDbLine
 62
7
  6
CONTINUOUS
 10
105.4959866701
 20
97.0607841211
 11
114.971217538
 21
91.5899045705
  0
LINE
  5
363
100
AcDbEntity
  8
ASSI
100
AcDbLine
 62
7
  6
CONTINUOUS
 10
105.4959866701
 20
97.0607841211
 11
114.971217538
 21
91.5899045705
  0
LINE
  5
364
100
AcDbEntity
  8
SMUSSO
100
AcDbLine
 62
7
  6
CONTINUOUS
 10
121.4058892468
 20
87.8746057712
 11
130.8811201147
 21
82.4037262206
  0
LINE
  5
365
100
AcDbEntity
  8
ASSI
100
AcDbLine
 62
7
  6
CONTINUOUS
 10
121.4058892468
 20
87.8746057712
 11
130.8811201147
 21
82.4037262206
  0
LINE
  5
366
100
AcDbEntity
  8
SMUSSO
100
AcDbLine
 62
7
  6
CONTINUOUS
 10
137.3157918235
 20
78.6884274213
 11
146.7910226914
 21
73.2175478707
  0
LINE
  5
367
100
AcDbEntity
  8
ASSI
100
AcDbLine
 62
7
  6
CONTINUOUS
 10
137.3157918235
 20
78.6884274213
 11
146.7910226914
 21
73.2175478707
  0
LINE
  5
368
100
AcDbEntity
  8
SMUSSO
100
AcDbLine
 62
7
  6
CONTINUOUS
 10
153.2256944002
 20
69.5022490715
 11
162.7009252681
 21
64.0313695209
  0
LINE
  5
369
100
AcDbEntity
  8
ASSI
100
AcDbLine
 62
7
  6
CONTINUOUS
 10
153.2256944002
 20
69.5022490715
 11
162.7009252681
 21
64.0313695209
  0
LWPOLYLINE
  5
36A
100
AcDbEntity
  8
SMUSSO
100
AcDbPolyline
 62
7
  6
CONTINUOUS
 90
5
 70
0
 10
99.0613149613
 20
100.7760829204
 10
99.1315893259
 20
100.733094726
 10
99.2011615142
 20
100.6858972135
 10
99.2700315261
 20
100.6344903827
 10
99.3384276347
 20
100.5786721762
  0
LWPOLYLINE
  5
36B
100
AcDbEntity
  8
ASSI
100
AcDbPolyline
 62
7
  6
CONTINUOUS
 90
5
 70
0
 10
99.0613149613
 20
100.7760829204
 10
99.1315893259
 20
100.733094726
 10
99.2011615142
 20
100.6858972135
 10
99.2700315261
 20
100.6344903827
 10
99.3384276347
 20
100.5786721762
  0
LWPOLYLINE
  5
36C
100
AcDbEntity
  8
SMUSSO
100
AcDbPolyline
 62
7
  6
CONTINUOUS
 90
5
 70
0
 10
114.971217538
 20
91.5899045705
 10
115.0414919026
 20
91.5469163762
 10
115.1110640909
 20
91.4997188636
 10
115.1799341028
 20
91.4483120328
 10
115.2483302113
 20
91.3924938264
  0
LWPOLYLINE
  5
36D
100
AcDbEntity
  8
ASSI
100
AcDbPolyline
 62
7
  6
CONTINUOUS
 90
5
 70
0
 10
114.971217538
 20
91.5899045705
 10
115.0414919026
 20
91.5469163762
 10
115.1110640909
 20
91.4997188636
 10
115.1799341028
 20
91.4483120328
 10
115.2483302113
 20
91.3924938264
  0
LWPOLYLINE
  5
36E
100
AcDbEntity
  8
SMUSSO
100
AcDbPolyline
 62
7
  6
CONTINUOUS
 90
5
 70
0
 10
130.8811201147
 20
82.4037262206
 10
130.9513944793
 20
82.3607380263
 10
131.0209666676
 20
82.3135405137
 10
131.0898366795
 20
82.262133683
 10
131.158232788
 20
82.2063154765
  0
LWPOLYLINE
  5
36F
100
AcDbEntity
  8
ASSI
100
AcDbPolyline
 62
7
  6
CONTINUOUS
 90
5
 70
0
 10
130.8811201147
 20
82.4037262206
 10
130.9513944793
 20
82.3607380263
 10
131.0209666676
 20
82.3135405137
 10
131.0898366795
 20
82.262133683
 10
131.158232788
 20
82.2063154765
  0
LWPOLYLINE
  5
370
100
AcDbEntity
  8
SMUSSO
100
AcDbPolyline
 62
7
  6
CONTINUOUS
 90
5
 70
0
 10
146.7910226914
 20
73.2175478707
 10
146.861297056
 20
73.1745596764
 10
146.9308692443
 20
73.1273621639
 10
146.9997392562
 20
73.0759553331
 10
147.0681353647
 20
73.0201371266
  0
LWPOLYLINE
  5
371
100
AcDbEntity
  8
ASSI
100
AcDbPolyline
 62
7
  6
CONTINUOUS
 90
5
 70
0
 10
146.7910226914
 20
73.2175478707
 10
146.861297056
 20
73.1745596764
 10
146.9308692443
 20
73.1273621639
 10
146.9997392562
 20
73.0759553331
 10
147.0681353647
 20
73.0201371266
  0
LWPOLYLINE
  5
372
100
AcDbEntity
  8
SMUSSO
100
AcDbPolyline
 62
7
  6
CONTINUOUS
 90
5
 70
0
 10
162.7009252681
 20
64.0313695209
 10
162.7711996327
 20
63.9883813265
 10
162.840771821
 20
63.941183814
 10
162.9096418329
 20
63.8897769832
 10
162.9780379414
 20
63.8339587767
  0
LWPOLYLINE
  5
373
100
AcDbEntity
  8
ASSI
100
AcDbPolyline
 62
7
  6
CONTINUOUS
 90
5
 70
0
 10
162.7009252681
 20
64.0313695209
 10
162.7711996327
 20
63.9883813265
 10
162.840771821
 20
63.941183814
 10
162.9096418329
 20
63.8897769832
 10
162.9780379414
 20
63.8339587767
  0
LWPOLYLINE
  5
374
100
AcDbEntity
  8
SMUSSO
100
AcDbPolyline
 62
7
  6
CONTINUOUS
 90
20
 70
0
 10
131.158232788
 20
82.2063154765
 10
131.2259267203
 20
82.1462879518
 10
131.2922336574
 20
82.0826572814
 10
131.3571393559
 20
82.0153868557
 10
131.4206580593
 20
81.9445132842
 10
131.4821476794
 20
81.8707525679
 10
131.541587472
 20
81.7940755231
 10
131.5989981813
 20
81.7145113334
 10
131.6537999517
 20
81.6328635507
 10
131.7059662312
 20
81.5491112248
 10
131.7555235719
 20
81.4632753059
 10
131.8019717742
 20
81.3762221965
 10
131.8452793969
 20
81.2879394513
 10
131.8854778813
 20
81.1984395156
 10
131.9221613523
 20
81.1086261286
 10
131.9552942098
 20
81.0184958089
 10
131.9849120538
 20
80.9280520379
 10
132.0107158088
 20
80.838208998
 10
132.0326666226
 20
80.748972696
 10
132.0508033474
 20
80.6603371252
  0
LWPOLYLINE
  5
375
100
AcDbEntity
  8
ASSI
100
AcDbPolyline
 62
7
  6
CONTINUOUS
 90
20
 70
0
 10
131.158232788
 20
82.2063154765
 10
131.2259267203
 20
82.1462879518
 10
131.2922336574
 20
82.0826572814
 10
131.3571393559
 20
82.0153868557
 10
131.4206580593
 20
81.9445132842
 10
131.4821476794
 20
81.8707525679
 10
131.541587472
 20
81.7940755231
 10
131.5989981813
 20
81.7145113334
 10
131.6537999517
 20
81.6328635507
 10
131.7059662312
 20
81.5491112248
 10
131.7555235719
 20
81.4632753059
 10
131.8019717742
 20
81.3762221965
 10
131.8452793969
 20
81.2879394513
 10
131.8854778813
 20
81.1984395156
 10
131.9221613523
 20
81.1086261286
 10
131.9552942098
 20
81.0184958089
 10
131.9849120538
 20
80.9280520379
 10
132.0107158088
 20
80.838208998
 10
132.0326666226
 20
80.748972696
 10
132.0508033474
 20
80.6603371252
  0
LWPOLYLINE
  5
376
100
AcDbEntity
  8
SMUSSO
100
AcDbPolyline
 62
7
  6
CONTINUOUS
 90
5
 70
0
 10
132.0508033474
 20
80.6603371252
 10
132.0649434638
 20
80.573198448
 10
132.0750261319
 20
80.4878553855
 10
132.0811121915
 20
80.4040092166
 10
132.0832016427
 20
80.3216599414
  0
LWPOLYLINE
  5
377
100
AcDbEntity
  8
ASSI
100
AcDbPolyline
 62
7
  6
CONTINUOUS
 90
5
 70
0
 10
132.0508033474
 20
80.6603371252
 10
132.0649434638
 20
80.573198448
 10
132.0750261319
 20
80.4878553855
 10
132.0811121915
 20
80.4040092166
 10
132.0832016427
 20
80.3216599414
  0
LWPOLYLINE
  5
378
100
AcDbEntity
  8
SMUSSO
100
AcDbPolyline
 62
7
  6
CONTINUOUS
 90
28
 70
0
 10
136.9622384329
 20
67.1354479691
 10
136.9636736152
 20
67.077658876
 10
136.9679744896
 20
67.0184060481
 10
136.9751267795
 20
66.9578898062
 10
136.9851066158
 20
66.8963144649
 10
136.9978804719
 20
66.8338885713
 10
137.0134051352
 20
66.7708242381
 10
137.0316282027
 20
66.7073348605
 10
137.0524881494
 20
66.6436352363
 10
137.0759141747
 20
66.5799417999
 10
137.1018269248
 20
66.5164703288
 10
137.1301388154
 20
66.4534353745
 10
137.1607539766
 20
66.3910504142
 10
137.1935687747
 20
66.3295266211
 10
137.2284721949
 20
66.269072132
 10
137.2653461392
 20
66.2098915056
 10
137.3040658992
 20
66.152184913
 10
137.3445003856
 20
66.0961477451
 10
137.3865125586
 20
66.0419699007
 10
137.4299603249
 20
65.9898345825
 10
137.4746965499
 20
65.9399183101
 10
137.5205692991
 20
65.8923905008
 10
137.5674234095
 20
65.847411761
 10
137.6151001848
 20
65.8051342827
 10
137.6634373573
 20
65.7657016995
 10
137.7122710149
 20
65.7292473466
 10
137.761436202
 20
65.6958939864
 10
137.8107665703
 20
65.6657541249
  0
LWPOLYLINE
  5
379
100
AcDbEntity
  8
ASSI
100
AcDbPolyline
 62
7
  6
CONTINUOUS
 90
28
 70
0
 10
136.9622384329
 20
67.1354479691
 10
136.9636736152
 20
67.077658876
 10
136.9679744896
 20
67.0184060481
 10
136.9751267795
 20
66.9578898062
 10
136.9851066158
 20
66.8963144649
 10
136.9978804719
 20
66.8338885713
 10
137.0134051352
 20
66.7708242381
 10
137.0316282027
 20
66.7073348605
 10
137.0524881494
 20
66.6436352363
 10
137.0759141747
 20
66.5799417999
 10
137.1018269248
 20
66.5164703288
 10
137.1301388154
 20
66.4534353745
 10
137.1607539766
 20
66.3910504142
 10
137.1935687747
 20
66.3295266211
 10
137.2284721949
 20
66.269072132
 10
137.2653461392
 20
66.2098915056
 10
137.3040658992
 20
66.152184913
 10
137.3445003856
 20
66.0961477451
 10
137.3865125586
 20
66.0419699007
 10
137.4299603249
 20
65.9898345825
 10
137.4746965499
 20
65.9399183101
 10
137.5205692991
 20
65.8923905008
 10
137.5674234095
 20
65.847411761
 10
137.6151001848
 20
65.8051342827
 10
137.6634373573
 20
65.7657016995
 10
137.7122710149
 20
65.7292473466
 10
137.761436202
 20
65.6958939864
 10
137.8107665703
 20
65.6657541249
  0
LWPOLYLINE
  5
37A
100
AcDbEntity
  8
SMUSSO
100
AcDbPolyline
 62
7
  6
CONTINUOUS
 90
31
 70
0
 10
137.3208686218
 20
67.9082384167
 10
137.3227439688
 20
67.8259141408
 10
137.3282360925
 20
67.7421613629
 10
137.3373449926
 20
67.6569800828
 10
137.350115265
 20
67.5701292238
 10
137.3665023139
 20
67.4818498627
 10
137.3863723526
 20
67.3928652301
 10
137.4097542083
 20
67.3031692457
 10
137.4366190538
 20
67.2127679898
 10
137.4667466211
 20
67.1224029335
 10
137.5001636613
 20
67.032074808
 10
137.5368434232
 20
66.9417828822
 10
137.5764853864
 20
66.8522664337
 10
137.6191136714
 20
66.7635321554
 10
137.6647041577
 20
66.6755733545
 10
137.7128839623
 20
66.5891092295
 10
137.7636742529
 20
66.5041519932
 10
137.8170538618
 20
66.4206894328
 10
137.8725864033
 20
66.3394041086
 10
137.9302898441
 20
66.260313458
 10
137.9901462176
 20
66.1834000437
 10
138.0516652381
 20
66.1092941141
 10
138.1148606731
 20
66.0380187338
 10
138.1797187551
 20
65.9695508381
 10
138.2457078956
 20
65.9044514816
 10
138.3128374569
 20
65.8427484356
 10
138.3810980767
 20
65.7844139288
 10
138.4499300793
 20
65.7299257014
 10
138.519146906
 20
65.6794430001
 10
138.5889351155
 20
65.6328065784
 10
138.6592947077
 20
65.590016436
  0
LWPOLYLINE
  5
37B
100
AcDbEntity
  8
ASSI
100
AcDbPolyline
 62
7
  6
CONTINUOUS
 90
31
 70
0
 10
137.3208686218
 20
67.9082384167
 10
137.3227439688
 20
67.8259141408
 10
137.3282360925
 20
67.7421613629
 10
137.3373449926
 20
67.6569800828
 10
137.350115265
 20
67.5701292238
 10
137.3665023139
 20
67.4818498627
 10
137.3863723526
 20
67.3928652301
 10
137.4097542083
 20
67.3031692457
 10
137.4366190538
 20
67.2127679898
 10
137.4667466211
 20
67.1224029335
 10
137.5001636613
 20
67.032074808
 10
137.5368434232
 20
66.9417828822
 10
137.5764853864
 20
66.8522664337
 10
137.6191136714
 20
66.7635321554
 10
137.6647041577
 20
66.6755733545
 10
137.7128839623
 20
66.5891092295
 10
137.7636742529
 20
66.5041519932
 10
137.8170538618
 20
66.4206894328
 10
137.8725864033
 20
66.3394041086
 10
137.9302898441
 20
66.260313458
 10
137.9901462176
 20
66.1834000437
 10
138.0516652381
 20
66.1092941141
 10
138.1148606731
 20
66.0380187338
 10
138.1797187551
 20
65.9695508381
 10
138.2457078956
 20
65.9044514816
 10
138.3128374569
 20
65.8427484356
 10
138.3810980767
 20
65.7844139288
 10
138.4499300793
 20
65.7299257014
 10
138.519146906
 20
65.6794430001
 10
138.5889351155
 20
65.6328065784
 10
138.6592947077
 20
65.590016436
  0
LINE
  5
37C
100
AcDbEntity
  8
SMUSSO
100
AcDbLine
 62
7
  6
CONTINUOUS
 10
136.1137102955
 20
67.0537930504
 11
136.1137102955
 21
77.9944947594
  0
LINE
  5
37D
100
AcDbEntity
  8
ASSI
100
AcDbLine
 62
7
  6
CONTINUOUS
 10
136.1137102955
 20
67.0537930504
 11
136.1137102955
 21
77.9944947594
  0
LINE
  5
37E
100
AcDbEntity
  8
SMUSSO
100
AcDbLine
 62
7
  6
CONTINUOUS
 10
136.8208170767
 20
67.0537930504
 11
136.8208170767
 21
77.9944947594
  0
LINE
  5
37F
100
AcDbEntity
  8
ASSI
100
AcDbLine
 62
7
  6
CONTINUOUS
 10
136.8208170767
 20
67.0537930504
 11
136.8208170767
 21
77.9944947594
  0
LINE
  5
380
100
AcDbEntity
  8
SMUSSO
100
AcDbLine
 62
7
  6
CONTINUOUS
 10
136.9622384329
 20
78.0761496781
 11
136.9622384329
 21
67.1354479691
  0
LINE
  5
381
100
AcDbEntity
  8
ASSI
100
AcDbLine
 62
7
  6
CONTINUOUS
 10
136.9622384329
 20
78.0761496781
 11
136.9622384329
 21
67.1354479691
  0
LINE
  5
382
100
AcDbEntity
  8
SMUSSO
100
AcDbLine
 62
7
  6
CONTINUOUS
 10
137.3208686218
 20
78.5987342925
 11
137.3208686218
 21
67.9082384167
  0
LINE
  5
383
100
AcDbEntity
  8
ASSI
100
AcDbLine
 62
7
  6
CONTINUOUS
 10
137.3208686218
 20
78.5987342925
 11
137.3208686218
 21
67.9082384167
  0
LWPOLYLINE
  5
384
100
AcDbEntity
  8
SMUSSO
100
AcDbPolyline
 62
7
  6
CONTINUOUS
 90
12
 70
0
 10
136.8208170767
 20
77.9944947594
 10
136.8222522336
 20
78.0506260531
 10
136.8265530482
 20
78.1049120333
 10
136.8337052676
 20
78.1571688531
 10
136.8436850602
 20
78.2072198032
 10
136.8564589161
 20
78.2548949695
 10
136.8719835852
 20
78.300031962
 10
136.8902066216
 20
78.3424778292
 10
136.9110665204
 20
78.382088912
 10
136.9344925224
 20
78.4187306103
 10
136.9604053237
 20
78.4522788197
 10
136.9887173139
 20
78.4826200595
  0
LWPOLYLINE
  5
385
100
AcDbEntity
  8
ASSI
100
AcDbPolyline
 62
7
  6
CONTINUOUS
 90
12
 70
0
 10
136.8208170767
 20
77.9944947594
 10
136.8222522336
 20
78.0506260531
 10
136.8265530482
 20
78.1049120333
 10
136.8337052676
 20
78.1571688531
 10
136.8436850602
 20
78.2072198032
 10
136.8564589161
 20
78.2548949695
 10
136.8719835852
 20
78.300031962
 10
136.8902066216
 20
78.3424778292
 10
136.9110665204
 20
78.382088912
 10
136.9344925224
 20
78.4187306103
 10
136.9604053237
 20
78.4522788197
 10
136.9887173139
 20
78.4826200595
  0
LWPOLYLINE
  5
386
100
AcDbEntity
  8
SMUSSO
100
AcDbPolyline
 62
7
  6
CONTINUOUS
 90
28
 70
0
 10
136.1137102955
 20
77.9944947594
 10
136.115799785
 20
78.0744315468
 10
136.1218858906
 20
78.1512499609
 10
136.1319686122
 20
78.2249500018
 10
136.1461087949
 20
78.2957601165
 10
136.1642455937
 20
78.363451858
 10
136.1861964734
 20
78.4273398846
 10
136.2120002621
 20
78.4873853309
 10
136.2416181317
 20
78.5436270624
 10
136.2747510623
 20
78.5954963335
 10
136.3114347017
 20
78.6429486093
 10
136.3516334022
 20
78.6860284247
 10
136.3949412007
 20
78.7243006398
 10
136.4413895187
 20
78.7577164536
 10
136.4909469348
 20
78.786324667
 10
136.543113222
 20
78.809836543
 10
136.5979148811
 20
78.8282004761
 10
136.6553254114
 20
78.8414680716
 10
136.7147650839
 20
78.8495054087
 10
136.7762547152
 20
78.8522593621
 10
136.8397734888
 20
78.849783057
 10
136.9046792259
 20
78.8421019477
 10
136.9709861524
 20
78.8291629594
 10
137.0386800426
 20
78.8110191668
 10
137.1070760404
 20
78.7878552488
 10
137.1759458605
 20
78.7597327651
 10
137.2455177882
 20
78.7265901559
 10
137.3157918235
 20
78.6884274213
  0
LWPOLYLINE
  5
387
100
AcDbEntity
  8
ASSI
100
AcDbPolyline
 62
7
  6
CONTINUOUS
 90
28
 70
0
 10
136.1137102955
 20
77.9944947594
 10
136.115799785
 20
78.0744315468
 10
136.1218858906
 20
78.1512499609
 10
136.1319686122
 20
78.2249500018
 10
136.1461087949
 20
78.2957601165
 10
136.1642455937
 20
78.363451858
 10
136.1861964734
 20
78.4273398846
 10
136.2120002621
 20
78.4873853309
 10
136.2416181317
 20
78.5436270624
 10
136.2747510623
 20
78.5954963335
 10
136.3114347017
 20
78.6429486093
 10
136.3516334022
 20
78.6860284247
 10
136.3949412007
 20
78.7243006398
 10
136.4413895187
 20
78.7577164536
 10
136.4909469348
 20
78.786324667
 10
136.543113222
 20
78.809836543
 10
136.5979148811
 20
78.8282004761
 10
136.6553254114
 20
78.8414680716
 10
136.7147650839
 20
78.8495054087
 10
136.7762547152
 20
78.8522593621
 10
136.8397734888
 20
78.849783057
 10
136.9046792259
 20
78.8421019477
 10
136.9709861524
 20
78.8291629594
 10
137.0386800426
 20
78.8110191668
 10
137.1070760404
 20
78.7878552488
 10
137.1759458605
 20
78.7597327651
 10
137.2455177882
 20
78.7265901559
 10
137.3157918235
 20
78.6884274213
  0
LWPOLYLINE
  5
388
100
AcDbEntity
  8
SMUSSO
100
AcDbPolyline
 62
7
  6
CONTINUOUS
 90
8
 70
0
 10
137.0180869514
 20
78.393480552
 10
137.0134049561
 20
78.3816869189
 10
136.9978802892
 20
78.3365499435
 10
136.985106431
 20
78.2888747845
 10
136.9751266341
 20
78.2388238333
 10
136.96797441
 20
78.1865670037
 10
136.9636735915
 20
78.1322810033
 10
136.9622384329
 20
78.0761496781
  0
LWPOLYLINE
  5
389
100
AcDbEntity
  8
ASSI
100
AcDbPolyline
 62
7
  6
CONTINUOUS
 90
8
 70
0
 10
137.0180869514
 20
78.393480552
 10
137.0134049561
 20
78.3816869189
 10
136.9978802892
 20
78.3365499435
 10
136.985106431
 20
78.2888747845
 10
136.9751266341
 20
78.2388238333
 10
136.96797441
 20
78.1865670037
 10
136.9636735915
 20
78.1322810033
 10
136.9622384329
 20
78.0761496781
  0
LINE
  5
38A
100
AcDbEntity
  8
SMUSSO
100
AcDbLine
 62
250
  6
CONTINUOUS
 10
137.2016474447
 20
78.5920376406
 11
136.9622384329
 21
78.0761496781
  0
LINE
  5
38B
100
AcDbEntity
  8
ASSI
100
AcDbLine
 62
250
  6
CONTINUOUS
 10
137.2016474447
 20
78.5920376406
 11
136.9622384329
 21
78.0761496781
  0
LINE
  5
38C
100
AcDbEntity
  8
SMUSSO
100
AcDbLine
 62
250
  6
CONTINUOUS
 10
137.3208686218
 20
67.9082384167
 11
136.9622384329
 21
67.1354479691
  0
LINE
  5
38D
100
AcDbEntity
  8
ASSI
100
AcDbLine
 62
250
  6
CONTINUOUS
 10
137.3208686218
 20
67.9082384167
 11
136.9622384329
 21
67.1354479691
  0
LWPOLYLINE
  5
38E
100
AcDbEntity
  8
SMUSSO
100
AcDbPolyline
 62
7
  6
CONTINUOUS
 90
3
 70
0
 10
137.0524878594
 20
78.4637438011
 10
137.031627981
 20
78.4241327545
 10
137.0180869514
 20
78.393480552
  0
LWPOLYLINE
  5
38F
100
AcDbEntity
  8
ASSI
100
AcDbPolyline
 62
7
  6
CONTINUOUS
 90
3
 70
0
 10
137.0524878594
 20
78.4637438011
 10
137.031627981
 20
78.4241327545
 10
137.0180869514
 20
78.393480552
  0
LINE
  5
390
100
AcDbEntity
  8
SMUSSO
100
AcDbLine
 62
250
  6
CONTINUOUS
 10
130.8811201147
 20
68.6870255705
 11
131.2346735053
 21
69.2993980056
  0
LINE
  5
391
100
AcDbEntity
  8
ASSI
100
AcDbLine
 62
250
  6
CONTINUOUS
 10
130.8811201147
 20
68.6870255705
 11
131.2346735053
 21
69.2993980056
  0
LINE
  5
392
100
AcDbEntity
  8
SMUSSO
100
AcDbLine
 62
250
  6
CONTINUOUS
 10
131.2346735053
 20
69.2993980056
 11
131.3760948615
 21
69.3810529242
  0
LINE
  5
393
100
AcDbEntity
  8
ASSI
100
AcDbLine
 62
250
  6
CONTINUOUS
 10
131.2346735053
 20
69.2993980056
 11
131.3760948615
 21
69.3810529242
  0
LWPOLYLINE
  5
394
100
AcDbEntity
  8
SMUSSO
100
AcDbPolyline
 62
7
  6
CONTINUOUS
 90
15
 70
0
 10
131.8347024975
 20
69.2399485923
 10
131.8169680213
 20
69.2302971356
 10
131.7800941506
 20
69.2136976276
 10
131.7413744785
 20
69.2007036448
 10
131.700940094
 20
69.1913591965
 10
131.6589279813
 20
69.1856959242
 10
131.615480161
 20
69.1837329572
 10
131.5707438266
 20
69.1854769311
 10
131.5248710606
 20
69.1909218021
 10
131.4780171802
 20
69.2000489399
 10
131.4303407441
 20
69.2128272667
 10
131.3820037262
 20
69.2292131211
 10
131.3331699309
 20
69.2491506437
 10
131.2840044076
 20
69.2725721217
 10
131.2346735053
 20
69.2993980056
  0
LWPOLYLINE
  5
395
100
AcDbEntity
  8
ASSI
100
AcDbPolyline
 62
7
  6
CONTINUOUS
 90
15
 70
0
 10
131.8347024975
 20
69.2399485923
 10
131.8169680213
 20
69.2302971356
 10
131.7800941506
 20
69.2136976276
 10
131.7413744785
 20
69.2007036448
 10
131.700940094
 20
69.1913591965
 10
131.6589279813
 20
69.1856959242
 10
131.615480161
 20
69.1837329572
 10
131.5707438266
 20
69.1854769311
 10
131.5248710606
 20
69.1909218021
 10
131.4780171802
 20
69.2000489399
 10
131.4303407441
 20
69.2128272667
 10
131.3820037262
 20
69.2292131211
 10
131.3331699309
 20
69.2491506437
 10
131.2840044076
 20
69.2725721217
 10
131.2346735053
 20
69.2993980056
  0
LINE
  5
396
100
AcDbEntity
  8
SMUSSO
100
AcDbLine
 62
250
  6
CONTINUOUS
 10
120.2038077188
 20
87.1806731093
 11
120.9109145
 21
87.1806731093
  0
LINE
  5
397
100
AcDbEntity
  8
ASSI
100
AcDbLine
 62
250
  6
CONTINUOUS
 10
120.2038077188
 20
87.1806731093
 11
120.9109145
 21
87.1806731093
  0
LINE
  5
398
100
AcDbEntity
  8
SMUSSO
100
AcDbLine
 62
250
  6
CONTINUOUS
 10
90.9295869777
 20
93.1485514856
 11
90.0810588402
 21
93.2242891746
  0
LINE
  5
399
100
AcDbEntity
  8
ASSI
100
AcDbLine
 62
250
  6
CONTINUOUS
 10
90.9295869777
 20
93.1485514856
 11
90.0810588402
 21
93.2242891746
  0
LWPOLYLINE
  5
39A
100
AcDbEntity
  8
SMUSSO
100
AcDbPolyline
 62
7
  6
CONTINUOUS
 90
20
 70
0
 10
147.0681353647
 20
73.0201371266
 10
147.135829297
 20
72.9601096019
 10
147.2021362341
 20
72.8964789315
 10
147.2670419326
 20
72.8292085058
 10
147.330560636
 20
72.7583349343
 10
147.3920502561
 20
72.684574218
 10
147.4514900487
 20
72.6078971732
 10
147.508900758
 20
72.5283329835
 10
147.5637025284
 20
72.4466852008
 10
147.6158688079
 20
72.3629328749
 10
147.6654261486
 20
72.277096956
 10
147.7118743509
 20
72.1900438467
 10
147.7551819736
 20
72.1017611014
 10
147.795380458
 20
72.0122611658
 10
147.832063929
 20
71.9224477787
 10
147.8651967865
 20
71.832317459
 10
147.8948146305
 20
71.741873688
 10
147.9206183855
 20
71.6520306481
 10
147.9425691993
 20
71.5627943461
 10
147.9607059241
 20
71.4741587753
  0
LWPOLYLINE
  5
39B
100
AcDbEntity
  8
ASSI
100
AcDbPolyline
 62
7
  6
CONTINUOUS
 90
20
 70
0
 10
147.0681353647
 20
73.0201371266
 10
147.135829297
 20
72.9601096019
 10
147.2021362341
 20
72.8964789315
 10
147.2670419326
 20
72.8292085058
 10
147.330560636
 20
72.7583349343
 10
147.3920502561
 20
72.684574218
 10
147.4514900487
 20
72.6078971732
 10
147.508900758
 20
72.5283329835
 10
147.5637025284
 20
72.4466852008
 10
147.6158688079
 20
72.3629328749
 10
147.6654261486
 20
72.277096956
 10
147.7118743509
 20
72.1900438467
 10
147.7551819736
 20
72.1017611014
 10
147.795380458
 20
72.0122611658
 10
147.832063929
 20
71.9224477787
 10
147.8651967865
 20
71.832317459
 10
147.8948146305
 20
71.741873688
 10
147.9206183855
 20
71.6520306481
 10
147.9425691993
 20
71.5627943461
 10
147.9607059241
 20
71.4741587753
  0
LWPOLYLINE
  5
39C
100
AcDbEntity
  8
SMUSSO
100
AcDbPolyline
 62
7
  6
CONTINUOUS
 90
20
 70
0
 10
162.9780379414
 20
63.8339587767
 10
163.0457318737
 20
63.7739312521
 10
163.1120388108
 20
63.7103005816
 10
163.1769445093
 20
63.6430301559
 10
163.2404632127
 20
63.5721565844
 10
163.3019528328
 20
63.4983958681
 10
163.3613926254
 20
63.4217188233
 10
163.4188033347
 20
63.3421546336
 10
163.4736051051
 20
63.2605068509
 10
163.5257713846
 20
63.176754525
 10
163.5753287252
 20
63.0909186061
 10
163.6217769276
 20
63.0038654968
 10
163.6650845503
 20
62.9155827515
 10
163.7052830347
 20
62.8260828159
 10
163.7419665057
 20
62.7362694288
 10
163.7750993632
 20
62.6461391092
 10
163.8047172072
 20
62.5556953381
 10
163.8305209622
 20
62.4658522982
 10
163.852471776
 20
62.3766159962
 10
163.8706085008
 20
62.2879804254
  0
LWPOLYLINE
  5
39D
100
AcDbEntity
  8
ASSI
100
AcDbPolyline
 62
7
  6
CONTINUOUS
 90
20
 70
0
 10
162.9780379414
 20
63.8339587767
 10
163.0457318737
 20
63.7739312521
 10
163.1120388108
 20
63.7103005816
 10
163.1769445093
 20
63.6430301559
 10
163.2404632127
 20
63.5721565844
 10
163.3019528328
 20
63.4983958681
 10
163.3613926254
 20
63.4217188233
 10
163.4188033347
 20
63.3421546336
 10
163.4736051051
 20
63.2605068509
 10
163.5257713846
 20
63.176754525
 10
163.5753287252
 20
63.0909186061
 10
163.6217769276
 20
63.0038654968
 10
163.6650845503
 20
62.9155827515
 10
163.7052830347
 20
62.8260828159
 10
163.7419665057
 20
62.7362694288
 10
163.7750993632
 20
62.6461391092
 10
163.8047172072
 20
62.5556953381
 10
163.8305209622
 20
62.4658522982
 10
163.852471776
 20
62.3766159962
 10
163.8706085008
 20
62.2879804254
  0
LINE
  5
39E
100
AcDbEntity
  8
ASSI
100
AcDbLine
 62
7
  6
CONTINUOUS
 10
182.3262765348
 20
10.0751665181
 11
182.326638965
 21
10.0745250804
  0
LINE
  5
39F
100
AcDbEntity
  8
SMUSSO
100
AcDbLine
 62
250
  6
CONTINUOUS
 10
137.3157918235
 20
64.9717267712
 11
137.6693452141
 21
65.5840992063
  0
LINE
  5
3A0
100
AcDbEntity
  8
ASSI
100
AcDbLine
 62
250
  6
CONTINUOUS
 10
137.3157918235
 20
64.9717267712
 11
137.6693452141
 21
65.5840992063
  0
LINE
  5
3A1
100
AcDbEntity
  8
SMUSSO
100
AcDbLine
 62
250
  6
CONTINUOUS
 10
136.8208170767
 20
67.0537930504
 11
136.9622384329
 21
67.1354479691
  0
LINE
  5
3A2
100
AcDbEntity
  8
ASSI
100
AcDbLine
 62
250
  6
CONTINUOUS
 10
136.8208170767
 20
67.0537930504
 11
136.9622384329
 21
67.1354479691
  0
LINE
  5
3A3
100
AcDbEntity
  8
SMUSSO
100
AcDbLine
 62
250
  6
CONTINUOUS
 10
137.6693452141
 20
65.5840992063
 11
137.8107665703
 21
65.6657541249
  0
LINE
  5
3A4
100
AcDbEntity
  8
ASSI
100
AcDbLine
 62
250
  6
CONTINUOUS
 10
137.6693452141
 20
65.5840992063
 11
137.8107665703
 21
65.6657541249
  0
LINE
  5
3A5
100
AcDbEntity
  8
SMUSSO
100
AcDbLine
 62
250
  6
CONTINUOUS
 10
88.3840025654
 20
94.6123281
 11
89.0911093466
 21
94.6123281
  0
LINE
  5
3A6
100
AcDbEntity
  8
ASSI
100
AcDbLine
 62
250
  6
CONTINUOUS
 10
88.3840025654
 20
94.6123281
 11
89.0911093466
 21
94.6123281
  0
LINE
  5
3A7
100
AcDbEntity
  8
SMUSSO
100
AcDbLine
 62
250
  6
CONTINUOUS
 10
104.2939051421
 20
96.3668514592
 11
105.0010119233
 21
96.3668514592
  0
LINE
  5
3A8
100
AcDbEntity
  8
ASSI
100
AcDbLine
 62
250
  6
CONTINUOUS
 10
104.2939051421
 20
96.3668514592
 11
105.0010119233
 21
96.3668514592
  0
LWPOLYLINE
  5
3A9
100
AcDbEntity
  8
SMUSSO
100
AcDbPolyline
 62
7
  6
CONTINUOUS
 90
5
 70
0
 10
147.9607059241
 20
71.4741587753
 10
147.9748460405
 20
71.3870200982
 10
147.9849287086
 20
71.3016770356
 10
147.9910147682
 20
71.2178308667
 10
147.9931042194
 20
71.1354815915
  0
LWPOLYLINE
  5
3AA
100
AcDbEntity
  8
ASSI
100
AcDbPolyline
 62
7
  6
CONTINUOUS
 90
5
 70
0
 10
147.9607059241
 20
71.4741587753
 10
147.9748460405
 20
71.3870200982
 10
147.9849287086
 20
71.3016770356
 10
147.9910147682
 20
71.2178308667
 10
147.9931042194
 20
71.1354815915
  0
LWPOLYLINE
  5
3AB
100
AcDbEntity
  8
SMUSSO
100
AcDbPolyline
 62
7
  6
CONTINUOUS
 90
28
 70
0
 10
152.8721410096
 20
57.9492696192
 10
152.8735761919
 20
57.8914805261
 10
152.8778770663
 20
57.8322276983
 10
152.8850293562
 20
57.7717114563
 10
152.8950091925
 20
57.710136115
 10
152.9077830486
 20
57.6477102214
 10
152.9233077119
 20
57.5846458883
 10
152.9415307794
 20
57.5211565106
 10
152.9623907261
 20
57.4574568864
 10
152.9858167514
 20
57.39376345
 10
153.0117295015
 20
57.3302919789
 10
153.0400413921
 20
57.2672570247
 10
153.0706565533
 20
57.2048720643
 10
153.1034713514
 20
57.1433482712
 10
153.1383747716
 20
57.0828937821
 10
153.1752487159
 20
57.0237131557
 10
153.2139684759
 20
56.9660065631
 10
153.2544029623
 20
56.9099693952
 10
153.2964151353
 20
56.8557915508
 10
153.3398629016
 20
56.8036562327
 10
153.3845991266
 20
56.7537399602
 10
153.4304718758
 20
56.7062121509
 10
153.4773259862
 20
56.6612334111
 10
153.5250027615
 20
56.6189559329
 10
153.573339934
 20
56.5795233497
 10
153.6221735916
 20
56.5430689968
 10
153.6713387787
 20
56.5097156365
 10
153.720669147
 20
56.4795757751
  0
LWPOLYLINE
  5
3AC
100
AcDbEntity
  8
ASSI
100
AcDbPolyline
 62
7
  6
CONTINUOUS
 90
28
 70
0
 10
152.8721410096
 20
57.9492696192
 10
152.8735761919
 20
57.8914805261
 10
152.8778770663
 20
57.8322276983
 10
152.8850293562
 20
57.7717114563
 10
152.8950091925
 20
57.710136115
 10
152.9077830486
 20
57.6477102214
 10
152.9233077119
 20
57.5846458883
 10
152.9415307794
 20
57.5211565106
 10
152.9623907261
 20
57.4574568864
 10
152.9858167514
 20
57.39376345
 10
153.0117295015
 20
57.3302919789
 10
153.0400413921
 20
57.2672570247
 10
153.0706565533
 20
57.2048720643
 10
153.1034713514
 20
57.1433482712
 10
153.1383747716
 20
57.0828937821
 10
153.1752487159
 20
57.0237131557
 10
153.2139684759
 20
56.9660065631
 10
153.2544029623
 20
56.9099693952
 10
153.2964151353
 20
56.8557915508
 10
153.3398629016
 20
56.8036562327
 10
153.3845991266
 20
56.7537399602
 10
153.4304718758
 20
56.7062121509
 10
153.4773259862
 20
56.6612334111
 10
153.5250027615
 20
56.6189559329
 10
153.573339934
 20
56.5795233497
 10
153.6221735916
 20
56.5430689968
 10
153.6713387787
 20
56.5097156365
 10
153.720669147
 20
56.4795757751
  0
LWPOLYLINE
  5
3AD
100
AcDbEntity
  8
SMUSSO
100
AcDbPolyline
 62
7
  6
CONTINUOUS
 90
31
 70
0
 10
153.2307711985
 20
58.7220600668
 10
153.2326465455
 20
58.639735791
 10
153.2381386692
 20
58.555983013
 10
153.2472475693
 20
58.4708017329
 10
153.2600178417
 20
58.383950874
 10
153.2764048906
 20
58.2956715129
 10
153.2962749293
 20
58.2066868802
 10
153.319656785
 20
58.1169908958
 10
153.3465216305
 20
58.0265896399
 10
153.3766491978
 20
57.9362245836
 10
153.4100662379
 20
57.8458964581
 10
153.4467459999
 20
57.7556045323
 10
153.4863879631
 20
57.6660880838
 10
153.5290162481
 20
57.5773538056
 10
153.5746067344
 20
57.4893950047
 10
153.622786539
 20
57.4029308797
 10
153.6735768296
 20
57.3179736433
 10
153.7269564384
 20
57.2345110829
 10
153.78248898
 20
57.1532257587
 10
153.8401924208
 20
57.0741351081
 10
153.9000487943
 20
56.9972216939
 10
153.9615678148
 20
56.9231157642
 10
154.0247632498
 20
56.8518403839
 10
154.0896213318
 20
56.7833724882
 10
154.1556104723
 20
56.7182731317
 10
154.2227400336
 20
56.6565700857
 10
154.2910006534
 20
56.5982355789
 10
154.359832656
 20
56.5437473515
 10
154.4290494827
 20
56.4932646503
 10
154.4988376922
 20
56.4466282285
 10
154.5691972844
 20
56.4038380861
  0
LWPOLYLINE
  5
3AE
100
AcDbEntity
  8
ASSI
100
AcDbPolyline
 62
7
  6
CONTINUOUS
 90
31
 70
0
 10
153.2307711985
 20
58.7220600668
 10
153.2326465455
 20
58.639735791
 10
153.2381386692
 20
58.555983013
 10
153.2472475693
 20
58.4708017329
 10
153.2600178417
 20
58.383950874
 10
153.2764048906
 20
58.2956715129
 10
153.2962749293
 20
58.2066868802
 10
153.319656785
 20
58.1169908958
 10
153.3465216305
 20
58.0265896399
 10
153.3766491978
 20
57.9362245836
 10
153.4100662379
 20
57.8458964581
 10
153.4467459999
 20
57.7556045323
 10
153.4863879631
 20
57.6660880838
 10
153.5290162481
 20
57.5773538056
 10
153.5746067344
 20
57.4893950047
 10
153.622786539
 20
57.4029308797
 10
153.6735768296
 20
57.3179736433
 10
153.7269564384
 20
57.2345110829
 10
153.78248898
 20
57.1532257587
 10
153.8401924208
 20
57.0741351081
 10
153.9000487943
 20
56.9972216939
 10
153.9615678148
 20
56.9231157642
 10
154.0247632498
 20
56.8518403839
 10
154.0896213318
 20
56.7833724882
 10
154.1556104723
 20
56.7182731317
 10
154.2227400336
 20
56.6565700857
 10
154.2910006534
 20
56.5982355789
 10
154.359832656
 20
56.5437473515
 10
154.4290494827
 20
56.4932646503
 10
154.4988376922
 20
56.4466282285
 10
154.5691972844
 20
56.4038380861
  0
LINE
  5
3AF
100
AcDbEntity
  8
SMUSSO
100
AcDbLine
 62
7
  6
CONTINUOUS
 10
147.9931042194
 20
71.1354815915
 11
147.9931042194
 21
60.1947798825
  0
LINE
  5
3B0
100
AcDbEntity
  8
ASSI
100
AcDbLine
 62
7
  6
CONTINUOUS
 10
147.9931042194
 20
71.1354815915
 11
147.9931042194
 21
60.1947798825
  0
LINE
  5
3B1
100
AcDbEntity
  8
SMUSSO
100
AcDbLine
 62
7
  6
CONTINUOUS
 10
152.0236128722
 20
57.8676147005
 11
152.0236128722
 21
68.8083164096
  0
LINE
  5
3B2
100
AcDbEntity
  8
ASSI
100
AcDbLine
 62
7
  6
CONTINUOUS
 10
152.0236128722
 20
57.8676147005
 11
152.0236128722
 21
68.8083164096
  0
LINE
  5
3B3
100
AcDbEntity
  8
SMUSSO
100
AcDbLine
 62
7
  6
CONTINUOUS
 10
152.7307196534
 20
57.8676147005
 11
152.7307196534
 21
68.8083164096
  0
LINE
  5
3B4
100
AcDbEntity
  8
ASSI
100
AcDbLine
 62
7
  6
CONTINUOUS
 10
152.7307196534
 20
57.8676147005
 11
152.7307196534
 21
68.8083164096
  0
LINE
  5
3B5
100
AcDbEntity
  8
SMUSSO
100
AcDbLine
 62
7
  6
CONTINUOUS
 10
152.8721410096
 20
68.8899713282
 11
152.8721410096
 21
57.9492696192
  0
LINE
  5
3B6
100
AcDbEntity
  8
ASSI
100
AcDbLine
 62
7
  6
CONTINUOUS
 10
152.8721410096
 20
68.8899713282
 11
152.8721410096
 21
57.9492696192
  0
LINE
  5
3B7
100
AcDbEntity
  8
SMUSSO
100
AcDbLine
 62
7
  6
CONTINUOUS
 10
153.2307711985
 20
69.4125559426
 11
153.2307711985
 21
58.7220600668
  0
LINE
  5
3B8
100
AcDbEntity
  8
ASSI
100
AcDbLine
 62
7
  6
CONTINUOUS
 10
153.2307711985
 20
69.4125559426
 11
153.2307711985
 21
58.7220600668
  0
LWPOLYLINE
  5
3B9
100
AcDbEntity
  8
SMUSSO
100
AcDbPolyline
 62
7
  6
CONTINUOUS
 90
15
 70
0
 10
147.9931042194
 20
60.6030544758
 10
147.9916690624
 20
60.5469231822
 10
147.9873682479
 20
60.492637202
 10
147.9802160285
 20
60.4403803822
 10
147.9702362358
 20
60.3903294321
 10
147.95746238
 20
60.3426542657
 10
147.9419377109
 20
60.2975172733
 10
147.9237146745
 20
60.2550714061
 10
147.9028547757
 20
60.2154603232
 10
147.8794287737
 20
60.178818625
 10
147.8535159724
 20
60.1452704156
 10
147.8252039822
 20
60.1149291758
 10
147.794588748
 20
60.0878977526
 10
147.7617739579
 20
60.06426766
 10
147.7446050742
 20
60.0537702425
  0
LWPOLYLINE
  5
3BA
100
AcDbEntity
  8
ASSI
100
AcDbPolyline
 62
7
  6
CONTINUOUS
 90
15
 70
0
 10
147.9931042194
 20
60.6030544758
 10
147.9916690624
 20
60.5469231822
 10
147.9873682479
 20
60.492637202
 10
147.9802160285
 20
60.4403803822
 10
147.9702362358
 20
60.3903294321
 10
147.95746238
 20
60.3426542657
 10
147.9419377109
 20
60.2975172733
 10
147.9237146745
 20
60.2550714061
 10
147.9028547757
 20
60.2154603232
 10
147.8794287737
 20
60.178818625
 10
147.8535159724
 20
60.1452704156
 10
147.8252039822
 20
60.1149291758
 10
147.794588748
 20
60.0878977526
 10
147.7617739579
 20
60.06426766
 10
147.7446050742
 20
60.0537702425
  0
LWPOLYLINE
  5
3BB
100
AcDbEntity
  8
SMUSSO
100
AcDbPolyline
 62
7
  6
CONTINUOUS
 90
12
 70
0
 10
152.7307196534
 20
68.8083164096
 10
152.7321548103
 20
68.8644477032
 10
152.7364556249
 20
68.9187336834
 10
152.7436078443
 20
68.9709905032
 10
152.7535876369
 20
69.0210414533
 10
152.7663614928
 20
69.0687166197
 10
152.7818861619
 20
69.1138536121
 10
152.8001091983
 20
69.1562994793
 10
152.8209690971
 20
69.1959105622
 10
152.8443950991
 20
69.2325522604
 10
152.8703079004
 20
69.2661004698
 10
152.8986198906
 20
69.2964417096
  0
LWPOLYLINE
  5
3BC
100
AcDbEntity
  8
ASSI
100
AcDbPolyline
 62
7
  6
CONTINUOUS
 90
12
 70
0
 10
152.7307196534
 20
68.8083164096
 10
152.7321548103
 20
68.8644477032
 10
152.7364556249
 20
68.9187336834
 10
152.7436078443
 20
68.9709905032
 10
152.7535876369
 20
69.0210414533
 10
152.7663614928
 20
69.0687166197
 10
152.7818861619
 20
69.1138536121
 10
152.8001091983
 20
69.1562994793
 10
152.8209690971
 20
69.1959105622
 10
152.8443950991
 20
69.2325522604
 10
152.8703079004
 20
69.2661004698
 10
152.8986198906
 20
69.2964417096
  0
LWPOLYLINE
  5
3BD
100
AcDbEntity
  8
SMUSSO
100
AcDbPolyline
 62
7
  6
CONTINUOUS
 90
28
 70
0
 10
147.9931042194
 20
60.1947798825
 10
147.9910147299
 20
60.1148430951
 10
147.9849286243
 20
60.038024681
 10
147.9748459027
 20
59.9643246402
 10
147.9607057199
 20
59.8935145254
 10
147.9425689212
 20
59.825822784
 10
147.9206180415
 20
59.7619347574
 10
147.8948142528
 20
59.701889311
 10
147.8651963832
 20
59.6456475796
 10
147.8320634526
 20
59.5937783084
 10
147.7953798132
 20
59.5463260327
 10
147.7551811127
 20
59.5032462173
 10
147.7118733142
 20
59.4649740022
 10
147.6654249962
 20
59.4315581884
 10
147.6158675801
 20
59.4029499749
 10
147.5637012928
 20
59.379438099
 10
147.5088996337
 20
59.3610741659
 10
147.4514891035
 20
59.3478065703
 10
147.392049431
 20
59.3397692333
 10
147.3305597997
 20
59.3370152798
 10
147.2670410261
 20
59.3394915849
 10
147.202135289
 20
59.3471726942
 10
147.1358283624
 20
59.3601116826
 10
147.0681344723
 20
59.3782554751
 10
146.9997384745
 20
59.4014193931
 10
146.9308686544
 20
59.4295418769
 10
146.8612967267
 20
59.462684486
 10
146.7910226914
 20
59.5008472206
  0
LWPOLYLINE
  5
3BE
100
AcDbEntity
  8
ASSI
100
AcDbPolyline
 62
7
  6
CONTINUOUS
 90
28
 70
0
 10
147.9931042194
 20
60.1947798825
 10
147.9910147299
 20
60.1148430951
 10
147.9849286243
 20
60.038024681
 10
147.9748459027
 20
59.9643246402
 10
147.9607057199
 20
59.8935145254
 10
147.9425689212
 20
59.825822784
 10
147.9206180415
 20
59.7619347574
 10
147.8948142528
 20
59.701889311
 10
147.8651963832
 20
59.6456475796
 10
147.8320634526
 20
59.5937783084
 10
147.7953798132
 20
59.5463260327
 10
147.7551811127
 20
59.5032462173
 10
147.7118733142
 20
59.4649740022
 10
147.6654249962
 20
59.4315581884
 10
147.6158675801
 20
59.4029499749
 10
147.5637012928
 20
59.379438099
 10
147.5088996337
 20
59.3610741659
 10
147.4514891035
 20
59.3478065703
 10
147.392049431
 20
59.3397692333
 10
147.3305597997
 20
59.3370152798
 10
147.2670410261
 20
59.3394915849
 10
147.202135289
 20
59.3471726942
 10
147.1358283624
 20
59.3601116826
 10
147.0681344723
 20
59.3782554751
 10
146.9997384745
 20
59.4014193931
 10
146.9308686544
 20
59.4295418769
 10
146.8612967267
 20
59.462684486
 10
146.7910226914
 20
59.5008472206
  0
LWPOLYLINE
  5
3BF
100
AcDbEntity
  8
SMUSSO
100
AcDbPolyline
 62
7
  6
CONTINUOUS
 90
28
 70
0
 10
152.0236128722
 20
68.8083164096
 10
152.0257023617
 20
68.888253197
 10
152.0317884673
 20
68.9650716111
 10
152.0418711889
 20
69.0387716519
 10
152.0560113716
 20
69.1095817666
 10
152.0741481704
 20
69.1772735081
 10
152.0960990501
 20
69.2411615347
 10
152.1219028388
 20
69.301206981
 10
152.1515207084
 20
69.3574487125
 10
152.184653639
 20
69.4093179837
 10
152.2213372784
 20
69.4567702594
 10
152.2615359788
 20
69.4998500748
 10
152.3048437774
 20
69.5381222899
 10
152.3512920954
 20
69.5715381037
 10
152.4008495115
 20
69.6001463171
 10
152.4530157987
 20
69.6236581931
 10
152.5078174578
 20
69.6420221262
 10
152.5652279881
 20
69.6552897218
 10
152.6246676606
 20
69.6633270588
 10
152.6861572919
 20
69.6660810122
 10
152.7496760654
 20
69.6636047071
 10
152.8145818026
 20
69.6559235978
 10
152.8808887291
 20
69.6429846095
 10
152.9485826193
 20
69.6248408169
 10
153.0169786171
 20
69.601676899
 10
153.0858484372
 20
69.5735544152
 10
153.1554203649
 20
69.540411806
 10
153.2256944002
 20
69.5022490715
  0
LWPOLYLINE
  5
3C0
100
AcDbEntity
  8
ASSI
100
AcDbPolyline
 62
7
  6
CONTINUOUS
 90
28
 70
0
 10
152.0236128722
 20
68.8083164096
 10
152.0257023617
 20
68.888253197
 10
152.0317884673
 20
68.9650716111
 10
152.0418711889
 20
69.0387716519
 10
152.0560113716
 20
69.1095817666
 10
152.0741481704
 20
69.1772735081
 10
152.0960990501
 20
69.2411615347
 10
152.1219028388
 20
69.301206981
 10
152.1515207084
 20
69.3574487125
 10
152.184653639
 20
69.4093179837
 10
152.2213372784
 20
69.4567702594
 10
152.2615359788
 20
69.4998500748
 10
152.3048437774
 20
69.5381222899
 10
152.3512920954
 20
69.5715381037
 10
152.4008495115
 20
69.6001463171
 10
152.4530157987
 20
69.6236581931
 10
152.5078174578
 20
69.6420221262
 10
152.5652279881
 20
69.6552897218
 10
152.6246676606
 20
69.6633270588
 10
152.6861572919
 20
69.6660810122
 10
152.7496760654
 20
69.6636047071
 10
152.8145818026
 20
69.6559235978
 10
152.8808887291
 20
69.6429846095
 10
152.9485826193
 20
69.6248408169
 10
153.0169786171
 20
69.601676899
 10
153.0858484372
 20
69.5735544152
 10
153.1554203649
 20
69.540411806
 10
153.2256944002
 20
69.5022490715
  0
LWPOLYLINE
  5
3C1
100
AcDbEntity
  8
SMUSSO
100
AcDbPolyline
 62
7
  6
CONTINUOUS
 90
4
 70
0
 10
152.8986198906
 20
69.2964417096
 10
152.9292351247
 20
69.3234731328
 10
152.9620499149
 20
69.3471032254
 10
152.9792187986
 20
69.3576006429
  0
LWPOLYLINE
  5
3C2
100
AcDbEntity
  8
ASSI
100
AcDbPolyline
 62
7
  6
CONTINUOUS
 90
4
 70
0
 10
152.8986198906
 20
69.2964417096
 10
152.9292351247
 20
69.3234731328
 10
152.9620499149
 20
69.3471032254
 10
152.9792187986
 20
69.3576006429
  0
LWPOLYLINE
  5
3C3
100
AcDbEntity
  8
SMUSSO
100
AcDbPolyline
 62
7
  6
CONTINUOUS
 90
5
 70
0
 10
153.0543655217
 20
69.3907441069
 10
153.0400411797
 20
69.3780965629
 10
153.0117292024
 20
69.3477553247
 10
152.9858164179
 20
69.3142071259
 10
152.9623904361
 20
69.2775654512
  0
LWPOLYLINE
  5
3C4
100
AcDbEntity
  8
ASSI
100
AcDbPolyline
 62
7
  6
CONTINUOUS
 90
5
 70
0
 10
153.0543655217
 20
69.3907441069
 10
153.0400411797
 20
69.3780965629
 10
153.0117292024
 20
69.3477553247
 10
152.9858164179
 20
69.3142071259
 10
152.9623904361
 20
69.2775654512
  0
LINE
  5
3C5
100
AcDbEntity
  8
SMUSSO
100
AcDbLine
 62
250
  6
CONTINUOUS
 10
152.7307196534
 20
68.8083164096
 11
152.8721410096
 21
68.8899713282
  0
LINE
  5
3C6
100
AcDbEntity
  8
ASSI
100
AcDbLine
 62
250
  6
CONTINUOUS
 10
152.7307196534
 20
68.8083164096
 11
152.8721410096
 21
68.8899713282
  0
LINE
  5
3C7
100
AcDbEntity
  8
ASSI
100
AcDbLine
 62
7
  6
CONTINUOUS
 10
182.326638965
 20
83.2403346038
 11
186.3885719497
 21
85.585628506
  0
LWPOLYLINE
  5
3C8
100
AcDbEntity
  8
SMUSSO
100
AcDbPolyline
 62
7
  6
CONTINUOUS
 90
15
 70
0
 10
152.9792187986
 20
69.3576006429
 10
152.9969532747
 20
69.3672520997
 10
153.0338271455
 20
69.3838516076
 10
153.0725468176
 20
69.3968455905
 10
153.1129812021
 20
69.4061900387
 10
153.1549933148
 20
69.4118533111
 10
153.1984411351
 20
69.4138162781
 10
153.2431774694
 20
69.4120723042
 10
153.2890502355
 20
69.4066274332
 10
153.3359041159
 20
69.3975002953
 10
153.383580552
 20
69.3847219685
 10
153.4319175698
 20
69.3683361142
 10
153.4807513651
 20
69.3483985916
 10
153.5299168884
 20
69.3249771135
 10
153.5792477908
 20
69.2981512297
  0
LWPOLYLINE
  5
3C9
100
AcDbEntity
  8
ASSI
100
AcDbPolyline
 62
7
  6
CONTINUOUS
 90
15
 70
0
 10
152.9792187986
 20
69.3576006429
 10
152.9969532747
 20
69.3672520997
 10
153.0338271455
 20
69.3838516076
 10
153.0725468176
 20
69.3968455905
 10
153.1129812021
 20
69.4061900387
 10
153.1549933148
 20
69.4118533111
 10
153.1984411351
 20
69.4138162781
 10
153.2431774694
 20
69.4120723042
 10
153.2890502355
 20
69.4066274332
 10
153.3359041159
 20
69.3975002953
 10
153.383580552
 20
69.3847219685
 10
153.4319175698
 20
69.3683361142
 10
153.4807513651
 20
69.3483985916
 10
153.5299168884
 20
69.3249771135
 10
153.5792477908
 20
69.2981512297
  0
LWPOLYLINE
  5
3CA
100
AcDbEntity
  8
SMUSSO
100
AcDbPolyline
 62
7
  6
CONTINUOUS
 90
8
 70
0
 10
152.9279895281
 20
69.2073022022
 10
152.9233075328
 20
69.195508569
 10
152.9077828659
 20
69.1503715936
 10
152.8950090077
 20
69.1026964347
 10
152.8850292108
 20
69.0526454834
 10
152.8778769867
 20
69.0003886539
 10
152.8735761682
 20
68.9461026534
 10
152.8721410096
 20
68.8899713282
  0
LWPOLYLINE
  5
3CB
100
AcDbEntity
  8
ASSI
100
AcDbPolyline
 62
7
  6
CONTINUOUS
 90
8
 70
0
 10
152.9279895281
 20
69.2073022022
 10
152.9233075328
 20
69.195508569
 10
152.9077828659
 20
69.1503715936
 10
152.8950090077
 20
69.1026964347
 10
152.8850292108
 20
69.0526454834
 10
152.8778769867
 20
69.0003886539
 10
152.8735761682
 20
68.9461026534
 10
152.8721410096
 20
68.8899713282
  0
LINE
  5
3CC
100
AcDbEntity
  8
SMUSSO
100
AcDbLine
 62
250
  6
CONTINUOUS
 10
153.1115500214
 20
69.4058592907
 11
152.8721410096
 21
68.8899713282
  0
LINE
  5
3CD
100
AcDbEntity
  8
ASSI
100
AcDbLine
 62
250
  6
CONTINUOUS
 10
153.1115500214
 20
69.4058592907
 11
152.8721410096
 21
68.8899713282
  0
LINE
  5
3CE
100
AcDbEntity
  8
SMUSSO
100
AcDbLine
 62
250
  6
CONTINUOUS
 10
153.2307711985
 20
58.7220600668
 11
152.8721410096
 21
57.9492696192
  0
LINE
  5
3CF
100
AcDbEntity
  8
ASSI
100
AcDbLine
 62
250
  6
CONTINUOUS
 10
153.2307711985
 20
58.7220600668
 11
152.8721410096
 21
57.9492696192
  0
LWPOLYLINE
  5
3D0
100
AcDbEntity
  8
SMUSSO
100
AcDbPolyline
 62
7
  6
CONTINUOUS
 90
3
 70
0
 10
152.9623904361
 20
69.2775654512
 10
152.9415305577
 20
69.2379544047
 10
152.9279895281
 20
69.2073022022
  0
LWPOLYLINE
  5
3D1
100
AcDbEntity
  8
ASSI
100
AcDbPolyline
 62
7
  6
CONTINUOUS
 90
3
 70
0
 10
152.9623904361
 20
69.2775654512
 10
152.9415305577
 20
69.2379544047
 10
152.9279895281
 20
69.2073022022
  0
LINE
  5
3D2
100
AcDbEntity
  8
SMUSSO
100
AcDbLine
 62
250
  6
CONTINUOUS
 10
146.7910226914
 20
59.5008472206
 11
147.144576082
 21
60.1132196557
  0
LINE
  5
3D3
100
AcDbEntity
  8
ASSI
100
AcDbLine
 62
250
  6
CONTINUOUS
 10
146.7910226914
 20
59.5008472206
 11
147.144576082
 21
60.1132196557
  0
LINE
  5
3D4
100
AcDbEntity
  8
ASSI
100
AcDbLine
 62
7
  6
CONTINUOUS
 10
183.0341762343
 20
82.0148441065
 11
187.096109219
 21
84.3601380086
  0
LINE
  5
3D5
100
AcDbEntity
  8
SMUSSO
100
AcDbLine
 62
250
  6
CONTINUOUS
 10
147.144576082
 20
60.1132196557
 11
147.2859974382
 21
60.1948745743
  0
LINE
  5
3D6
100
AcDbEntity
  8
ASSI
100
AcDbLine
 62
250
  6
CONTINUOUS
 10
147.144576082
 20
60.1132196557
 11
147.2859974382
 21
60.1948745743
  0
LINE
  5
3D7
100
AcDbEntity
  8
SMUSSO
100
AcDbLine
 62
250
  6
CONTINUOUS
 10
152.7307196534
 20
57.8676147005
 11
152.8721410096
 21
57.9492696192
  0
LINE
  5
3D8
100
AcDbEntity
  8
ASSI
100
AcDbLine
 62
250
  6
CONTINUOUS
 10
152.7307196534
 20
57.8676147005
 11
152.8721410096
 21
57.9492696192
  0
LWPOLYLINE
  5
3D9
100
AcDbEntity
  8
SMUSSO
100
AcDbPolyline
 62
7
  6
CONTINUOUS
 90
15
 70
0
 10
147.7446050742
 20
60.0537702425
 10
147.726870598
 20
60.0441187857
 10
147.6899967273
 20
60.0275192778
 10
147.6512770552
 20
60.0145252949
 10
147.6108426707
 20
60.0051808467
 10
147.568830558
 20
59.9995175743
 10
147.5253827377
 20
59.9975546073
 10
147.4806464033
 20
59.9992985812
 10
147.4347736373
 20
60.0047434522
 10
147.3879197569
 20
60.0138705901
 10
147.3402433208
 20
60.0266489169
 10
147.2919063029
 20
60.0430347712
 10
147.2430725076
 20
60.0629722938
 10
147.1939069843
 20
60.0863937719
 10
147.144576082
 20
60.1132196557
  0
LWPOLYLINE
  5
3DA
100
AcDbEntity
  8
ASSI
100
AcDbPolyline
 62
7
  6
CONTINUOUS
 90
15
 70
0
 10
147.7446050742
 20
60.0537702425
 10
147.726870598
 20
60.0441187857
 10
147.6899967273
 20
60.0275192778
 10
147.6512770552
 20
60.0145252949
 10
147.6108426707
 20
60.0051808467
 10
147.568830558
 20
59.9995175743
 10
147.5253827377
 20
59.9975546073
 10
147.4806464033
 20
59.9992985812
 10
147.4347736373
 20
60.0047434522
 10
147.3879197569
 20
60.0138705901
 10
147.3402433208
 20
60.0266489169
 10
147.2919063029
 20
60.0430347712
 10
147.2430725076
 20
60.0629722938
 10
147.1939069843
 20
60.0863937719
 10
147.144576082
 20
60.1132196557
  0
LINE
  5
3DB
100
AcDbEntity
  8
SMUSSO
100
AcDbLine
 62
250
  6
CONTINUOUS
 10
88.3840025654
 20
105.5530298091
 11
89.0911093466
 21
105.5530298091
  0
LINE
  5
3DC
100
AcDbEntity
  8
ASSI
100
AcDbLine
 62
250
  6
CONTINUOUS
 10
88.3840025654
 20
105.5530298091
 11
89.0911093466
 21
105.5530298091
  0
LINE
  5
3DD
100
AcDbEntity
  8
ASSI
100
AcDbLine
 62
7
  6
CONTINUOUS
 10
183.0126748824
 20
82.0268390539
 11
183.0341762343
 21
82.0148441065
  0
LINE
  5
3DE
100
AcDbEntity
  8
ASSI
100
AcDbLine
 62
7
  6
CONTINUOUS
 10
181.3167398174
 20
82.1624212692
 11
70.9702695441
 21
145.8750902389
  0
LINE
  5
3DF
100
AcDbEntity
  8
ASSI
100
AcDbLine
 62
7
  6
CONTINUOUS
 10
182.326638965
 20
83.2403346038
 11
71.3737224582
 21
147.3031580283
  0
LINE
  5
3E0
100
AcDbEntity
  8
CURVE
100
AcDbLine
 62
250
  6
CONTINUOUS
 10
176.103970813
 20
16.1520698367
 11
175.7230647311
 21
17.5448088016
  0
LINE
  5
3E1
100
AcDbEntity
  8
CURVE
100
AcDbLine
 62
250
  6
CONTINUOUS
 10
175.8072475405
 20
18.1194772658
 11
176.1285128047
 21
16.9367920113
  0
LINE
  5
3E2
100
AcDbEntity
  8
CURVE
100
AcDbLine
 62
250
  6
CONTINUOUS
 10
173.9362462477
 20
17.4036868328
 11
173.4431211126
 21
19.4844942358
  0
LINE
  5
3E3
100
AcDbEntity
  8
SMUSSO
100
AcDbLine
 62
7
  6
CONTINUOUS
 10
163.9030067961
 20
61.9493032417
 11
163.9030067961
 21
51.0086015326
  0
LINE
  5
3E4
100
AcDbEntity
  8
ASSI
100
AcDbLine
 62
7
  6
CONTINUOUS
 10
163.9030067961
 20
61.9493032417
 11
163.9030067961
 21
51.0086015326
  0
LWPOLYLINE
  5
3E5
100
AcDbEntity
  8
SMUSSO
100
AcDbPolyline
 62
7
  6
CONTINUOUS
 90
15
 70
0
 10
163.9030067961
 20
51.416876126
 10
163.9015716391
 20
51.3607448323
 10
163.8972708246
 20
51.3064588521
 10
163.8901186052
 20
51.2542020323
 10
163.8801388125
 20
51.2041510822
 10
163.8673649567
 20
51.1564759159
 10
163.8518402876
 20
51.1113389234
 10
163.8336172512
 20
51.0688930562
 10
163.8127573524
 20
51.0292819734
 10
163.7893313504
 20
50.9926402751
 10
163.7634185491
 20
50.9590920657
 10
163.7351065588
 20
50.9287508259
 10
163.7044913247
 20
50.9017194028
 10
163.6716765346
 20
50.8780893101
 10
163.6545076508
 20
50.8675918926
  0
LWPOLYLINE
  5
3E6
100
AcDbEntity
  8
ASSI
100
AcDbPolyline
 62
7
  6
CONTINUOUS
 90
15
 70
0
 10
163.9030067961
 20
51.416876126
 10
163.9015716391
 20
51.3607448323
 10
163.8972708246
 20
51.3064588521
 10
163.8901186052
 20
51.2542020323
 10
163.8801388125
 20
51.2041510822
 10
163.8673649567
 20
51.1564759159
 10
163.8518402876
 20
51.1113389234
 10
163.8336172512
 20
51.0688930562
 10
163.8127573524
 20
51.0292819734
 10
163.7893313504
 20
50.9926402751
 10
163.7634185491
 20
50.9590920657
 10
163.7351065588
 20
50.9287508259
 10
163.7044913247
 20
50.9017194028
 10
163.6716765346
 20
50.8780893101
 10
163.6545076508
 20
50.8675918926
  0
LWPOLYLINE
  5
3E7
100
AcDbEntity
  8
SMUSSO
100
AcDbPolyline
 62
7
  6
CONTINUOUS
 90
28
 70
0
 10
163.9030067961
 20
51.0086015326
 10
163.9009173066
 20
50.9286647452
 10
163.894831201
 20
50.8518463311
 10
163.8847484794
 20
50.7781462903
 10
163.8706082966
 20
50.7073361756
 10
163.8524714979
 20
50.6396444341
 10
163.8305206182
 20
50.5757564075
 10
163.8047168295
 20
50.5157109612
 10
163.7750989599
 20
50.4594692297
 10
163.7419660293
 20
50.4075999585
 10
163.7052823899
 20
50.3601476828
 10
163.6650836894
 20
50.3170678674
 10
163.6217758909
 20
50.2787956523
 10
163.5753275729
 20
50.2453798385
 10
163.5257701568
 20
50.2167716251
 10
163.4736038695
 20
50.1932597491
 10
163.4188022104
 20
50.174895816
 10
163.3613916802
 20
50.1616282204
 10
163.3019520077
 20
50.1535908834
 10
163.2404623764
 20
50.15083693
 10
163.1769436028
 20
50.1533132351
 10
163.1120378657
 20
50.1609943444
 10
163.0457309391
 20
50.1739333327
 10
162.978037049
 20
50.1920771253
 10
162.9096410512
 20
50.2152410432
 10
162.8407712311
 20
50.243363527
 10
162.7711993034
 20
50.2765061362
 10
162.7009252681
 20
50.3146688707
  0
LWPOLYLINE
  5
3E8
100
AcDbEntity
  8
ASSI
100
AcDbPolyline
 62
7
  6
CONTINUOUS
 90
28
 70
0
 10
163.9030067961
 20
51.0086015326
 10
163.9009173066
 20
50.9286647452
 10
163.894831201
 20
50.8518463311
 10
163.8847484794
 20
50.7781462903
 10
163.8706082966
 20
50.7073361756
 10
163.8524714979
 20
50.6396444341
 10
163.8305206182
 20
50.5757564075
 10
163.8047168295
 20
50.5157109612
 10
163.7750989599
 20
50.4594692297
 10
163.7419660293
 20
50.4075999585
 10
163.7052823899
 20
50.3601476828
 10
163.6650836894
 20
50.3170678674
 10
163.6217758909
 20
50.2787956523
 10
163.5753275729
 20
50.2453798385
 10
163.5257701568
 20
50.2167716251
 10
163.4736038695
 20
50.1932597491
 10
163.4188022104
 20
50.174895816
 10
163.3613916802
 20
50.1616282204
 10
163.3019520077
 20
50.1535908834
 10
163.2404623764
 20
50.15083693
 10
163.1769436028
 20
50.1533132351
 10
163.1120378657
 20
50.1609943444
 10
163.0457309391
 20
50.1739333327
 10
162.978037049
 20
50.1920771253
 10
162.9096410512
 20
50.2152410432
 10
162.8407712311
 20
50.243363527
 10
162.7711993034
 20
50.2765061362
 10
162.7009252681
 20
50.3146688707
  0
LINE
  5
3E9
100
AcDbEntity
  8
SMUSSO
100
AcDbLine
 62
250
  6
CONTINUOUS
 10
153.2256944002
 20
55.7855484213
 11
153.5792477908
 21
56.3979208564
  0
LINE
  5
3EA
100
AcDbEntity
  8
ASSI
100
AcDbLine
 62
250
  6
CONTINUOUS
 10
153.2256944002
 20
55.7855484213
 11
153.5792477908
 21
56.3979208564
  0
LINE
  5
3EB
100
AcDbEntity
  8
ASSI
100
AcDbLine
 62
7
  6
CONTINUOUS
 10
181.3167398174
 20
82.1624212692
 11
182.3262765348
 21
83.215715865
  0
LINE
  5
3EC
100
AcDbEntity
  8
SMUSSO
100
AcDbLine
 62
250
  6
CONTINUOUS
 10
153.5792477908
 20
56.3979208564
 11
153.720669147
 21
56.4795757751
  0
LINE
  5
3ED
100
AcDbEntity
  8
ASSI
100
AcDbLine
 62
250
  6
CONTINUOUS
 10
153.5792477908
 20
56.3979208564
 11
153.720669147
 21
56.4795757751
  0
LINE
  5
3EE
100
AcDbEntity
  8
ASSI
100
AcDbLine
 62
7
  6
CONTINUOUS
 10
186.3885719497
 20
85.585628506
 11
75.1615362453
 21
149.8067249196
  0
LWPOLYLINE
  5
3EF
100
AcDbEntity
  8
CURVE
100
AcDbPolyline
 62
250
  6
CONTINUOUS
 90
5
 70
0
 10
179.0241581264
 20
15.0106213067
 10
179.0295140662
 20
14.9905655254
 10
179.0346115086
 20
14.970554064
 10
179.0394953832
 20
14.9505796502
 10
179.0442106197
 20
14.9306350117
  0
LINE
  5
3F0
100
AcDbEntity
  8
CURVE
100
AcDbLine
 62
250
  6
CONTINUOUS
 10
177.772912177
 20
16.9845271403
 11
178.2501794667
 21
14.9128758584
  0
LINE
  5
3F1
100
AcDbEntity
  8
CURVE
100
AcDbLine
 62
250
  6
CONTINUOUS
 10
179.0442106197
 20
14.9306350117
 11
179.0533148961
 21
14.8908059714
  0
LINE
  5
3F2
100
AcDbEntity
  8
CURVE
100
AcDbLine
 62
250
  6
CONTINUOUS
 10
179.0533148961
 20
14.8908059714
 11
179.119580941
 21
14.5960769859
  0
LWPOLYLINE
  5
3F3
100
AcDbEntity
  8
CURVE
100
AcDbPolyline
 62
250
  6
CONTINUOUS
 90
37
 70
0
 10
179.3521528512
 20
14.8264466548
 10
179.3489255481
 20
14.841010034
 10
179.3456045826
 20
14.8555923535
 10
179.3421735734
 20
14.8701941059
 10
179.3386161392
 20
14.8848157837
 10
179.3349158987
 20
14.8994578797
 10
179.3310564704
 20
14.9141208863
 10
179.3270214731
 20
14.9288052962
 10
179.3227945254
 20
14.9435116021
 10
179.318359246
 20
14.9582402964
 10
179.3136992535
 20
14.9729918719
 10
179.3087981667
 20
14.9877668212
 10
179.3052889891
 20
14.9979118433
 10
179.3016519405
 20
15.0080612225
 10
179.2978802407
 20
15.0182080914
 10
179.2939671097
 20
15.0283455828
 10
179.2899057672
 20
15.0384668294
 10
179.2856894331
 20
15.0485649638
 10
179.2813113272
 20
15.0586331188
 10
179.2767646695
 20
15.0686644271
 10
179.2720426797
 20
15.0786520214
 10
179.2671385777
 20
15.0885890344
 10
179.2620455833
 20
15.0984685988
 10
179.2567569165
 20
15.1082838473
 10
179.2517372619
 20
15.1172099254
 10
179.246553389
 20
15.1260613601
 10
179.2412109185
 20
15.1348232241
 10
179.2357154713
 20
15.1434805903
 10
179.230072668
 20
15.1520185312
 10
179.2242881295
 20
15.1604221198
 10
179.2183674766
 20
15.1686764287
 10
179.2123163301
 20
15.1767665307
 10
179.2061403107
 20
15.1846774985
 10
179.1998450393
 20
15.1923944049
 10
179.1934361366
 20
15.1999023226
 10
179.1869192234
 20
15.2071863243
 10
179.1802999206
 20
15.2142314829
  0
LINE
  5
3F4
100
AcDbEntity
  8
CURVE
100
AcDbLine
 62
250
  6
CONTINUOUS
 10
179.119580941
 20
14.5960769859
 11
179.1661391453
 21
14.3840118795
  0
LINE
  5
3F5
100
AcDbEntity
  8
CURVE
100
AcDbLine
 62
250
  6
CONTINUOUS
 10
179.3583919958
 20
14.7973747466
 11
179.3521528512
 21
14.8264466548
  0
LINE
  5
3F6
100
AcDbEntity
  8
CURVE
100
AcDbLine
 62
250
  6
CONTINUOUS
 10
173.7958398318
 20
19.280838868
 11
174.0923475377
 21
17.8733395645
  0
LINE
  5
3F7
100
AcDbEntity
  8
CURVE
100
AcDbLine
 62
250
  6
CONTINUOUS
 10
177.9079649867
 20
15.1104662102
 11
177.8238518105
 21
15.5175938743
  0
LINE
  5
3F8
100
AcDbEntity
  8
CURVE
100
AcDbLine
 62
250
  6
CONTINUOUS
 10
179.3826227772
 20
14.6802648372
 11
179.3583919958
 21
14.7973747466
  0
LINE
  5
3F9
100
AcDbEntity
  8
CURVE
100
AcDbLine
 62
250
  6
CONTINUOUS
 10
179.4784577273
 20
14.2036830445
 11
179.4636437316
 21
14.2763598984
  0
LINE
  5
3FA
100
AcDbEntity
  8
CURVE
100
AcDbLine
 62
250
  6
CONTINUOUS
 10
179.4636437316
 20
14.2763598984
 11
179.3826227772
 21
14.6802648372
  0
LINE
  5
3FB
100
AcDbEntity
  8
CURVE
100
AcDbLine
 62
250
  6
CONTINUOUS
 10
177.7589618363
 20
15.8325146153
 11
177.6097601572
 21
16.5852110693
  0
LWPOLYLINE
  5
3FC
100
AcDbEntity
  8
SMUSSO
100
AcDbPolyline
 62
7
  6
CONTINUOUS
 90
5
 70
0
 10
163.8706085008
 20
62.2879804254
 10
163.8847486172
 20
62.2008417483
 10
163.8948312853
 20
62.1154986857
 10
163.9009173449
 20
62.0316525168
 10
163.9030067961
 20
61.9493032417
  0
LWPOLYLINE
  5
3FD
100
AcDbEntity
  8
ASSI
100
AcDbPolyline
 62
7
  6
CONTINUOUS
 90
5
 70
0
 10
163.8706085008
 20
62.2879804254
 10
163.8847486172
 20
62.2008417483
 10
163.8948312853
 20
62.1154986857
 10
163.9009173449
 20
62.0316525168
 10
163.9030067961
 20
61.9493032417
  0
LINE
  5
3FE
100
AcDbEntity
  8
CURVE
100
AcDbLine
 62
250
  6
CONTINUOUS
 10
176.7744612849
 20
17.5610201719
 11
176.9199183286
 21
15.6809519674
  0
LINE
  5
3FF
100
AcDbEntity
  8
SMUSSO
100
AcDbLine
 62
250
  6
CONTINUOUS
 10
163.0544786587
 20
50.9270413058
 11
163.1959000149
 21
51.0086962245
  0
LINE
  5
400
100
AcDbEntity
  8
ASSI
100
AcDbLine
 62
250
  6
CONTINUOUS
 10
163.0544786587
 20
50.9270413058
 11
163.1959000149
 21
51.0086962245
  0
LWPOLYLINE
  5
401
100
AcDbEntity
  8
SMUSSO
100
AcDbPolyline
 62
7
  6
CONTINUOUS
 90
15
 70
0
 10
163.6545076508
 20
50.8675918926
 10
163.6367731747
 20
50.8579404358
 10
163.599899304
 20
50.8413409279
 10
163.5611796319
 20
50.828346945
 10
163.5207452474
 20
50.8190024968
 10
163.4787331347
 20
50.8133392245
 10
163.4352853144
 20
50.8113762575
 10
163.39054898
 20
50.8131202314
 10
163.344676214
 20
50.8185651023
 10
163.2978223336
 20
50.8276922402
 10
163.2501458975
 20
50.840470567
 10
163.2018088796
 20
50.8568564213
 10
163.1529750843
 20
50.8767939439
 10
163.103809561
 20
50.900215422
 10
163.0544786587
 20
50.9270413058
  0
LWPOLYLINE
  5
402
100
AcDbEntity
  8
ASSI
100
AcDbPolyline
 62
7
  6
CONTINUOUS
 90
15
 70
0
 10
163.6545076508
 20
50.8675918926
 10
163.6367731747
 20
50.8579404358
 10
163.599899304
 20
50.8413409279
 10
163.5611796319
 20
50.828346945
 10
163.5207452474
 20
50.8190024968
 10
163.4787331347
 20
50.8133392245
 10
163.4352853144
 20
50.8113762575
 10
163.39054898
 20
50.8131202314
 10
163.344676214
 20
50.8185651023
 10
163.2978223336
 20
50.8276922402
 10
163.2501458975
 20
50.840470567
 10
163.2018088796
 20
50.8568564213
 10
163.1529750843
 20
50.8767939439
 10
163.103809561
 20
50.900215422
 10
163.0544786587
 20
50.9270413058
  0
LINE
  5
403
100
AcDbEntity
  8
CURVE
100
AcDbLine
 62
250
  6
CONTINUOUS
 10
176.6022806568
 20
15.8643519782
 11
176.5355713306
 21
17.0707884949
  0
LINE
  5
404
100
AcDbEntity
  8
CURVE
100
AcDbLine
 62
250
  6
CONTINUOUS
 10
174.8428798672
 20
18.6763988481
 11
174.8428798672
 21
16.8802079437
  0
LINE
  5
405
100
AcDbEntity
  8
CURVE
100
AcDbLine
 62
250
  6
CONTINUOUS
 10
175.1675749357
 20
16.6927330805
 11
175.1675749357
 21
18.4889239849
  0
LINE
  5
406
100
AcDbEntity
  8
SMUSSO
100
AcDbLine
 62
250
  6
CONTINUOUS
 10
162.7009252681
 20
50.3146688707
 11
163.0544786587
 21
50.9270413058
  0
LINE
  5
407
100
AcDbEntity
  8
ASSI
100
AcDbLine
 62
250
  6
CONTINUOUS
 10
162.7009252681
 20
50.3146688707
 11
163.0544786587
 21
50.9270413058
  0
LINE
  5
408
100
AcDbEntity
  8
ASSI
100
AcDbLine
 62
7
  6
CONTINUOUS
 10
181.5957157515
 20
81.6792207777
 11
181.3167398174
 21
82.1624212692
  0
LINE
  5
409
100
AcDbEntity
  8
ASSI
100
AcDbLine
 62
7
  6
CONTINUOUS
 10
183.0126748824
 20
82.0268390539
 11
182.3262765348
 21
83.215715865
  0
LWPOLYLINE
  5
40A
100
AcDbEntity
  8
CURVE
100
AcDbPolyline
 62
250
  6
CONTINUOUS
 90
58
 70
0
 10
179.0959301613
 20
15.7007032383
 10
179.0959790768
 20
15.6923478983
 10
179.0958983018
 20
15.684043403
 10
179.0956797896
 20
15.6758033016
 10
179.0953154939
 20
15.6676411435
 10
179.0947973682
 20
15.6595704777
 10
179.0941173659
 20
15.6516048536
 10
179.0932674406
 20
15.6437578204
 10
179.0922395458
 20
15.6360429273
 10
179.091025635
 20
15.6284737236
 10
179.0896176617
 20
15.6210637585
 10
179.0880075794
 20
15.6138265812
 10
179.0861873416
 20
15.6067757409
 10
179.0841489018
 20
15.599924787
 10
179.0818842135
 20
15.5932872686
 10
179.0793852303
 20
15.586876735
 10
179.0766439057
 20
15.5807067354
 10
179.0739163522
 20
15.5752794125
 10
179.0709833643
 20
15.5700720167
 10
179.067849412
 20
15.565091473
 10
179.0645189653
 20
15.5603447064
 10
179.0609964943
 20
15.5558386417
 10
179.0572864689
 20
15.5515802039
 10
179.0533933591
 20
15.547576318
 10
179.049321635
 20
15.5438339087
 10
179.0450757665
 20
15.5403599012
 10
179.0406602238
 20
15.5371612202
 10
179.0360794767
 20
15.5342447908
 10
179.0313379953
 20
15.5316175378
 10
179.0264402496
 20
15.5292863861
 10
179.0213907097
 20
15.5272582608
 10
179.0159633609
 20
15.5254691721
 10
179.0103831906
 20
15.5240085434
 10
179.0046578893
 20
15.5228671373
 10
178.9987951479
 20
15.5220357163
 10
178.9928026572
 20
15.521505043
 10
178.986688108
 20
15.52126588
 10
178.9804591909
 20
15.52130899
 10
178.9741235967
 20
15.5216251355
 10
178.9676890163
 20
15.5222050791
 10
178.9611631404
 20
15.5230395833
 10
178.9545536598
 20
15.5241194109
 10
178.9478682651
 20
15.5254353243
 10
178.9411146473
 20
15.5269780862
 10
178.934300497
 20
15.5287384592
 10
178.9274335051
 20
15.5307072058
 10
178.9205213622
 20
15.5328750887
 10
178.9135717592
 20
15.5352328704
 10
178.9065923868
 20
15.5377713135
 10
178.8995909358
 20
15.5404811807
 10
178.892575097
 20
15.5433532344
 10
178.8855525611
 20
15.5463782374
 10
178.8785310189
 20
15.5495469521
 10
178.8715181612
 20
15.5528501413
 10
178.8645216787
 20
15.5562785674
 10
178.8575492622
 20
15.5598229931
 10
178.8506086024
 20
15.5634741809
 10
178.8437073902
 20
15.5672228935
  0
LINE
  5
40B
100
AcDbEntity
  8
CURVE
100
AcDbLine
 62
250
  6
CONTINUOUS
 10
178.3455257163
 20
16.632923102
 11
178.3455257163
 21
14.8578237886
  0
LINE
  5
40C
100
AcDbEntity
  8
CURVE
100
AcDbLine
 62
250
  6
CONTINUOUS
 10
178.6581475768
 20
15.6743628041
 11
178.6581475768
 21
16.1674227508
  0
LINE
  5
40D
100
AcDbEntity
  8
CURVE
100
AcDbLine
 62
250
  6
CONTINUOUS
 10
178.6689139653
 20
14.6711034667
 11
178.6689139653
 21
15.3739913446
  0
LINE
  5
40E
100
AcDbEntity
  8
CURVE
100
AcDbLine
 62
250
  6
CONTINUOUS
 10
179.1802999206
 20
15.2142314829
 11
179.1802999206
 21
15.2248447707
  0
LINE
  5
40F
100
AcDbEntity
  8
ASSI
100
AcDbLine
 62
7
  6
CONTINUOUS
 10
181.5957157515
 20
10.8475871783
 11
181.5957157515
 21
81.6792207777
  0
LINE
  5
410
100
AcDbEntity
  8
ASSI
100
AcDbLine
 62
7
  6
CONTINUOUS
 10
183.0341762343
 20
10.4829692742
 11
183.0341762343
 21
82.0148441065
  0
LINE
  5
411
100
AcDbEntity
  8
ASSI
100
AcDbLine
 62
7
  6
CONTINUOUS
 10
182.326638965
 20
83.2403346038
 11
182.3262765348
 21
83.215715865
  0
LINE
  5
412
100
AcDbEntity
  8
CURVE
100
AcDbLine
 62
250
  6
CONTINUOUS
 10
175.7230647311
 20
17.5448088016
 11
175.6529952337
 21
16.4124574842
  0
LINE
  5
413
100
AcDbEntity
  8
CURVE
100
AcDbLine
 62
250
  6
CONTINUOUS
 10
175.3423682896
 20
16.5918095886
 11
175.4828213746
 21
18.306796868
  0
LINE
  5
414
100
AcDbEntity
  8
ASSI
100
AcDbLine
 62
7
  6
CONTINUOUS
 10
186.3885719497
 20
85.585628506
 11
187.096109219
 21
84.3601380086
  0
LINE
  5
415
100
AcDbEntity
  8
ASSI
100
AcDbLine
 62
7
  6
CONTINUOUS
 10
187.096109219
 20
12.5117477885
 11
187.096109219
 21
84.3601380086
  0
LINE
  5
416
100
AcDbEntity
  8
CURVE
100
AcDbLine
 62
250
  6
CONTINUOUS
 10
174.0923475377
 20
17.8733395645
 11
174.3979120015
 21
18.9332099429
  0
LINE
  5
417
100
AcDbEntity
  8
CURVE
100
AcDbLine
 62
250
  6
CONTINUOUS
 10
177.6097601572
 20
16.5852110693
 11
177.4480896945
 21
16.0120082938
  0
LINE
  5
418
100
AcDbEntity
  8
CURVE
100
AcDbLine
 62
250
  6
CONTINUOUS
 10
177.3816714943
 20
15.772903247
 11
177.2920758164
 21
15.4660728982
  0
LINE
  5
419
100
AcDbEntity
  8
CURVE
100
AcDbLine
 62
250
  6
CONTINUOUS
 10
176.9709038904
 20
15.6515135431
 11
177.4588095002
 21
17.1658860893
  0
LINE
  5
41A
100
AcDbEntity
  8
CURVE
100
AcDbLine
 62
250
  6
CONTINUOUS
 10
174.7223855773
 20
18.7458629669
 11
174.2223837954
 21
17.2384745989
  0
LINE
  5
41B
100
AcDbEntity
  8
CURVE
100
AcDbLine
 62
250
  6
CONTINUOUS
 10
176.1285128047
 20
16.9367920113
 11
176.4532078732
 21
17.7465078655
  0
LINE
  5
41C
100
AcDbEntity
  8
CURVE
100
AcDbLine
 62
250
  6
CONTINUOUS
 10
176.5355713306
 20
17.0707884949
 11
176.1495086896
 21
16.1257768375
  0
LINE
  5
41D
100
AcDbEntity
  8
CURVE
100
AcDbLine
 62
7
  6
CONTINUOUS
 10
173.4594311316
 20
19.4156719312
 11
173.4970915703
 21
19.45333237
  0
LINE
  5
41E
100
AcDbEntity
  8
CURVE
100
AcDbLine
 62
7
  6
CONTINUOUS
 10
173.5399006545
 20
19.0761200261
 11
173.7633682061
 21
19.2995875777
  0
LINE
  5
41F
100
AcDbEntity
  8
CURVE
100
AcDbLine
 62
7
  6
CONTINUOUS
 10
173.6203701775
 20
18.7365681211
 11
173.8600134915
 21
18.976211435
  0
LINE
  5
420
100
AcDbEntity
  8
CURVE
100
AcDbLine
 62
7
  6
CONTINUOUS
 10
173.7008397004
 20
18.397016216
 11
173.9330998047
 21
18.6292763203
  0
LINE
  5
421
100
AcDbEntity
  8
CURVE
100
AcDbLine
 62
7
  6
CONTINUOUS
 10
173.7813092234
 20
18.0574643109
 11
174.0061861179
 21
18.2823412055
  0
LINE
  5
422
100
AcDbEntity
  8
CURVE
100
AcDbLine
 62
7
  6
CONTINUOUS
 10
174.2929349018
 20
18.5690899894
 11
174.5621981134
 21
18.8383532009
  0
LINE
  5
423
100
AcDbEntity
  8
CURVE
100
AcDbLine
 62
7
  6
CONTINUOUS
 10
173.8617787463
 20
17.7179124058
 11
174.0792724312
 21
17.9354060907
  0
LINE
  5
424
100
AcDbEntity
  8
CURVE
100
AcDbLine
 62
7
  6
CONTINUOUS
 10
174.1227869287
 20
17.9789205882
 11
174.6393269339
 21
18.4954605934
  0
LINE
  5
425
100
AcDbEntity
  8
CURVE
100
AcDbLine
 62
7
  6
CONTINUOUS
 10
173.9561071596
 20
17.3922193911
 11
174.4308553647
 21
17.8669675961
  0
LINE
  5
426
100
AcDbEntity
  8
CURVE
100
AcDbLine
 62
7
  6
CONTINUOUS
 10
174.8428798672
 20
18.2789920987
 11
175.0948197093
 21
18.5309319408
  0
LINE
  5
427
100
AcDbEntity
  8
CURVE
100
AcDbLine
 62
7
  6
CONTINUOUS
 10
174.8428798672
 20
17.8589706706
 11
175.1675749357
 21
18.1836657392
  0
LINE
  5
428
100
AcDbEntity
  8
CURVE
100
AcDbLine
 62
7
  6
CONTINUOUS
 10
174.8428798672
 20
17.4389492426
 11
175.1675749357
 21
17.7636443112
  0
LINE
  5
429
100
AcDbEntity
  8
CURVE
100
AcDbLine
 62
7
  6
CONTINUOUS
 10
175.462491478
 20
18.0585608534
 11
175.6273046564
 21
18.2233740319
  0
LINE
  5
42A
100
AcDbEntity
  8
CURVE
100
AcDbLine
 62
7
  6
CONTINUOUS
 10
174.8428798672
 20
17.0189278146
 11
175.1675749357
 21
17.3436228832
  0
LINE
  5
42B
100
AcDbEntity
  8
CURVE
100
AcDbLine
 62
7
  6
CONTINUOUS
 10
175.4250243302
 20
17.6010722776
 11
175.8363379091
 21
18.0123858565
  0
LINE
  5
42C
100
AcDbEntity
  8
CURVE
100
AcDbLine
 62
7
  6
CONTINUOUS
 10
175.0212137027
 20
16.7772402221
 11
175.1675749357
 21
16.9236014551
  0
LINE
  5
42D
100
AcDbEntity
  8
CURVE
100
AcDbLine
 62
7
  6
CONTINUOUS
 10
175.3875571824
 20
17.1435837018
 11
175.7187299156
 21
17.4747564349
  0
LINE
  5
42E
100
AcDbEntity
  8
CURVE
100
AcDbLine
 62
7
  6
CONTINUOUS
 10
175.737178161
 20
17.4932046803
 11
175.926060472
 21
17.6820869914
  0
LINE
  5
42F
100
AcDbEntity
  8
CURVE
100
AcDbLine
 62
7
  6
CONTINUOUS
 10
175.3500900347
 20
16.686095126
 11
175.6910247531
 21
17.0270298445
  0
LINE
  5
430
100
AcDbEntity
  8
CURVE
100
AcDbLine
 62
7
  6
CONTINUOUS
 10
175.8273815062
 20
17.1633865975
 11
176.0157830349
 21
17.3517881262
  0
LINE
  5
431
100
AcDbEntity
  8
CURVE
100
AcDbLine
 62
7
  6
CONTINUOUS
 10
175.5537669742
 20
16.4697506376
 11
175.6633195907
 21
16.579303254
  0
LINE
  5
432
100
AcDbEntity
  8
CURVE
100
AcDbLine
 62
7
  6
CONTINUOUS
 10
175.9175848514
 20
16.8335685147
 11
176.1055055978
 21
17.0214892611
  0
LINE
  5
433
100
AcDbEntity
  8
CURVE
100
AcDbLine
 62
7
  6
CONTINUOUS
 10
176.2006150876
 20
17.116598751
 11
176.6924111995
 21
17.6083948628
  0
LINE
  5
434
100
AcDbEntity
  8
CURVE
100
AcDbLine
 62
7
  6
CONTINUOUS
 10
176.0077881966
 20
16.5037504319
 11
176.5084581931
 21
17.0044204285
  0
LINE
  5
435
100
AcDbEntity
  8
CURVE
100
AcDbLine
 62
7
  6
CONTINUOUS
 10
176.5376281805
 20
17.0335904158
 11
176.7953296152
 21
17.2912918505
  0
LINE
  5
436
100
AcDbEntity
  8
CURVE
100
AcDbLine
 62
7
  6
CONTINUOUS
 10
176.0979915418
 20
16.1739323491
 11
176.2183519813
 21
16.2942927886
  0
LINE
  5
437
100
AcDbEntity
  8
CURVE
100
AcDbLine
 62
7
  6
CONTINUOUS
 10
176.5596361434
 20
16.6355769507
 11
176.8254921991
 21
16.9014330063
  0
LINE
  5
438
100
AcDbEntity
  8
CURVE
100
AcDbLine
 62
7
  6
CONTINUOUS
 10
176.5816441062
 20
16.2375634855
 11
176.8556547829
 21
16.5115741622
  0
LINE
  5
439
100
AcDbEntity
  8
CURVE
100
AcDbLine
 62
7
  6
CONTINUOUS
 10
177.4344931888
 20
17.090412568
 11
177.4912411068
 21
17.1471604861
  0
LINE
  5
43A
100
AcDbEntity
  8
CURVE
100
AcDbLine
 62
7
  6
CONTINUOUS
 10
176.6188735173
 20
15.8547714685
 11
176.8858173668
 21
16.1217153181
  0
LINE
  5
43B
100
AcDbEntity
  8
CURVE
100
AcDbLine
 62
7
  6
CONTINUOUS
 10
177.2348464162
 20
16.4707443675
 11
177.7575177426
 21
16.9934156938
  0
LINE
  5
43C
100
AcDbEntity
  8
CURVE
100
AcDbLine
 62
7
  6
CONTINUOUS
 10
176.885150153
 20
15.7010266763
 11
176.9159799507
 21
15.7318564739
  0
LINE
  5
43D
100
AcDbEntity
  8
CURVE
100
AcDbLine
 62
7
  6
CONTINUOUS
 10
177.0351996437
 20
15.8510761669
 11
177.547071361
 21
16.3629478842
  0
LINE
  5
43E
100
AcDbEntity
  8
CURVE
100
AcDbLine
 62
7
  6
CONTINUOUS
 10
177.6361586671
 20
16.4520351903
 11
177.8470114498
 21
16.6628879731
  0
LINE
  5
43F
100
AcDbEntity
  8
CURVE
100
AcDbLine
 62
7
  6
CONTINUOUS
 10
177.1514267888
 20
15.547281884
 11
177.5546351741
 21
15.9504902693
  0
LINE
  5
440
100
AcDbEntity
  8
CURVE
100
AcDbLine
 62
7
  6
CONTINUOUS
 10
177.7056431244
 20
16.1014982196
 11
177.9256575435
 21
16.3215126386
  0
LINE
  5
441
100
AcDbEntity
  8
CURVE
100
AcDbLine
 62
7
  6
CONTINUOUS
 10
177.6450171175
 20
15.6208507846
 11
178.0043036371
 21
15.9801373042
  0
LINE
  5
442
100
AcDbEntity
  8
CURVE
100
AcDbLine
 62
7
  6
CONTINUOUS
 10
178.3455257163
 20
16.3213593835
 11
178.5617384507
 21
16.5375721178
  0
LINE
  5
443
100
AcDbEntity
  8
CURVE
100
AcDbLine
 62
7
  6
CONTINUOUS
 10
177.8474689748
 20
15.4032812139
 11
178.0829497307
 21
15.6387619698
  0
LINE
  5
444
100
AcDbEntity
  8
CURVE
100
AcDbLine
 62
7
  6
CONTINUOUS
 10
178.3455257163
 20
15.9013379554
 11
178.8348431211
 21
16.3906553603
  0
LINE
  5
445
100
AcDbEntity
  8
CURVE
100
AcDbLine
 62
7
  6
CONTINUOUS
 10
177.9502566961
 20
15.0860475072
 11
178.1615958243
 21
15.2973866354
  0
LINE
  5
446
100
AcDbEntity
  8
CURVE
100
AcDbLine
 62
7
  6
CONTINUOUS
 10
178.3455257163
 20
15.4813165274
 11
178.6581475768
 21
15.7939383879
  0
LINE
  5
447
100
AcDbEntity
  8
CURVE
100
AcDbLine
 62
7
  6
CONTINUOUS
 10
178.9023611713
 20
16.0381519824
 11
179.0785375802
 21
16.2143283913
  0
LINE
  5
448
100
AcDbEntity
  8
CURVE
100
AcDbLine
 62
7
  6
CONTINUOUS
 10
178.2165333319
 20
14.932302715
 11
178.2402419179
 21
14.956011301
  0
LINE
  5
449
100
AcDbEntity
  8
CURVE
100
AcDbLine
 62
7
  6
CONTINUOUS
 10
178.3455257163
 20
15.0612950994
 11
178.8487841224
 21
15.5645535055
  0
LINE
  5
44A
100
AcDbEntity
  8
CURVE
100
AcDbLine
 62
7
  6
CONTINUOUS
 10
179.07987801
 20
15.7956473931
 11
179.2707982906
 21
15.9865676737
  0
LINE
  5
44B
100
AcDbEntity
  8
CURVE
100
AcDbLine
 62
7
  6
CONTINUOUS
 10
178.482809752
 20
14.778557707
 11
178.6689139653
 21
14.9646619204
  0
LINE
  5
44C
100
AcDbEntity
  8
CURVE
100
AcDbLine
 62
7
  6
CONTINUOUS
 10
178.9171509109
 20
15.212898866
 11
179.3871536488
 21
15.6829016039
  0
LINE
  5
44D
100
AcDbEntity
  8
CURVE
100
AcDbLine
 62
7
  6
CONTINUOUS
 10
179.0461993311
 20
14.9219258582
 11
179.2478636575
 21
15.1235901846
  0
LINE
  5
44E
100
AcDbEntity
  8
CURVE
100
AcDbLine
 62
7
  6
CONTINUOUS
 10
179.1232596944
 20
14.5789647934
 11
179.355411344
 21
14.811116443
  0
LINE
  5
44F
100
AcDbEntity
  8
CURVE
100
AcDbLine
 62
7
  6
CONTINUOUS
 10
179.2816396593
 20
14.3173233302
 11
179.4265113664
 21
14.4621950374
  0
LINE
  5
450
100
AcDbEntity
  8
ASSI
100
AcDbLine
 62
7
  6
CONTINUOUS
 10
181.3167398174
 20
10.6865411028
 11
181.5957157515
 21
10.8475871783
  0
LINE
  5
451
100
AcDbEntity
  8
ASSI
100
AcDbLine
 62
7
  6
CONTINUOUS
 10
182.3262765348
 20
10.0751665181
 11
183.0126748824
 21
10.4714077225
  0
LINE
  5
452
100
AcDbEntity
  8
ASSI
100
AcDbLine
 62
7
  6
CONTINUOUS
 10
187.096109219
 20
12.5117477885
 11
186.3885719497
 21
12.1033035947
  0
LINE
  5
453
100
AcDbEntity
  8
ASSI
100
AcDbLine
 62
7
  6
CONTINUOUS
 10
183.0341762343
 20
10.4829692742
 11
183.0126748824
 21
10.4714077225
  0
LINE
  5
454
100
AcDbEntity
  8
ASSI
100
AcDbLine
 62
7
  6
CONTINUOUS
 10
183.0341762343
 20
10.4829692742
 11
187.096109219
 21
12.5117477885
  0
LINE
  5
455
100
AcDbEntity
  8
ASSI
100
AcDbLine
 62
7
  6
CONTINUOUS
 10
182.326638965
 20
10.0745250804
 11
186.3885719497
 21
12.1033035947
  0
ENDSEC
  0
SECTION
  2
OBJECTS
  0
DICTIONARY
  5
C
100
AcDbDictionary
280
0
281
1
  3
ACAD_GROUP
350
D
  3
ACAD_MLINESTYLE
350
17
  3
ACAD_LAYOUT
350
1A
  3
ACAD_PLOTSETTINGS
350
19
  3
ACAD_PLOTSTYLENAME
350
E
  0
DICTIONARY
  5
D
102
{ACAD_REACTORS
330
C
102
}
100
AcDbDictionary
280
0
281
1
  0
ACDBDICTIONARYWDFLT
  5
E
102
{ACAD_REACTORS
330
C
102
}
100
AcDbDictionary
281
1
  3
Normal
350
F
100
AcDbDictionaryWithDefault
340
F
  0
DICTIONARY
  5
17
102
{ACAD_REACTORS
330
C
102
}
100
AcDbDictionary
280
0
281
1
  3
Standard
350
18
  0
DICTIONARY
  5
19
102
{ACAD_REACTORS
330
C
102
}
100
AcDbDictionary
281
1
  0
DICTIONARY
  5
1A
102
{ACAD_REACTORS
330
C
102
}
100
AcDbDictionary
281
1
  3
Model
350
456
  3
Layout1
350
457
  0
ACDBPLACEHOLDER
  5
F
102
{ACAD_REACTORS
330
E
102
}
  0
MLINESTYLE
  5
18
102
{ACAD_REACTORS
330
17
102
}
100
AcDbMlineStyle
  2
STANDARD
 70
0
  3

 62
256
 51
90.0
 52
90.0
 71
2
 49
0.5
 62
256
  6
BYLAYER
 49
-0.5
 62
256
  6
BYLAYER
  0
LAYOUT
  5
456
102
{ACAD_REACTORS
330
1A
102
}
100
AcDbPlotSettings
  1

  2
none_device
  4
ISO_A4_(297.00_x_210.00_MM)
  6

 40
0.0
 41
0.0
 42
0.0
 43
0.0
 44
297.0
 45
210.0
 46
0.0
 47
0.0
 48
0.0
 49
0.0
140
0.0
141
0.0
142
1.0
143
1.0
 70
1024
 72
1
 73
0
 74
0
  7

 75
0
147
1.0
148
0.0
149
0.0
100
AcDbLayout
  1
Model
 70
0
 71
0
 10
0.0
 20
0.0
 11
297.0
 21
210.0
 12
0.0
 22
0.0
 32
0.0
 14
0.0
 24
0.0
 34
0.0
 15
0.0
 25
0.0
 35
0.0
146
0.0
 13
0.0
 23
0.0
 33
0.0
 16
1.0
 26
0.0
 36
0.0
 17
0.0
 27
1.0
 37
0.0
 76
0
330
21E
345
0
346
0
  0
LAYOUT
  5
457
102
{ACAD_REACTORS
330
1A
102
}
100
AcDbPlotSettings
  1

  2
none_device
  4
ISO_A4_(297.00_x_210.00_MM)
  6

 40
0.0
 41
0.0
 42
0.0
 43
0.0
 44
297.0
 45
210.0
 46
0.0
 47
0.0
 48
0.0
 49
0.0
140
0.0
141
0.0
142
1.0
143
1.0
 70
0
 72
1
 73
0
 74
0
  7

 75
0
147
1.0
148
0.0
149
0.0
100
AcDbLayout
  1
Layout1
 70
0
 71
1
 10
0.0
 20
0.0
 11
297.0
 21
210.0
 12
0.0
 22
0.0
 32
0.0
 14
0.0
 24
0.0
 34
0.0
 15
0.0
 25
0.0
 35
0.0
146
0.0
 13
0.0
 23
0.0
 33
0.0
 16
1.0
 26
0.0
 36
0.0
 17
0.0
 27
1.0
 37
0.0
 76
0
330
21F
345
0
346
0
  0
ENDSEC
  0
EOF
