  0
SECTION
  2
HEADER
  9
$ACADVER
  1
AC1024
  9
$DWGCODEPAGE
  3
ANSI_1252
  9
$EXTMAX
 10
297.0
 20
210.0
 30
0.0
  9
$EXTMIN
 10
0.0
 20
0.0
 30
0.0
  9
$LIMMIN
 10
0.0
 20
0.0
  9
$LIMMAX
 10
297.0
 20
210.0
  9
$VIEWCTR
 10
148.5
 20
105.0
  9
$VIEWSIZE
 40
210.0
  9
$CLAYER
  8
0
  9
$LTSCALE
 40
16.335
  9
$CELTYPE
  6
BYLAYER
  9
$DIMSCALE
 40
1.0
  9
$DIMASZ
 40
3.0
  9
$DIMEXO
 40
0.5
  9
$DIMDLI
 40
11.286
  9
$DIMEXE
 40
1.5
  9
$DIMCEN
 40
2.673
  9
$DIMLFAC
 40
1.0
  9
$DIMBLK
  1
_FILLED
  9
$DIMALT
 70
0
  9
$DIMALTF
 40
0.0393700787
  9
$DIMTXT
 40
3.0
  9
$DIMTOL
 70
1
  9
$DIMLIM
 70
0
  9
$DIMTFAC
 40
1.0
  9
$DIMTP
 40
0.01
  9
$DIMTM
 40
0.01
  9
$DIMGAP
 40
0.625
  9
$DIMDSEP
 70
44
  9
$AUNITS
 70
0
  9
$PDMODE
 70
3
  9
$PDSIZE
 40
3.0
  9
$HANDSEED
  5
47C
  9
$TILEMODE
 70
1
  9
$MEASUREMENT
 70
1
  9
$INSUNITS
 70
4
  0
ENDSEC
  0
SECTION
  2
CLASSES
  0
CLASS
  1
ACDBDICTIONARYWDFLT
  2
AcDbDictionaryWithDefault
  3
AutoCAD 2000
 90
0
 91
1
280
0
281
0
  0
CLASS
  1
ACDBPLACEHOLDER
  2
AcDbPlaceHolder
  3
AutoCAD 2000
 90
0
 91
1
280
0
281
0
  0
CLASS
  1
LAYOUT
  2
AcDbLayout
  3
AutoCAD 2000
 90
0
 91
0
280
0
281
0
  0
ENDSEC
  0
SECTION
  2
TABLES
  0
TABLE
  2
VPORT
  5
8
100
AcDbSymbolTable
 70
2
  0
VPORT
  5
1F4
100
AcDbSymbolTableRecord
100
AcDbViewportTableRecord
  2
*ACTIVE
 70
0
 10
0.0
 20
0.0
 11
1.0
 21
1.0
 12
148.5
 22
105.0
 13
0.0
 23
0.0
 14
1.0
 24
1.0
 15
0.0
 25
0.0
 16
0.0
 26
0.0
 36
1.0
 17
0.0
 27
0.0
 37
0.0
 40
210.0
 41
1.4142857143
 42
50.0
 43
0.0
 44
0.0
 50
0.0
 51
0.0
 71
0
 72
100
 73
1
 74
1
 75
0
 76
0
 77
0
 78
0
  0
ENDTAB
  0
TABLE
  2
LTYPE
  5
5
100
AcDbSymbolTable
 70
6
  0
LTYPE
  5
14
100
AcDbSymbolTableRecord
100
AcDbLinetypeTableRecord
  2
BYBLOCK
 70
0
  3

 72
65
 73
0
 40
0.0
  0
LTYPE
  5
15
100
AcDbSymbolTableRecord
100
AcDbLinetypeTableRecord
  2
BYLAYER
 70
0
  3

 72
65
 73
0
 40
0.0
  0
LTYPE
  5
16
100
AcDbSymbolTableRecord
100
AcDbLinetypeTableRecord
  2
CONTINUOUS
 70
64
  3
Solid line
 72
65
 73
0
 40
0.0
  0
LTYPE
  5
1F5
100
AcDbSymbolTableRecord
100
AcDbLinetypeTableRecord
  2
CENTER
 70
64
  3
____ _ ____ _ ____ _ ____ _ ____ _ ____ _ ____
 72
65
 73
4
 40
0.6
 49
0.375
 74
0
 49
-0.075
 74
0
 49
0.075
 74
0
 49
-0.075
 74
0
  0
LTYPE
  5
1F6
100
AcDbSymbolTableRecord
100
AcDbLinetypeTableRecord
  2
HIDDEN
 70
64
  3
- - - - - - - - - - - - - - - - - - - -
 72
65
 73
2
 40
0.2
 49
0.1
 74
0
 49
-0.1
 74
0
  0
LTYPE
  5
1F7
100
AcDbSymbolTableRecord
100
AcDbLinetypeTableRecord
  2
PHANTOM
 70
64
  3
_____ _ _ _____ _ _ _____ _ _ _____
 72
65
 73
6
 40
0.8
 49
0.45
 74
0
 49
-0.05
 74
0
 49
0.1
 74
0
 49
-0.05
 74
0
 49
0.1
 74
0
 49
-0.05
 74
0
  0
LTYPE
  5
1F8
100
AcDbSymbolTableRecord
100
AcDbLinetypeTableRecord
  2
DOT
 70
64
  3
. . . . . . . . . . . . . . . . . . . .
 72
65
 73
2
 40
0.2
 49
0.1
 74
0
 49
-0.1
 74
0
  0
LTYPE
  5
1F9
100
AcDbSymbolTableRecord
100
AcDbLinetypeTableRecord
  2
DASHED
 70
64
  3
- - - - - - - - - - - - - - - - - - - -
 72
65
 73
2
 40
0.2
 49
0.1
 74
0
 49
-0.1
 74
0
  0
ENDTAB
  0
TABLE
  2
LAYER
  5
2
100
AcDbSymbolTable
 70
36
  0
LAYER
  5
10
100
AcDbSymbolTableRecord
100
AcDbLayerTableRecord
  2
0
 70
0
 62
7
  6
CONTINUOUS
370
-3
390
F
  0
LAYER
  5
1FA
100
AcDbSymbolTableRecord
100
AcDbLayerTableRecord
  2
DEFAULT_1
 70
0
 62
7
  6
CENTER
370
-3
390
F
  0
LAYER
  5
1FB
100
AcDbSymbolTableRecord
100
AcDbLayerTableRecord
  2
DEFAULT_2
 70
0
 62
7
  6
HIDDEN
370
-3
390
F
  0
LAYER
  5
1FC
100
AcDbSymbolTableRecord
100
AcDbLayerTableRecord
  2
DEFAULT_3
 70
0
 62
7
  6
PHANTOM
370
-3
390
F
  0
LAYER
  5
1FD
100
AcDbSymbolTableRecord
100
AcDbLayerTableRecord
  2
ASSI
 70
0
 62
7
  6
CONTINUOUS
370
-3
390
F
  0
LAYER
  5
1FE
100
AcDbSymbolTableRecord
100
AcDbLayerTableRecord
  2
COORDINATE
 70
0
 62
7
  6
CONTINUOUS
370
-3
390
F
  0
LAYER
  5
1FF
100
AcDbSymbolTableRecord
100
AcDbLayerTableRecord
  2
COORD_ORIGINE
 70
0
 62
7
  6
CONTINUOUS
370
-3
390
F
  0
LAYER
  5
200
100
AcDbSymbolTableRecord
100
AcDbLayerTableRecord
  2
COPY_PUBLISH
 70
0
 62
7
  6
CONTINUOUS
370
-3
390
F
  0
LAYER
  5
201
100
AcDbSymbolTableRecord
100
AcDbLayerTableRecord
  2
COSMETIC
 70
0
 62
7
  6
CONTINUOUS
370
-3
390
F
  0
LAYER
  5
202
100
AcDbSymbolTableRecord
100
AcDbLayerTableRecord
  2
COSMETICI
 70
0
 62
7
  6
CONTINUOUS
370
-3
390
F
  0
LAYER
  5
203
100
AcDbSymbolTableRecord
100
AcDbLayerTableRecord
  2
CURVE
 70
0
 62
7
  6
CONTINUOUS
370
-3
390
F
  0
LAYER
  5
204
100
AcDbSymbolTableRecord
100
AcDbLayerTableRecord
  2
CURVE_TASSELLI
 70
0
 62
7
  6
CONTINUOUS
370
-3
390
F
  0
LAYER
  5
205
100
AcDbSymbolTableRecord
100
AcDbLayerTableRecord
  2
DRAFT
 70
0
 62
7
  6
CONTINUOUS
370
-3
390
F
  0
LAYER
  5
206
100
AcDbSymbolTableRecord
100
AcDbLayerTableRecord
  2
IMPORT_IGES
 70
0
 62
7
  6
CONTINUOUS
370
-3
390
F
  0
LAYER
  5
207
100
AcDbSymbolTableRecord
100
AcDbLayerTableRecord
  2
INTFCLR_2
 70
0
 62
7
  6
CONTINUOUS
370
-3
390
F
  0
LAYER
  5
208
100
AcDbSymbolTableRecord
100
AcDbLayerTableRecord
  2
INTF_1
 70
0
 62
7
  6
CONTINUOUS
370
-3
390
F
  0
LAYER
  5
209
100
AcDbSymbolTableRecord
100
AcDbLayerTableRecord
  2
INTF_21
 70
0
 62
7
  6
CONTINUOUS
370
-3
390
F
  0
LAYER
  5
20A
100
AcDbSymbolTableRecord
100
AcDbLayerTableRecord
  2
INTF_6
 70
0
 62
7
  6
CONTINUOUS
370
-3
390
F
  0
LAYER
  5
20B
100
AcDbSymbolTableRecord
100
AcDbLayerTableRecord
  2
INTF_7
 70
0
 62
7
  6
CONTINUOUS
370
-3
390
F
  0
LAYER
  5
20C
100
AcDbSymbolTableRecord
100
AcDbLayerTableRecord
  2
INTF_CYAN
 70
0
 62
7
  6
CONTINUOUS
370
-3
390
F
  0
LAYER
  5
20D
100
AcDbSymbolTableRecord
100
AcDbLayerTableRecord
  2
LIVELLO_1
 70
0
 62
7
  6
CONTINUOUS
370
-3
390
F
  0
LAYER
  5
20E
100
AcDbSymbolTableRecord
100
AcDbLayerTableRecord
  2
NOTE
 70
0
 62
7
  6
CONTINUOUS
370
-3
390
F
  0
LAYER
  5
20F
100
AcDbSymbolTableRecord
100
AcDbLayerTableRecord
  2
PIANI
 70
0
 62
7
  6
CONTINUOUS
370
-3
390
F
  0
LAYER
  5
210
100
AcDbSymbolTableRecord
100
AcDbLayerTableRecord
  2
PIANI_ORIGINE
 70
0
 62
7
  6
CONTINUOUS
370
-3
390
F
  0
LAYER
  5
211
100
AcDbSymbolTableRecord
100
AcDbLayerTableRecord
  2
PIANI_RIFERIMENTO
 70
0
 62
7
  6
CONTINUOUS
370
-3
390
F
  0
LAYER
  5
212
100
AcDbSymbolTableRecord
100
AcDbLayerTableRecord
  2
PUNTI
 70
0
 62
7
  6
CONTINUOUS
370
-3
390
F
  0
LAYER
  5
213
100
AcDbSymbolTableRecord
100
AcDbLayerTableRecord
  2
RACCORDO
 70
0
 62
7
  6
CONTINUOUS
370
-3
390
F
  0
LAYER
  5
214
100
AcDbSymbolTableRecord
100
AcDbLayerTableRecord
  2
RGB__255__255__255__
 70
0
 62
7
  6
CONTINUOUS
370
-3
390
F
  0
LAYER
  5
215
100
AcDbSymbolTableRecord
100
AcDbLayerTableRecord
  2
RGB____0____0____0__
 70
0
 62
7
  6
CONTINUOUS
370
-3
390
F
  0
LAYER
  5
216
100
AcDbSymbolTableRecord
100
AcDbLayerTableRecord
  2
SIMBOLI
 70
0
 62
7
  6
CONTINUOUS
370
-3
390
F
  0
LAYER
  5
217
100
AcDbSymbolTableRecord
100
AcDbLayerTableRecord
  2
SMUSSO
 70
0
 62
7
  6
CONTINUOUS
370
-3
390
F
  0
LAYER
  5
218
100
AcDbSymbolTableRecord
100
AcDbLayerTableRecord
  2
SUPERFICI
 70
0
 62
7
  6
CONTINUOUS
370
-3
390
F
  0
LAYER
  5
219
100
AcDbSymbolTableRecord
100
AcDbLayerTableRecord
  2
TRASH
 70
0
 62
7
  6
CONTINUOUS
370
-3
390
F
  0
LAYER
  5
21A
100
AcDbSymbolTableRecord
100
AcDbLayerTableRecord
  2
WHITE
 70
0
 62
7
  6
CONTINUOUS
370
-3
390
F
  0
LAYER
  5
21B
100
AcDbSymbolTableRecord
100
AcDbLayerTableRecord
  2
XSEC_DATUMS
 70
0
 62
7
  6
CONTINUOUS
370
-3
390
F
  0
ENDTAB
  0
TABLE
  2
STYLE
  5
3
100
AcDbSymbolTable
 70
1
  0
STYLE
  5
11
100
AcDbSymbolTableRecord
100
AcDbTextStyleTableRecord
  2
STANDARD
 70
0
 40
0.0
 41
0.8
 50
0.0
 71
0
 42
0.2
  3
txt
  4

  0
STYLE
  5
21C
100
AcDbSymbolTableRecord
100
AcDbTextStyleTableRecord
  2
TEXTSTYLE_1
 70
0
 40
0.0
 41
0.8
 50
0.0
 71
0
 42
0.2
  3
gdt
  4

  0
ENDTAB
  0
TABLE
  2
VIEW
  5
6
100
AcDbSymbolTable
 70
0
  0
ENDTAB
  0
TABLE
  2
UCS
  5
7
100
AcDbSymbolTable
 70
0
  0
ENDTAB
  0
TABLE
  2
APPID
  5
9
100
AcDbSymbolTable
 70
1
  0
APPID
  5
21D
100
AcDbSymbolTableRecord
100
AcDbRegAppTableRecord
  2
ACAD
 70
0
  0
ENDTAB
  0
TABLE
  2
BLOCK_RECORD
  5
1
100
AcDbSymbolTable
 70
0
  0
BLOCK_RECORD
  5
21E
100
AcDbSymbolTableRecord
100
AcDbBlockTableRecord
  2
*Model_Space
  0
BLOCK_RECORD
  5
21F
100
AcDbSymbolTableRecord
100
AcDbBlockTableRecord
  2
*Paper_Space
  0
BLOCK_RECORD
  5
220
100
AcDbSymbolTableRecord
100
AcDbBlockTableRecord
  2
_FILLED
  0
ENDTAB
  0
TABLE
  2
DIMSTYLE
  5
A
100
AcDbSymbolTable
 70
1
100
AcDbDimStyleTable
 71
0
  0
DIMSTYLE
105
221
100
AcDbSymbolTableRecord
100
AcDbDimStyleTableRecord
  2
STANDARD
 70
0
  3

  4

 40
1.0
 41
3.0
 42
0.5
 43
0.38
 44
1.5
 45
0.0
 46
0.0
 47
0.01
 48
0.01
140
3.0
141
0.09
142
0.0
143
25.4
144
1.0
145
0.0
146
1.0
147
0.625
 71
1
 72
0
 73
0
 74
0
 75
0
 76
0
 77
1
 78
8
 79
2
170
0
171
1
172
0
173
0
174
0
175
0
176
0
177
0
178
0
270
2
179
2
271
2
272
2
273
2
274
2
275
0
280
0
281
0
282
0
283
1
284
8
285
0
286
0
287
3
288
0
340
11
278
44
341
220
342
220
343
220
344
220
  0
ENDTAB
  0
ENDSEC
  0
SECTION
  2
BLOCKS
  0
BLOCK
  5
20
100
AcDbEntity
  8
0
100
AcDbBlockBegin
  2
*Model_Space
 70
0
 10
0.0
 20
0.0
 30
0.0
  3
*Model_Space
  1

  0
ENDBLK
  5
21
100
AcDbEntity
  8
0
100
AcDbBlockEnd
  0
BLOCK
  5
1C
100
AcDbEntity
  8
0
100
AcDbBlockBegin
  2
*Paper_Space
 70
0
 10
0.0
 20
0.0
 30
0.0
  3
*Paper_Space
  1

  0
ENDBLK
  5
1D
100
AcDbEntity
  8
0
100
AcDbBlockEnd
  0
BLOCK
  5
222
100
AcDbEntity
  8
0
100
AcDbBlockBegin
  2
_FILLED
 70
64
 10
0.0
 20
0.0
  3
_FILLED
  1

  0
SOLID
  5
223
100
AcDbEntity
  8
0
  6
BYBLOCK
 62
0
100
AcDbTrace
 10
0.0
 20
0.0
 11
-1.0
 21
0.3166666667
 12
-1.0
 22
-0.3166666667
 13
-1.0
 23
-0.3166666667
  0
ENDBLK
  5
224
100
AcDbEntity
  8
0
  6
BYBLOCK
 62
0
100
AcDbBlockEnd
  0
ENDSEC
  0
SECTION
  2
ENTITIES
  0
LINE
  5
225
100
AcDbEntity
  8
0
100
AcDbLine
 62
7
  6
CONTINUOUS
 10
-33.713712047
 20
52.8073741756
 11
-29.9258982598
 21
55.3109410669
  0
LINE
  5
226
100
AcDbEntity
  8
ASSI
100
AcDbLine
 62
7
  6
CONTINUOUS
 10
-33.713712047
 20
52.8073741756
 11
-29.9258982598
 21
55.3109410669
  0
LINE
  5
227
100
AcDbEntity
  8
0
100
AcDbLine
 62
7
  6
CONTINUOUS
 10
-33.0061747777
 20
53.2158183695
 11
-29.2183609905
 21
55.7193852608
  0
LINE
  5
228
100
AcDbEntity
  8
ASSI
100
AcDbLine
 62
7
  6
CONTINUOUS
 10
-33.0061747777
 20
53.2158183695
 11
-29.2183609905
 21
55.7193852608
  0
LINE
  5
229
100
AcDbEntity
  8
0
100
AcDbLine
 62
7
  6
CONTINUOUS
 10
-33.0269383918
 20
53.2029790185
 11
-33.0061747777
 21
53.2158183695
  0
LINE
  5
22A
100
AcDbEntity
  8
ASSI
100
AcDbLine
 62
7
  6
CONTINUOUS
 10
-33.0269383918
 20
53.2029790185
 11
-33.0061747777
 21
53.2158183695
  0
LINE
  5
22B
100
AcDbEntity
  8
0
100
AcDbLine
 62
7
  6
CONTINUOUS
 10
-29.9258982598
 20
55.3109410669
 11
-29.2183609905
 21
55.7193852608
  0
LINE
  5
22C
100
AcDbEntity
  8
ASSI
100
AcDbLine
 62
7
  6
CONTINUOUS
 10
-29.9258982598
 20
55.3109410669
 11
-29.2183609905
 21
55.7193852608
  0
LINE
  5
22D
100
AcDbEntity
  8
0
100
AcDbLine
 62
7
  6
CONTINUOUS
 10
-33.0269383918
 20
53.2029790185
 11
-33.7133367395
 21
52.8067378141
  0
LINE
  5
22E
100
AcDbEntity
  8
ASSI
100
AcDbLine
 62
7
  6
CONTINUOUS
 10
-33.0269383918
 20
53.2029790185
 11
-33.7133367395
 21
52.8067378141
  0
LINE
  5
22F
100
AcDbEntity
  8
0
100
AcDbLine
 62
7
  6
CONTINUOUS
 10
-33.4096276917
 20
51.7877505801
 11
-33.6886036258
 21
51.6267045045
  0
LINE
  5
230
100
AcDbEntity
  8
ASSI
100
AcDbLine
 62
7
  6
CONTINUOUS
 10
-33.4096276917
 20
51.7877505801
 11
-33.6886036258
 21
51.6267045045
  0
LINE
  5
231
100
AcDbEntity
  8
IMPORT_IGES
100
AcDbLine
 62
7
  6
CONTINUOUS
 10
32.0411322287
 20
-48.8463758992
 11
30.7827314074
 21
-49.1229986991
  0
LINE
  5
232
100
AcDbEntity
  8
CURVE
100
AcDbLine
 62
250
  6
CONTINUOUS
 10
32.0411322287
 20
-48.8463758992
 11
30.7827314074
 21
-49.1229986991
  0
LINE
  5
233
100
AcDbEntity
  8
IMPORT_IGES
100
AcDbLine
 62
7
  6
CONTINUOUS
 10
30.7827314074
 20
-48.6972617039
 11
32.6109225841
 21
-48.3689685114
  0
LINE
  5
234
100
AcDbEntity
  8
CURVE
100
AcDbLine
 62
250
  6
CONTINUOUS
 10
30.7827314074
 20
-48.6972617039
 11
32.6109225841
 21
-48.3689685114
  0
LINE
  5
235
100
AcDbEntity
  8
IMPORT_IGES
100
AcDbLine
 62
7
  6
CONTINUOUS
 10
31.2850719363
 20
-44.6382971314
 11
31.9635370636
 21
-44.4851225515
  0
LINE
  5
236
100
AcDbEntity
  8
CURVE
100
AcDbLine
 62
250
  6
CONTINUOUS
 10
31.2850719363
 20
-44.6382971314
 11
31.9635370636
 21
-44.4851225515
  0
LINE
  5
237
100
AcDbEntity
  8
IMPORT_IGES
100
AcDbLine
 62
7
  6
CONTINUOUS
 10
32.2459507582
 20
-44.4202106124
 11
32.6109225841
 21
-44.3412594007
  0
LINE
  5
238
100
AcDbEntity
  8
CURVE
100
AcDbLine
 62
250
  6
CONTINUOUS
 10
32.2459507582
 20
-44.4202106124
 11
32.6109225841
 21
-44.3412594007
  0
LINE
  5
239
100
AcDbEntity
  8
IMPORT_IGES
100
AcDbLine
 62
7
  6
CONTINUOUS
 10
32.6109225841
 20
-44.7626650212
 11
30.7827314074
 21
-45.1068295793
  0
LINE
  5
23A
100
AcDbEntity
  8
CURVE
100
AcDbLine
 62
250
  6
CONTINUOUS
 10
32.6109225841
 20
-44.7626650212
 11
30.7827314074
 21
-45.1068295793
  0
LINE
  5
23B
100
AcDbEntity
  8
CURVE
100
AcDbLine
 62
250
  6
CONTINUOUS
 10
31.7977486871
 20
-46.3057887178
 11
30.7827314074
 21
-46.4262684078
  0
LINE
  5
23C
100
AcDbEntity
  8
IMPORT_IGES
100
AcDbLine
 62
7
  6
CONTINUOUS
 10
31.7977486871
 20
-46.3057887178
 11
30.7827314074
 21
-46.4262684078
  0
LINE
  5
23D
100
AcDbEntity
  8
CURVE
100
AcDbLine
 62
250
  6
CONTINUOUS
 10
31.4221246946
 20
-45.9739366547
 11
32.6109225841
 21
-45.8404082359
  0
LINE
  5
23E
100
AcDbEntity
  8
IMPORT_IGES
100
AcDbLine
 62
7
  6
CONTINUOUS
 10
31.4221246946
 20
-45.9739366547
 11
32.6109225841
 21
-45.8404082359
  0
LINE
  5
23F
100
AcDbEntity
  8
0
100
AcDbLine
 62
7
  6
CONTINUOUS
 10
-33.4096276917
 20
51.7877505801
 11
-33.0269383918
 21
53.2029790185
  0
LINE
  5
240
100
AcDbEntity
  8
ASSI
100
AcDbLine
 62
7
  6
CONTINUOUS
 10
-33.4096276917
 20
51.7877505801
 11
-33.0269383918
 21
53.2029790185
  0
LINE
  5
241
100
AcDbEntity
  8
0
100
AcDbLine
 62
7
  6
CONTINUOUS
 10
28.2133185794
 20
-54.9463231628
 11
29.6302777103
 21
-55.3225026187
  0
LINE
  5
242
100
AcDbEntity
  8
ASSI
100
AcDbLine
 62
7
  6
CONTINUOUS
 10
28.2133185794
 20
-54.9463231628
 11
29.6302777103
 21
-55.3225026187
  0
LINE
  5
243
100
AcDbEntity
  8
0
100
AcDbLine
 62
7
  6
CONTINUOUS
 10
-33.6886036258
 20
-19.2049290948
 11
-33.4096276917
 21
-19.6881295863
  0
LINE
  5
244
100
AcDbEntity
  8
ASSI
100
AcDbLine
 62
7
  6
CONTINUOUS
 10
-33.6886036258
 20
-19.2049290948
 11
-33.4096276917
 21
-19.6881295863
  0
LINE
  5
245
100
AcDbEntity
  8
0
100
AcDbLine
 62
7
  6
CONTINUOUS
 10
-33.6886036258
 20
-19.2049290948
 11
-33.7133367395
 21
-18.7486935173
  0
LINE
  5
246
100
AcDbEntity
  8
ASSI
100
AcDbLine
 62
7
  6
CONTINUOUS
 10
-33.6886036258
 20
-19.2049290948
 11
-33.7133367395
 21
-18.7486935173
  0
LINE
  5
247
100
AcDbEntity
  8
0
100
AcDbLine
 62
7
  6
CONTINUOUS
 10
-33.4096276917
 20
-19.6881295863
 11
-33.0269383918
 21
-19.9375703284
  0
LINE
  5
248
100
AcDbEntity
  8
ASSI
100
AcDbLine
 62
7
  6
CONTINUOUS
 10
-33.4096276917
 20
-19.6881295863
 11
-33.0269383918
 21
-19.9375703284
  0
LINE
  5
249
100
AcDbEntity
  8
0
100
AcDbLine
 62
7
  6
CONTINUOUS
 10
-33.6886036258
 20
51.6267045045
 11
-33.7133367395
 21
52.8067378141
  0
LINE
  5
24A
100
AcDbEntity
  8
ASSI
100
AcDbLine
 62
7
  6
CONTINUOUS
 10
-33.6886036258
 20
51.6267045045
 11
-33.7133367395
 21
52.8067378141
  0
LINE
  5
24B
100
AcDbEntity
  8
0
100
AcDbLine
 62
7
  6
CONTINUOUS
 10
-33.7133367395
 20
-18.7486935173
 11
-33.713712047
 21
-18.7245006566
  0
LINE
  5
24C
100
AcDbEntity
  8
ASSI
100
AcDbLine
 62
7
  6
CONTINUOUS
 10
-33.7133367395
 20
-18.7486935173
 11
-33.713712047
 21
-18.7245006566
  0
LINE
  5
24D
100
AcDbEntity
  8
0
100
AcDbLine
 62
7
  6
CONTINUOUS
 10
-33.713712047
 20
52.8073741756
 11
-33.713712047
 21
-18.7245006566
  0
LINE
  5
24E
100
AcDbEntity
  8
ASSI
100
AcDbLine
 62
7
  6
CONTINUOUS
 10
-33.713712047
 20
52.8073741756
 11
-33.713712047
 21
-18.7245006566
  0
LINE
  5
24F
100
AcDbEntity
  8
0
100
AcDbLine
 62
7
  6
CONTINUOUS
 10
-33.6886036258
 20
51.6267045045
 11
-33.6886036258
 21
-19.2049290948
  0
LINE
  5
250
100
AcDbEntity
  8
ASSI
100
AcDbLine
 62
7
  6
CONTINUOUS
 10
-33.6886036258
 20
51.6267045045
 11
-33.6886036258
 21
-19.2049290948
  0
LINE
  5
251
100
AcDbEntity
  8
0
100
AcDbLine
 62
7
  6
CONTINUOUS
 10
-33.0061747777
 20
-19.949991154
 11
28.9442417929
 21
-55.7193852608
  0
LINE
  5
252
100
AcDbEntity
  8
ASSI
100
AcDbLine
 62
7
  6
CONTINUOUS
 10
-33.0061747777
 20
-19.949991154
 11
28.9442417929
 21
-55.7193852608
  0
LINE
  5
253
100
AcDbEntity
  8
0
100
AcDbLine
 62
7
  6
CONTINUOUS
 10
-33.4096276917
 20
-19.6881295863
 11
27.9343426453
 21
-55.1073692384
  0
LINE
  5
254
100
AcDbEntity
  8
ASSI
100
AcDbLine
 62
7
  6
CONTINUOUS
 10
-33.4096276917
 20
-19.6881295863
 11
27.9343426453
 21
-55.1073692384
  0
LINE
  5
255
100
AcDbEntity
  8
0
100
AcDbLine
 62
7
  6
CONTINUOUS
 10
-33.0061747777
 20
-19.949991154
 11
-33.0269383918
 21
-19.9375703284
  0
LINE
  5
256
100
AcDbEntity
  8
ASSI
100
AcDbLine
 62
7
  6
CONTINUOUS
 10
-33.0061747777
 20
-19.949991154
 11
-33.0269383918
 21
-19.9375703284
  0
LINE
  5
257
100
AcDbEntity
  8
0
100
AcDbLine
 62
7
  6
CONTINUOUS
 10
27.9343426453
 20
-55.1073692384
 11
28.9438793627
 21
-55.7187438231
  0
LINE
  5
258
100
AcDbEntity
  8
ASSI
100
AcDbLine
 62
7
  6
CONTINUOUS
 10
27.9343426453
 20
-55.1073692384
 11
28.9438793627
 21
-55.7187438231
  0
LINE
  5
259
100
AcDbEntity
  8
0
100
AcDbLine
 62
250
  6
CONTINUOUS
 10
-15.5444104204
 20
20.799378116
 11
-15.7837626361
 21
20.28361254
  0
LINE
  5
25A
100
AcDbEntity
  8
ASSI
100
AcDbLine
 62
250
  6
CONTINUOUS
 10
-15.5444104204
 20
20.799378116
 11
-15.7837626361
 21
20.28361254
  0
LINE
  5
25B
100
AcDbEntity
  8
0
100
AcDbLine
 62
250
  6
CONTINUOUS
 10
-15.7837626361
 20
20.28361254
 11
-15.9251839923
 21
20.2019576214
  0
LINE
  5
25C
100
AcDbEntity
  8
ASSI
100
AcDbLine
 62
250
  6
CONTINUOUS
 10
-15.7837626361
 20
20.28361254
 11
-15.9251839923
 21
20.2019576214
  0
LINE
  5
25D
100
AcDbEntity
  8
0
100
AcDbLine
 62
250
  6
CONTINUOUS
 10
11.0163628629
 20
-23.5720428669
 11
10.4498989459
 21
-23.5214815878
  0
LINE
  5
25E
100
AcDbEntity
  8
ASSI
100
AcDbLine
 62
250
  6
CONTINUOUS
 10
11.0163628629
 20
-23.5720428669
 11
10.4498989459
 21
-23.5214815878
  0
LINE
  5
25F
100
AcDbEntity
  8
0
100
AcDbLine
 62
250
  6
CONTINUOUS
 10
-15.4251324472
 20
10.1157012786
 11
-15.7837626361
 21
9.342910831
  0
LINE
  5
260
100
AcDbEntity
  8
ASSI
100
AcDbLine
 62
250
  6
CONTINUOUS
 10
-15.4251324472
 20
10.1157012786
 11
-15.7837626361
 21
9.342910831
  0
LINE
  5
261
100
AcDbEntity
  8
0
100
AcDbLine
 62
250
  6
CONTINUOUS
 10
-15.4302092455
 20
7.1791896331
 11
-15.0766558549
 21
7.7915620682
  0
LINE
  5
262
100
AcDbEntity
  8
ASSI
100
AcDbLine
 62
250
  6
CONTINUOUS
 10
-15.4302092455
 20
7.1791896331
 11
-15.0766558549
 21
7.7915620682
  0
LINE
  5
263
100
AcDbEntity
  8
0
100
AcDbLine
 62
250
  6
CONTINUOUS
 10
1.8231962154
 20
-18.1263397262
 11
0.974668078
 21
-18.0506020373
  0
LINE
  5
264
100
AcDbEntity
  8
ASSI
100
AcDbLine
 62
250
  6
CONTINUOUS
 10
1.8231962154
 20
-18.1263397262
 11
0.974668078
 21
-18.0506020373
  0
LINE
  5
265
100
AcDbEntity
  8
0
100
AcDbLine
 62
7
  6
CONTINUOUS
 10
-16.6322907735
 20
-7.4763847619
 11
-16.6322907735
 21
3.4643169471
  0
LINE
  5
266
100
AcDbEntity
  8
ASSI
100
AcDbLine
 62
7
  6
CONTINUOUS
 10
-16.6322907735
 20
-7.4763847619
 11
-16.6322907735
 21
3.4643169471
  0
LINE
  5
267
100
AcDbEntity
  8
0
100
AcDbLine
 62
7
  6
CONTINUOUS
 10
-16.6322907735
 20
9.2612559124
 11
-16.6322907735
 21
20.2019576214
  0
LINE
  5
268
100
AcDbEntity
  8
ASSI
100
AcDbLine
 62
7
  6
CONTINUOUS
 10
-16.6322907735
 20
9.2612559124
 11
-16.6322907735
 21
20.2019576214
  0
LINE
  5
269
100
AcDbEntity
  8
0
100
AcDbLine
 62
7
  6
CONTINUOUS
 10
-15.9251839923
 20
-7.4763847619
 11
-15.9251839923
 21
3.4643169471
  0
LINE
  5
26A
100
AcDbEntity
  8
ASSI
100
AcDbLine
 62
7
  6
CONTINUOUS
 10
-15.9251839923
 20
-7.4763847619
 11
-15.9251839923
 21
3.4643169471
  0
LINE
  5
26B
100
AcDbEntity
  8
0
100
AcDbLine
 62
7
  6
CONTINUOUS
 10
-15.9251839923
 20
9.2612559124
 11
-15.9251839923
 21
20.2019576214
  0
LINE
  5
26C
100
AcDbEntity
  8
ASSI
100
AcDbLine
 62
7
  6
CONTINUOUS
 10
-15.9251839923
 20
9.2612559124
 11
-15.9251839923
 21
20.2019576214
  0
LINE
  5
26D
100
AcDbEntity
  8
0
100
AcDbLine
 62
7
  6
CONTINUOUS
 10
-15.7837626361
 20
20.28361254
 11
-15.7837626361
 21
9.342910831
  0
LINE
  5
26E
100
AcDbEntity
  8
ASSI
100
AcDbLine
 62
7
  6
CONTINUOUS
 10
-15.7837626361
 20
20.28361254
 11
-15.7837626361
 21
9.342910831
  0
LINE
  5
26F
100
AcDbEntity
  8
0
100
AcDbLine
 62
7
  6
CONTINUOUS
 10
-15.7837626361
 20
3.5459718658
 11
-15.7837626361
 21
-7.3947298432
  0
LINE
  5
270
100
AcDbEntity
  8
ASSI
100
AcDbLine
 62
7
  6
CONTINUOUS
 10
-15.7837626361
 20
3.5459718658
 11
-15.7837626361
 21
-7.3947298432
  0
LINE
  5
271
100
AcDbEntity
  8
0
100
AcDbLine
 62
7
  6
CONTINUOUS
 10
-15.4251324472
 20
20.8059882436
 11
-15.4251324472
 21
10.1157012786
  0
LINE
  5
272
100
AcDbEntity
  8
ASSI
100
AcDbLine
 62
7
  6
CONTINUOUS
 10
-15.4251324472
 20
20.8059882436
 11
-15.4251324472
 21
10.1157012786
  0
LINE
  5
273
100
AcDbEntity
  8
0
100
AcDbLine
 62
7
  6
CONTINUOUS
 10
-15.4251324472
 20
4.0683475762
 11
-15.4251324472
 21
-6.6219393956
  0
LINE
  5
274
100
AcDbEntity
  8
ASSI
100
AcDbLine
 62
7
  6
CONTINUOUS
 10
-15.4251324472
 20
4.0683475762
 11
-15.4251324472
 21
-6.6219393956
  0
LINE
  5
275
100
AcDbEntity
  8
0
100
AcDbLine
 62
250
  6
CONTINUOUS
 10
-15.5444104467
 20
4.061737385
 11
-15.7837626361
 21
3.5459718658
  0
LINE
  5
276
100
AcDbEntity
  8
ASSI
100
AcDbLine
 62
250
  6
CONTINUOUS
 10
-15.5444104467
 20
4.061737385
 11
-15.7837626361
 21
3.5459718658
  0
LINE
  5
277
100
AcDbEntity
  8
0
100
AcDbLine
 62
250
  6
CONTINUOUS
 10
-15.7837626361
 20
9.342910831
 11
-15.9251839923
 21
9.2612559124
  0
LINE
  5
278
100
AcDbEntity
  8
ASSI
100
AcDbLine
 62
250
  6
CONTINUOUS
 10
-15.7837626361
 20
9.342910831
 11
-15.9251839923
 21
9.2612559124
  0
LINE
  5
279
100
AcDbEntity
  8
0
100
AcDbLine
 62
250
  6
CONTINUOUS
 10
-14.9352344987
 20
7.8732169869
 11
-15.0766558549
 21
7.7915620682
  0
LINE
  5
27A
100
AcDbEntity
  8
ASSI
100
AcDbLine
 62
250
  6
CONTINUOUS
 10
-14.9352344987
 20
7.8732169869
 11
-15.0766558549
 21
7.7915620682
  0
LINE
  5
27B
100
AcDbEntity
  8
0
100
AcDbLine
 62
250
  6
CONTINUOUS
 10
-0.7223881968
 20
-16.6625631118
 11
-0.0152814156
 21
-16.6625631118
  0
LINE
  5
27C
100
AcDbEntity
  8
ASSI
100
AcDbLine
 62
250
  6
CONTINUOUS
 10
-0.7223881968
 20
-16.6625631118
 11
-0.0152814156
 21
-16.6625631118
  0
LINE
  5
27D
100
AcDbEntity
  8
0
100
AcDbLine
 62
250
  6
CONTINUOUS
 10
-4.8935397138
 20
-14.385864517
 11
-5.4600036308
 21
-14.335303238
  0
LINE
  5
27E
100
AcDbEntity
  8
ASSI
100
AcDbLine
 62
250
  6
CONTINUOUS
 10
-4.8935397138
 20
-14.385864517
 11
-5.4600036308
 21
-14.335303238
  0
LINE
  5
27F
100
AcDbEntity
  8
0
100
AcDbLine
 62
7
  6
CONTINUOUS
 10
9.9549241991
 20
-24.2155089416
 11
0.4796933312
 21
-18.744629391
  0
LINE
  5
280
100
AcDbEntity
  8
ASSI
100
AcDbLine
 62
7
  6
CONTINUOUS
 10
9.9549241991
 20
-24.2155089416
 11
0.4796933312
 21
-18.744629391
  0
LINE
  5
281
100
AcDbEntity
  8
0
100
AcDbLine
 62
7
  6
CONTINUOUS
 10
-5.9549783776
 20
-15.0293305917
 11
-15.4302092455
 21
-9.5584510411
  0
LINE
  5
282
100
AcDbEntity
  8
ASSI
100
AcDbLine
 62
7
  6
CONTINUOUS
 10
-5.9549783776
 20
-15.0293305917
 11
-15.4302092455
 21
-9.5584510411
  0
LINE
  5
283
100
AcDbEntity
  8
0
100
AcDbLine
 62
7
  6
CONTINUOUS
 10
10.3084775897
 20
-23.6031365065
 11
0.8332467218
 21
-18.1322569559
  0
LINE
  5
284
100
AcDbEntity
  8
ASSI
100
AcDbLine
 62
7
  6
CONTINUOUS
 10
10.3084775897
 20
-23.6031365065
 11
0.8332467218
 21
-18.1322569559
  0
LINE
  5
285
100
AcDbEntity
  8
0
100
AcDbLine
 62
7
  6
CONTINUOUS
 10
-5.601424987
 20
-14.4169581566
 11
-15.0766558549
 21
-8.946078606
  0
LINE
  5
286
100
AcDbEntity
  8
ASSI
100
AcDbLine
 62
7
  6
CONTINUOUS
 10
-5.601424987
 20
-14.4169581566
 11
-15.0766558549
 21
-8.946078606
  0
LINE
  5
287
100
AcDbEntity
  8
0
100
AcDbLine
 62
7
  6
CONTINUOUS
 10
-14.9352344987
 20
-8.8644236874
 11
-5.4600036308
 21
-14.335303238
  0
LINE
  5
288
100
AcDbEntity
  8
ASSI
100
AcDbLine
 62
7
  6
CONTINUOUS
 10
-14.9352344987
 20
-8.8644236874
 11
-5.4600036308
 21
-14.335303238
  0
LINE
  5
289
100
AcDbEntity
  8
0
100
AcDbLine
 62
7
  6
CONTINUOUS
 10
0.974668078
 20
-18.0506020373
 11
10.4498989459
 21
-23.5214815878
  0
LINE
  5
28A
100
AcDbEntity
  8
ASSI
100
AcDbLine
 62
7
  6
CONTINUOUS
 10
0.974668078
 20
-18.0506020373
 11
10.4498989459
 21
-23.5214815878
  0
LINE
  5
28B
100
AcDbEntity
  8
0
100
AcDbLine
 62
7
  6
CONTINUOUS
 10
-14.0867063612
 20
-8.9401613763
 11
-4.8282089863
 21
-14.2859017244
  0
LINE
  5
28C
100
AcDbEntity
  8
ASSI
100
AcDbLine
 62
7
  6
CONTINUOUS
 10
-14.0867063612
 20
-8.9401613763
 11
-4.8282089863
 21
-14.2859017244
  0
LINE
  5
28D
100
AcDbEntity
  8
0
100
AcDbLine
 62
7
  6
CONTINUOUS
 10
1.8231962154
 20
-18.1263397262
 11
11.0816935904
 21
-23.4720800743
  0
LINE
  5
28E
100
AcDbEntity
  8
ASSI
100
AcDbLine
 62
7
  6
CONTINUOUS
 10
1.8231962154
 20
-18.1263397262
 11
11.0816935904
 21
-23.4720800743
  0
LINE
  5
28F
100
AcDbEntity
  8
0
100
AcDbLine
 62
7
  6
CONTINUOUS
 10
-5.4284606778
 20
-12.5565354366
 11
-4.7528968496
 21
-12.9465975242
  0
LINE
  5
290
100
AcDbEntity
  8
0
100
AcDbLine
 62
7
  6
CONTINUOUS
 10
10.4814418989
 20
-21.7427137864
 11
11.1570057271
 21
-22.132775874
  0
LINE
  5
291
100
AcDbEntity
  8
0
100
AcDbLine
 62
250
  6
CONTINUOUS
 10
-15.4251324472
 20
-6.6219393956
 11
-15.7837626361
 21
-7.3947298432
  0
LINE
  5
292
100
AcDbEntity
  8
ASSI
100
AcDbLine
 62
250
  6
CONTINUOUS
 10
-15.4251324472
 20
-6.6219393956
 11
-15.7837626361
 21
-7.3947298432
  0
LINE
  5
293
100
AcDbEntity
  8
0
100
AcDbLine
 62
250
  6
CONTINUOUS
 10
-15.4302092455
 20
-9.5584510411
 11
-15.0766558549
 21
-8.946078606
  0
LINE
  5
294
100
AcDbEntity
  8
ASSI
100
AcDbLine
 62
250
  6
CONTINUOUS
 10
-15.4302092455
 20
-9.5584510411
 11
-15.0766558549
 21
-8.946078606
  0
LINE
  5
295
100
AcDbEntity
  8
0
100
AcDbLine
 62
250
  6
CONTINUOUS
 10
-15.9251839923
 20
3.4643169471
 11
-15.7837626361
 21
3.5459718658
  0
LINE
  5
296
100
AcDbEntity
  8
ASSI
100
AcDbLine
 62
250
  6
CONTINUOUS
 10
-15.9251839923
 20
3.4643169471
 11
-15.7837626361
 21
3.5459718658
  0
LINE
  5
297
100
AcDbEntity
  8
0
100
AcDbLine
 62
250
  6
CONTINUOUS
 10
0.1261399406
 20
11.0974341902
 11
-0.0152814156
 21
11.0157792715
  0
LINE
  5
298
100
AcDbEntity
  8
ASSI
100
AcDbLine
 62
250
  6
CONTINUOUS
 10
0.1261399406
 20
11.0974341902
 11
-0.0152814156
 21
11.0157792715
  0
LINE
  5
299
100
AcDbEntity
  8
0
100
AcDbLine
 62
250
  6
CONTINUOUS
 10
-14.0867063612
 20
-8.9401613763
 11
-14.9352344987
 21
-8.8644236874
  0
LINE
  5
29A
100
AcDbEntity
  8
ASSI
100
AcDbLine
 62
250
  6
CONTINUOUS
 10
-14.0867063612
 20
-8.9401613763
 11
-14.9352344987
 21
-8.8644236874
  0
LINE
  5
29B
100
AcDbEntity
  8
0
100
AcDbLine
 62
7
  6
CONTINUOUS
 10
-4.7528968496
 20
13.3429444535
 11
-4.7528968496
 21
2.4022427444
  0
LINE
  5
29C
100
AcDbEntity
  8
ASSI
100
AcDbLine
 62
7
  6
CONTINUOUS
 10
-4.7528968496
 20
13.3429444535
 11
-4.7528968496
 21
2.4022427444
  0
LINE
  5
29D
100
AcDbEntity
  8
0
100
AcDbLine
 62
7
  6
CONTINUOUS
 10
-4.7528968496
 20
-3.3946962208
 11
-4.7528968496
 21
-14.3353979298
  0
LINE
  5
29E
100
AcDbEntity
  8
ASSI
100
AcDbLine
 62
7
  6
CONTINUOUS
 10
-4.7528968496
 20
-3.3946962208
 11
-4.7528968496
 21
-14.3353979298
  0
LINE
  5
29F
100
AcDbEntity
  8
0
100
AcDbLine
 62
250
  6
CONTINUOUS
 10
0.3654921563
 20
11.6131997661
 11
0.1261399406
 21
11.0974341902
  0
LINE
  5
2A0
100
AcDbEntity
  8
ASSI
100
AcDbLine
 62
250
  6
CONTINUOUS
 10
0.3654921563
 20
11.6131997661
 11
0.1261399406
 21
11.0974341902
  0
LINE
  5
2A1
100
AcDbEntity
  8
0
100
AcDbLine
 62
250
  6
CONTINUOUS
 10
-5.9549783776
 20
1.7083100826
 11
-5.601424987
 21
2.3206825176
  0
LINE
  5
2A2
100
AcDbEntity
  8
ASSI
100
AcDbLine
 62
250
  6
CONTINUOUS
 10
-5.9549783776
 20
1.7083100826
 11
-5.601424987
 21
2.3206825176
  0
LINE
  5
2A3
100
AcDbEntity
  8
0
100
AcDbLine
 62
250
  6
CONTINUOUS
 10
-5.4600036308
 20
2.4023374363
 11
-5.601424987
 21
2.3206825176
  0
LINE
  5
2A4
100
AcDbEntity
  8
ASSI
100
AcDbLine
 62
250
  6
CONTINUOUS
 10
-5.4600036308
 20
2.4023374363
 11
-5.601424987
 21
2.3206825176
  0
LINE
  5
2A5
100
AcDbEntity
  8
0
100
AcDbLine
 62
250
  6
CONTINUOUS
 10
-16.6322907735
 20
-7.4763847619
 11
-15.9251839923
 21
-7.4763847619
  0
LINE
  5
2A6
100
AcDbEntity
  8
ASSI
100
AcDbLine
 62
250
  6
CONTINUOUS
 10
-16.6322907735
 20
-7.4763847619
 11
-15.9251839923
 21
-7.4763847619
  0
LINE
  5
2A7
100
AcDbEntity
  8
0
100
AcDbLine
 62
250
  6
CONTINUOUS
 10
-0.7223881968
 20
-5.7218614028
 11
-0.0152814156
 21
-5.7218614028
  0
LINE
  5
2A8
100
AcDbEntity
  8
ASSI
100
AcDbLine
 62
250
  6
CONTINUOUS
 10
-0.7223881968
 20
-5.7218614028
 11
-0.0152814156
 21
-5.7218614028
  0
LINE
  5
2A9
100
AcDbEntity
  8
0
100
AcDbLine
 62
250
  6
CONTINUOUS
 10
11.016362801
 20
-6.8344021871
 11
10.4498989459
 21
-6.7838409136
  0
LINE
  5
2AA
100
AcDbEntity
  8
ASSI
100
AcDbLine
 62
250
  6
CONTINUOUS
 10
11.016362801
 20
-6.8344021871
 11
10.4498989459
 21
-6.7838409136
  0
LINE
  5
2AB
100
AcDbEntity
  8
0
100
AcDbLine
 62
7
  6
CONTINUOUS
 10
-15.4302092455
 20
4.158249609
 11
-5.9549783776
 21
-1.3126299416
  0
LINE
  5
2AC
100
AcDbEntity
  8
ASSI
100
AcDbLine
 62
7
  6
CONTINUOUS
 10
-15.4302092455
 20
4.158249609
 11
-5.9549783776
 21
-1.3126299416
  0
LINE
  5
2AD
100
AcDbEntity
  8
0
100
AcDbLine
 62
7
  6
CONTINUOUS
 10
0.4796933312
 20
-5.0279287409
 11
9.9549241991
 21
-10.4988082915
  0
LINE
  5
2AE
100
AcDbEntity
  8
ASSI
100
AcDbLine
 62
7
  6
CONTINUOUS
 10
0.4796933312
 20
-5.0279287409
 11
9.9549241991
 21
-10.4988082915
  0
LINE
  5
2AF
100
AcDbEntity
  8
0
100
AcDbLine
 62
7
  6
CONTINUOUS
 10
-0.7223881968
 20
-16.6625631118
 11
-0.7223881968
 21
-5.7218614028
  0
LINE
  5
2B0
100
AcDbEntity
  8
ASSI
100
AcDbLine
 62
7
  6
CONTINUOUS
 10
-0.7223881968
 20
-16.6625631118
 11
-0.7223881968
 21
-5.7218614028
  0
LINE
  5
2B1
100
AcDbEntity
  8
0
100
AcDbLine
 62
7
  6
CONTINUOUS
 10
-0.7223881968
 20
0.0750775625
 11
-0.7223881968
 21
11.0157792715
  0
LINE
  5
2B2
100
AcDbEntity
  8
ASSI
100
AcDbLine
 62
7
  6
CONTINUOUS
 10
-0.7223881968
 20
0.0750775625
 11
-0.7223881968
 21
11.0157792715
  0
LINE
  5
2B3
100
AcDbEntity
  8
0
100
AcDbLine
 62
7
  6
CONTINUOUS
 10
-0.0152814156
 20
-16.6625631118
 11
-0.0152814156
 21
-5.7218614028
  0
LINE
  5
2B4
100
AcDbEntity
  8
ASSI
100
AcDbLine
 62
7
  6
CONTINUOUS
 10
-0.0152814156
 20
-16.6625631118
 11
-0.0152814156
 21
-5.7218614028
  0
LINE
  5
2B5
100
AcDbEntity
  8
0
100
AcDbLine
 62
7
  6
CONTINUOUS
 10
-0.0152814156
 20
0.0750775625
 11
-0.0152814156
 21
11.0157792715
  0
LINE
  5
2B6
100
AcDbEntity
  8
ASSI
100
AcDbLine
 62
7
  6
CONTINUOUS
 10
-0.0152814156
 20
0.0750775625
 11
-0.0152814156
 21
11.0157792715
  0
LINE
  5
2B7
100
AcDbEntity
  8
0
100
AcDbLine
 62
7
  6
CONTINUOUS
 10
0.1261399406
 20
11.0974341902
 11
0.1261399406
 21
0.1567324811
  0
LINE
  5
2B8
100
AcDbEntity
  8
ASSI
100
AcDbLine
 62
7
  6
CONTINUOUS
 10
0.1261399406
 20
11.0974341902
 11
0.1261399406
 21
0.1567324811
  0
LINE
  5
2B9
100
AcDbEntity
  8
0
100
AcDbLine
 62
7
  6
CONTINUOUS
 10
0.1261399406
 20
-5.6402064841
 11
0.1261399406
 21
-16.5809081931
  0
LINE
  5
2BA
100
AcDbEntity
  8
ASSI
100
AcDbLine
 62
7
  6
CONTINUOUS
 10
0.1261399406
 20
-5.6402064841
 11
0.1261399406
 21
-16.5809081931
  0
LINE
  5
2BB
100
AcDbEntity
  8
0
100
AcDbLine
 62
7
  6
CONTINUOUS
 10
0.4847701295
 20
11.6198098937
 11
0.4847701295
 21
0.9295229288
  0
LINE
  5
2BC
100
AcDbEntity
  8
ASSI
100
AcDbLine
 62
7
  6
CONTINUOUS
 10
0.4847701295
 20
11.6198098937
 11
0.4847701295
 21
0.9295229288
  0
LINE
  5
2BD
100
AcDbEntity
  8
0
100
AcDbLine
 62
7
  6
CONTINUOUS
 10
0.4847701295
 20
-5.1178307737
 11
0.4847701295
 21
-15.8081177455
  0
LINE
  5
2BE
100
AcDbEntity
  8
ASSI
100
AcDbLine
 62
7
  6
CONTINUOUS
 10
0.4847701295
 20
-5.1178307737
 11
0.4847701295
 21
-15.8081177455
  0
LINE
  5
2BF
100
AcDbEntity
  8
0
100
AcDbLine
 62
250
  6
CONTINUOUS
 10
0.4847701295
 20
0.9295229288
 11
0.1261399406
 21
0.1567324811
  0
LINE
  5
2C0
100
AcDbEntity
  8
ASSI
100
AcDbLine
 62
250
  6
CONTINUOUS
 10
0.4847701295
 20
0.9295229288
 11
0.1261399406
 21
0.1567324811
  0
LINE
  5
2C1
100
AcDbEntity
  8
0
100
AcDbLine
 62
250
  6
CONTINUOUS
 10
-15.9251839923
 20
-7.4763847619
 11
-15.7837626361
 21
-7.3947298432
  0
LINE
  5
2C2
100
AcDbEntity
  8
ASSI
100
AcDbLine
 62
250
  6
CONTINUOUS
 10
-15.9251839923
 20
-7.4763847619
 11
-15.7837626361
 21
-7.3947298432
  0
LINE
  5
2C3
100
AcDbEntity
  8
0
100
AcDbLine
 62
7
  6
CONTINUOUS
 10
28.9442417929
 20
17.4464242627
 11
33.0061747777
 21
19.7917181648
  0
LINE
  5
2C4
100
AcDbEntity
  8
ASSI
100
AcDbLine
 62
7
  6
CONTINUOUS
 10
28.9442417929
 20
17.4464242627
 11
33.0061747777
 21
19.7917181648
  0
LINE
  5
2C5
100
AcDbEntity
  8
0
100
AcDbLine
 62
250
  6
CONTINUOUS
 10
0.1261399406
 20
0.1567324811
 11
-0.0152814156
 21
0.0750775625
  0
LINE
  5
2C6
100
AcDbEntity
  8
ASSI
100
AcDbLine
 62
250
  6
CONTINUOUS
 10
0.1261399406
 20
0.1567324811
 11
-0.0152814156
 21
0.0750775625
  0
LINE
  5
2C7
100
AcDbEntity
  8
0
100
AcDbLine
 62
250
  6
CONTINUOUS
 10
-15.0766558549
 20
-8.946078606
 11
-14.9352344987
 21
-8.8644236874
  0
LINE
  5
2C8
100
AcDbEntity
  8
ASSI
100
AcDbLine
 62
250
  6
CONTINUOUS
 10
-15.0766558549
 20
-8.946078606
 11
-14.9352344987
 21
-8.8644236874
  0
LINE
  5
2C9
100
AcDbEntity
  8
0
100
AcDbLine
 62
250
  6
CONTINUOUS
 10
-0.7223881968
 20
0.0750775625
 11
-0.0152814156
 21
0.0750775625
  0
LINE
  5
2CA
100
AcDbEntity
  8
ASSI
100
AcDbLine
 62
250
  6
CONTINUOUS
 10
-0.7223881968
 20
0.0750775625
 11
-0.0152814156
 21
0.0750775625
  0
LINE
  5
2CB
100
AcDbEntity
  8
0
100
AcDbLine
 62
250
  6
CONTINUOUS
 10
1.8231962154
 20
-1.3886990519
 11
0.974668078
 21
-1.312961363
  0
LINE
  5
2CC
100
AcDbEntity
  8
ASSI
100
AcDbLine
 62
250
  6
CONTINUOUS
 10
1.8231962154
 20
-1.3886990519
 11
0.974668078
 21
-1.312961363
  0
LINE
  5
2CD
100
AcDbEntity
  8
0
100
AcDbLine
 62
7
  6
CONTINUOUS
 10
9.9549241991
 20
-7.4778682673
 11
0.4796933312
 21
-2.0069887167
  0
LINE
  5
2CE
100
AcDbEntity
  8
ASSI
100
AcDbLine
 62
7
  6
CONTINUOUS
 10
9.9549241991
 20
-7.4778682673
 11
0.4796933312
 21
-2.0069887167
  0
LINE
  5
2CF
100
AcDbEntity
  8
0
100
AcDbLine
 62
7
  6
CONTINUOUS
 10
-5.9549783776
 20
1.7083100826
 11
-15.4302092455
 21
7.1791896331
  0
LINE
  5
2D0
100
AcDbEntity
  8
ASSI
100
AcDbLine
 62
7
  6
CONTINUOUS
 10
-5.9549783776
 20
1.7083100826
 11
-15.4302092455
 21
7.1791896331
  0
LINE
  5
2D1
100
AcDbEntity
  8
0
100
AcDbLine
 62
7
  6
CONTINUOUS
 10
10.3084775897
 20
-6.8654958323
 11
0.8332467218
 21
-1.3946162817
  0
LINE
  5
2D2
100
AcDbEntity
  8
ASSI
100
AcDbLine
 62
7
  6
CONTINUOUS
 10
10.3084775897
 20
-6.8654958323
 11
0.8332467218
 21
-1.3946162817
  0
LINE
  5
2D3
100
AcDbEntity
  8
0
100
AcDbLine
 62
7
  6
CONTINUOUS
 10
-5.601424987
 20
2.3206825176
 11
-15.0766558549
 21
7.7915620682
  0
LINE
  5
2D4
100
AcDbEntity
  8
ASSI
100
AcDbLine
 62
7
  6
CONTINUOUS
 10
-5.601424987
 20
2.3206825176
 11
-15.0766558549
 21
7.7915620682
  0
LINE
  5
2D5
100
AcDbEntity
  8
0
100
AcDbLine
 62
7
  6
CONTINUOUS
 10
-14.9352344987
 20
7.8732169869
 11
-5.4600036308
 21
2.4023374363
  0
LINE
  5
2D6
100
AcDbEntity
  8
ASSI
100
AcDbLine
 62
7
  6
CONTINUOUS
 10
-14.9352344987
 20
7.8732169869
 11
-5.4600036308
 21
2.4023374363
  0
LINE
  5
2D7
100
AcDbEntity
  8
0
100
AcDbLine
 62
7
  6
CONTINUOUS
 10
0.974668078
 20
-1.312961363
 11
10.4498989459
 21
-6.7838409136
  0
LINE
  5
2D8
100
AcDbEntity
  8
ASSI
100
AcDbLine
 62
7
  6
CONTINUOUS
 10
0.974668078
 20
-1.312961363
 11
10.4498989459
 21
-6.7838409136
  0
LINE
  5
2D9
100
AcDbEntity
  8
0
100
AcDbLine
 62
7
  6
CONTINUOUS
 10
-14.0867063612
 20
7.797479298
 11
-4.8282089801
 21
2.4517389463
  0
LINE
  5
2DA
100
AcDbEntity
  8
ASSI
100
AcDbLine
 62
7
  6
CONTINUOUS
 10
-14.0867063612
 20
7.797479298
 11
-4.8282089801
 21
2.4517389463
  0
LINE
  5
2DB
100
AcDbEntity
  8
0
100
AcDbLine
 62
7
  6
CONTINUOUS
 10
1.8231962154
 20
-1.3886990519
 11
11.0816935966
 21
-6.7344394036
  0
LINE
  5
2DC
100
AcDbEntity
  8
ASSI
100
AcDbLine
 62
7
  6
CONTINUOUS
 10
1.8231962154
 20
-1.3886990519
 11
11.0816935966
 21
-6.7344394036
  0
LINE
  5
2DD
100
AcDbEntity
  8
0
100
AcDbLine
 62
7
  6
CONTINUOUS
 10
-33.713712047
 20
52.8073741756
 11
-33.7133367395
 21
52.8067378141
  0
LINE
  5
2DE
100
AcDbEntity
  8
ASSI
100
AcDbLine
 62
7
  6
CONTINUOUS
 10
-33.713712047
 20
52.8073741756
 11
-33.7133367395
 21
52.8067378141
  0
LINE
  5
2DF
100
AcDbEntity
  8
0
100
AcDbLine
 62
7
  6
CONTINUOUS
 10
28.9438793627
 20
-55.7187438231
 11
28.9442417929
 21
-55.7193852608
  0
LINE
  5
2E0
100
AcDbEntity
  8
ASSI
100
AcDbLine
 62
7
  6
CONTINUOUS
 10
28.9438793627
 20
-55.7187438231
 11
28.9442417929
 21
-55.7193852608
  0
LINE
  5
2E1
100
AcDbEntity
  8
0
100
AcDbLine
 62
250
  6
CONTINUOUS
 10
0.36549213
 20
-5.1244409649
 11
0.1261399406
 21
-5.6402064841
  0
LINE
  5
2E2
100
AcDbEntity
  8
ASSI
100
AcDbLine
 62
250
  6
CONTINUOUS
 10
0.36549213
 20
-5.1244409649
 11
0.1261399406
 21
-5.6402064841
  0
LINE
  5
2E3
100
AcDbEntity
  8
0
100
AcDbLine
 62
250
  6
CONTINUOUS
 10
0.4796933312
 20
-2.0069887167
 11
0.8332467218
 21
-1.3946162817
  0
LINE
  5
2E4
100
AcDbEntity
  8
ASSI
100
AcDbLine
 62
250
  6
CONTINUOUS
 10
0.4796933312
 20
-2.0069887167
 11
0.8332467218
 21
-1.3946162817
  0
LINE
  5
2E5
100
AcDbEntity
  8
0
100
AcDbLine
 62
250
  6
CONTINUOUS
 10
-5.9549783776
 20
-15.0293305917
 11
-5.601424987
 21
-14.4169581566
  0
LINE
  5
2E6
100
AcDbEntity
  8
ASSI
100
AcDbLine
 62
250
  6
CONTINUOUS
 10
-5.9549783776
 20
-15.0293305917
 11
-5.601424987
 21
-14.4169581566
  0
LINE
  5
2E7
100
AcDbEntity
  8
0
100
AcDbLine
 62
7
  6
CONTINUOUS
 10
29.6517790622
 20
16.2209337653
 11
33.713712047
 21
18.5662276674
  0
LINE
  5
2E8
100
AcDbEntity
  8
ASSI
100
AcDbLine
 62
7
  6
CONTINUOUS
 10
29.6517790622
 20
16.2209337653
 11
33.713712047
 21
18.5662276674
  0
LINE
  5
2E9
100
AcDbEntity
  8
0
100
AcDbLine
 62
250
  6
CONTINUOUS
 10
0.974668078
 20
-1.312961363
 11
0.8332467218
 21
-1.3946162817
  0
LINE
  5
2EA
100
AcDbEntity
  8
ASSI
100
AcDbLine
 62
250
  6
CONTINUOUS
 10
0.974668078
 20
-1.312961363
 11
0.8332467218
 21
-1.3946162817
  0
LINE
  5
2EB
100
AcDbEntity
  8
0
100
AcDbLine
 62
250
  6
CONTINUOUS
 10
-16.6322907735
 20
3.4643169471
 11
-15.9251839923
 21
3.4643169471
  0
LINE
  5
2EC
100
AcDbEntity
  8
ASSI
100
AcDbLine
 62
250
  6
CONTINUOUS
 10
-16.6322907735
 20
3.4643169471
 11
-15.9251839923
 21
3.4643169471
  0
LINE
  5
2ED
100
AcDbEntity
  8
0
100
AcDbLine
 62
250
  6
CONTINUOUS
 10
-4.8935397757
 20
2.3517761628
 11
-5.4600036308
 21
2.4023374363
  0
LINE
  5
2EE
100
AcDbEntity
  8
ASSI
100
AcDbLine
 62
250
  6
CONTINUOUS
 10
-4.8935397757
 20
2.3517761628
 11
-5.4600036308
 21
2.4023374363
  0
LINE
  5
2EF
100
AcDbEntity
  8
0
100
AcDbLine
 62
250
  6
CONTINUOUS
 10
0.4847701295
 20
-15.8081177455
 11
0.1261399406
 21
-16.5809081931
  0
LINE
  5
2F0
100
AcDbEntity
  8
ASSI
100
AcDbLine
 62
250
  6
CONTINUOUS
 10
0.4847701295
 20
-15.8081177455
 11
0.1261399406
 21
-16.5809081931
  0
LINE
  5
2F1
100
AcDbEntity
  8
0
100
AcDbLine
 62
7
  6
CONTINUOUS
 10
27.9343426453
 20
16.368510928
 11
28.9438793627
 21
17.4218055238
  0
LINE
  5
2F2
100
AcDbEntity
  8
ASSI
100
AcDbLine
 62
7
  6
CONTINUOUS
 10
27.9343426453
 20
16.368510928
 11
28.9438793627
 21
17.4218055238
  0
LINE
  5
2F3
100
AcDbEntity
  8
0
100
AcDbLine
 62
250
  6
CONTINUOUS
 10
-0.0152814156
 20
-5.7218614028
 11
0.1261399406
 21
-5.6402064841
  0
LINE
  5
2F4
100
AcDbEntity
  8
ASSI
100
AcDbLine
 62
250
  6
CONTINUOUS
 10
-0.0152814156
 20
-5.7218614028
 11
0.1261399406
 21
-5.6402064841
  0
LINE
  5
2F5
100
AcDbEntity
  8
0
100
AcDbLine
 62
7
  6
CONTINUOUS
 10
28.2133185794
 20
15.8853104365
 11
29.6302777103
 21
16.2329287127
  0
LINE
  5
2F6
100
AcDbEntity
  8
ASSI
100
AcDbLine
 62
7
  6
CONTINUOUS
 10
28.2133185794
 20
15.8853104365
 11
29.6302777103
 21
16.2329287127
  0
LINE
  5
2F7
100
AcDbEntity
  8
0
100
AcDbLine
 62
250
  6
CONTINUOUS
 10
-16.6322907735
 20
9.2612559124
 11
-15.9251839923
 21
9.2612559124
  0
LINE
  5
2F8
100
AcDbEntity
  8
ASSI
100
AcDbLine
 62
250
  6
CONTINUOUS
 10
-16.6322907735
 20
9.2612559124
 11
-15.9251839923
 21
9.2612559124
  0
LINE
  5
2F9
100
AcDbEntity
  8
0
100
AcDbLine
 62
250
  6
CONTINUOUS
 10
-14.0867063612
 20
7.797479298
 11
-14.9352344987
 21
7.8732169869
  0
LINE
  5
2FA
100
AcDbEntity
  8
ASSI
100
AcDbLine
 62
250
  6
CONTINUOUS
 10
-14.0867063612
 20
7.797479298
 11
-14.9352344987
 21
7.8732169869
  0
LINE
  5
2FB
100
AcDbEntity
  8
0
100
AcDbLine
 62
7
  6
CONTINUOUS
 10
11.1570057271
 20
4.1567661036
 11
11.1570057271
 21
-6.7839356054
  0
LINE
  5
2FC
100
AcDbEntity
  8
ASSI
100
AcDbLine
 62
7
  6
CONTINUOUS
 10
11.1570057271
 20
4.1567661036
 11
11.1570057271
 21
-6.7839356054
  0
LINE
  5
2FD
100
AcDbEntity
  8
0
100
AcDbLine
 62
7
  6
CONTINUOUS
 10
11.1570057271
 20
-12.5808745707
 11
11.1570057271
 21
-23.5215762797
  0
LINE
  5
2FE
100
AcDbEntity
  8
ASSI
100
AcDbLine
 62
7
  6
CONTINUOUS
 10
11.1570057271
 20
-12.5808745707
 11
11.1570057271
 21
-23.5215762797
  0
LINE
  5
2FF
100
AcDbEntity
  8
0
100
AcDbLine
 62
250
  6
CONTINUOUS
 10
0.4796933312
 20
-18.744629391
 11
0.8332467218
 21
-18.1322569559
  0
LINE
  5
300
100
AcDbEntity
  8
ASSI
100
AcDbLine
 62
250
  6
CONTINUOUS
 10
0.4796933312
 20
-18.744629391
 11
0.8332467218
 21
-18.1322569559
  0
LINE
  5
301
100
AcDbEntity
  8
0
100
AcDbLine
 62
250
  6
CONTINUOUS
 10
9.9549241991
 20
-7.4778682673
 11
10.3084775897
 21
-6.8654958323
  0
LINE
  5
302
100
AcDbEntity
  8
ASSI
100
AcDbLine
 62
250
  6
CONTINUOUS
 10
9.9549241991
 20
-7.4778682673
 11
10.3084775897
 21
-6.8654958323
  0
LINE
  5
303
100
AcDbEntity
  8
0
100
AcDbLine
 62
250
  6
CONTINUOUS
 10
-5.601424987
 20
-14.4169581566
 11
-5.4600036308
 21
-14.335303238
  0
LINE
  5
304
100
AcDbEntity
  8
ASSI
100
AcDbLine
 62
250
  6
CONTINUOUS
 10
-5.601424987
 20
-14.4169581566
 11
-5.4600036308
 21
-14.335303238
  0
LINE
  5
305
100
AcDbEntity
  8
0
100
AcDbLine
 62
250
  6
CONTINUOUS
 10
10.4498989459
 20
-6.7838409136
 11
10.3084775897
 21
-6.8654958323
  0
LINE
  5
306
100
AcDbEntity
  8
ASSI
100
AcDbLine
 62
250
  6
CONTINUOUS
 10
10.4498989459
 20
-6.7838409136
 11
10.3084775897
 21
-6.8654958323
  0
LINE
  5
307
100
AcDbEntity
  8
0
100
AcDbLine
 62
7
  6
CONTINUOUS
 10
-6.9628813293
 20
-13.0533686672
 11
-5.7037081553
 21
-12.536899063
  0
LINE
  5
308
100
AcDbEntity
  8
0
100
AcDbLine
 62
250
  6
CONTINUOUS
 10
-0.7223881968
 20
11.0157792715
 11
-0.0152814156
 21
11.0157792715
  0
LINE
  5
309
100
AcDbEntity
  8
ASSI
100
AcDbLine
 62
250
  6
CONTINUOUS
 10
-0.7223881968
 20
11.0157792715
 11
-0.0152814156
 21
11.0157792715
  0
LINE
  5
30A
100
AcDbEntity
  8
0
100
AcDbLine
 62
7
  6
CONTINUOUS
 10
-15.4302092455
 20
20.8958902833
 11
-5.9549783776
 21
15.4250107327
  0
LINE
  5
30B
100
AcDbEntity
  8
ASSI
100
AcDbLine
 62
7
  6
CONTINUOUS
 10
-15.4302092455
 20
20.8958902833
 11
-5.9549783776
 21
15.4250107327
  0
LINE
  5
30C
100
AcDbEntity
  8
0
100
AcDbLine
 62
7
  6
CONTINUOUS
 10
0.4796933312
 20
11.7097119334
 11
9.9549241991
 21
6.2388323828
  0
LINE
  5
30D
100
AcDbEntity
  8
ASSI
100
AcDbLine
 62
7
  6
CONTINUOUS
 10
0.4796933312
 20
11.7097119334
 11
9.9549241991
 21
6.2388323828
  0
LINE
  5
30E
100
AcDbEntity
  8
0
100
AcDbLine
 62
250
  6
CONTINUOUS
 10
-0.0152814156
 20
-16.6625631118
 11
0.1261399406
 21
-16.5809081931
  0
LINE
  5
30F
100
AcDbEntity
  8
ASSI
100
AcDbLine
 62
250
  6
CONTINUOUS
 10
-0.0152814156
 20
-16.6625631118
 11
0.1261399406
 21
-16.5809081931
  0
LINE
  5
310
100
AcDbEntity
  8
0
100
AcDbLine
 62
250
  6
CONTINUOUS
 10
0.8332467218
 20
-18.1322569559
 11
0.974668078
 21
-18.0506020373
  0
LINE
  5
311
100
AcDbEntity
  8
ASSI
100
AcDbLine
 62
250
  6
CONTINUOUS
 10
0.8332467218
 20
-18.1322569559
 11
0.974668078
 21
-18.0506020373
  0
LINE
  5
312
100
AcDbEntity
  8
0
100
AcDbLine
 62
250
  6
CONTINUOUS
 10
9.9549241991
 20
-24.2155089416
 11
10.3084775897
 21
-23.6031365065
  0
LINE
  5
313
100
AcDbEntity
  8
ASSI
100
AcDbLine
 62
250
  6
CONTINUOUS
 10
9.9549241991
 20
-24.2155089416
 11
10.3084775897
 21
-23.6031365065
  0
LINE
  5
314
100
AcDbEntity
  8
0
100
AcDbLine
 62
250
  6
CONTINUOUS
 10
-16.6322907735
 20
20.2019576214
 11
-15.9251839923
 21
20.2019576214
  0
LINE
  5
315
100
AcDbEntity
  8
ASSI
100
AcDbLine
 62
250
  6
CONTINUOUS
 10
-16.6322907735
 20
20.2019576214
 11
-15.9251839923
 21
20.2019576214
  0
LINE
  5
316
100
AcDbEntity
  8
0
100
AcDbLine
 62
250
  6
CONTINUOUS
 10
10.3084775897
 20
-23.6031365065
 11
10.4498989459
 21
-23.5214815878
  0
LINE
  5
317
100
AcDbEntity
  8
ASSI
100
AcDbLine
 62
250
  6
CONTINUOUS
 10
10.3084775897
 20
-23.6031365065
 11
10.4498989459
 21
-23.5214815878
  0
LINE
  5
318
100
AcDbEntity
  8
0
100
AcDbLine
 62
7
  6
CONTINUOUS
 10
8.9470212474
 20
-22.2395470171
 11
10.2061944214
 21
-21.7230774129
  0
LINE
  5
319
100
AcDbEntity
  8
0
100
AcDbLine
 62
7
  6
CONTINUOUS
 10
28.2133185794
 20
-54.9463231628
 11
28.2133185794
 21
15.8853104365
  0
LINE
  5
31A
100
AcDbEntity
  8
ASSI
100
AcDbLine
 62
7
  6
CONTINUOUS
 10
28.2133185794
 20
-54.9463231628
 11
28.2133185794
 21
15.8853104365
  0
LINE
  5
31B
100
AcDbEntity
  8
0
100
AcDbLine
 62
7
  6
CONTINUOUS
 10
29.6517790622
 20
-55.3109410669
 11
29.6517790622
 21
16.2209337653
  0
LINE
  5
31C
100
AcDbEntity
  8
ASSI
100
AcDbLine
 62
7
  6
CONTINUOUS
 10
29.6517790622
 20
-55.3109410669
 11
29.6517790622
 21
16.2209337653
  0
LINE
  5
31D
100
AcDbEntity
  8
IMPORT_IGES
100
AcDbLine
 62
7
  6
CONTINUOUS
 10
30.7826224357
 20
-48.1131914136
 11
30.7826224357
 21
-48.5392198888
  0
LINE
  5
31E
100
AcDbEntity
  8
CURVE
100
AcDbLine
 62
250
  6
CONTINUOUS
 10
30.7826224357
 20
-48.1131914136
 11
30.7826224357
 21
-48.5392198888
  0
LINE
  5
31F
100
AcDbEntity
  8
IMPORT_IGES
100
AcDbLine
 62
7
  6
CONTINUOUS
 10
30.7827314074
 20
-50.3757694636
 11
30.7827314074
 21
-49.9129712496
  0
LINE
  5
320
100
AcDbEntity
  8
CURVE
100
AcDbLine
 62
250
  6
CONTINUOUS
 10
30.7827314074
 20
-50.3757694636
 11
30.7827314074
 21
-49.9129712496
  0
LINE
  5
321
100
AcDbEntity
  8
IMPORT_IGES
100
AcDbLine
 62
7
  6
CONTINUOUS
 10
30.7827314074
 20
-49.1229986991
 11
30.7827314074
 21
-48.6972617039
  0
LINE
  5
322
100
AcDbEntity
  8
CURVE
100
AcDbLine
 62
250
  6
CONTINUOUS
 10
30.7827314074
 20
-49.1229986991
 11
30.7827314074
 21
-48.6972617039
  0
LINE
  5
323
100
AcDbEntity
  8
IMPORT_IGES
100
AcDbLine
 62
7
  6
CONTINUOUS
 10
30.7827314074
 20
-47.6995015504
 11
30.7827314074
 21
-47.2738257904
  0
LINE
  5
324
100
AcDbEntity
  8
CURVE
100
AcDbLine
 62
250
  6
CONTINUOUS
 10
30.7827314074
 20
-47.6995015504
 11
30.7827314074
 21
-47.2738257904
  0
LINE
  5
325
100
AcDbEntity
  8
IMPORT_IGES
100
AcDbLine
 62
7
  6
CONTINUOUS
 10
30.7827314074
 20
-46.4262684078
 11
30.7827314074
 21
-46.0047550133
  0
LINE
  5
326
100
AcDbEntity
  8
CURVE
100
AcDbLine
 62
250
  6
CONTINUOUS
 10
30.7827314074
 20
-46.4262684078
 11
30.7827314074
 21
-46.0047550133
  0
LINE
  5
327
100
AcDbEntity
  8
IMPORT_IGES
100
AcDbLine
 62
7
  6
CONTINUOUS
 10
30.7827314074
 20
-45.1068295793
 11
30.7827314074
 21
-44.6946982448
  0
LINE
  5
328
100
AcDbEntity
  8
CURVE
100
AcDbLine
 62
250
  6
CONTINUOUS
 10
30.7827314074
 20
-45.1068295793
 11
30.7827314074
 21
-44.6946982448
  0
LINE
  5
329
100
AcDbEntity
  8
0
100
AcDbLine
 62
7
  6
CONTINUOUS
 10
28.9442417929
 20
17.4464242627
 11
28.9438793627
 21
17.4218055238
  0
LINE
  5
32A
100
AcDbEntity
  8
ASSI
100
AcDbLine
 62
7
  6
CONTINUOUS
 10
28.9442417929
 20
17.4464242627
 11
28.9438793627
 21
17.4218055238
  0
LINE
  5
32B
100
AcDbEntity
  8
0
100
AcDbLine
 62
7
  6
CONTINUOUS
 10
29.6302777103
 20
16.2329287127
 11
29.6517790622
 21
16.2209337653
  0
LINE
  5
32C
100
AcDbEntity
  8
ASSI
100
AcDbLine
 62
7
  6
CONTINUOUS
 10
29.6302777103
 20
16.2329287127
 11
29.6517790622
 21
16.2209337653
  0
LINE
  5
32D
100
AcDbEntity
  8
0
100
AcDbLine
 62
7
  6
CONTINUOUS
 10
27.9343426453
 20
16.368510928
 11
-33.4096276917
 21
51.7877505801
  0
LINE
  5
32E
100
AcDbEntity
  8
ASSI
100
AcDbLine
 62
7
  6
CONTINUOUS
 10
27.9343426453
 20
16.368510928
 11
-33.4096276917
 21
51.7877505801
  0
LINE
  5
32F
100
AcDbEntity
  8
0
100
AcDbLine
 62
7
  6
CONTINUOUS
 10
28.9442417929
 20
17.4464242627
 11
-33.0061747777
 21
53.2158183695
  0
LINE
  5
330
100
AcDbEntity
  8
ASSI
100
AcDbLine
 62
7
  6
CONTINUOUS
 10
28.9442417929
 20
17.4464242627
 11
-33.0061747777
 21
53.2158183695
  0
LINE
  5
331
100
AcDbEntity
  8
IMPORT_IGES
100
AcDbLine
 62
7
  6
CONTINUOUS
 10
31.5960561922
 20
-42.8518072462
 11
31.5960561922
 21
-43.0952782374
  0
LINE
  5
332
100
AcDbEntity
  8
CURVE
100
AcDbLine
 62
250
  6
CONTINUOUS
 10
31.5960561922
 20
-42.8518072462
 11
31.5960561922
 21
-43.0952782374
  0
LINE
  5
333
100
AcDbEntity
  8
IMPORT_IGES
100
AcDbLine
 62
7
  6
CONTINUOUS
 10
31.89546968
 20
-42.9199408118
 11
31.89546968
 21
-42.691514577
  0
LINE
  5
334
100
AcDbEntity
  8
CURVE
100
AcDbLine
 62
250
  6
CONTINUOUS
 10
31.89546968
 20
-42.9199408118
 11
31.89546968
 21
-42.691514577
  0
LINE
  5
335
100
AcDbEntity
  8
IMPORT_IGES
100
AcDbLine
 62
7
  6
CONTINUOUS
 10
31.9635370636
 20
-44.4851225515
 11
31.9635370636
 21
-44.0772303306
  0
LINE
  5
336
100
AcDbEntity
  8
CURVE
100
AcDbLine
 62
250
  6
CONTINUOUS
 10
31.9635370636
 20
-44.4851225515
 11
31.9635370636
 21
-44.0772303306
  0
LINE
  5
337
100
AcDbEntity
  8
IMPORT_IGES
100
AcDbLine
 62
7
  6
CONTINUOUS
 10
32.2459507582
 20
-43.840030916
 11
32.2459507582
 21
-44.4202106124
  0
LINE
  5
338
100
AcDbEntity
  8
CURVE
100
AcDbLine
 62
250
  6
CONTINUOUS
 10
32.2459507582
 20
-43.840030916
 11
32.2459507582
 21
-44.4202106124
  0
LINE
  5
339
100
AcDbEntity
  8
IMPORT_IGES
100
AcDbLine
 62
7
  6
CONTINUOUS
 10
32.6109225841
 20
-47.554821909
 11
32.6109225841
 21
-47.1287934339
  0
LINE
  5
33A
100
AcDbEntity
  8
CURVE
100
AcDbLine
 62
250
  6
CONTINUOUS
 10
32.6109225841
 20
-47.554821909
 11
32.6109225841
 21
-47.1287934339
  0
LINE
  5
33B
100
AcDbEntity
  8
IMPORT_IGES
100
AcDbLine
 62
7
  6
CONTINUOUS
 10
32.6109225961
 20
-42.9590390136
 11
32.6109225961
 21
-42.5347248472
  0
LINE
  5
33C
100
AcDbEntity
  8
CURVE
100
AcDbLine
 62
250
  6
CONTINUOUS
 10
32.6109225961
 20
-42.9590390136
 11
32.6109225961
 21
-42.5347248472
  0
LINE
  5
33D
100
AcDbEntity
  8
IMPORT_IGES
100
AcDbLine
 62
7
  6
CONTINUOUS
 10
32.6109225961
 20
-41.8823211546
 11
32.6109225961
 21
-41.4725313766
  0
LINE
  5
33E
100
AcDbEntity
  8
CURVE
100
AcDbLine
 62
250
  6
CONTINUOUS
 10
32.6109225961
 20
-41.8823211546
 11
32.6109225961
 21
-41.4725313766
  0
LINE
  5
33F
100
AcDbEntity
  8
IMPORT_IGES
100
AcDbLine
 62
7
  6
CONTINUOUS
 10
32.6109225841
 20
-43.0841417485
 11
32.6109225841
 21
-43.5331579443
  0
LINE
  5
340
100
AcDbEntity
  8
CURVE
100
AcDbLine
 62
250
  6
CONTINUOUS
 10
32.6109225841
 20
-43.0841417485
 11
32.6109225841
 21
-43.5331579443
  0
LINE
  5
341
100
AcDbEntity
  8
IMPORT_IGES
100
AcDbLine
 62
7
  6
CONTINUOUS
 10
32.6109225841
 20
-44.3412594007
 11
32.6109225841
 21
-44.7626650212
  0
LINE
  5
342
100
AcDbEntity
  8
CURVE
100
AcDbLine
 62
250
  6
CONTINUOUS
 10
32.6109225841
 20
-44.3412594007
 11
32.6109225841
 21
-44.7626650212
  0
LINE
  5
343
100
AcDbEntity
  8
IMPORT_IGES
100
AcDbLine
 62
7
  6
CONTINUOUS
 10
32.6109225841
 20
-44.8295633298
 11
32.6109225841
 21
-45.2463322155
  0
LINE
  5
344
100
AcDbEntity
  8
CURVE
100
AcDbLine
 62
250
  6
CONTINUOUS
 10
32.6109225841
 20
-44.8295633298
 11
32.6109225841
 21
-45.2463322155
  0
LINE
  5
345
100
AcDbEntity
  8
IMPORT_IGES
100
AcDbLine
 62
7
  6
CONTINUOUS
 10
32.6109225841
 20
-45.8404082359
 11
32.6109225841
 21
-45.9001591637
  0
LINE
  5
346
100
AcDbEntity
  8
CURVE
100
AcDbLine
 62
250
  6
CONTINUOUS
 10
32.6109225841
 20
-45.8404082359
 11
32.6109225841
 21
-45.9001591637
  0
LINE
  5
347
100
AcDbEntity
  8
IMPORT_IGES
100
AcDbLine
 62
7
  6
CONTINUOUS
 10
32.6109225841
 20
-46.491878851
 11
32.6109225841
 21
-46.8994493826
  0
LINE
  5
348
100
AcDbEntity
  8
CURVE
100
AcDbLine
 62
250
  6
CONTINUOUS
 10
32.6109225841
 20
-46.491878851
 11
32.6109225841
 21
-46.8994493826
  0
LINE
  5
349
100
AcDbEntity
  8
IMPORT_IGES
100
AcDbLine
 62
7
  6
CONTINUOUS
 10
32.6109225841
 20
-48.3689685114
 11
32.6109225841
 21
-48.7444060388
  0
LINE
  5
34A
100
AcDbEntity
  8
CURVE
100
AcDbLine
 62
250
  6
CONTINUOUS
 10
32.6109225841
 20
-48.3689685114
 11
32.6109225841
 21
-48.7444060388
  0
LINE
  5
34B
100
AcDbEntity
  8
0
100
AcDbLine
 62
7
  6
CONTINUOUS
 10
33.713712047
 20
-53.2821625527
 11
33.713712047
 21
18.5662276674
  0
LINE
  5
34C
100
AcDbEntity
  8
ASSI
100
AcDbLine
 62
7
  6
CONTINUOUS
 10
33.713712047
 20
-53.2821625527
 11
33.713712047
 21
18.5662276674
  0
LINE
  5
34D
100
AcDbEntity
  8
0
100
AcDbLine
 62
7
  6
CONTINUOUS
 10
33.0061747777
 20
19.7917181648
 11
-29.2183609905
 21
55.7193852608
  0
LINE
  5
34E
100
AcDbEntity
  8
ASSI
100
AcDbLine
 62
7
  6
CONTINUOUS
 10
33.0061747777
 20
19.7917181648
 11
-29.2183609905
 21
55.7193852608
  0
LINE
  5
34F
100
AcDbEntity
  8
0
100
AcDbLine
 62
7
  6
CONTINUOUS
 10
28.2133185794
 20
15.8853104365
 11
27.9343426453
 21
16.368510928
  0
LINE
  5
350
100
AcDbEntity
  8
ASSI
100
AcDbLine
 62
7
  6
CONTINUOUS
 10
28.2133185794
 20
15.8853104365
 11
27.9343426453
 21
16.368510928
  0
LINE
  5
351
100
AcDbEntity
  8
0
100
AcDbLine
 62
7
  6
CONTINUOUS
 10
29.6302777103
 20
16.2329287127
 11
28.9438793627
 21
17.4218055238
  0
LINE
  5
352
100
AcDbEntity
  8
ASSI
100
AcDbLine
 62
7
  6
CONTINUOUS
 10
29.6302777103
 20
16.2329287127
 11
28.9438793627
 21
17.4218055238
  0
LINE
  5
353
100
AcDbEntity
  8
0
100
AcDbLine
 62
7
  6
CONTINUOUS
 10
33.0061747777
 20
19.7917181648
 11
33.713712047
 21
18.5662276674
  0
LINE
  5
354
100
AcDbEntity
  8
ASSI
100
AcDbLine
 62
7
  6
CONTINUOUS
 10
33.0061747777
 20
19.7917181648
 11
33.713712047
 21
18.5662276674
  0
LINE
  5
355
100
AcDbEntity
  8
CURVE
100
AcDbLine
 62
7
  6
CONTINUOUS
 10
30.8822956562
 20
-42.72311303
 11
31.3465999758
 21
-42.2588087103
  0
LINE
  5
356
100
AcDbEntity
  8
CURVE
100
AcDbLine
 62
7
  6
CONTINUOUS
 10
30.7896677817
 20
-43.0257516185
 11
31.5957149166
 21
-42.2197044836
  0
LINE
  5
357
100
AcDbEntity
  8
CURVE
100
AcDbLine
 62
7
  6
CONTINUOUS
 10
30.7657007161
 20
-43.2597293981
 11
31.1151979809
 21
-42.9102321332
  0
LINE
  5
358
100
AcDbEntity
  8
CURVE
100
AcDbLine
 62
7
  6
CONTINUOUS
 10
31.3818572895
 20
-42.6435728247
 11
31.7296934554
 21
-42.2957366588
  0
LINE
  5
359
100
AcDbEntity
  8
CURVE
100
AcDbLine
 62
7
  6
CONTINUOUS
 10
31.8003745207
 20
-42.2250555935
 11
32.2663772494
 21
-41.7590528648
  0
LINE
  5
35A
100
AcDbEntity
  8
CURVE
100
AcDbLine
 62
7
  6
CONTINUOUS
 10
30.7624675046
 20
-43.4729733236
 11
31.0771917578
 21
-43.1582490703
  0
LINE
  5
35B
100
AcDbEntity
  8
CURVE
100
AcDbLine
 62
7
  6
CONTINUOUS
 10
31.5562295428
 20
-42.6792112854
 11
32.6109225961
 21
-41.6245182321
  0
LINE
  5
35C
100
AcDbEntity
  8
CURVE
100
AcDbLine
 62
7
  6
CONTINUOUS
 10
30.7739592057
 20
-43.6714923365
 11
31.0922808036
 21
-43.3531707386
  0
LINE
  5
35D
100
AcDbEntity
  8
CURVE
100
AcDbLine
 62
7
  6
CONTINUOUS
 10
31.5959648425
 20
-42.8494866997
 11
31.9613301396
 21
-42.4841214026
  0
LINE
  5
35E
100
AcDbEntity
  8
CURVE
100
AcDbLine
 62
7
  6
CONTINUOUS
 10
32.265645735
 20
-42.1798058072
 11
32.6109225961
 21
-41.8345289461
  0
LINE
  5
35F
100
AcDbEntity
  8
IMPORT_IGES
100
AcDbLine
 62
7
  6
CONTINUOUS
 10
31.7575393183
 20
-42.3232217351
 11
31.7467363042
 21
-42.3290383212
  0
LINE
  5
360
100
AcDbEntity
  8
CURVE
100
AcDbLine
 62
250
  6
CONTINUOUS
 10
31.7575393183
 20
-42.3232217351
 11
31.7467363042
 21
-42.3290383212
  0
LINE
  5
361
100
AcDbEntity
  8
CURVE
100
AcDbLine
 62
7
  6
CONTINUOUS
 10
30.794681222
 20
-43.8607810343
 11
31.5183397193
 21
-43.1371225369
  0
LINE
  5
362
100
AcDbEntity
  8
CURVE
100
AcDbLine
 62
7
  6
CONTINUOUS
 10
31.5960561922
 20
-43.059406064
 11
31.89546968
 21
-42.7599925762
  0
LINE
  5
363
100
AcDbEntity
  8
CURVE
100
AcDbLine
 62
7
  6
CONTINUOUS
 10
31.0846595622
 20
-43.780813408
 11
32.0039292149
 21
-42.8615437553
  0
LINE
  5
364
100
AcDbEntity
  8
CURVE
100
AcDbLine
 62
7
  6
CONTINUOUS
 10
31.5396443151
 20
-43.5358393692
 11
32.4589139677
 21
-42.6165697165
  0
LINE
  5
365
100
AcDbEntity
  8
CURVE
100
AcDbLine
 62
7
  6
CONTINUOUS
 10
31.9946290679
 20
-43.2908653304
 11
32.6109225961
 21
-42.6745718021
  0
LINE
  5
366
100
AcDbEntity
  8
CURVE
100
AcDbLine
 62
7
  6
CONTINUOUS
 10
30.7827314074
 20
-44.7127737049
 11
30.9345702439
 21
-44.5609348684
  0
LINE
  5
367
100
AcDbEntity
  8
CURVE
100
AcDbLine
 62
7
  6
CONTINUOUS
 10
32.4496138207
 20
-43.0458912916
 11
32.6109225961
 21
-42.8845825162
  0
LINE
  5
368
100
AcDbEntity
  8
CURVE
100
AcDbLine
 62
7
  6
CONTINUOUS
 10
30.7827314074
 20
-44.9227844189
 11
32.6109225841
 21
-43.0945932422
  0
LINE
  5
369
100
AcDbEntity
  8
CURVE
100
AcDbLine
 62
7
  6
CONTINUOUS
 10
30.8147187015
 20
-45.1008078388
 11
32.6109225841
 21
-43.3046039562
  0
LINE
  5
36A
100
AcDbEntity
  8
CURVE
100
AcDbLine
 62
7
  6
CONTINUOUS
 10
31.0734335585
 20
-45.0521036958
 11
31.5461923108
 21
-44.5793449435
  0
LINE
  5
36B
100
AcDbEntity
  8
CURVE
100
AcDbLine
 62
7
  6
CONTINUOUS
 10
31.9635370636
 20
-44.1620001907
 11
32.2459507582
 21
-43.8795864961
  0
LINE
  5
36C
100
AcDbEntity
  8
CURVE
100
AcDbLine
 62
7
  6
CONTINUOUS
 10
32.4944353884
 20
-43.6311018659
 11
32.6109225841
 21
-43.5146146703
  0
LINE
  5
36D
100
AcDbEntity
  8
CURVE
100
AcDbLine
 62
7
  6
CONTINUOUS
 10
31.3321484155
 20
-45.0033995529
 11
31.8174420915
 21
-44.5181058768
  0
LINE
  5
36E
100
AcDbEntity
  8
CURVE
100
AcDbLine
 62
7
  6
CONTINUOUS
 10
31.9635370636
 20
-44.3720109047
 11
32.2459507582
 21
-44.0895972101
  0
LINE
  5
36F
100
AcDbEntity
  8
CURVE
100
AcDbLine
 62
7
  6
CONTINUOUS
 10
31.5908632724
 20
-44.9546954099
 11
32.2459507582
 21
-44.2996079241
  0
LINE
  5
370
100
AcDbEntity
  8
CURVE
100
AcDbLine
 62
7
  6
CONTINUOUS
 10
31.8495781294
 20
-44.9059912669
 11
32.3600383756
 21
-44.3955310207
  0
LINE
  5
371
100
AcDbEntity
  8
CURVE
100
AcDbLine
 62
7
  6
CONTINUOUS
 10
30.7827314074
 20
-46.182848703
 11
31.2813371728
 21
-45.6842429376
  0
LINE
  5
372
100
AcDbEntity
  8
CURVE
100
AcDbLine
 62
7
  6
CONTINUOUS
 10
32.1082929864
 20
-44.8572871239
 11
32.6109225841
 21
-44.3546575263
  0
LINE
  5
373
100
AcDbEntity
  8
CURVE
100
AcDbLine
 62
7
  6
CONTINUOUS
 10
30.7827314074
 20
-46.392859417
 11
31.8693004689
 21
-45.3062903555
  0
LINE
  5
374
100
AcDbEntity
  8
CURVE
100
AcDbLine
 62
7
  6
CONTINUOUS
 10
32.3670078434
 20
-44.808582981
 11
32.6109225841
 21
-44.5646682403
  0
LINE
  5
375
100
AcDbEntity
  8
CURVE
100
AcDbLine
 62
7
  6
CONTINUOUS
 10
30.9831185155
 20
-46.4024830229
 11
32.4572637651
 21
-44.9283377733
  0
LINE
  5
376
100
AcDbEntity
  8
CURVE
100
AcDbLine
 62
7
  6
CONTINUOUS
 10
31.221414263
 20
-46.3741979894
 11
31.6469257516
 21
-45.9486865008
  0
LINE
  5
377
100
AcDbEntity
  8
CURVE
100
AcDbLine
 62
7
  6
CONTINUOUS
 10
31.9364982016
 20
-45.6591140508
 11
32.6109225841
 21
-44.9846896683
  0
LINE
  5
378
100
AcDbEntity
  8
CURVE
100
AcDbLine
 62
7
  6
CONTINUOUS
 10
31.4597100106
 20
-46.3459129558
 11
31.8835101506
 21
-45.9221128158
  0
LINE
  5
379
100
AcDbEntity
  8
CURVE
100
AcDbLine
 62
7
  6
CONTINUOUS
 10
32.4778334991
 20
-45.3277894673
 11
32.6109225841
 21
-45.1947003824
  0
LINE
  5
37A
100
AcDbEntity
  8
CURVE
100
AcDbLine
 62
7
  6
CONTINUOUS
 10
31.6980057581
 20
-46.3176279223
 11
32.1200945497
 21
-45.8955391307
  0
LINE
  5
37B
100
AcDbEntity
  8
CURVE
100
AcDbLine
 62
7
  6
CONTINUOUS
 10
30.7827314074
 20
-47.442912987
 11
32.3566789488
 21
-45.8689654456
  0
LINE
  5
37C
100
AcDbEntity
  8
CURVE
100
AcDbLine
 62
7
  6
CONTINUOUS
 10
30.7827314074
 20
-47.6529237011
 11
32.5932633479
 21
-45.8423917606
  0
LINE
  5
37D
100
AcDbEntity
  8
CURVE
100
AcDbLine
 62
7
  6
CONTINUOUS
 10
31.0733404774
 20
-47.5723253451
 11
31.7621608549
 21
-46.8835049676
  0
LINE
  5
37E
100
AcDbEntity
  8
CURVE
100
AcDbLine
 62
7
  6
CONTINUOUS
 10
31.4467722129
 20
-47.4089043236
 11
32.1520868459
 21
-46.7035896905
  0
LINE
  5
37F
100
AcDbEntity
  8
CURVE
100
AcDbLine
 62
7
  6
CONTINUOUS
 10
30.7826224357
 20
-48.2830648148
 11
31.1506503613
 21
-47.9150368892
  0
LINE
  5
380
100
AcDbEntity
  8
CURVE
100
AcDbLine
 62
7
  6
CONTINUOUS
 10
31.8202039483
 20
-47.2454833022
 11
32.5420128369
 21
-46.5236744135
  0
LINE
  5
381
100
AcDbEntity
  8
CURVE
100
AcDbLine
 62
7
  6
CONTINUOUS
 10
30.7826224357
 20
-48.4930755288
 11
31.6056351141
 21
-47.6700628504
  0
LINE
  5
382
100
AcDbEntity
  8
CURVE
100
AcDbLine
 62
7
  6
CONTINUOUS
 10
32.1936356838
 20
-47.0820622807
 11
32.6109225841
 21
-46.6647753804
  0
LINE
  5
383
100
AcDbEntity
  8
CURVE
100
AcDbLine
 62
7
  6
CONTINUOUS
 10
30.7827314074
 20
-48.7029772711
 11
30.7896979809
 21
-48.6960106976
  0
LINE
  5
384
100
AcDbEntity
  8
CURVE
100
AcDbLine
 62
7
  6
CONTINUOUS
 10
31.1376361926
 20
-48.3480724859
 11
32.0606198669
 21
-47.4250888116
  0
LINE
  5
385
100
AcDbEntity
  8
CURVE
100
AcDbLine
 62
7
  6
CONTINUOUS
 10
32.5670674192
 20
-46.9186412593
 11
32.6109225841
 21
-46.8747860945
  0
LINE
  5
386
100
AcDbEntity
  8
CURVE
100
AcDbLine
 62
7
  6
CONTINUOUS
 10
30.7827314074
 20
-48.9129879851
 11
31.045675213
 21
-48.6500441796
  0
LINE
  5
387
100
AcDbEntity
  8
CURVE
100
AcDbLine
 62
7
  6
CONTINUOUS
 10
31.5926209455
 20
-48.1030984471
 11
32.5156046197
 21
-47.1801147728
  0
LINE
  5
388
100
AcDbEntity
  8
CURVE
100
AcDbLine
 62
7
  6
CONTINUOUS
 10
30.7827314074
 20
-49.1229986991
 11
31.301652445
 21
-48.6040776615
  0
LINE
  5
389
100
AcDbEntity
  8
CURVE
100
AcDbLine
 62
7
  6
CONTINUOUS
 10
32.0476056983
 20
-47.8581244083
 11
32.6109225841
 21
-47.2948075225
  0
LINE
  5
38A
100
AcDbEntity
  8
CURVE
100
AcDbLine
 62
7
  6
CONTINUOUS
 10
31.0519141037
 20
-49.0638267168
 11
31.5576296771
 21
-48.5581111435
  0
LINE
  5
38B
100
AcDbEntity
  8
CURVE
100
AcDbLine
 62
7
  6
CONTINUOUS
 10
32.5025904511
 20
-47.6131503695
 11
32.6109225841
 21
-47.5048182365
  0
LINE
  5
38C
100
AcDbEntity
  8
CURVE
100
AcDbLine
 62
7
  6
CONTINUOUS
 10
31.3210968001
 20
-49.0046547345
 11
31.8136069091
 21
-48.5121446254
  0
LINE
  5
38D
100
AcDbEntity
  8
CURVE
100
AcDbLine
 62
7
  6
CONTINUOUS
 10
31.5902794964
 20
-48.9454827521
 11
32.0695841412
 21
-48.4661781074
  0
LINE
  5
38E
100
AcDbEntity
  8
IMPORT_IGES
100
AcDbLine
 62
7
  6
CONTINUOUS
 10
32.6109225841
 20
-45.9001591637
 11
31.417148564
 21
-47.0426966689
  0
LINE
  5
38F
100
AcDbEntity
  8
CURVE
100
AcDbLine
 62
250
  6
CONTINUOUS
 10
32.6109225841
 20
-45.9001591637
 11
31.417148564
 21
-47.0426966689
  0
LINE
  5
390
100
AcDbEntity
  8
IMPORT_IGES
100
AcDbLine
 62
7
  6
CONTINUOUS
 10
30.7827314074
 20
-47.2738257904
 11
31.7977486871
 21
-46.3057887178
  0
LINE
  5
391
100
AcDbEntity
  8
CURVE
100
AcDbLine
 62
250
  6
CONTINUOUS
 10
30.7827314074
 20
-47.2738257904
 11
31.7977486871
 21
-46.3057887178
  0
LINE
  5
392
100
AcDbEntity
  8
IMPORT_IGES
100
AcDbLine
 62
7
  6
CONTINUOUS
 10
30.7827314074
 20
-44.6946982448
 11
32.6109225841
 21
-43.0841417485
  0
LINE
  5
393
100
AcDbEntity
  8
CURVE
100
AcDbLine
 62
250
  6
CONTINUOUS
 10
30.7827314074
 20
-44.6946982448
 11
32.6109225841
 21
-43.0841417485
  0
LINE
  5
394
100
AcDbEntity
  8
IMPORT_IGES
100
AcDbLine
 62
7
  6
CONTINUOUS
 10
32.6109225841
 20
-43.5331579443
 11
32.2459507582
 21
-43.840030916
  0
LINE
  5
395
100
AcDbEntity
  8
CURVE
100
AcDbLine
 62
250
  6
CONTINUOUS
 10
32.6109225841
 20
-43.5331579443
 11
32.2459507582
 21
-43.840030916
  0
LINE
  5
396
100
AcDbEntity
  8
IMPORT_IGES
100
AcDbLine
 62
7
  6
CONTINUOUS
 10
31.9635370636
 20
-44.0772303306
 11
31.2850719363
 21
-44.6382971314
  0
LINE
  5
397
100
AcDbEntity
  8
CURVE
100
AcDbLine
 62
250
  6
CONTINUOUS
 10
31.9635370636
 20
-44.0772303306
 11
31.2850719363
 21
-44.6382971314
  0
LINE
  5
398
100
AcDbEntity
  8
IMPORT_IGES
100
AcDbLine
 62
7
  6
CONTINUOUS
 10
30.7827314074
 20
-46.0047550133
 11
32.6109225841
 21
-44.8295633298
  0
LINE
  5
399
100
AcDbEntity
  8
CURVE
100
AcDbLine
 62
250
  6
CONTINUOUS
 10
30.7827314074
 20
-46.0047550133
 11
32.6109225841
 21
-44.8295633298
  0
LINE
  5
39A
100
AcDbEntity
  8
IMPORT_IGES
100
AcDbLine
 62
7
  6
CONTINUOUS
 10
32.6109225841
 20
-45.2463322155
 11
31.4221246946
 21
-45.9739366547
  0
LINE
  5
39B
100
AcDbEntity
  8
CURVE
100
AcDbLine
 62
250
  6
CONTINUOUS
 10
32.6109225841
 20
-45.2463322155
 11
31.4221246946
 21
-45.9739366547
  0
LINE
  5
39C
100
AcDbEntity
  8
IMPORT_IGES
100
AcDbLine
 62
7
  6
CONTINUOUS
 10
32.6109225961
 20
-42.5347248472
 11
31.89546968
 21
-42.9199408118
  0
LINE
  5
39D
100
AcDbEntity
  8
CURVE
100
AcDbLine
 62
250
  6
CONTINUOUS
 10
32.6109225961
 20
-42.5347248472
 11
31.89546968
 21
-42.9199408118
  0
LINE
  5
39E
100
AcDbEntity
  8
IMPORT_IGES
100
AcDbLine
 62
7
  6
CONTINUOUS
 10
31.5960561922
 20
-43.0952782374
 11
31.0941821556
 21
-43.3654985228
  0
LINE
  5
39F
100
AcDbEntity
  8
CURVE
100
AcDbLine
 62
250
  6
CONTINUOUS
 10
31.5960561922
 20
-43.0952782374
 11
31.0941821556
 21
-43.3654985228
  0
LINE
  5
3A0
100
AcDbEntity
  8
IMPORT_IGES
100
AcDbLine
 62
7
  6
CONTINUOUS
 10
30.8040910657
 20
-43.9318778059
 11
32.6109225961
 21
-42.9590390136
  0
LINE
  5
3A1
100
AcDbEntity
  8
CURVE
100
AcDbLine
 62
250
  6
CONTINUOUS
 10
30.8040910657
 20
-43.9318778059
 11
32.6109225961
 21
-42.9590390136
  0
LINE
  5
3A2
100
AcDbEntity
  8
IMPORT_IGES
100
AcDbLine
 62
7
  6
CONTINUOUS
 10
32.6109225841
 20
-47.1287934339
 11
30.7826224357
 21
-48.1131914136
  0
LINE
  5
3A3
100
AcDbEntity
  8
CURVE
100
AcDbLine
 62
250
  6
CONTINUOUS
 10
32.6109225841
 20
-47.1287934339
 11
30.7826224357
 21
-48.1131914136
  0
LINE
  5
3A4
100
AcDbEntity
  8
IMPORT_IGES
100
AcDbLine
 62
7
  6
CONTINUOUS
 10
31.417148564
 20
-47.0426966689
 11
32.6109225841
 21
-46.491878851
  0
LINE
  5
3A5
100
AcDbEntity
  8
CURVE
100
AcDbLine
 62
250
  6
CONTINUOUS
 10
31.417148564
 20
-47.0426966689
 11
32.6109225841
 21
-46.491878851
  0
LINE
  5
3A6
100
AcDbEntity
  8
IMPORT_IGES
100
AcDbLine
 62
7
  6
CONTINUOUS
 10
32.6109225841
 20
-46.8994493826
 11
30.7827314074
 21
-47.6995015504
  0
LINE
  5
3A7
100
AcDbEntity
  8
CURVE
100
AcDbLine
 62
250
  6
CONTINUOUS
 10
32.6109225841
 20
-46.8994493826
 11
30.7827314074
 21
-47.6995015504
  0
LINE
  5
3A8
100
AcDbEntity
  8
CURVE
100
AcDbLine
 62
7
  6
CONTINUOUS
 10
30.7827314074
 20
-49.9630415552
 11
31.111233579
 21
-49.6345393836
  0
LINE
  5
3A9
100
AcDbEntity
  8
CURVE
100
AcDbLine
 62
7
  6
CONTINUOUS
 10
31.8594621928
 20
-48.8863107698
 11
32.3255613732
 21
-48.4202115893
  0
LINE
  5
3AA
100
AcDbEntity
  8
CURVE
100
AcDbLine
 62
7
  6
CONTINUOUS
 10
30.7827314074
 20
-50.1730522692
 11
32.5815386053
 21
-48.3742450713
  0
LINE
  5
3AB
100
AcDbEntity
  8
CURVE
100
AcDbLine
 62
7
  6
CONTINUOUS
 10
30.850475656
 20
-50.3153187346
 11
32.6109225841
 21
-48.5548718066
  0
LINE
  5
3AC
100
AcDbEntity
  8
IMPORT_IGES
100
AcDbLine
 62
7
  6
CONTINUOUS
 10
32.6109225841
 20
-48.7444060388
 11
30.7827314074
 21
-50.3757694636
  0
LINE
  5
3AD
100
AcDbEntity
  8
CURVE
100
AcDbLine
 62
250
  6
CONTINUOUS
 10
32.6109225841
 20
-48.7444060388
 11
30.7827314074
 21
-50.3757694636
  0
LINE
  5
3AE
100
AcDbEntity
  8
IMPORT_IGES
100
AcDbLine
 62
7
  6
CONTINUOUS
 10
30.7827314074
 20
-49.9129712496
 11
32.0411322287
 21
-48.8463758992
  0
LINE
  5
3AF
100
AcDbEntity
  8
CURVE
100
AcDbLine
 62
250
  6
CONTINUOUS
 10
30.7827314074
 20
-49.9129712496
 11
32.0411322287
 21
-48.8463758992
  0
LINE
  5
3B0
100
AcDbEntity
  8
0
100
AcDbLine
 62
7
  6
CONTINUOUS
 10
27.9343426453
 20
-55.1073692384
 11
28.2133185794
 21
-54.9463231628
  0
LINE
  5
3B1
100
AcDbEntity
  8
ASSI
100
AcDbLine
 62
7
  6
CONTINUOUS
 10
27.9343426453
 20
-55.1073692384
 11
28.2133185794
 21
-54.9463231628
  0
LINE
  5
3B2
100
AcDbEntity
  8
0
100
AcDbLine
 62
7
  6
CONTINUOUS
 10
28.9438793627
 20
-55.7187438231
 11
29.6302777103
 21
-55.3225026187
  0
LINE
  5
3B3
100
AcDbEntity
  8
ASSI
100
AcDbLine
 62
7
  6
CONTINUOUS
 10
28.9438793627
 20
-55.7187438231
 11
29.6302777103
 21
-55.3225026187
  0
LINE
  5
3B4
100
AcDbEntity
  8
0
100
AcDbLine
 62
7
  6
CONTINUOUS
 10
33.713712047
 20
-53.2821625527
 11
33.0061747777
 21
-53.6906067465
  0
LINE
  5
3B5
100
AcDbEntity
  8
ASSI
100
AcDbLine
 62
7
  6
CONTINUOUS
 10
33.713712047
 20
-53.2821625527
 11
33.0061747777
 21
-53.6906067465
  0
LINE
  5
3B6
100
AcDbEntity
  8
IMPORT_IGES
100
AcDbLine
 62
7
  6
CONTINUOUS
 10
30.7826224357
 20
-48.5392198888
 11
32.6109225841
 21
-47.554821909
  0
LINE
  5
3B7
100
AcDbEntity
  8
CURVE
100
AcDbLine
 62
250
  6
CONTINUOUS
 10
30.7826224357
 20
-48.5392198888
 11
32.6109225841
 21
-47.554821909
  0
LINE
  5
3B8
100
AcDbEntity
  8
0
100
AcDbLine
 62
7
  6
CONTINUOUS
 10
29.6517790622
 20
-55.3109410669
 11
29.6302777103
 21
-55.3225026187
  0
LINE
  5
3B9
100
AcDbEntity
  8
ASSI
100
AcDbLine
 62
7
  6
CONTINUOUS
 10
29.6517790622
 20
-55.3109410669
 11
29.6302777103
 21
-55.3225026187
  0
LINE
  5
3BA
100
AcDbEntity
  8
0
100
AcDbLine
 62
7
  6
CONTINUOUS
 10
29.6517790622
 20
-55.3109410669
 11
33.713712047
 21
-53.2821625527
  0
LINE
  5
3BB
100
AcDbEntity
  8
ASSI
100
AcDbLine
 62
7
  6
CONTINUOUS
 10
29.6517790622
 20
-55.3109410669
 11
33.713712047
 21
-53.2821625527
  0
LINE
  5
3BC
100
AcDbEntity
  8
0
100
AcDbLine
 62
7
  6
CONTINUOUS
 10
28.9442417929
 20
-55.7193852608
 11
33.0061747777
 21
-53.6906067465
  0
LINE
  5
3BD
100
AcDbEntity
  8
ASSI
100
AcDbLine
 62
7
  6
CONTINUOUS
 10
28.9442417929
 20
-55.7193852608
 11
33.0061747777
 21
-53.6906067465
  0
ARC
  5
3BE
100
AcDbEntity
  8
0
100
AcDbCircle
 62
7
  6
CONTINUOUS
 10
10.7048530775
 20
-6.5710956803
 40
0.4082698429
100
AcDbArc
 50
287.1176012643
 51
299.9220177611
  0
ARC
  5
3BF
100
AcDbEntity
  8
0
100
AcDbCircle
 62
7
  6
CONTINUOUS
 10
-5.2050494992
 20
2.6150826696
 40
0.4082698429
100
AcDbArc
 50
287.1176012642
 51
299.9220177611
  0
ARC
  5
3C0
100
AcDbEntity
  8
ASSI
100
AcDbCircle
 62
7
  6
CONTINUOUS
 10
-5.2050494992
 20
2.6150826696
 40
0.4082698429
100
AcDbArc
 50
287.1176012642
 51
299.9220177611
  0
ARC
  5
3C1
100
AcDbEntity
  8
ASSI
100
AcDbCircle
 62
7
  6
CONTINUOUS
 10
10.7048530775
 20
-6.5710956803
 40
0.4082698429
100
AcDbArc
 50
287.1176012643
 51
299.9220177611
  0
ARC
  5
3C2
100
AcDbEntity
  8
0
100
AcDbCircle
 62
7
  6
CONTINUOUS
 10
-5.2050494239
 20
-14.1225581707
 40
0.4082696614
100
AcDbArc
 50
287.1177534332
 51
299.9220202196
  0
ARC
  5
3C3
100
AcDbEntity
  8
0
100
AcDbCircle
 62
7
  6
CONTINUOUS
 10
10.7048531528
 20
-23.3087365206
 40
0.4082696614
100
AcDbArc
 50
287.1177534332
 51
299.9220202196
  0
ARC
  5
3C4
100
AcDbEntity
  8
ASSI
100
AcDbCircle
 62
7
  6
CONTINUOUS
 10
-5.2050494239
 20
-14.1225581707
 40
0.4082696614
100
AcDbArc
 50
287.1177534332
 51
299.9220202196
  0
ARC
  5
3C5
100
AcDbEntity
  8
ASSI
100
AcDbCircle
 62
7
  6
CONTINUOUS
 10
10.7048531528
 20
-23.3087365206
 40
0.4082696614
100
AcDbArc
 50
287.1177534332
 51
299.9220202196
  0
ARC
  5
3C6
100
AcDbEntity
  8
0
100
AcDbCircle
 62
7
  6
CONTINUOUS
 10
-15.4720556554
 20
3.6603277625
 40
0.4082587586
100
AcDbArc
 50
120.081029099
 51
132.876238877
  0
ARC
  5
3C7
100
AcDbEntity
  8
0
100
AcDbCircle
 62
7
  6
CONTINUOUS
 10
0.4378469213
 20
-5.5258505874
 40
0.4082587586
100
AcDbArc
 50
120.081029099
 51
132.876238877
  0
ARC
  5
3C8
100
AcDbEntity
  8
ASSI
100
AcDbCircle
 62
7
  6
CONTINUOUS
 10
0.4378469213
 20
-5.5258505874
 40
0.4082587586
100
AcDbArc
 50
120.081029099
 51
132.876238877
  0
ARC
  5
3C9
100
AcDbEntity
  8
ASSI
100
AcDbCircle
 62
7
  6
CONTINUOUS
 10
-15.4720556554
 20
3.6603277625
 40
0.4082587586
100
AcDbArc
 50
120.081029099
 51
132.876238877
  0
ARC
  5
3CA
100
AcDbEntity
  8
0
100
AcDbCircle
 62
7
  6
CONTINUOUS
 10
-15.4720557614
 20
20.3979685849
 40
0.4082585772
100
AcDbArc
 50
120.0810266437
 51
132.8760867024
  0
ARC
  5
3CB
100
AcDbEntity
  8
0
100
AcDbCircle
 62
7
  6
CONTINUOUS
 10
0.4378468153
 20
11.211790235
 40
0.4082585772
100
AcDbArc
 50
120.0810266437
 51
132.8760867024
  0
ARC
  5
3CC
100
AcDbEntity
  8
ASSI
100
AcDbCircle
 62
7
  6
CONTINUOUS
 10
0.4378468153
 20
11.211790235
 40
0.4082585772
100
AcDbArc
 50
120.0810266437
 51
132.8760867024
  0
ARC
  5
3CD
100
AcDbEntity
  8
ASSI
100
AcDbCircle
 62
7
  6
CONTINUOUS
 10
-15.4720557614
 20
20.3979685849
 40
0.4082585772
100
AcDbArc
 50
120.0810266437
 51
132.8760867024
  0
SPLINE
  5
3CE
100
AcDbEntity
  8
0
100
AcDbSpline
 62
7
  6
CONTINUOUS
 70
0
 71
3
 72
9
 73
5
 74
0
 42
0.0000001
 43
0.0000001
 44
0.0000000001
 40
0.0
 40
0.0
 40
0.0
 40
0.0
 40
0.2403057122
 40
1.0
 40
1.0
 40
1.0
 40
1.0
 10
9.9549241991
 20
-10.4988082915
 30
0.0
 10
9.9785451225
 20
-10.5124467165
 30
0.0
 10
10.0753787429
 20
-10.5717194117
 30
0.0
 10
10.1663826348
 20
-10.640323822
 30
0.0
 10
10.2320515814
 20
-10.6962062591
 30
0.0
  0
SPLINE
  5
3CF
100
AcDbEntity
  8
0
100
AcDbSpline
 62
7
  6
CONTINUOUS
 70
0
 71
3
 72
11
 73
7
 74
0
 42
0.0000001
 43
0.0000001
 44
0.0000000001
 40
0.0
 40
0.0
 40
0.0
 40
0.0
 40
0.2436409567
 40
0.5000042266
 40
0.7563652941
 40
1.0
 40
1.0
 40
1.0
 40
1.0
 10
10.2320515814
 20
-10.6962062591
 30
0.0
 10
10.344332443
 20
-10.7917541323
 30
0.0
 10
10.5553733689
 20
-11.0112326247
 30
0.0
 10
10.8154293702
 20
-11.390053084
 30
0.0
 10
11.0134690242
 20
-11.804674474
 30
0.0
 10
11.0980203593
 20
-12.0971760027
 30
0.0
 10
11.1246246714
 20
-12.2421845653
 30
0.0
  0
SPLINE
  5
3D0
100
AcDbEntity
  8
0
100
AcDbSpline
 62
7
  6
CONTINUOUS
 70
0
 71
3
 72
9
 73
5
 74
0
 42
0.0000001
 43
0.0000001
 44
0.0000000001
 40
0.0
 40
0.0
 40
0.0
 40
0.0
 40
0.2594910627
 40
1.0
 40
1.0
 40
1.0
 40
1.0
 10
11.1246246714
 20
-12.2421845653
 30
0.0
 10
11.1299393067
 20
-12.2711523365
 30
0.0
 10
11.1481401822
 20
-12.3831772783
 30
0.0
 10
11.1570057254
 20
-12.496829571
 30
0.0
 10
11.1570057271
 20
-12.5808745707
 30
0.0
  0
SPLINE
  5
3D1
100
AcDbEntity
  8
0
100
AcDbSpline
 62
7
  6
CONTINUOUS
 70
0
 71
3
 72
9
 73
5
 74
0
 42
0.0000001
 43
0.0000001
 44
0.0000000001
 40
0.0
 40
0.0
 40
0.0
 40
0.0
 40
0.2403057122
 40
1.0
 40
1.0
 40
1.0
 40
1.0
 10
-5.9549783776
 20
-1.3126299416
 30
0.0
 10
-5.9313574542
 20
-1.3262683666
 30
0.0
 10
-5.8345238338
 20
-1.3855410619
 30
0.0
 10
-5.7435199419
 20
-1.4541454722
 30
0.0
 10
-5.6778509953
 20
-1.5100279092
 30
0.0
  0
SPLINE
  5
3D2
100
AcDbEntity
  8
0
100
AcDbSpline
 62
7
  6
CONTINUOUS
 70
0
 71
3
 72
11
 73
7
 74
0
 42
0.0000001
 43
0.0000001
 44
0.0000000001
 40
0.0
 40
0.0
 40
0.0
 40
0.0
 40
0.2436409567
 40
0.5000042266
 40
0.7563652941
 40
1.0
 40
1.0
 40
1.0
 40
1.0
 10
-5.6778509953
 20
-1.5100279092
 30
0.0
 10
-5.5655701337
 20
-1.6055757824
 30
0.0
 10
-5.3545292078
 20
-1.8250542748
 30
0.0
 10
-5.0944732065
 20
-2.2038747342
 30
0.0
 10
-4.8964335525
 20
-2.6184961241
 30
0.0
 10
-4.8118822174
 20
-2.9109976528
 30
0.0
 10
-4.7852779053
 20
-3.0560062154
 30
0.0
  0
SPLINE
  5
3D3
100
AcDbEntity
  8
0
100
AcDbSpline
 62
7
  6
CONTINUOUS
 70
0
 71
3
 72
9
 73
5
 74
0
 42
0.0000001
 43
0.0000001
 44
0.0000000001
 40
0.0
 40
0.0
 40
0.0
 40
0.0
 40
0.2594910627
 40
1.0
 40
1.0
 40
1.0
 40
1.0
 10
-4.7852779053
 20
-3.0560062154
 30
0.0
 10
-4.77996327
 20
-3.0849739866
 30
0.0
 10
-4.7617623945
 20
-3.1969989285
 30
0.0
 10
-4.7528968513
 20
-3.3106512211
 30
0.0
 10
-4.7528968496
 20
-3.3946962208
 30
0.0
  0
SPLINE
  5
3D4
100
AcDbEntity
  8
0
100
AcDbSpline
 62
7
  6
CONTINUOUS
 70
0
 71
3
 72
9
 73
5
 74
0
 42
0.0000001
 43
0.0000001
 44
0.0000000001
 40
0.0
 40
0.0
 40
0.0
 40
0.0
 40
0.2403055869
 40
1.0
 40
1.0
 40
1.0
 40
1.0
 10
9.9549241991
 20
6.2388323828
 30
0.0
 10
9.9785454849
 20
6.2251937478
 30
0.0
 10
10.0753806192
 20
6.1659200718
 30
0.0
 10
10.1663858442
 20
6.0973144039
 30
0.0
 10
10.2320557047
 20
6.0414309068
 30
0.0
  0
SPLINE
  5
3D5
100
AcDbEntity
  8
0
100
AcDbSpline
 62
7
  6
CONTINUOUS
 70
0
 71
3
 72
11
 73
7
 74
0
 42
0.0000001
 43
0.0000001
 44
0.0000000001
 40
0.0
 40
0.0
 40
0.0
 40
0.0
 40
0.2436411953
 40
0.5000045451
 40
0.7563655326
 40
1.0
 40
1.0
 40
1.0
 40
1.0
 10
10.2320557047
 20
6.0414309068
 30
0.0
 10
10.3443364381
 20
5.9458826601
 30
0.0
 10
10.5553770067
 20
5.7264035658
 30
0.0
 10
10.8154323287
 20
5.3475824659
 30
0.0
 10
11.0134710882
 20
4.9329608081
 30
0.0
 10
11.0980217235
 20
4.6404592709
 30
0.0
 10
11.1246256479
 20
4.495450784
 30
0.0
  0
SPLINE
  5
3D6
100
AcDbEntity
  8
0
100
AcDbSpline
 62
7
  6
CONTINUOUS
 70
0
 71
3
 72
9
 73
5
 74
0
 42
0.0000001
 43
0.0000001
 44
0.0000000001
 40
0.0
 40
0.0
 40
0.0
 40
0.0
 40
0.2594909456
 40
1.0
 40
1.0
 40
1.0
 40
1.0
 10
11.1246256479
 20
4.495450784
 30
0.0
 10
11.1299401243
 20
4.4664834724
 30
0.0
 10
11.1481404604
 20
4.3544602678
 30
0.0
 10
11.1570057274
 20
4.2408097825
 30
0.0
 10
11.1570057271
 20
4.1567661036
 30
0.0
  0
SPLINE
  5
3D7
100
AcDbEntity
  8
0
100
AcDbSpline
 62
7
  6
CONTINUOUS
 70
0
 71
3
 72
9
 73
5
 74
0
 42
0.0000001
 43
0.0000001
 44
0.0000000001
 40
0.0
 40
0.0
 40
0.0
 40
0.0
 40
0.2403055869
 40
1.0
 40
1.0
 40
1.0
 40
1.0
 10
-5.9549783776
 20
15.4250107327
 30
0.0
 10
-5.9313570918
 20
15.4113720977
 30
0.0
 10
-5.8345219575
 20
15.3520984217
 30
0.0
 10
-5.7435167325
 20
15.2834927537
 30
0.0
 10
-5.6778468719
 20
15.2276092566
 30
0.0
  0
SPLINE
  5
3D8
100
AcDbEntity
  8
0
100
AcDbSpline
 62
7
  6
CONTINUOUS
 70
0
 71
3
 72
11
 73
7
 74
0
 42
0.0000001
 43
0.0000001
 44
0.0000000001
 40
0.0
 40
0.0
 40
0.0
 40
0.0
 40
0.2436411953
 40
0.5000045451
 40
0.7563655326
 40
1.0
 40
1.0
 40
1.0
 40
1.0
 10
-5.6778468719
 20
15.2276092566
 30
0.0
 10
-5.5655661386
 20
15.1320610099
 30
0.0
 10
-5.35452557
 20
14.9125819157
 30
0.0
 10
-5.094470248
 20
14.5337608158
 30
0.0
 10
-4.8964314885
 20
14.119139158
 30
0.0
 10
-4.8118808532
 20
13.8266376208
 30
0.0
 10
-4.7852769287
 20
13.6816291338
 30
0.0
  0
SPLINE
  5
3D9
100
AcDbEntity
  8
0
100
AcDbSpline
 62
7
  6
CONTINUOUS
 70
0
 71
3
 72
9
 73
5
 74
0
 42
0.0000001
 43
0.0000001
 44
0.0000000001
 40
0.0
 40
0.0
 40
0.0
 40
0.0
 40
0.2594909456
 40
1.0
 40
1.0
 40
1.0
 40
1.0
 10
-4.7852769287
 20
13.6816291338
 30
0.0
 10
-4.7799624524
 20
13.6526618223
 30
0.0
 10
-4.7617621163
 20
13.5406386177
 30
0.0
 10
-4.7528968493
 20
13.4269881324
 30
0.0
 10
-4.7528968496
 20
13.3429444535
 30
0.0
  0
SPLINE
  5
3DA
100
AcDbEntity
  8
0
100
AcDbSpline
 62
7
  6
CONTINUOUS
 70
0
 71
3
 72
9
 73
5
 74
0
 42
0.0000001
 43
0.0000001
 44
0.0000000001
 40
0.0
 40
0.0
 40
0.0
 40
0.0
 40
0.5163282074
 40
1.0
 40
1.0
 40
1.0
 40
1.0
 10
-5.1571744881
 20
2.2920073257
 30
0.0
 10
-5.1204241154
 20
2.2869997402
 30
0.0
 10
-5.0481266855
 20
2.2837066491
 30
0.0
 10
-4.9766434569
 20
2.2963085815
 30
0.0
 10
-4.9434454078
 20
2.3065576677
 30
0.0
  0
SPLINE
  5
3DB
100
AcDbEntity
  8
0
100
AcDbSpline
 62
7
  6
CONTINUOUS
 70
0
 71
3
 72
9
 73
5
 74
0
 42
0.0000001
 43
0.0000001
 44
0.0000000001
 40
0.0
 40
0.0
 40
0.0
 40
0.0
 40
0.5163282074
 40
1.0
 40
1.0
 40
1.0
 40
1.0
 10
10.7527280885
 20
-6.8941710242
 30
0.0
 10
10.7894784613
 20
-6.8991786096
 30
0.0
 10
10.8617758911
 20
-6.9024717007
 30
0.0
 10
10.9332591198
 20
-6.8898697684
 30
0.0
 10
10.9664571689
 20
-6.8796206822
 30
0.0
  0
SPLINE
  5
3DC
100
AcDbEntity
  8
0
100
AcDbSpline
 62
7
  6
CONTINUOUS
 70
0
 71
3
 72
9
 73
5
 74
0
 42
0.0000001
 43
0.0000001
 44
0.0000000001
 40
0.0
 40
0.0
 40
0.0
 40
0.0
 40
0.5163282132
 40
1.0
 40
1.0
 40
1.0
 40
1.0
 10
-5.1571744881
 20
-14.4456333487
 30
0.0
 10
-5.1204240884
 20
-14.4506409376
 30
0.0
 10
-5.0481266053
 20
-14.4539340261
 30
0.0
 10
-4.9766433269
 20
-14.4413320663
 30
0.0
 10
-4.9434452581
 20
-14.4310829605
 30
0.0
  0
SPLINE
  5
3DD
100
AcDbEntity
  8
0
100
AcDbSpline
 62
7
  6
CONTINUOUS
 70
0
 71
3
 72
9
 73
5
 74
0
 42
0.0000001
 43
0.0000001
 44
0.0000000001
 40
0.0
 40
0.0
 40
0.0
 40
0.0
 40
0.5163282132
 40
1.0
 40
1.0
 40
1.0
 40
1.0
 10
10.7527280886
 20
-23.6318116986
 30
0.0
 10
10.7894784883
 20
-23.6368192875
 30
0.0
 10
10.8617759714
 20
-23.6401123759
 30
0.0
 10
10.9332592498
 20
-23.6275104161
 30
0.0
 10
10.9664573186
 20
-23.6172613104
 30
0.0
  0
SPLINE
  5
3DE
100
AcDbEntity
  8
0
100
AcDbSpline
 62
7
  6
CONTINUOUS
 70
0
 71
3
 72
11
 73
7
 74
0
 42
0.0000001
 43
0.0000001
 44
0.0000000001
 40
0.0
 40
0.0
 40
0.0
 40
0.0
 40
0.2177671738
 40
0.450944045
 40
0.7101952432
 40
1.0
 40
1.0
 40
1.0
 40
1.0
 10
-15.6766848471
 20
20.7512418547
 30
0.0
 10
-15.6371025095
 20
20.774096214
 30
0.0
 10
-15.5461465254
 20
20.8071306645
 30
0.0
 10
-15.3950903326
 20
20.8109104422
 30
0.0
 10
-15.2340687586
 20
20.7720738561
 30
0.0
 10
-15.1293320742
 20
20.7222070306
 30
0.0
 10
-15.0766558549
 20
20.6917924415
 30
0.0
  0
SPLINE
  5
3DF
100
AcDbEntity
  8
0
100
AcDbSpline
 62
7
  6
CONTINUOUS
 70
0
 71
3
 72
9
 73
5
 74
0
 42
0.0000001
 43
0.0000001
 44
0.0000000001
 40
0.0
 40
0.0
 40
0.0
 40
0.0
 40
0.2434727943
 40
1.0
 40
1.0
 40
1.0
 40
1.0
 10
-15.6084088329
 20
20.778816467
 30
0.0
 10
-15.6169173515
 20
20.7709272509
 30
0.0
 10
-15.6505250739
 20
20.7370896399
 30
0.0
 10
-15.6784682354
 20
20.697788246
 30
0.0
 10
-15.6962510165
 20
20.6664249265
 30
0.0
  0
SPLINE
  5
3E0
100
AcDbEntity
  8
0
100
AcDbSpline
 62
7
  6
CONTINUOUS
 70
0
 71
3
 72
9
 73
5
 74
0
 42
0.0000001
 43
0.0000001
 44
0.0000000001
 40
0.0
 40
0.0
 40
0.0
 40
0.0
 40
0.2454443437
 40
1.0
 40
1.0
 40
1.0
 40
1.0
 10
-15.6962510165
 20
20.6664249265
 30
0.0
 10
-15.6991872422
 20
20.6612463335
 30
0.0
 10
-15.7107950749
 20
20.6399473509
 30
0.0
 10
-15.7209884094
 20
20.6178838029
 30
0.0
 10
-15.7279144501
 20
20.6009437526
 30
0.0
  0
SPLINE
  5
3E1
100
AcDbEntity
  8
0
100
AcDbSpline
 62
7
  6
CONTINUOUS
 70
0
 71
3
 72
11
 73
7
 74
0
 42
0.0000001
 43
0.0000001
 44
0.0000000001
 40
0.0
 40
0.0
 40
0.0
 40
0.0
 40
0.2177671738
 40
0.450944045
 40
0.7101952432
 40
1.0
 40
1.0
 40
1.0
 40
1.0
 10
0.2332177296
 20
11.5650635049
 30
0.0
 10
0.2728000672
 20
11.5879178642
 30
0.0
 10
0.3637560513
 20
11.6209523147
 30
0.0
 10
0.5148122441
 20
11.6247320923
 30
0.0
 10
0.6758338181
 20
11.5858955062
 30
0.0
 10
0.7805705025
 20
11.5360286807
 30
0.0
 10
0.8332467218
 20
11.5056140917
 30
0.0
  0
SPLINE
  5
3E2
100
AcDbEntity
  8
0
100
AcDbSpline
 62
7
  6
CONTINUOUS
 70
0
 71
3
 72
9
 73
5
 74
0
 42
0.0000001
 43
0.0000001
 44
0.0000000001
 40
0.0
 40
0.0
 40
0.0
 40
0.0
 40
0.2434727943
 40
1.0
 40
1.0
 40
1.0
 40
1.0
 10
0.3014937438
 20
11.5926381172
 30
0.0
 10
0.2929852252
 20
11.584748901
 30
0.0
 10
0.2593775028
 20
11.55091129
 30
0.0
 10
0.2314343413
 20
11.5116098961
 30
0.0
 10
0.2136515602
 20
11.4802465766
 30
0.0
  0
SPLINE
  5
3E3
100
AcDbEntity
  8
0
100
AcDbSpline
 62
7
  6
CONTINUOUS
 70
0
 71
3
 72
9
 73
5
 74
0
 42
0.0000001
 43
0.0000001
 44
0.0000000001
 40
0.0
 40
0.0
 40
0.0
 40
0.0
 40
0.2454443437
 40
1.0
 40
1.0
 40
1.0
 40
1.0
 10
0.2136515602
 20
11.4802465766
 30
0.0
 10
0.2107153345
 20
11.4750679837
 30
0.0
 10
0.1991075018
 20
11.4537690011
 30
0.0
 10
0.1889141673
 20
11.4317054531
 30
0.0
 10
0.1819881266
 20
11.4147654028
 30
0.0
  0
SPLINE
  5
3E4
100
AcDbEntity
  8
0
100
AcDbSpline
 62
7
  6
CONTINUOUS
 70
0
 71
3
 72
9
 73
5
 74
0
 42
0.0000001
 43
0.0000001
 44
0.0000000001
 40
0.0
 40
0.0
 40
0.0
 40
0.0
 40
0.2434727928
 40
1.0
 40
1.0
 40
1.0
 40
1.0
 10
-15.6084089477
 20
4.0411756861
 30
0.0
 10
-15.6169174604
 20
4.0332864695
 30
0.0
 10
-15.6505251595
 20
3.9994488584
 30
0.0
 10
-15.6784683011
 20
3.9601474713
 30
0.0
 10
-15.6962510698
 20
3.9287841588
 30
0.0
  0
SPLINE
  5
3E5
100
AcDbEntity
  8
0
100
AcDbSpline
 62
7
  6
CONTINUOUS
 70
0
 71
3
 72
9
 73
5
 74
0
 42
0.0000001
 43
0.0000001
 44
0.0000000001
 40
0.0
 40
0.0
 40
0.0
 40
0.0
 40
0.245444348
 40
1.0
 40
1.0
 40
1.0
 40
1.0
 10
-15.6962510698
 20
3.9287841588
 30
0.0
 10
-15.6991872901
 20
3.9236055728
 30
0.0
 10
-15.7107951019
 20
3.9023066195
 30
0.0
 10
-15.7209884196
 20
3.8802431035
 30
0.0
 10
-15.72791445
 20
3.8633030783
 30
0.0
  0
SPLINE
  5
3E6
100
AcDbEntity
  8
0
100
AcDbSpline
 62
7
  6
CONTINUOUS
 70
0
 71
3
 72
11
 73
7
 74
0
 42
0.0000001
 43
0.0000001
 44
0.0000000001
 40
0.0
 40
0.0
 40
0.0
 40
0.0
 40
0.2177671718
 40
0.4509440387
 40
0.7101952376
 40
1.0
 40
1.0
 40
1.0
 40
1.0
 10
-15.6766848471
 20
4.0136011805
 30
0.0
 10
-15.6371025097
 20
4.0364555393
 30
0.0
 10
-15.5461465272
 20
4.0694899898
 30
0.0
 10
-15.3950903356
 20
4.0732697683
 30
0.0
 10
-15.2340687607
 20
4.0344331831
 30
0.0
 10
-15.1293320759
 20
3.9845663557
 30
0.0
 10
-15.0766558549
 20
3.9541517673
 30
0.0
  0
SPLINE
  5
3E7
100
AcDbEntity
  8
0
100
AcDbSpline
 62
7
  6
CONTINUOUS
 70
0
 71
3
 72
9
 73
5
 74
0
 42
0.0000001
 43
0.0000001
 44
0.0000000001
 40
0.0
 40
0.0
 40
0.0
 40
0.0
 40
0.2434727928
 40
1.0
 40
1.0
 40
1.0
 40
1.0
 10
0.301493629
 20
-5.1450026637
 30
0.0
 10
0.2929851163
 20
-5.1528918803
 30
0.0
 10
0.2593774172
 20
-5.1867294915
 30
0.0
 10
0.2314342756
 20
-5.2260308786
 30
0.0
 10
0.2136515069
 20
-5.2573941911
 30
0.0
  0
SPLINE
  5
3E8
100
AcDbEntity
  8
0
100
AcDbSpline
 62
7
  6
CONTINUOUS
 70
0
 71
3
 72
9
 73
5
 74
0
 42
0.0000001
 43
0.0000001
 44
0.0000000001
 40
0.0
 40
0.0
 40
0.0
 40
0.0
 40
0.245444348
 40
1.0
 40
1.0
 40
1.0
 40
1.0
 10
0.2136515069
 20
-5.2573941911
 30
0.0
 10
0.2107152866
 20
-5.2625727771
 30
0.0
 10
0.1991074748
 20
-5.2838717303
 30
0.0
 10
0.1889141571
 20
-5.3059352464
 30
0.0
 10
0.1819881267
 20
-5.3228752716
 30
0.0
  0
SPLINE
  5
3E9
100
AcDbEntity
  8
0
100
AcDbSpline
 62
7
  6
CONTINUOUS
 70
0
 71
3
 72
11
 73
7
 74
0
 42
0.0000001
 43
0.0000001
 44
0.0000000001
 40
0.0
 40
0.0
 40
0.0
 40
0.0
 40
0.2177671718
 40
0.4509440387
 40
0.7101952376
 40
1.0
 40
1.0
 40
1.0
 40
1.0
 10
0.2332177296
 20
-5.1725771694
 30
0.0
 10
0.272800067
 20
-5.1497228106
 30
0.0
 10
0.3637560495
 20
-5.11668836
 30
0.0
 10
0.5148122411
 20
-5.1129085816
 30
0.0
 10
0.675833816
 20
-5.1517451668
 30
0.0
 10
0.7805705008
 20
-5.2016119942
 30
0.0
 10
0.8332467218
 20
-5.2320265826
 30
0.0
  0
SPLINE
  5
3EA
100
AcDbEntity
  8
0
100
AcDbSpline
 62
7
  6
CONTINUOUS
 70
0
 71
3
 72
15
 73
11
 74
0
 42
0.0000001
 43
0.0000001
 44
0.0000000001
 40
0.0
 40
0.0
 40
0.0
 40
0.0
 40
0.1141547262
 40
0.2373197603
 40
0.3669701463
 40
0.4999939469
 40
0.63301859
 40
0.7626714346
 40
0.8858403421
 40
1.0
 40
1.0
 40
1.0
 40
1.0
 10
0.4847701295
 20
-15.8081177455
 30
0.0
 10
0.4847701296
 20
-15.9139178688
 30
0.0
 10
0.5041465428
 20
-16.1340748703
 30
0.0
 10
0.5814067065
 20
-16.466207597
 30
0.0
 10
0.7051573
 20
-16.8026355458
 30
0.0
 10
0.8707943514
 20
-17.1307081562
 30
0.0
 10
1.0720963936
 20
-17.4381921786
 30
0.0
 10
1.3015797839
 20
-17.713582953
 30
0.0
 10
1.5505906434
 20
-17.9465678065
 30
0.0
 10
1.7315681386
 20
-18.0734348226
 30
0.0
 10
1.8231962154
 20
-18.1263397262
 30
0.0
  0
SPLINE
  5
3EB
100
AcDbEntity
  8
0
100
AcDbSpline
 62
7
  6
CONTINUOUS
 70
0
 71
3
 72
15
 73
11
 74
0
 42
0.0000001
 43
0.0000001
 44
0.0000000001
 40
0.0
 40
0.0
 40
0.0
 40
0.0
 40
0.1141547262
 40
0.2373197603
 40
0.3669701463
 40
0.4999939469
 40
0.63301859
 40
0.7626714346
 40
0.8858403421
 40
1.0
 40
1.0
 40
1.0
 40
1.0
 10
-15.4251324472
 20
-6.6219393956
 30
0.0
 10
-15.4251324471
 20
-6.7277395189
 30
0.0
 10
-15.4057560339
 20
-6.9478965204
 30
0.0
 10
-15.3284958702
 20
-7.2800292472
 30
0.0
 10
-15.2047452767
 20
-7.6164571959
 30
0.0
 10
-15.0391082253
 20
-7.9445298064
 30
0.0
 10
-14.8378061831
 20
-8.2520138287
 30
0.0
 10
-14.6083227928
 20
-8.5274046031
 30
0.0
 10
-14.3593119333
 20
-8.7603894566
 30
0.0
 10
-14.1783344381
 20
-8.8872564727
 30
0.0
 10
-14.0867063612
 20
-8.9401613763
 30
0.0
  0
SPLINE
  5
3EC
100
AcDbEntity
  8
0
100
AcDbSpline
 62
7
  6
CONTINUOUS
 70
0
 71
3
 72
15
 73
11
 74
0
 42
0.0000001
 43
0.0000001
 44
0.0000000001
 40
0.0
 40
0.0
 40
0.0
 40
0.0
 40
0.1141547283
 40
0.237319763
 40
0.3669701489
 40
0.4999939506
 40
0.6330185926
 40
0.7626714372
 40
0.8858403441
 40
1.0
 40
1.0
 40
1.0
 40
1.0
 10
0.4847701295
 20
0.9295229288
 30
0.0
 10
0.4847701298
 20
0.8237228036
 30
0.0
 10
0.5041465433
 20
0.6035657996
 30
0.0
 10
0.5814067082
 20
0.2714330706
 30
0.0
 10
0.7051573034
 20
-0.0649948791
 30
0.0
 10
0.8707943556
 20
-0.3930674892
 30
0.0
 10
1.0720963985
 20
-0.7005515111
 30
0.0
 10
1.3015797888
 20
-0.9759422835
 30
0.0
 10
1.5505906469
 20
-1.2089271348
 30
0.0
 10
1.7315681402
 20
-1.3357941495
 30
0.0
 10
1.8231962154
 20
-1.3886990519
 30
0.0
  0
SPLINE
  5
3ED
100
AcDbEntity
  8
0
100
AcDbSpline
 62
7
  6
CONTINUOUS
 70
0
 71
3
 72
15
 73
11
 74
0
 42
0.0000001
 43
0.0000001
 44
0.0000000001
 40
0.0
 40
0.0
 40
0.0
 40
0.0
 40
0.1141547283
 40
0.237319763
 40
0.3669701489
 40
0.4999939506
 40
0.6330185926
 40
0.7626714372
 40
0.8858403441
 40
1.0
 40
1.0
 40
1.0
 40
1.0
 10
-15.4251324472
 20
10.1157012786
 30
0.0
 10
-15.4251324469
 20
10.0099011534
 30
0.0
 10
-15.4057560334
 20
9.7897441495
 30
0.0
 10
-15.3284958685
 20
9.4576114205
 30
0.0
 10
-15.2047452733
 20
9.1211834707
 30
0.0
 10
-15.0391082211
 20
8.7931108606
 30
0.0
 10
-14.8378061782
 20
8.4856268387
 30
0.0
 10
-14.6083227879
 20
8.2102360664
 30
0.0
 10
-14.3593119298
 20
7.977251215
 30
0.0
 10
-14.1783344365
 20
7.8503842004
 30
0.0
 10
-14.0867063612
 20
7.797479298
 30
0.0
  0
SPLINE
  5
3EE
100
AcDbEntity
  8
0
100
AcDbSpline
 62
7
  6
CONTINUOUS
 70
0
 71
3
 72
9
 73
5
 74
0
 42
0.0000001
 43
0.0000001
 44
0.0000000001
 40
0.0
 40
0.0
 40
0.0
 40
0.0
 40
0.2715327297
 40
1.0
 40
1.0
 40
1.0
 40
1.0
 10
-4.7528968496
 20
2.8105173378
 30
0.0
 10
-4.7528968502
 20
2.7792816089
 30
0.0
 10
-4.7576339922
 20
2.664467806
 30
0.0
 10
-4.7829340478
 20
2.5492361963
 30
0.0
 10
-4.8174793254
 20
2.4728888468
 30
0.0
  0
SPLINE
  5
3EF
100
AcDbEntity
  8
0
100
AcDbSpline
 62
7
  6
CONTINUOUS
 70
0
 71
3
 72
9
 73
5
 74
0
 42
0.0000001
 43
0.0000001
 44
0.0000000001
 40
0.0
 40
0.0
 40
0.0
 40
0.0
 40
0.5170823016
 40
1.0
 40
1.0
 40
1.0
 40
1.0
 10
-4.8174793254
 20
2.4728888468
 30
0.0
 10
-4.8376518091
 20
2.4283063231
 30
0.0
 10
-4.88777375
 20
2.3462745182
 30
0.0
 10
-4.9618185996
 20
2.2840846101
 30
0.0
 10
-5.0013959948
 20
2.2612331044
 30
0.0
  0
SPLINE
  5
3F0
100
AcDbEntity
  8
0
100
AcDbSpline
 62
7
  6
CONTINUOUS
 70
0
 71
3
 72
9
 73
5
 74
0
 42
0.0000001
 43
0.0000001
 44
0.0000000001
 40
0.0
 40
0.0
 40
0.0
 40
0.0
 40
0.2715327297
 40
1.0
 40
1.0
 40
1.0
 40
1.0
 10
11.1570057271
 20
-6.3756610121
 30
0.0
 10
11.1570057265
 20
-6.406896741
 30
0.0
 10
11.1522685845
 20
-6.5217105439
 30
0.0
 10
11.1269685289
 20
-6.6369421536
 30
0.0
 10
11.0924232513
 20
-6.713289503
 30
0.0
  0
SPLINE
  5
3F1
100
AcDbEntity
  8
0
100
AcDbSpline
 62
7
  6
CONTINUOUS
 70
0
 71
3
 72
9
 73
5
 74
0
 42
0.0000001
 43
0.0000001
 44
0.0000000001
 40
0.0
 40
0.0
 40
0.0
 40
0.0
 40
0.5170823016
 40
1.0
 40
1.0
 40
1.0
 40
1.0
 10
11.0924232513
 20
-6.713289503
 30
0.0
 10
11.0722507676
 20
-6.7578720267
 30
0.0
 10
11.0221288267
 20
-6.8399038316
 30
0.0
 10
10.9480839771
 20
-6.9020937398
 30
0.0
 10
10.9085065819
 20
-6.9249452455
 30
0.0
  0
SPLINE
  5
3F2
100
AcDbEntity
  8
0
100
AcDbSpline
 62
7
  6
CONTINUOUS
 70
0
 71
3
 72
9
 73
5
 74
0
 42
0.0000001
 43
0.0000001
 44
0.0000000001
 40
0.0
 40
0.0
 40
0.0
 40
0.0
 40
0.2715325905
 40
1.0
 40
1.0
 40
1.0
 40
1.0
 10
-4.7528968496
 20
-13.9271233365
 30
0.0
 10
-4.7528968495
 20
-13.9583588924
 30
0.0
 10
-4.757633942
 20
-14.0731721222
 30
0.0
 10
-4.7829337186
 20
-14.1884031418
 30
0.0
 10
-4.8174786007
 20
-14.2647502254
 30
0.0
  0
SPLINE
  5
3F3
100
AcDbEntity
  8
0
100
AcDbSpline
 62
7
  6
CONTINUOUS
 70
0
 71
3
 72
9
 73
5
 74
0
 42
0.0000001
 43
0.0000001
 44
0.0000000001
 40
0.0
 40
0.0
 40
0.0
 40
0.0
 40
0.5170824752
 40
1.0
 40
1.0
 40
1.0
 40
1.0
 10
-4.8174786007
 20
-14.2647502254
 30
0.0
 10
-4.8376510813
 20
-14.3093330977
 30
0.0
 10
-4.8877731159
 20
-14.3913655502
 30
0.0
 10
-4.9618183711
 20
-14.4535559326
 30
0.0
 10
-5.0013959948
 20
-14.4764075698
 30
0.0
  0
SPLINE
  5
3F4
100
AcDbEntity
  8
0
100
AcDbSpline
 62
7
  6
CONTINUOUS
 70
0
 71
3
 72
9
 73
5
 74
0
 42
0.0000001
 43
0.0000001
 44
0.0000000001
 40
0.0
 40
0.0
 40
0.0
 40
0.0
 40
0.2715325905
 40
1.0
 40
1.0
 40
1.0
 40
1.0
 10
11.1570057271
 20
-23.1133016864
 30
0.0
 10
11.1570057272
 20
-23.1445372422
 30
0.0
 10
11.1522686347
 20
-23.259350472
 30
0.0
 10
11.1269688581
 20
-23.3745814916
 30
0.0
 10
11.092423976
 20
-23.4509285753
 30
0.0
  0
SPLINE
  5
3F5
100
AcDbEntity
  8
0
100
AcDbSpline
 62
7
  6
CONTINUOUS
 70
0
 71
3
 72
9
 73
5
 74
0
 42
0.0000001
 43
0.0000001
 44
0.0000000001
 40
0.0
 40
0.0
 40
0.0
 40
0.0
 40
0.5170824752
 40
1.0
 40
1.0
 40
1.0
 40
1.0
 10
11.092423976
 20
-23.4509285753
 30
0.0
 10
11.0722514954
 20
-23.4955114476
 30
0.0
 10
11.0221294608
 20
-23.5775439001
 30
0.0
 10
10.9480842056
 20
-23.6397342825
 30
0.0
 10
10.9085065819
 20
-23.6625859197
 30
0.0
  0
SPLINE
  5
3F6
100
AcDbEntity
  8
0
100
AcDbSpline
 62
7
  6
CONTINUOUS
 70
0
 71
3
 72
13
 73
9
 74
0
 42
0.0000001
 43
0.0000001
 44
0.0000000001
 40
0.0
 40
0.0
 40
0.0
 40
0.0
 40
0.114261602
 40
0.2375404911
 40
0.5000060678
 40
0.7624683267
 40
0.8857433366
 40
1.0
 40
1.0
 40
1.0
 40
1.0
 10
0.4796933312
 20
-2.0069887167
 30
0.0
 10
0.3973993343
 20
-1.9594731921
 30
0.0
 10
0.2348375655
 20
-1.8455323055
 30
0.0
 10
-0.06946722
 20
-1.5606706521
 30
0.0
 10
-0.3909463459
 20
-1.1215933626
 30
0.0
 10
-0.6104584892
 20
-0.6236485912
 30
0.0
 10
-0.7049977782
 20
-0.2176910048
 30
0.0
 10
-0.7223881971
 20
-0.0199447845
 30
0.0
 10
-0.7223881968
 20
0.0750775625
 30
0.0
  0
SPLINE
  5
3F7
100
AcDbEntity
  8
0
100
AcDbSpline
 62
7
  6
CONTINUOUS
 70
0
 71
3
 72
11
 73
7
 74
0
 42
0.0000001
 43
0.0000001
 44
0.0000000001
 40
0.0
 40
0.0
 40
0.0
 40
0.0
 40
0.2191410373
 40
0.4557654014
 40
0.7154234019
 40
1.0
 40
1.0
 40
1.0
 40
1.0
 10
10.8250207452
 20
-6.9612802472
 30
0.0
 10
10.7873813474
 20
-6.9728989476
 30
0.0
 10
10.7053696103
 20
-6.9859190586
 30
0.0
 10
10.5762592541
 20
-6.9746645344
 30
0.0
 10
10.4409809839
 20
-6.9343926093
 30
0.0
 10
10.352777778
 20
-6.8910742056
 30
0.0
 10
10.3084775897
 20
-6.8654958323
 30
0.0
  0
SPLINE
  5
3F8
100
AcDbEntity
  8
0
100
AcDbSpline
 62
7
  6
CONTINUOUS
 70
0
 71
3
 72
11
 73
7
 74
0
 42
0.0000001
 43
0.0000001
 44
0.0000000001
 40
0.0
 40
0.0
 40
0.0
 40
0.0
 40
0.2191409981
 40
0.4557653171
 40
0.7154233258
 40
1.0
 40
1.0
 40
1.0
 40
1.0
 10
-5.0848807733
 20
-14.512742245
 30
0.0
 10
-5.1225202105
 20
-14.5243610662
 30
0.0
 10
-5.2045320788
 20
-14.5373813816
 30
0.0
 10
-5.3336427062
 20
-14.5261270017
 30
0.0
 10
-5.4689212883
 20
-14.4858550749
 30
0.0
 10
-5.5571246971
 20
-14.44253659
 30
0.0
 10
-5.601424987
 20
-14.4169581566
 30
0.0
  0
SPLINE
  5
3F9
100
AcDbEntity
  8
0
100
AcDbSpline
 62
7
  6
CONTINUOUS
 70
0
 71
3
 72
15
 73
11
 74
0
 42
0.0000001
 43
0.0000001
 44
0.0000000001
 40
0.0
 40
0.0
 40
0.0
 40
0.0
 40
0.144901866
 40
0.2745170643
 40
0.391105345
 40
0.4999889054
 40
0.6088744816
 40
0.7254681215
 40
0.8550905292
 40
1.0
 40
1.0
 40
1.0
 40
1.0
 10
-4.7528968496
 20
2.4022427444
 30
0.0
 10
-4.7528968513
 20
2.3160792132
 30
0.0
 10
-4.7659173089
 20
2.1522706651
 30
0.0
 10
-4.8322921147
 20
1.9272646063
 30
0.0
 10
-4.9440630977
 20
1.7445551476
 30
0.0
 10
-5.0992125526
 20
1.6140758255
 30
0.0
 10
-5.2897963492
 20
1.5449729462
 30
0.0
 10
-5.5039215081
 20
1.5395499609
 30
0.0
 10
-5.7319779431
 20
1.5945868196
 30
0.0
 10
-5.8803558565
 20
1.6652239738
 30
0.0
 10
-5.9549783776
 20
1.7083100826
 30
0.0
  0
SPLINE
  5
3FA
100
AcDbEntity
  8
0
100
AcDbSpline
 62
7
  6
CONTINUOUS
 70
0
 71
3
 72
11
 73
7
 74
0
 42
0.0000001
 43
0.0000001
 44
0.0000000001
 40
0.0
 40
0.0
 40
0.0
 40
0.0
 40
0.2191409981
 40
0.4557653171
 40
0.7154233258
 40
1.0
 40
1.0
 40
1.0
 40
1.0
 10
10.8250218034
 20
-23.6989205949
 30
0.0
 10
10.7873823662
 20
-23.710539416
 30
0.0
 10
10.7053704979
 20
-23.7235597315
 30
0.0
 10
10.5762598705
 20
-23.7123053516
 30
0.0
 10
10.4409812884
 20
-23.6720334247
 30
0.0
 10
10.3527778796
 20
-23.6287149398
 30
0.0
 10
10.3084775897
 20
-23.6031365065
 30
0.0
  0
SPLINE
  5
3FB
100
AcDbEntity
  8
0
100
AcDbSpline
 62
7
  6
CONTINUOUS
 70
0
 71
3
 72
15
 73
11
 74
0
 42
0.0000001
 43
0.0000001
 44
0.0000000001
 40
0.0
 40
0.0
 40
0.0
 40
0.0
 40
0.1449018606
 40
0.274517057
 40
0.3911053392
 40
0.4999889011
 40
0.6088744758
 40
0.7254681141
 40
0.8550905238
 40
1.0
 40
1.0
 40
1.0
 40
1.0
 10
-0.7223881968
 20
-5.7218614028
 30
0.0
 10
-0.7223881971
 20
-5.6356978746
 30
0.0
 10
-0.7093677372
 20
-5.4718893311
 30
0.0
 10
-0.6429929361
 20
-5.246883275
 30
0.0
 10
-0.5312219552
 20
-5.0641738142
 30
0.0
 10
-0.3760725021
 20
-4.9336944886
 30
0.0
 10
-0.1854887076
 20
-4.864591606
 30
0.0
 10
0.0286364505
 20
-4.8591686178
 30
0.0
 10
0.2566928902
 20
-4.9142054738
 30
0.0
 10
0.4050708063
 20
-4.9848426322
 30
0.0
 10
0.4796933312
 20
-5.0279287409
 30
0.0
  0
SPLINE
  5
3FC
100
AcDbEntity
  8
0
100
AcDbSpline
 62
7
  6
CONTINUOUS
 70
0
 71
3
 72
15
 73
11
 74
0
 42
0.0000001
 43
0.0000001
 44
0.0000000001
 40
0.0
 40
0.0
 40
0.0
 40
0.0
 40
0.144901866
 40
0.2745170643
 40
0.391105345
 40
0.4999889054
 40
0.6088744816
 40
0.7254681215
 40
0.8550905292
 40
1.0
 40
1.0
 40
1.0
 40
1.0
 10
-16.6322907735
 20
20.2019576214
 30
0.0
 10
-16.6322907718
 20
20.2881211527
 30
0.0
 10
-16.6192703142
 20
20.4519297007
 30
0.0
 10
-16.5528955084
 20
20.6769357595
 30
0.0
 10
-16.4411245254
 20
20.8596452182
 30
0.0
 10
-16.2859750705
 20
20.9901245403
 30
0.0
 10
-16.0953912739
 20
21.0592274197
 30
0.0
 10
-15.881266115
 20
21.064650405
 30
0.0
 10
-15.65320968
 20
21.0096135462
 30
0.0
 10
-15.5048317666
 20
20.9389763921
 30
0.0
 10
-15.4302092455
 20
20.8958902833
 30
0.0
  0
SPLINE
  5
3FD
100
AcDbEntity
  8
0
100
AcDbSpline
 62
7
  6
CONTINUOUS
 70
0
 71
3
 72
13
 73
9
 74
0
 42
0.0000001
 43
0.0000001
 44
0.0000000001
 40
0.0
 40
0.0
 40
0.0
 40
0.0
 40
0.114261602
 40
0.2375404911
 40
0.5000060678
 40
0.7624683267
 40
0.8857433366
 40
1.0
 40
1.0
 40
1.0
 40
1.0
 10
-15.4302092455
 20
7.1791896331
 30
0.0
 10
-15.5125032424
 20
7.2267051577
 30
0.0
 10
-15.6750650112
 20
7.3406460443
 30
0.0
 10
-15.9793697967
 20
7.6255076978
 30
0.0
 10
-16.3008489225
 20
8.0645849873
 30
0.0
 10
-16.5203610659
 20
8.5625297587
 30
0.0
 10
-16.6149003549
 20
8.9684873451
 30
0.0
 10
-16.6322907738
 20
9.1662335654
 30
0.0
 10
-16.6322907735
 20
9.2612559124
 30
0.0
  0
SPLINE
  5
3FE
100
AcDbEntity
  8
0
100
AcDbSpline
 62
7
  6
CONTINUOUS
 70
0
 71
3
 72
13
 73
9
 74
0
 42
0.0000001
 43
0.0000001
 44
0.0000000001
 40
0.0
 40
0.0
 40
0.0
 40
0.0
 40
0.1142615975
 40
0.2375404836
 40
0.5000060625
 40
0.7624683192
 40
0.885743332
 40
1.0
 40
1.0
 40
1.0
 40
1.0
 10
0.4796933312
 20
-18.744629391
 30
0.0
 10
0.3973993365
 20
-18.6971138702
 30
0.0
 10
0.2348375743
 20
-18.5831729847
 30
0.0
 10
-0.0694672108
 20
-18.298311338
 30
0.0
 10
-0.3909463375
 20
-17.8592340513
 30
0.0
 10
-0.6104584837
 20
-17.3612892792
 30
0.0
 10
-0.7049977783
 20
-16.9553316891
 30
0.0
 10
-0.7223881949
 20
-16.7575854625
 30
0.0
 10
-0.7223881968
 20
-16.6625631118
 30
0.0
  0
SPLINE
  5
3FF
100
AcDbEntity
  8
0
100
AcDbSpline
 62
7
  6
CONTINUOUS
 70
0
 71
3
 72
15
 73
11
 74
0
 42
0.0000001
 43
0.0000001
 44
0.0000000001
 40
0.0
 40
0.0
 40
0.0
 40
0.0
 40
0.1449018606
 40
0.274517057
 40
0.3911053392
 40
0.4999889011
 40
0.6088744758
 40
0.7254681141
 40
0.8550905238
 40
1.0
 40
1.0
 40
1.0
 40
1.0
 10
-4.7528968496
 20
-14.3353979298
 30
0.0
 10
-4.7528968493
 20
-14.4215614579
 30
0.0
 10
-4.7659173092
 20
-14.5853700014
 30
0.0
 10
-4.8322921103
 20
-14.8103760576
 30
0.0
 10
-4.9440630912
 20
-14.9930855184
 30
0.0
 10
-5.0992125443
 20
-15.1235648439
 30
0.0
 10
-5.2897963388
 20
-15.1926677266
 30
0.0
 10
-5.5039214969
 20
-15.1980907148
 30
0.0
 10
-5.7319779366
 20
-15.1430538587
 30
0.0
 10
-5.8803558527
 20
-15.0724167003
 30
0.0
 10
-5.9549783776
 20
-15.0293305917
 30
0.0
  0
SPLINE
  5
400
100
AcDbEntity
  8
0
100
AcDbSpline
 62
7
  6
CONTINUOUS
 70
0
 71
3
 72
9
 73
5
 74
0
 42
0.0000001
 43
0.0000001
 44
0.0000000001
 40
0.0
 40
0.0
 40
0.0
 40
0.0
 40
0.2314181671
 40
1.0
 40
1.0
 40
1.0
 40
1.0
 10
-15.7279144501
 20
20.6009437526
 30
0.0
 10
-15.7373552686
 20
20.5778529354
 30
0.0
 10
-15.7720782781
 20
20.4755846079
 30
0.0
 10
-15.7837626359
 20
20.3664635417
 30
0.0
 10
-15.7837626361
 20
20.28361254
 30
0.0
  0
SPLINE
  5
401
100
AcDbEntity
  8
0
100
AcDbSpline
 62
7
  6
CONTINUOUS
 70
0
 71
3
 72
15
 73
11
 74
0
 42
0.0000001
 43
0.0000001
 44
0.0000000001
 40
0.0
 40
0.0
 40
0.0
 40
0.0
 40
0.1449018606
 40
0.274517057
 40
0.3911053392
 40
0.4999889011
 40
0.6088744758
 40
0.7254681141
 40
0.8550905238
 40
1.0
 40
1.0
 40
1.0
 40
1.0
 10
-16.6322907735
 20
3.4643169471
 30
0.0
 10
-16.6322907738
 20
3.5504804752
 30
0.0
 10
-16.6192703139
 20
3.7142890188
 30
0.0
 10
-16.5528955128
 20
3.9392950749
 30
0.0
 10
-16.4411245319
 20
4.1220045357
 30
0.0
 10
-16.2859750788
 20
4.2524838612
 30
0.0
 10
-16.0953912843
 20
4.3215867439
 30
0.0
 10
-15.8812661262
 20
4.3270097321
 30
0.0
 10
-15.6532096865
 20
4.271972876
 30
0.0
 10
-15.5048317704
 20
4.2013357176
 30
0.0
 10
-15.4302092455
 20
4.158249609
 30
0.0
  0
SPLINE
  5
402
100
AcDbEntity
  8
0
100
AcDbSpline
 62
7
  6
CONTINUOUS
 70
0
 71
3
 72
11
 73
7
 74
0
 42
0.0000001
 43
0.0000001
 44
0.0000000001
 40
0.0
 40
0.0
 40
0.0
 40
0.0
 40
0.2845760135
 40
0.5442324186
 40
0.7808561624
 40
1.0
 40
1.0
 40
1.0
 40
1.0
 10
-15.9251839923
 20
20.2019576214
 30
0.0
 10
-15.9251839934
 20
20.2531093593
 30
0.0
 10
-15.9185942021
 20
20.3511495913
 30
0.0
 10
-15.8858259071
 20
20.4884313849
 30
0.0
 10
-15.8310108331
 20
20.6058619994
 30
0.0
 10
-15.7787247469
 20
20.6703682175
 30
0.0
 10
-15.7498410504
 20
20.6971514707
 30
0.0
  0
SPLINE
  5
403
100
AcDbEntity
  8
0
100
AcDbSpline
 62
7
  6
CONTINUOUS
 70
0
 71
3
 72
11
 73
7
 74
0
 42
0.0000001
 43
0.0000001
 44
0.0000000001
 40
0.0
 40
0.0
 40
0.0
 40
0.0
 40
0.2372223294
 40
0.5000061084
 40
0.762786565
 40
1.0
 40
1.0
 40
1.0
 40
1.0
 10
-15.0766558549
 20
7.7915620682
 30
0.0
 10
-15.1971117694
 20
7.8611118004
 30
0.0
 10
-15.425082743
 20
8.052976557
 30
0.0
 10
-15.6911632571
 20
8.4165827572
 30
0.0
 10
-15.8730137389
 20
8.8288132627
 30
0.0
 10
-15.9251839919
 20
9.1221683794
 30
0.0
 10
-15.9251839923
 20
9.2612559124
 30
0.0
  0
SPLINE
  5
404
100
AcDbEntity
  8
0
100
AcDbSpline
 62
7
  6
CONTINUOUS
 70
0
 71
3
 72
11
 73
7
 74
0
 42
0.0000001
 43
0.0000001
 44
0.0000000001
 40
0.0
 40
0.0
 40
0.0
 40
0.0
 40
0.2372134853
 40
0.499993893
 40
0.7627776247
 40
1.0
 40
1.0
 40
1.0
 40
1.0
 10
-15.7837626361
 20
9.342910831
 30
0.0
 10
-15.7837626353
 20
9.2038232686
 30
0.0
 10
-15.7315923738
 20
8.9104681505
 30
0.0
 10
-15.5497418931
 20
8.4982376766
 30
0.0
 10
-15.2836614065
 20
8.1346314944
 30
0.0
 10
-15.0556904349
 20
7.9427667351
 30
0.0
 10
-14.9352344987
 20
7.8732169869
 30
0.0
  0
SPLINE
  5
405
100
AcDbEntity
  8
0
100
AcDbSpline
 62
7
  6
CONTINUOUS
 70
0
 71
3
 72
9
 73
5
 74
0
 42
0.0000001
 43
0.0000001
 44
0.0000000001
 40
0.0
 40
0.0
 40
0.0
 40
0.0
 40
0.2698109559
 40
1.0
 40
1.0
 40
1.0
 40
1.0
 10
-5.4600036308
 20
2.4023374363
 30
0.0
 10
-5.4348176819
 20
2.3877953852
 30
0.0
 10
-5.3395413009
 20
2.3375701844
 30
0.0
 10
-5.2351603164
 20
2.3026336314
 30
0.0
 10
-5.1571744881
 20
2.2920073257
 30
0.0
  0
SPLINE
  5
406
100
AcDbEntity
  8
0
100
AcDbSpline
 62
7
  6
CONTINUOUS
 70
0
 71
3
 72
13
 73
9
 74
0
 42
0.0000001
 43
0.0000001
 44
0.0000000001
 40
0.0
 40
0.0
 40
0.0
 40
0.0
 40
0.1142615975
 40
0.2375404836
 40
0.5000060625
 40
0.7624683192
 40
0.885743332
 40
1.0
 40
1.0
 40
1.0
 40
1.0
 10
-15.4302092455
 20
-9.5584510411
 30
0.0
 10
-15.5125032402
 20
-9.5109355203
 30
0.0
 10
-15.6750650024
 20
-9.3969946349
 30
0.0
 10
-15.9793697875
 20
-9.1121329881
 30
0.0
 10
-16.3008489142
 20
-8.6730557014
 30
0.0
 10
-16.5203610604
 20
-8.1751109293
 30
0.0
 10
-16.614900355
 20
-7.7691533392
 30
0.0
 10
-16.6322907716
 20
-7.5714071127
 30
0.0
 10
-16.6322907735
 20
-7.4763847619
 30
0.0
  0
SPLINE
  5
407
100
AcDbEntity
  8
0
100
AcDbSpline
 62
7
  6
CONTINUOUS
 70
0
 71
3
 72
9
 73
5
 74
0
 42
0.0000001
 43
0.0000001
 44
0.0000000001
 40
0.0
 40
0.0
 40
0.0
 40
0.0
 40
0.2314181671
 40
1.0
 40
1.0
 40
1.0
 40
1.0
 10
0.1819881266
 20
11.4147654028
 30
0.0
 10
0.1725473081
 20
11.3916745855
 30
0.0
 10
0.1378242986
 20
11.289406258
 30
0.0
 10
0.1261399408
 20
11.1802851918
 30
0.0
 10
0.1261399406
 20
11.0974341902
 30
0.0
  0
SPLINE
  5
408
100
AcDbEntity
  8
0
100
AcDbSpline
 62
7
  6
CONTINUOUS
 70
0
 71
3
 72
11
 73
7
 74
0
 42
0.0000001
 43
0.0000001
 44
0.0000000001
 40
0.0
 40
0.0
 40
0.0
 40
0.0
 40
0.2845760135
 40
0.5442324186
 40
0.7808561624
 40
1.0
 40
1.0
 40
1.0
 40
1.0
 10
-0.0152814156
 20
11.0157792715
 30
0.0
 10
-0.0152814167
 20
11.0669310094
 30
0.0
 10
-0.0086916254
 20
11.1649712415
 30
0.0
 10
0.0240766696
 20
11.302253035
 30
0.0
 10
0.0788917436
 20
11.4196836496
 30
0.0
 10
0.1311778298
 20
11.4841898677
 30
0.0
 10
0.1600615263
 20
11.5109731208
 30
0.0
  0
SPLINE
  5
409
100
AcDbEntity
  8
0
100
AcDbSpline
 62
7
  6
CONTINUOUS
 70
0
 71
3
 72
11
 73
7
 74
0
 42
0.0000001
 43
0.0000001
 44
0.0000000001
 40
0.0
 40
0.0
 40
0.0
 40
0.0
 40
0.2372223294
 40
0.5000061084
 40
0.762786565
 40
1.0
 40
1.0
 40
1.0
 40
1.0
 10
0.8332467218
 20
-1.3946162817
 30
0.0
 10
0.7127908073
 20
-1.3250665495
 30
0.0
 10
0.4848198337
 20
-1.1332017929
 30
0.0
 10
0.2187393196
 20
-0.7695955927
 30
0.0
 10
0.0368888378
 20
-0.3573650872
 30
0.0
 10
-0.0152814152
 20
-0.0640099705
 30
0.0
 10
-0.0152814156
 20
0.0750775625
 30
0.0
  0
SPLINE
  5
40A
100
AcDbEntity
  8
0
100
AcDbSpline
 62
7
  6
CONTINUOUS
 70
0
 71
3
 72
11
 73
7
 74
0
 42
0.0000001
 43
0.0000001
 44
0.0000000001
 40
0.0
 40
0.0
 40
0.0
 40
0.0
 40
0.2372134853
 40
0.499993893
 40
0.7627776247
 40
1.0
 40
1.0
 40
1.0
 40
1.0
 10
0.1261399406
 20
0.1567324811
 30
0.0
 10
0.1261399414
 20
0.0176449187
 30
0.0
 10
0.1783102029
 20
-0.2757101994
 30
0.0
 10
0.3601606836
 20
-0.6879406732
 30
0.0
 10
0.6262411702
 20
-1.0515468555
 30
0.0
 10
0.8542121418
 20
-1.2434116148
 30
0.0
 10
0.974668078
 20
-1.312961363
 30
0.0
  0
SPLINE
  5
40B
100
AcDbEntity
  8
0
100
AcDbSpline
 62
7
  6
CONTINUOUS
 70
0
 71
3
 72
15
 73
11
 74
0
 42
0.0000001
 43
0.0000001
 44
0.0000000001
 40
0.0
 40
0.0
 40
0.0
 40
0.0
 40
0.144901866
 40
0.2745170643
 40
0.391105345
 40
0.4999889054
 40
0.6088744816
 40
0.7254681215
 40
0.8550905292
 40
1.0
 40
1.0
 40
1.0
 40
1.0
 10
11.1570057271
 20
-6.7839356054
 30
0.0
 10
11.1570057254
 20
-6.8700991367
 30
0.0
 10
11.1439852678
 20
-7.0339076847
 30
0.0
 10
11.077610462
 20
-7.2589137436
 30
0.0
 10
10.965839479
 20
-7.4416232022
 30
0.0
 10
10.8106900241
 20
-7.5721025243
 30
0.0
 10
10.6201062275
 20
-7.6412054037
 30
0.0
 10
10.4059810686
 20
-7.646628389
 30
0.0
 10
10.1779246336
 20
-7.5915915302
 30
0.0
 10
10.0295467202
 20
-7.5209543761
 30
0.0
 10
9.9549241991
 20
-7.4778682673
 30
0.0
  0
SPLINE
  5
40C
100
AcDbEntity
  8
0
100
AcDbSpline
 62
7
  6
CONTINUOUS
 70
0
 71
3
 72
9
 73
5
 74
0
 42
0.0000001
 43
0.0000001
 44
0.0000000001
 40
0.0
 40
0.0
 40
0.0
 40
0.0
 40
0.2698109559
 40
1.0
 40
1.0
 40
1.0
 40
1.0
 10
10.4498989459
 20
-6.7838409136
 30
0.0
 10
10.4750848948
 20
-6.7983829647
 30
0.0
 10
10.5703612758
 20
-6.8486081655
 30
0.0
 10
10.6747422603
 20
-6.8835447185
 30
0.0
 10
10.7527280885
 20
-6.8941710242
 30
0.0
  0
SPLINE
  5
40D
100
AcDbEntity
  8
0
100
AcDbSpline
 62
7
  6
CONTINUOUS
 70
0
 71
3
 72
11
 73
7
 74
0
 42
0.0000001
 43
0.0000001
 44
0.0000000001
 40
0.0
 40
0.0
 40
0.0
 40
0.0
 40
0.2372223247
 40
0.5000061052
 40
0.7627865602
 40
1.0
 40
1.0
 40
1.0
 40
1.0
 10
-15.0766558549
 20
-8.946078606
 30
0.0
 10
-15.1971117653
 20
-8.8765288725
 30
0.0
 10
-15.4250827402
 20
-8.6846641221
 30
0.0
 10
-15.6911632536
 20
-8.3210579232
 30
0.0
 10
-15.8730137361
 20
-7.9088274164
 30
0.0
 10
-15.9251839951
 20
-7.6154722976
 30
0.0
 10
-15.9251839923
 20
-7.4763847619
 30
0.0
  0
SPLINE
  5
40E
100
AcDbEntity
  8
0
100
AcDbSpline
 62
7
  6
CONTINUOUS
 70
0
 71
3
 72
11
 73
7
 74
0
 42
0.0000001
 43
0.0000001
 44
0.0000000001
 40
0.0
 40
0.0
 40
0.0
 40
0.0
 40
0.2372134857
 40
0.4999938933
 40
0.7627776251
 40
1.0
 40
1.0
 40
1.0
 40
1.0
 10
-15.7837626361
 20
-7.3947298432
 30
0.0
 10
-15.7837626358
 20
-7.5338174059
 30
0.0
 10
-15.7315923735
 20
-7.8271725242
 30
0.0
 10
-15.5497418928
 20
-8.2394029981
 30
0.0
 10
-15.2836614063
 20
-8.6030091804
 30
0.0
 10
-15.0556904345
 20
-8.7948739388
 30
0.0
 10
-14.9352344987
 20
-8.8644236874
 30
0.0
  0
SPLINE
  5
40F
100
AcDbEntity
  8
0
100
AcDbSpline
 62
7
  6
CONTINUOUS
 70
0
 71
3
 72
9
 73
5
 74
0
 42
0.0000001
 43
0.0000001
 44
0.0000000001
 40
0.0
 40
0.0
 40
0.0
 40
0.0
 40
0.2314181732
 40
1.0
 40
1.0
 40
1.0
 40
1.0
 10
-15.72791445
 20
3.8633030783
 30
0.0
 10
-15.7373552686
 20
3.8402122604
 30
0.0
 10
-15.7720782777
 20
3.7379439328
 30
0.0
 10
-15.7837626356
 20
3.6288228668
 30
0.0
 10
-15.7837626361
 20
3.5459718658
 30
0.0
  0
SPLINE
  5
410
100
AcDbEntity
  8
0
100
AcDbSpline
 62
7
  6
CONTINUOUS
 70
0
 71
3
 72
9
 73
5
 74
0
 42
0.0000001
 43
0.0000001
 44
0.0000000001
 40
0.0
 40
0.0
 40
0.0
 40
0.0
 40
0.2698109577
 40
1.0
 40
1.0
 40
1.0
 40
1.0
 10
-5.4600036308
 20
-14.335303238
 30
0.0
 10
-5.4348176817
 20
-14.3498452892
 30
0.0
 10
-5.3395413004
 20
-14.4000704893
 30
0.0
 10
-5.2351603162
 20
-14.4350070435
 30
0.0
 10
-5.1571744881
 20
-14.4456333487
 30
0.0
  0
SPLINE
  5
411
100
AcDbEntity
  8
0
100
AcDbSpline
 62
7
  6
CONTINUOUS
 70
0
 71
3
 72
11
 73
7
 74
0
 42
0.0000001
 43
0.0000001
 44
0.0000000001
 40
0.0
 40
0.0
 40
0.0
 40
0.0
 40
0.2845759374
 40
0.5442323343
 40
0.7808561232
 40
1.0
 40
1.0
 40
1.0
 40
1.0
 10
-15.9251839923
 20
3.4643169471
 30
0.0
 10
-15.9251839922
 20
3.5154685671
 30
0.0
 10
-15.9185942321
 20
3.6135085828
 30
0.0
 10
-15.8858260916
 20
3.7507901054
 30
0.0
 10
-15.8310112781
 20
3.8682205572
 30
0.0
 10
-15.7787254346
 20
3.932726764
 30
0.0
 10
-15.7498418623
 20
3.9595100434
 30
0.0
  0
SPLINE
  5
412
100
AcDbEntity
  8
0
100
AcDbSpline
 62
7
  6
CONTINUOUS
 70
0
 71
3
 72
15
 73
11
 74
0
 42
0.0000001
 43
0.0000001
 44
0.0000000001
 40
0.0
 40
0.0
 40
0.0
 40
0.0
 40
0.1449018606
 40
0.274517057
 40
0.3911053392
 40
0.4999889011
 40
0.6088744758
 40
0.7254681141
 40
0.8550905238
 40
1.0
 40
1.0
 40
1.0
 40
1.0
 10
11.1570057271
 20
-23.5215762797
 30
0.0
 10
11.1570057274
 20
-23.6077398078
 30
0.0
 10
11.1439852675
 20
-23.7715483513
 30
0.0
 10
11.0776104664
 20
-23.9965544075
 30
0.0
 10
10.9658394855
 20
-24.1792638682
 30
0.0
 10
10.8106900324
 20
-24.3097431938
 30
0.0
 10
10.6201062379
 20
-24.3788460764
 30
0.0
 10
10.4059810798
 20
-24.3842690647
 30
0.0
 10
10.1779246401
 20
-24.3292322086
 30
0.0
 10
10.029546724
 20
-24.2585950502
 30
0.0
 10
9.9549241991
 20
-24.2155089416
 30
0.0
  0
SPLINE
  5
413
100
AcDbEntity
  8
0
100
AcDbSpline
 62
7
  6
CONTINUOUS
 70
0
 71
3
 72
9
 73
5
 74
0
 42
0.0000001
 43
0.0000001
 44
0.0000000001
 40
0.0
 40
0.0
 40
0.0
 40
0.0
 40
0.2314181732
 40
1.0
 40
1.0
 40
1.0
 40
1.0
 10
0.1819881267
 20
-5.3228752716
 30
0.0
 10
0.172547308
 20
-5.3459660895
 30
0.0
 10
0.137824299
 20
-5.4482344171
 30
0.0
 10
0.1261399411
 20
-5.5573554831
 30
0.0
 10
0.1261399406
 20
-5.6402064841
 30
0.0
  0
SPLINE
  5
414
100
AcDbEntity
  8
0
100
AcDbSpline
 62
7
  6
CONTINUOUS
 70
0
 71
3
 72
15
 73
11
 74
0
 42
0.0000001
 43
0.0000001
 44
0.0000000001
 40
0.0
 40
0.0
 40
0.0
 40
0.0
 40
0.144901866
 40
0.2745170643
 40
0.391105345
 40
0.4999889054
 40
0.6088744816
 40
0.7254681215
 40
0.8550905292
 40
1.0
 40
1.0
 40
1.0
 40
1.0
 10
-0.7223881968
 20
11.0157792715
 30
0.0
 10
-0.7223881951
 20
11.1019428028
 30
0.0
 10
-0.7093677375
 20
11.2657513508
 30
0.0
 10
-0.6429929317
 20
11.4907574097
 30
0.0
 10
-0.5312219487
 20
11.6734668683
 30
0.0
 10
-0.3760724938
 20
11.8039461904
 30
0.0
 10
-0.1854886972
 20
11.8730490698
 30
0.0
 10
0.0286364617
 20
11.8784720551
 30
0.0
 10
0.2566928967
 20
11.8234351963
 30
0.0
 10
0.4050708101
 20
11.7527980422
 30
0.0
 10
0.4796933312
 20
11.7097119334
 30
0.0
  0
SPLINE
  5
415
100
AcDbEntity
  8
0
100
AcDbSpline
 62
7
  6
CONTINUOUS
 70
0
 71
3
 72
11
 73
7
 74
0
 42
0.0000001
 43
0.0000001
 44
0.0000000001
 40
0.0
 40
0.0
 40
0.0
 40
0.0
 40
0.2372223247
 40
0.5000061052
 40
0.7627865602
 40
1.0
 40
1.0
 40
1.0
 40
1.0
 10
0.8332467218
 20
-18.1322569559
 30
0.0
 10
0.7127908114
 20
-18.0627072224
 30
0.0
 10
0.4848198365
 20
-17.870842472
 30
0.0
 10
0.2187393231
 20
-17.507236273
 30
0.0
 10
0.0368888406
 20
-17.0950057663
 30
0.0
 10
-0.0152814184
 20
-16.8016506475
 30
0.0
 10
-0.0152814156
 20
-16.6625631118
 30
0.0
  0
SPLINE
  5
416
100
AcDbEntity
  8
0
100
AcDbSpline
 62
7
  6
CONTINUOUS
 70
0
 71
3
 72
11
 73
7
 74
0
 42
0.0000001
 43
0.0000001
 44
0.0000000001
 40
0.0
 40
0.0
 40
0.0
 40
0.0
 40
0.2372134857
 40
0.4999938933
 40
0.7627776251
 40
1.0
 40
1.0
 40
1.0
 40
1.0
 10
0.1261399406
 20
-16.5809081931
 30
0.0
 10
0.1261399409
 20
-16.7199957558
 30
0.0
 10
0.1783102032
 20
-17.0133508741
 30
0.0
 10
0.3601606839
 20
-17.425581348
 30
0.0
 10
0.6262411704
 20
-17.7891875302
 30
0.0
 10
0.8542121422
 20
-17.9810522887
 30
0.0
 10
0.974668078
 20
-18.0506020373
 30
0.0
  0
SPLINE
  5
417
100
AcDbEntity
  8
0
100
AcDbSpline
 62
7
  6
CONTINUOUS
 70
0
 71
3
 72
11
 73
7
 74
0
 42
0.0000001
 43
0.0000001
 44
0.0000000001
 40
0.0
 40
0.0
 40
0.0
 40
0.0
 40
0.2191410373
 40
0.4557654014
 40
0.7154234019
 40
1.0
 40
1.0
 40
1.0
 40
1.0
 10
-5.0848818315
 20
2.2248981027
 30
0.0
 10
-5.1225212293
 20
2.2132794022
 30
0.0
 10
-5.2045329664
 20
2.2002592913
 30
0.0
 10
-5.3336433226
 20
2.2115138155
 30
0.0
 10
-5.4689215928
 20
2.2517857405
 30
0.0
 10
-5.5571247987
 20
2.2951041443
 30
0.0
 10
-5.601424987
 20
2.3206825176
 30
0.0
  0
SPLINE
  5
418
100
AcDbEntity
  8
0
100
AcDbSpline
 62
7
  6
CONTINUOUS
 70
0
 71
3
 72
9
 73
5
 74
0
 42
0.0000001
 43
0.0000001
 44
0.0000000001
 40
0.0
 40
0.0
 40
0.0
 40
0.0
 40
0.2698109577
 40
1.0
 40
1.0
 40
1.0
 40
1.0
 10
10.4498989459
 20
-23.5214815878
 30
0.0
 10
10.475084895
 20
-23.5360236391
 30
0.0
 10
10.5703612763
 20
-23.5862488392
 30
0.0
 10
10.6747422605
 20
-23.6211853934
 30
0.0
 10
10.7527280886
 20
-23.6318116986
 30
0.0
  0
SPLINE
  5
419
100
AcDbEntity
  8
0
100
AcDbSpline
 62
7
  6
CONTINUOUS
 70
0
 71
3
 72
11
 73
7
 74
0
 42
0.0000001
 43
0.0000001
 44
0.0000000001
 40
0.0
 40
0.0
 40
0.0
 40
0.0
 40
0.2845759374
 40
0.5442323343
 40
0.7808561232
 40
1.0
 40
1.0
 40
1.0
 40
1.0
 10
-0.0152814156
 20
-5.7218614028
 30
0.0
 10
-0.0152814155
 20
-5.6707097828
 30
0.0
 10
-0.0086916554
 20
-5.5726697671
 30
0.0
 10
0.0240764851
 20
-5.4353882445
 30
0.0
 10
0.0788912986
 20
-5.3179577927
 30
0.0
 10
0.1311771421
 20
-5.2534515859
 30
0.0
 10
0.1600607144
 20
-5.2266683065
 30
0.0
  0
SPLINE
  5
41A
100
AcDbEntity
  8
ASSI
100
AcDbSpline
 62
7
  6
CONTINUOUS
 70
0
 71
3
 72
9
 73
5
 74
0
 42
0.0000001
 43
0.0000001
 44
0.0000000001
 40
0.0
 40
0.0
 40
0.0
 40
0.0
 40
0.2403057122
 40
1.0
 40
1.0
 40
1.0
 40
1.0
 10
9.9549241991
 20
-10.4988082915
 30
0.0
 10
9.9785451225
 20
-10.5124467165
 30
0.0
 10
10.0753787429
 20
-10.5717194117
 30
0.0
 10
10.1663826348
 20
-10.640323822
 30
0.0
 10
10.2320515814
 20
-10.6962062591
 30
0.0
  0
SPLINE
  5
41B
100
AcDbEntity
  8
ASSI
100
AcDbSpline
 62
7
  6
CONTINUOUS
 70
0
 71
3
 72
11
 73
7
 74
0
 42
0.0000001
 43
0.0000001
 44
0.0000000001
 40
0.0
 40
0.0
 40
0.0
 40
0.0
 40
0.2436409567
 40
0.5000042266
 40
0.7563652941
 40
1.0
 40
1.0
 40
1.0
 40
1.0
 10
10.2320515814
 20
-10.6962062591
 30
0.0
 10
10.344332443
 20
-10.7917541323
 30
0.0
 10
10.5553733689
 20
-11.0112326247
 30
0.0
 10
10.8154293702
 20
-11.390053084
 30
0.0
 10
11.0134690242
 20
-11.804674474
 30
0.0
 10
11.0980203593
 20
-12.0971760027
 30
0.0
 10
11.1246246714
 20
-12.2421845653
 30
0.0
  0
SPLINE
  5
41C
100
AcDbEntity
  8
ASSI
100
AcDbSpline
 62
7
  6
CONTINUOUS
 70
0
 71
3
 72
9
 73
5
 74
0
 42
0.0000001
 43
0.0000001
 44
0.0000000001
 40
0.0
 40
0.0
 40
0.0
 40
0.0
 40
0.2594910627
 40
1.0
 40
1.0
 40
1.0
 40
1.0
 10
11.1246246714
 20
-12.2421845653
 30
0.0
 10
11.1299393067
 20
-12.2711523365
 30
0.0
 10
11.1481401822
 20
-12.3831772783
 30
0.0
 10
11.1570057254
 20
-12.496829571
 30
0.0
 10
11.1570057271
 20
-12.5808745707
 30
0.0
  0
SPLINE
  5
41D
100
AcDbEntity
  8
ASSI
100
AcDbSpline
 62
7
  6
CONTINUOUS
 70
0
 71
3
 72
9
 73
5
 74
0
 42
0.0000001
 43
0.0000001
 44
0.0000000001
 40
0.0
 40
0.0
 40
0.0
 40
0.0
 40
0.2403057122
 40
1.0
 40
1.0
 40
1.0
 40
1.0
 10
-5.9549783776
 20
-1.3126299416
 30
0.0
 10
-5.9313574542
 20
-1.3262683666
 30
0.0
 10
-5.8345238338
 20
-1.3855410619
 30
0.0
 10
-5.7435199419
 20
-1.4541454722
 30
0.0
 10
-5.6778509953
 20
-1.5100279092
 30
0.0
  0
SPLINE
  5
41E
100
AcDbEntity
  8
ASSI
100
AcDbSpline
 62
7
  6
CONTINUOUS
 70
0
 71
3
 72
11
 73
7
 74
0
 42
0.0000001
 43
0.0000001
 44
0.0000000001
 40
0.0
 40
0.0
 40
0.0
 40
0.0
 40
0.2436409567
 40
0.5000042266
 40
0.7563652941
 40
1.0
 40
1.0
 40
1.0
 40
1.0
 10
-5.6778509953
 20
-1.5100279092
 30
0.0
 10
-5.5655701337
 20
-1.6055757824
 30
0.0
 10
-5.3545292078
 20
-1.8250542748
 30
0.0
 10
-5.0944732065
 20
-2.2038747342
 30
0.0
 10
-4.8964335525
 20
-2.6184961241
 30
0.0
 10
-4.8118822174
 20
-2.9109976528
 30
0.0
 10
-4.7852779053
 20
-3.0560062154
 30
0.0
  0
SPLINE
  5
41F
100
AcDbEntity
  8
ASSI
100
AcDbSpline
 62
7
  6
CONTINUOUS
 70
0
 71
3
 72
9
 73
5
 74
0
 42
0.0000001
 43
0.0000001
 44
0.0000000001
 40
0.0
 40
0.0
 40
0.0
 40
0.0
 40
0.2594910627
 40
1.0
 40
1.0
 40
1.0
 40
1.0
 10
-4.7852779053
 20
-3.0560062154
 30
0.0
 10
-4.77996327
 20
-3.0849739866
 30
0.0
 10
-4.7617623945
 20
-3.1969989285
 30
0.0
 10
-4.7528968513
 20
-3.3106512211
 30
0.0
 10
-4.7528968496
 20
-3.3946962208
 30
0.0
  0
SPLINE
  5
420
100
AcDbEntity
  8
ASSI
100
AcDbSpline
 62
7
  6
CONTINUOUS
 70
0
 71
3
 72
9
 73
5
 74
0
 42
0.0000001
 43
0.0000001
 44
0.0000000001
 40
0.0
 40
0.0
 40
0.0
 40
0.0
 40
0.2403055869
 40
1.0
 40
1.0
 40
1.0
 40
1.0
 10
9.9549241991
 20
6.2388323828
 30
0.0
 10
9.9785454849
 20
6.2251937478
 30
0.0
 10
10.0753806192
 20
6.1659200718
 30
0.0
 10
10.1663858442
 20
6.0973144039
 30
0.0
 10
10.2320557047
 20
6.0414309068
 30
0.0
  0
SPLINE
  5
421
100
AcDbEntity
  8
ASSI
100
AcDbSpline
 62
7
  6
CONTINUOUS
 70
0
 71
3
 72
11
 73
7
 74
0
 42
0.0000001
 43
0.0000001
 44
0.0000000001
 40
0.0
 40
0.0
 40
0.0
 40
0.0
 40
0.2436411953
 40
0.5000045451
 40
0.7563655326
 40
1.0
 40
1.0
 40
1.0
 40
1.0
 10
10.2320557047
 20
6.0414309068
 30
0.0
 10
10.3443364381
 20
5.9458826601
 30
0.0
 10
10.5553770067
 20
5.7264035658
 30
0.0
 10
10.8154323287
 20
5.3475824659
 30
0.0
 10
11.0134710882
 20
4.9329608081
 30
0.0
 10
11.0980217235
 20
4.6404592709
 30
0.0
 10
11.1246256479
 20
4.495450784
 30
0.0
  0
SPLINE
  5
422
100
AcDbEntity
  8
ASSI
100
AcDbSpline
 62
7
  6
CONTINUOUS
 70
0
 71
3
 72
9
 73
5
 74
0
 42
0.0000001
 43
0.0000001
 44
0.0000000001
 40
0.0
 40
0.0
 40
0.0
 40
0.0
 40
0.2594909456
 40
1.0
 40
1.0
 40
1.0
 40
1.0
 10
11.1246256479
 20
4.495450784
 30
0.0
 10
11.1299401243
 20
4.4664834724
 30
0.0
 10
11.1481404604
 20
4.3544602678
 30
0.0
 10
11.1570057274
 20
4.2408097825
 30
0.0
 10
11.1570057271
 20
4.1567661036
 30
0.0
  0
SPLINE
  5
423
100
AcDbEntity
  8
ASSI
100
AcDbSpline
 62
7
  6
CONTINUOUS
 70
0
 71
3
 72
9
 73
5
 74
0
 42
0.0000001
 43
0.0000001
 44
0.0000000001
 40
0.0
 40
0.0
 40
0.0
 40
0.0
 40
0.2403055869
 40
1.0
 40
1.0
 40
1.0
 40
1.0
 10
-5.9549783776
 20
15.4250107327
 30
0.0
 10
-5.9313570918
 20
15.4113720977
 30
0.0
 10
-5.8345219575
 20
15.3520984217
 30
0.0
 10
-5.7435167325
 20
15.2834927537
 30
0.0
 10
-5.6778468719
 20
15.2276092566
 30
0.0
  0
SPLINE
  5
424
100
AcDbEntity
  8
ASSI
100
AcDbSpline
 62
7
  6
CONTINUOUS
 70
0
 71
3
 72
11
 73
7
 74
0
 42
0.0000001
 43
0.0000001
 44
0.0000000001
 40
0.0
 40
0.0
 40
0.0
 40
0.0
 40
0.2436411953
 40
0.5000045451
 40
0.7563655326
 40
1.0
 40
1.0
 40
1.0
 40
1.0
 10
-5.6778468719
 20
15.2276092566
 30
0.0
 10
-5.5655661386
 20
15.1320610099
 30
0.0
 10
-5.35452557
 20
14.9125819157
 30
0.0
 10
-5.094470248
 20
14.5337608158
 30
0.0
 10
-4.8964314885
 20
14.119139158
 30
0.0
 10
-4.8118808532
 20
13.8266376208
 30
0.0
 10
-4.7852769287
 20
13.6816291338
 30
0.0
  0
SPLINE
  5
425
100
AcDbEntity
  8
ASSI
100
AcDbSpline
 62
7
  6
CONTINUOUS
 70
0
 71
3
 72
9
 73
5
 74
0
 42
0.0000001
 43
0.0000001
 44
0.0000000001
 40
0.0
 40
0.0
 40
0.0
 40
0.0
 40
0.2594909456
 40
1.0
 40
1.0
 40
1.0
 40
1.0
 10
-4.7852769287
 20
13.6816291338
 30
0.0
 10
-4.7799624524
 20
13.6526618223
 30
0.0
 10
-4.7617621163
 20
13.5406386177
 30
0.0
 10
-4.7528968493
 20
13.4269881324
 30
0.0
 10
-4.7528968496
 20
13.3429444535
 30
0.0
  0
SPLINE
  5
426
100
AcDbEntity
  8
ASSI
100
AcDbSpline
 62
7
  6
CONTINUOUS
 70
0
 71
3
 72
15
 73
11
 74
0
 42
0.0000001
 43
0.0000001
 44
0.0000000001
 40
0.0
 40
0.0
 40
0.0
 40
0.0
 40
0.1141547262
 40
0.2373197603
 40
0.3669701463
 40
0.4999939469
 40
0.63301859
 40
0.7626714346
 40
0.8858403421
 40
1.0
 40
1.0
 40
1.0
 40
1.0
 10
0.4847701295
 20
-15.8081177455
 30
0.0
 10
0.4847701296
 20
-15.9139178688
 30
0.0
 10
0.5041465428
 20
-16.1340748703
 30
0.0
 10
0.5814067065
 20
-16.466207597
 30
0.0
 10
0.7051573
 20
-16.8026355458
 30
0.0
 10
0.8707943514
 20
-17.1307081562
 30
0.0
 10
1.0720963936
 20
-17.4381921786
 30
0.0
 10
1.3015797839
 20
-17.713582953
 30
0.0
 10
1.5505906434
 20
-17.9465678065
 30
0.0
 10
1.7315681386
 20
-18.0734348226
 30
0.0
 10
1.8231962154
 20
-18.1263397262
 30
0.0
  0
SPLINE
  5
427
100
AcDbEntity
  8
ASSI
100
AcDbSpline
 62
7
  6
CONTINUOUS
 70
0
 71
3
 72
15
 73
11
 74
0
 42
0.0000001
 43
0.0000001
 44
0.0000000001
 40
0.0
 40
0.0
 40
0.0
 40
0.0
 40
0.1141547262
 40
0.2373197603
 40
0.3669701463
 40
0.4999939469
 40
0.63301859
 40
0.7626714346
 40
0.8858403421
 40
1.0
 40
1.0
 40
1.0
 40
1.0
 10
-15.4251324472
 20
-6.6219393956
 30
0.0
 10
-15.4251324471
 20
-6.7277395189
 30
0.0
 10
-15.4057560339
 20
-6.9478965204
 30
0.0
 10
-15.3284958702
 20
-7.2800292472
 30
0.0
 10
-15.2047452767
 20
-7.6164571959
 30
0.0
 10
-15.0391082253
 20
-7.9445298064
 30
0.0
 10
-14.8378061831
 20
-8.2520138287
 30
0.0
 10
-14.6083227928
 20
-8.5274046031
 30
0.0
 10
-14.3593119333
 20
-8.7603894566
 30
0.0
 10
-14.1783344381
 20
-8.8872564727
 30
0.0
 10
-14.0867063612
 20
-8.9401613763
 30
0.0
  0
SPLINE
  5
428
100
AcDbEntity
  8
ASSI
100
AcDbSpline
 62
7
  6
CONTINUOUS
 70
0
 71
3
 72
15
 73
11
 74
0
 42
0.0000001
 43
0.0000001
 44
0.0000000001
 40
0.0
 40
0.0
 40
0.0
 40
0.0
 40
0.1141547283
 40
0.237319763
 40
0.3669701489
 40
0.4999939506
 40
0.6330185926
 40
0.7626714372
 40
0.8858403441
 40
1.0
 40
1.0
 40
1.0
 40
1.0
 10
0.4847701295
 20
0.9295229288
 30
0.0
 10
0.4847701298
 20
0.8237228036
 30
0.0
 10
0.5041465433
 20
0.6035657996
 30
0.0
 10
0.5814067082
 20
0.2714330706
 30
0.0
 10
0.7051573034
 20
-0.0649948791
 30
0.0
 10
0.8707943556
 20
-0.3930674892
 30
0.0
 10
1.0720963985
 20
-0.7005515111
 30
0.0
 10
1.3015797888
 20
-0.9759422835
 30
0.0
 10
1.5505906469
 20
-1.2089271348
 30
0.0
 10
1.7315681402
 20
-1.3357941495
 30
0.0
 10
1.8231962154
 20
-1.3886990519
 30
0.0
  0
SPLINE
  5
429
100
AcDbEntity
  8
ASSI
100
AcDbSpline
 62
7
  6
CONTINUOUS
 70
0
 71
3
 72
15
 73
11
 74
0
 42
0.0000001
 43
0.0000001
 44
0.0000000001
 40
0.0
 40
0.0
 40
0.0
 40
0.0
 40
0.1141547283
 40
0.237319763
 40
0.3669701489
 40
0.4999939506
 40
0.6330185926
 40
0.7626714372
 40
0.8858403441
 40
1.0
 40
1.0
 40
1.0
 40
1.0
 10
-15.4251324472
 20
10.1157012786
 30
0.0
 10
-15.4251324469
 20
10.0099011534
 30
0.0
 10
-15.4057560334
 20
9.7897441495
 30
0.0
 10
-15.3284958685
 20
9.4576114205
 30
0.0
 10
-15.2047452733
 20
9.1211834707
 30
0.0
 10
-15.0391082211
 20
8.7931108606
 30
0.0
 10
-14.8378061782
 20
8.4856268387
 30
0.0
 10
-14.6083227879
 20
8.2102360664
 30
0.0
 10
-14.3593119298
 20
7.977251215
 30
0.0
 10
-14.1783344365
 20
7.8503842004
 30
0.0
 10
-14.0867063612
 20
7.797479298
 30
0.0
  0
SPLINE
  5
42A
100
AcDbEntity
  8
ASSI
100
AcDbSpline
 62
7
  6
CONTINUOUS
 70
0
 71
3
 72
9
 73
5
 74
0
 42
0.0000001
 43
0.0000001
 44
0.0000000001
 40
0.0
 40
0.0
 40
0.0
 40
0.0
 40
0.5163282074
 40
1.0
 40
1.0
 40
1.0
 40
1.0
 10
-5.1571744881
 20
2.2920073257
 30
0.0
 10
-5.1204241154
 20
2.2869997402
 30
0.0
 10
-5.0481266855
 20
2.2837066491
 30
0.0
 10
-4.9766434569
 20
2.2963085815
 30
0.0
 10
-4.9434454078
 20
2.3065576677
 30
0.0
  0
SPLINE
  5
42B
100
AcDbEntity
  8
ASSI
100
AcDbSpline
 62
7
  6
CONTINUOUS
 70
0
 71
3
 72
9
 73
5
 74
0
 42
0.0000001
 43
0.0000001
 44
0.0000000001
 40
0.0
 40
0.0
 40
0.0
 40
0.0
 40
0.5163282074
 40
1.0
 40
1.0
 40
1.0
 40
1.0
 10
10.7527280885
 20
-6.8941710242
 30
0.0
 10
10.7894784613
 20
-6.8991786096
 30
0.0
 10
10.8617758911
 20
-6.9024717007
 30
0.0
 10
10.9332591198
 20
-6.8898697684
 30
0.0
 10
10.9664571689
 20
-6.8796206822
 30
0.0
  0
SPLINE
  5
42C
100
AcDbEntity
  8
ASSI
100
AcDbSpline
 62
7
  6
CONTINUOUS
 70
0
 71
3
 72
9
 73
5
 74
0
 42
0.0000001
 43
0.0000001
 44
0.0000000001
 40
0.0
 40
0.0
 40
0.0
 40
0.0
 40
0.5163282132
 40
1.0
 40
1.0
 40
1.0
 40
1.0
 10
-5.1571744881
 20
-14.4456333487
 30
0.0
 10
-5.1204240884
 20
-14.4506409376
 30
0.0
 10
-5.0481266053
 20
-14.4539340261
 30
0.0
 10
-4.9766433269
 20
-14.4413320663
 30
0.0
 10
-4.9434452581
 20
-14.4310829605
 30
0.0
  0
SPLINE
  5
42D
100
AcDbEntity
  8
ASSI
100
AcDbSpline
 62
7
  6
CONTINUOUS
 70
0
 71
3
 72
9
 73
5
 74
0
 42
0.0000001
 43
0.0000001
 44
0.0000000001
 40
0.0
 40
0.0
 40
0.0
 40
0.0
 40
0.5163282132
 40
1.0
 40
1.0
 40
1.0
 40
1.0
 10
10.7527280886
 20
-23.6318116986
 30
0.0
 10
10.7894784883
 20
-23.6368192875
 30
0.0
 10
10.8617759714
 20
-23.6401123759
 30
0.0
 10
10.9332592498
 20
-23.6275104161
 30
0.0
 10
10.9664573186
 20
-23.6172613104
 30
0.0
  0
SPLINE
  5
42E
100
AcDbEntity
  8
ASSI
100
AcDbSpline
 62
7
  6
CONTINUOUS
 70
0
 71
3
 72
11
 73
7
 74
0
 42
0.0000001
 43
0.0000001
 44
0.0000000001
 40
0.0
 40
0.0
 40
0.0
 40
0.0
 40
0.2177671738
 40
0.450944045
 40
0.7101952432
 40
1.0
 40
1.0
 40
1.0
 40
1.0
 10
-15.6766848471
 20
20.7512418547
 30
0.0
 10
-15.6371025095
 20
20.774096214
 30
0.0
 10
-15.5461465254
 20
20.8071306645
 30
0.0
 10
-15.3950903326
 20
20.8109104422
 30
0.0
 10
-15.2340687586
 20
20.7720738561
 30
0.0
 10
-15.1293320742
 20
20.7222070306
 30
0.0
 10
-15.0766558549
 20
20.6917924415
 30
0.0
  0
SPLINE
  5
42F
100
AcDbEntity
  8
ASSI
100
AcDbSpline
 62
7
  6
CONTINUOUS
 70
0
 71
3
 72
9
 73
5
 74
0
 42
0.0000001
 43
0.0000001
 44
0.0000000001
 40
0.0
 40
0.0
 40
0.0
 40
0.0
 40
0.2434727943
 40
1.0
 40
1.0
 40
1.0
 40
1.0
 10
-15.6084088329
 20
20.778816467
 30
0.0
 10
-15.6169173515
 20
20.7709272509
 30
0.0
 10
-15.6505250739
 20
20.7370896399
 30
0.0
 10
-15.6784682354
 20
20.697788246
 30
0.0
 10
-15.6962510165
 20
20.6664249265
 30
0.0
  0
SPLINE
  5
430
100
AcDbEntity
  8
ASSI
100
AcDbSpline
 62
7
  6
CONTINUOUS
 70
0
 71
3
 72
9
 73
5
 74
0
 42
0.0000001
 43
0.0000001
 44
0.0000000001
 40
0.0
 40
0.0
 40
0.0
 40
0.0
 40
0.2454443437
 40
1.0
 40
1.0
 40
1.0
 40
1.0
 10
-15.6962510165
 20
20.6664249265
 30
0.0
 10
-15.6991872422
 20
20.6612463335
 30
0.0
 10
-15.7107950749
 20
20.6399473509
 30
0.0
 10
-15.7209884094
 20
20.6178838029
 30
0.0
 10
-15.7279144501
 20
20.6009437526
 30
0.0
  0
SPLINE
  5
431
100
AcDbEntity
  8
ASSI
100
AcDbSpline
 62
7
  6
CONTINUOUS
 70
0
 71
3
 72
11
 73
7
 74
0
 42
0.0000001
 43
0.0000001
 44
0.0000000001
 40
0.0
 40
0.0
 40
0.0
 40
0.0
 40
0.2177671738
 40
0.450944045
 40
0.7101952432
 40
1.0
 40
1.0
 40
1.0
 40
1.0
 10
0.2332177296
 20
11.5650635049
 30
0.0
 10
0.2728000672
 20
11.5879178642
 30
0.0
 10
0.3637560513
 20
11.6209523147
 30
0.0
 10
0.5148122441
 20
11.6247320923
 30
0.0
 10
0.6758338181
 20
11.5858955062
 30
0.0
 10
0.7805705025
 20
11.5360286807
 30
0.0
 10
0.8332467218
 20
11.5056140917
 30
0.0
  0
SPLINE
  5
432
100
AcDbEntity
  8
ASSI
100
AcDbSpline
 62
7
  6
CONTINUOUS
 70
0
 71
3
 72
9
 73
5
 74
0
 42
0.0000001
 43
0.0000001
 44
0.0000000001
 40
0.0
 40
0.0
 40
0.0
 40
0.0
 40
0.2434727943
 40
1.0
 40
1.0
 40
1.0
 40
1.0
 10
0.3014937438
 20
11.5926381172
 30
0.0
 10
0.2929852252
 20
11.584748901
 30
0.0
 10
0.2593775028
 20
11.55091129
 30
0.0
 10
0.2314343413
 20
11.5116098961
 30
0.0
 10
0.2136515602
 20
11.4802465766
 30
0.0
  0
SPLINE
  5
433
100
AcDbEntity
  8
ASSI
100
AcDbSpline
 62
7
  6
CONTINUOUS
 70
0
 71
3
 72
9
 73
5
 74
0
 42
0.0000001
 43
0.0000001
 44
0.0000000001
 40
0.0
 40
0.0
 40
0.0
 40
0.0
 40
0.2454443437
 40
1.0
 40
1.0
 40
1.0
 40
1.0
 10
0.2136515602
 20
11.4802465766
 30
0.0
 10
0.2107153345
 20
11.4750679837
 30
0.0
 10
0.1991075018
 20
11.4537690011
 30
0.0
 10
0.1889141673
 20
11.4317054531
 30
0.0
 10
0.1819881266
 20
11.4147654028
 30
0.0
  0
SPLINE
  5
434
100
AcDbEntity
  8
ASSI
100
AcDbSpline
 62
7
  6
CONTINUOUS
 70
0
 71
3
 72
9
 73
5
 74
0
 42
0.0000001
 43
0.0000001
 44
0.0000000001
 40
0.0
 40
0.0
 40
0.0
 40
0.0
 40
0.2434727928
 40
1.0
 40
1.0
 40
1.0
 40
1.0
 10
-15.6084089477
 20
4.0411756861
 30
0.0
 10
-15.6169174604
 20
4.0332864695
 30
0.0
 10
-15.6505251595
 20
3.9994488584
 30
0.0
 10
-15.6784683011
 20
3.9601474713
 30
0.0
 10
-15.6962510698
 20
3.9287841588
 30
0.0
  0
SPLINE
  5
435
100
AcDbEntity
  8
ASSI
100
AcDbSpline
 62
7
  6
CONTINUOUS
 70
0
 71
3
 72
9
 73
5
 74
0
 42
0.0000001
 43
0.0000001
 44
0.0000000001
 40
0.0
 40
0.0
 40
0.0
 40
0.0
 40
0.245444348
 40
1.0
 40
1.0
 40
1.0
 40
1.0
 10
-15.6962510698
 20
3.9287841588
 30
0.0
 10
-15.6991872901
 20
3.9236055728
 30
0.0
 10
-15.7107951019
 20
3.9023066195
 30
0.0
 10
-15.7209884196
 20
3.8802431035
 30
0.0
 10
-15.72791445
 20
3.8633030783
 30
0.0
  0
SPLINE
  5
436
100
AcDbEntity
  8
ASSI
100
AcDbSpline
 62
7
  6
CONTINUOUS
 70
0
 71
3
 72
11
 73
7
 74
0
 42
0.0000001
 43
0.0000001
 44
0.0000000001
 40
0.0
 40
0.0
 40
0.0
 40
0.0
 40
0.2177671718
 40
0.4509440387
 40
0.7101952376
 40
1.0
 40
1.0
 40
1.0
 40
1.0
 10
-15.6766848471
 20
4.0136011805
 30
0.0
 10
-15.6371025097
 20
4.0364555393
 30
0.0
 10
-15.5461465272
 20
4.0694899898
 30
0.0
 10
-15.3950903356
 20
4.0732697683
 30
0.0
 10
-15.2340687607
 20
4.0344331831
 30
0.0
 10
-15.1293320759
 20
3.9845663557
 30
0.0
 10
-15.0766558549
 20
3.9541517673
 30
0.0
  0
SPLINE
  5
437
100
AcDbEntity
  8
ASSI
100
AcDbSpline
 62
7
  6
CONTINUOUS
 70
0
 71
3
 72
9
 73
5
 74
0
 42
0.0000001
 43
0.0000001
 44
0.0000000001
 40
0.0
 40
0.0
 40
0.0
 40
0.0
 40
0.2434727928
 40
1.0
 40
1.0
 40
1.0
 40
1.0
 10
0.301493629
 20
-5.1450026637
 30
0.0
 10
0.2929851163
 20
-5.1528918803
 30
0.0
 10
0.2593774172
 20
-5.1867294915
 30
0.0
 10
0.2314342756
 20
-5.2260308786
 30
0.0
 10
0.2136515069
 20
-5.2573941911
 30
0.0
  0
SPLINE
  5
438
100
AcDbEntity
  8
ASSI
100
AcDbSpline
 62
7
  6
CONTINUOUS
 70
0
 71
3
 72
9
 73
5
 74
0
 42
0.0000001
 43
0.0000001
 44
0.0000000001
 40
0.0
 40
0.0
 40
0.0
 40
0.0
 40
0.245444348
 40
1.0
 40
1.0
 40
1.0
 40
1.0
 10
0.2136515069
 20
-5.2573941911
 30
0.0
 10
0.2107152866
 20
-5.2625727771
 30
0.0
 10
0.1991074748
 20
-5.2838717303
 30
0.0
 10
0.1889141571
 20
-5.3059352464
 30
0.0
 10
0.1819881267
 20
-5.3228752716
 30
0.0
  0
SPLINE
  5
439
100
AcDbEntity
  8
ASSI
100
AcDbSpline
 62
7
  6
CONTINUOUS
 70
0
 71
3
 72
11
 73
7
 74
0
 42
0.0000001
 43
0.0000001
 44
0.0000000001
 40
0.0
 40
0.0
 40
0.0
 40
0.0
 40
0.2177671718
 40
0.4509440387
 40
0.7101952376
 40
1.0
 40
1.0
 40
1.0
 40
1.0
 10
0.2332177296
 20
-5.1725771694
 30
0.0
 10
0.272800067
 20
-5.1497228106
 30
0.0
 10
0.3637560495
 20
-5.11668836
 30
0.0
 10
0.5148122411
 20
-5.1129085816
 30
0.0
 10
0.675833816
 20
-5.1517451668
 30
0.0
 10
0.7805705008
 20
-5.2016119942
 30
0.0
 10
0.8332467218
 20
-5.2320265826
 30
0.0
  0
SPLINE
  5
43A
100
AcDbEntity
  8
ASSI
100
AcDbSpline
 62
7
  6
CONTINUOUS
 70
0
 71
3
 72
9
 73
5
 74
0
 42
0.0000001
 43
0.0000001
 44
0.0000000001
 40
0.0
 40
0.0
 40
0.0
 40
0.0
 40
0.2715325905
 40
1.0
 40
1.0
 40
1.0
 40
1.0
 10
11.1570057271
 20
-23.1133016864
 30
0.0
 10
11.1570057272
 20
-23.1445372422
 30
0.0
 10
11.1522686347
 20
-23.259350472
 30
0.0
 10
11.1269688581
 20
-23.3745814916
 30
0.0
 10
11.092423976
 20
-23.4509285753
 30
0.0
  0
SPLINE
  5
43B
100
AcDbEntity
  8
ASSI
100
AcDbSpline
 62
7
  6
CONTINUOUS
 70
0
 71
3
 72
9
 73
5
 74
0
 42
0.0000001
 43
0.0000001
 44
0.0000000001
 40
0.0
 40
0.0
 40
0.0
 40
0.0
 40
0.5170824752
 40
1.0
 40
1.0
 40
1.0
 40
1.0
 10
11.092423976
 20
-23.4509285753
 30
0.0
 10
11.0722514954
 20
-23.4955114476
 30
0.0
 10
11.0221294608
 20
-23.5775439001
 30
0.0
 10
10.9480842056
 20
-23.6397342825
 30
0.0
 10
10.9085065819
 20
-23.6625859197
 30
0.0
  0
SPLINE
  5
43C
100
AcDbEntity
  8
ASSI
100
AcDbSpline
 62
7
  6
CONTINUOUS
 70
0
 71
3
 72
9
 73
5
 74
0
 42
0.0000001
 43
0.0000001
 44
0.0000000001
 40
0.0
 40
0.0
 40
0.0
 40
0.0
 40
0.2715325905
 40
1.0
 40
1.0
 40
1.0
 40
1.0
 10
-4.7528968496
 20
-13.9271233365
 30
0.0
 10
-4.7528968495
 20
-13.9583588924
 30
0.0
 10
-4.757633942
 20
-14.0731721222
 30
0.0
 10
-4.7829337186
 20
-14.1884031418
 30
0.0
 10
-4.8174786007
 20
-14.2647502254
 30
0.0
  0
SPLINE
  5
43D
100
AcDbEntity
  8
ASSI
100
AcDbSpline
 62
7
  6
CONTINUOUS
 70
0
 71
3
 72
9
 73
5
 74
0
 42
0.0000001
 43
0.0000001
 44
0.0000000001
 40
0.0
 40
0.0
 40
0.0
 40
0.0
 40
0.5170824752
 40
1.0
 40
1.0
 40
1.0
 40
1.0
 10
-4.8174786007
 20
-14.2647502254
 30
0.0
 10
-4.8376510813
 20
-14.3093330977
 30
0.0
 10
-4.8877731159
 20
-14.3913655502
 30
0.0
 10
-4.9618183711
 20
-14.4535559326
 30
0.0
 10
-5.0013959948
 20
-14.4764075698
 30
0.0
  0
SPLINE
  5
43E
100
AcDbEntity
  8
ASSI
100
AcDbSpline
 62
7
  6
CONTINUOUS
 70
0
 71
3
 72
9
 73
5
 74
0
 42
0.0000001
 43
0.0000001
 44
0.0000000001
 40
0.0
 40
0.0
 40
0.0
 40
0.0
 40
0.2715327297
 40
1.0
 40
1.0
 40
1.0
 40
1.0
 10
11.1570057271
 20
-6.3756610121
 30
0.0
 10
11.1570057265
 20
-6.406896741
 30
0.0
 10
11.1522685845
 20
-6.5217105439
 30
0.0
 10
11.1269685289
 20
-6.6369421536
 30
0.0
 10
11.0924232513
 20
-6.713289503
 30
0.0
  0
SPLINE
  5
43F
100
AcDbEntity
  8
ASSI
100
AcDbSpline
 62
7
  6
CONTINUOUS
 70
0
 71
3
 72
9
 73
5
 74
0
 42
0.0000001
 43
0.0000001
 44
0.0000000001
 40
0.0
 40
0.0
 40
0.0
 40
0.0
 40
0.5170823016
 40
1.0
 40
1.0
 40
1.0
 40
1.0
 10
11.0924232513
 20
-6.713289503
 30
0.0
 10
11.0722507676
 20
-6.7578720267
 30
0.0
 10
11.0221288267
 20
-6.8399038316
 30
0.0
 10
10.9480839771
 20
-6.9020937398
 30
0.0
 10
10.9085065819
 20
-6.9249452455
 30
0.0
  0
SPLINE
  5
440
100
AcDbEntity
  8
ASSI
100
AcDbSpline
 62
7
  6
CONTINUOUS
 70
0
 71
3
 72
9
 73
5
 74
0
 42
0.0000001
 43
0.0000001
 44
0.0000000001
 40
0.0
 40
0.0
 40
0.0
 40
0.0
 40
0.2715327297
 40
1.0
 40
1.0
 40
1.0
 40
1.0
 10
-4.7528968496
 20
2.8105173378
 30
0.0
 10
-4.7528968502
 20
2.7792816089
 30
0.0
 10
-4.7576339922
 20
2.664467806
 30
0.0
 10
-4.7829340478
 20
2.5492361963
 30
0.0
 10
-4.8174793254
 20
2.4728888468
 30
0.0
  0
SPLINE
  5
441
100
AcDbEntity
  8
ASSI
100
AcDbSpline
 62
7
  6
CONTINUOUS
 70
0
 71
3
 72
9
 73
5
 74
0
 42
0.0000001
 43
0.0000001
 44
0.0000000001
 40
0.0
 40
0.0
 40
0.0
 40
0.0
 40
0.5170823016
 40
1.0
 40
1.0
 40
1.0
 40
1.0
 10
-4.8174793254
 20
2.4728888468
 30
0.0
 10
-4.8376518091
 20
2.4283063231
 30
0.0
 10
-4.88777375
 20
2.3462745182
 30
0.0
 10
-4.9618185996
 20
2.2840846101
 30
0.0
 10
-5.0013959948
 20
2.2612331044
 30
0.0
  0
SPLINE
  5
442
100
AcDbEntity
  8
ASSI
100
AcDbSpline
 62
7
  6
CONTINUOUS
 70
0
 71
3
 72
15
 73
11
 74
0
 42
0.0000001
 43
0.0000001
 44
0.0000000001
 40
0.0
 40
0.0
 40
0.0
 40
0.0
 40
0.1449018606
 40
0.274517057
 40
0.3911053392
 40
0.4999889011
 40
0.6088744758
 40
0.7254681141
 40
0.8550905238
 40
1.0
 40
1.0
 40
1.0
 40
1.0
 10
-16.6322907735
 20
3.4643169471
 30
0.0
 10
-16.6322907738
 20
3.5504804752
 30
0.0
 10
-16.6192703139
 20
3.7142890188
 30
0.0
 10
-16.5528955128
 20
3.9392950749
 30
0.0
 10
-16.4411245319
 20
4.1220045357
 30
0.0
 10
-16.2859750788
 20
4.2524838612
 30
0.0
 10
-16.0953912843
 20
4.3215867439
 30
0.0
 10
-15.8812661262
 20
4.3270097321
 30
0.0
 10
-15.6532096865
 20
4.271972876
 30
0.0
 10
-15.5048317704
 20
4.2013357176
 30
0.0
 10
-15.4302092455
 20
4.158249609
 30
0.0
  0
SPLINE
  5
443
100
AcDbEntity
  8
ASSI
100
AcDbSpline
 62
7
  6
CONTINUOUS
 70
0
 71
3
 72
13
 73
9
 74
0
 42
0.0000001
 43
0.0000001
 44
0.0000000001
 40
0.0
 40
0.0
 40
0.0
 40
0.0
 40
0.1142615975
 40
0.2375404836
 40
0.5000060625
 40
0.7624683192
 40
0.885743332
 40
1.0
 40
1.0
 40
1.0
 40
1.0
 10
0.4796933312
 20
-18.744629391
 30
0.0
 10
0.3973993365
 20
-18.6971138702
 30
0.0
 10
0.2348375743
 20
-18.5831729847
 30
0.0
 10
-0.0694672108
 20
-18.298311338
 30
0.0
 10
-0.3909463375
 20
-17.8592340513
 30
0.0
 10
-0.6104584837
 20
-17.3612892792
 30
0.0
 10
-0.7049977783
 20
-16.9553316891
 30
0.0
 10
-0.7223881949
 20
-16.7575854625
 30
0.0
 10
-0.7223881968
 20
-16.6625631118
 30
0.0
  0
SPLINE
  5
444
100
AcDbEntity
  8
ASSI
100
AcDbSpline
 62
7
  6
CONTINUOUS
 70
0
 71
3
 72
13
 73
9
 74
0
 42
0.0000001
 43
0.0000001
 44
0.0000000001
 40
0.0
 40
0.0
 40
0.0
 40
0.0
 40
0.1142615975
 40
0.2375404836
 40
0.5000060625
 40
0.7624683192
 40
0.885743332
 40
1.0
 40
1.0
 40
1.0
 40
1.0
 10
-15.4302092455
 20
-9.5584510411
 30
0.0
 10
-15.5125032402
 20
-9.5109355203
 30
0.0
 10
-15.6750650024
 20
-9.3969946349
 30
0.0
 10
-15.9793697875
 20
-9.1121329881
 30
0.0
 10
-16.3008489142
 20
-8.6730557014
 30
0.0
 10
-16.5203610604
 20
-8.1751109293
 30
0.0
 10
-16.614900355
 20
-7.7691533392
 30
0.0
 10
-16.6322907716
 20
-7.5714071127
 30
0.0
 10
-16.6322907735
 20
-7.4763847619
 30
0.0
  0
SPLINE
  5
445
100
AcDbEntity
  8
ASSI
100
AcDbSpline
 62
7
  6
CONTINUOUS
 70
0
 71
3
 72
9
 73
5
 74
0
 42
0.0000001
 43
0.0000001
 44
0.0000000001
 40
0.0
 40
0.0
 40
0.0
 40
0.0
 40
0.2314181671
 40
1.0
 40
1.0
 40
1.0
 40
1.0
 10
-15.7279144501
 20
20.6009437526
 30
0.0
 10
-15.7373552686
 20
20.5778529354
 30
0.0
 10
-15.7720782781
 20
20.4755846079
 30
0.0
 10
-15.7837626359
 20
20.3664635417
 30
0.0
 10
-15.7837626361
 20
20.28361254
 30
0.0
  0
SPLINE
  5
446
100
AcDbEntity
  8
ASSI
100
AcDbSpline
 62
7
  6
CONTINUOUS
 70
0
 71
3
 72
9
 73
5
 74
0
 42
0.0000001
 43
0.0000001
 44
0.0000000001
 40
0.0
 40
0.0
 40
0.0
 40
0.0
 40
0.2314181671
 40
1.0
 40
1.0
 40
1.0
 40
1.0
 10
0.1819881266
 20
11.4147654028
 30
0.0
 10
0.1725473081
 20
11.3916745855
 30
0.0
 10
0.1378242986
 20
11.289406258
 30
0.0
 10
0.1261399408
 20
11.1802851918
 30
0.0
 10
0.1261399406
 20
11.0974341902
 30
0.0
  0
SPLINE
  5
447
100
AcDbEntity
  8
ASSI
100
AcDbSpline
 62
7
  6
CONTINUOUS
 70
0
 71
3
 72
9
 73
5
 74
0
 42
0.0000001
 43
0.0000001
 44
0.0000000001
 40
0.0
 40
0.0
 40
0.0
 40
0.0
 40
0.2314181732
 40
1.0
 40
1.0
 40
1.0
 40
1.0
 10
-15.72791445
 20
3.8633030783
 30
0.0
 10
-15.7373552686
 20
3.8402122604
 30
0.0
 10
-15.7720782777
 20
3.7379439328
 30
0.0
 10
-15.7837626356
 20
3.6288228668
 30
0.0
 10
-15.7837626361
 20
3.5459718658
 30
0.0
  0
SPLINE
  5
448
100
AcDbEntity
  8
ASSI
100
AcDbSpline
 62
7
  6
CONTINUOUS
 70
0
 71
3
 72
15
 73
11
 74
0
 42
0.0000001
 43
0.0000001
 44
0.0000000001
 40
0.0
 40
0.0
 40
0.0
 40
0.0
 40
0.1449018606
 40
0.274517057
 40
0.3911053392
 40
0.4999889011
 40
0.6088744758
 40
0.7254681141
 40
0.8550905238
 40
1.0
 40
1.0
 40
1.0
 40
1.0
 10
-4.7528968496
 20
-14.3353979298
 30
0.0
 10
-4.7528968493
 20
-14.4215614579
 30
0.0
 10
-4.7659173092
 20
-14.5853700014
 30
0.0
 10
-4.8322921103
 20
-14.8103760576
 30
0.0
 10
-4.9440630912
 20
-14.9930855184
 30
0.0
 10
-5.0992125443
 20
-15.1235648439
 30
0.0
 10
-5.2897963388
 20
-15.1926677266
 30
0.0
 10
-5.5039214969
 20
-15.1980907148
 30
0.0
 10
-5.7319779366
 20
-15.1430538587
 30
0.0
 10
-5.8803558527
 20
-15.0724167003
 30
0.0
 10
-5.9549783776
 20
-15.0293305917
 30
0.0
  0
SPLINE
  5
449
100
AcDbEntity
  8
ASSI
100
AcDbSpline
 62
7
  6
CONTINUOUS
 70
0
 71
3
 72
9
 73
5
 74
0
 42
0.0000001
 43
0.0000001
 44
0.0000000001
 40
0.0
 40
0.0
 40
0.0
 40
0.0
 40
0.2314181732
 40
1.0
 40
1.0
 40
1.0
 40
1.0
 10
0.1819881267
 20
-5.3228752716
 30
0.0
 10
0.172547308
 20
-5.3459660895
 30
0.0
 10
0.137824299
 20
-5.4482344171
 30
0.0
 10
0.1261399411
 20
-5.5573554831
 30
0.0
 10
0.1261399406
 20
-5.6402064841
 30
0.0
  0
SPLINE
  5
44A
100
AcDbEntity
  8
ASSI
100
AcDbSpline
 62
7
  6
CONTINUOUS
 70
0
 71
3
 72
11
 73
7
 74
0
 42
0.0000001
 43
0.0000001
 44
0.0000000001
 40
0.0
 40
0.0
 40
0.0
 40
0.0
 40
0.2191410373
 40
0.4557654014
 40
0.7154234019
 40
1.0
 40
1.0
 40
1.0
 40
1.0
 10
-5.0848818315
 20
2.2248981027
 30
0.0
 10
-5.1225212293
 20
2.2132794022
 30
0.0
 10
-5.2045329664
 20
2.2002592913
 30
0.0
 10
-5.3336433226
 20
2.2115138155
 30
0.0
 10
-5.4689215928
 20
2.2517857405
 30
0.0
 10
-5.5571247987
 20
2.2951041443
 30
0.0
 10
-5.601424987
 20
2.3206825176
 30
0.0
  0
SPLINE
  5
44B
100
AcDbEntity
  8
ASSI
100
AcDbSpline
 62
7
  6
CONTINUOUS
 70
0
 71
3
 72
15
 73
11
 74
0
 42
0.0000001
 43
0.0000001
 44
0.0000000001
 40
0.0
 40
0.0
 40
0.0
 40
0.0
 40
0.144901866
 40
0.2745170643
 40
0.391105345
 40
0.4999889054
 40
0.6088744816
 40
0.7254681215
 40
0.8550905292
 40
1.0
 40
1.0
 40
1.0
 40
1.0
 10
11.1570057271
 20
-6.7839356054
 30
0.0
 10
11.1570057254
 20
-6.8700991367
 30
0.0
 10
11.1439852678
 20
-7.0339076847
 30
0.0
 10
11.077610462
 20
-7.2589137436
 30
0.0
 10
10.965839479
 20
-7.4416232022
 30
0.0
 10
10.8106900241
 20
-7.5721025243
 30
0.0
 10
10.6201062275
 20
-7.6412054037
 30
0.0
 10
10.4059810686
 20
-7.646628389
 30
0.0
 10
10.1779246336
 20
-7.5915915302
 30
0.0
 10
10.0295467202
 20
-7.5209543761
 30
0.0
 10
9.9549241991
 20
-7.4778682673
 30
0.0
  0
SPLINE
  5
44C
100
AcDbEntity
  8
ASSI
100
AcDbSpline
 62
7
  6
CONTINUOUS
 70
0
 71
3
 72
15
 73
11
 74
0
 42
0.0000001
 43
0.0000001
 44
0.0000000001
 40
0.0
 40
0.0
 40
0.0
 40
0.0
 40
0.1449018606
 40
0.274517057
 40
0.3911053392
 40
0.4999889011
 40
0.6088744758
 40
0.7254681141
 40
0.8550905238
 40
1.0
 40
1.0
 40
1.0
 40
1.0
 10
11.1570057271
 20
-23.5215762797
 30
0.0
 10
11.1570057274
 20
-23.6077398078
 30
0.0
 10
11.1439852675
 20
-23.7715483513
 30
0.0
 10
11.0776104664
 20
-23.9965544075
 30
0.0
 10
10.9658394855
 20
-24.1792638682
 30
0.0
 10
10.8106900324
 20
-24.3097431938
 30
0.0
 10
10.6201062379
 20
-24.3788460764
 30
0.0
 10
10.4059810798
 20
-24.3842690647
 30
0.0
 10
10.1779246401
 20
-24.3292322086
 30
0.0
 10
10.029546724
 20
-24.2585950502
 30
0.0
 10
9.9549241991
 20
-24.2155089416
 30
0.0
  0
SPLINE
  5
44D
100
AcDbEntity
  8
ASSI
100
AcDbSpline
 62
7
  6
CONTINUOUS
 70
0
 71
3
 72
11
 73
7
 74
0
 42
0.0000001
 43
0.0000001
 44
0.0000000001
 40
0.0
 40
0.0
 40
0.0
 40
0.0
 40
0.2191410373
 40
0.4557654014
 40
0.7154234019
 40
1.0
 40
1.0
 40
1.0
 40
1.0
 10
10.8250207452
 20
-6.9612802472
 30
0.0
 10
10.7873813474
 20
-6.9728989476
 30
0.0
 10
10.7053696103
 20
-6.9859190586
 30
0.0
 10
10.5762592541
 20
-6.9746645344
 30
0.0
 10
10.4409809839
 20
-6.9343926093
 30
0.0
 10
10.352777778
 20
-6.8910742056
 30
0.0
 10
10.3084775897
 20
-6.8654958323
 30
0.0
  0
SPLINE
  5
44E
100
AcDbEntity
  8
ASSI
100
AcDbSpline
 62
7
  6
CONTINUOUS
 70
0
 71
3
 72
11
 73
7
 74
0
 42
0.0000001
 43
0.0000001
 44
0.0000000001
 40
0.0
 40
0.0
 40
0.0
 40
0.0
 40
0.2191409981
 40
0.4557653171
 40
0.7154233258
 40
1.0
 40
1.0
 40
1.0
 40
1.0
 10
-5.0848807733
 20
-14.512742245
 30
0.0
 10
-5.1225202105
 20
-14.5243610662
 30
0.0
 10
-5.2045320788
 20
-14.5373813816
 30
0.0
 10
-5.3336427062
 20
-14.5261270017
 30
0.0
 10
-5.4689212883
 20
-14.4858550749
 30
0.0
 10
-5.5571246971
 20
-14.44253659
 30
0.0
 10
-5.601424987
 20
-14.4169581566
 30
0.0
  0
SPLINE
  5
44F
100
AcDbEntity
  8
ASSI
100
AcDbSpline
 62
7
  6
CONTINUOUS
 70
0
 71
3
 72
15
 73
11
 74
0
 42
0.0000001
 43
0.0000001
 44
0.0000000001
 40
0.0
 40
0.0
 40
0.0
 40
0.0
 40
0.144901866
 40
0.2745170643
 40
0.391105345
 40
0.4999889054
 40
0.6088744816
 40
0.7254681215
 40
0.8550905292
 40
1.0
 40
1.0
 40
1.0
 40
1.0
 10
-0.7223881968
 20
11.0157792715
 30
0.0
 10
-0.7223881951
 20
11.1019428028
 30
0.0
 10
-0.7093677375
 20
11.2657513508
 30
0.0
 10
-0.6429929317
 20
11.4907574097
 30
0.0
 10
-0.5312219487
 20
11.6734668683
 30
0.0
 10
-0.3760724938
 20
11.8039461904
 30
0.0
 10
-0.1854886972
 20
11.8730490698
 30
0.0
 10
0.0286364617
 20
11.8784720551
 30
0.0
 10
0.2566928967
 20
11.8234351963
 30
0.0
 10
0.4050708101
 20
11.7527980422
 30
0.0
 10
0.4796933312
 20
11.7097119334
 30
0.0
  0
SPLINE
  5
450
100
AcDbEntity
  8
ASSI
100
AcDbSpline
 62
7
  6
CONTINUOUS
 70
0
 71
3
 72
13
 73
9
 74
0
 42
0.0000001
 43
0.0000001
 44
0.0000000001
 40
0.0
 40
0.0
 40
0.0
 40
0.0
 40
0.114261602
 40
0.2375404911
 40
0.5000060678
 40
0.7624683267
 40
0.8857433366
 40
1.0
 40
1.0
 40
1.0
 40
1.0
 10
0.4796933312
 20
-2.0069887167
 30
0.0
 10
0.3973993343
 20
-1.9594731921
 30
0.0
 10
0.2348375655
 20
-1.8455323055
 30
0.0
 10
-0.06946722
 20
-1.5606706521
 30
0.0
 10
-0.3909463459
 20
-1.1215933626
 30
0.0
 10
-0.6104584892
 20
-0.6236485912
 30
0.0
 10
-0.7049977782
 20
-0.2176910048
 30
0.0
 10
-0.7223881971
 20
-0.0199447845
 30
0.0
 10
-0.7223881968
 20
0.0750775625
 30
0.0
  0
SPLINE
  5
451
100
AcDbEntity
  8
ASSI
100
AcDbSpline
 62
7
  6
CONTINUOUS
 70
0
 71
3
 72
11
 73
7
 74
0
 42
0.0000001
 43
0.0000001
 44
0.0000000001
 40
0.0
 40
0.0
 40
0.0
 40
0.0
 40
0.2191409981
 40
0.4557653171
 40
0.7154233258
 40
1.0
 40
1.0
 40
1.0
 40
1.0
 10
10.8250218034
 20
-23.6989205949
 30
0.0
 10
10.7873823662
 20
-23.710539416
 30
0.0
 10
10.7053704979
 20
-23.7235597315
 30
0.0
 10
10.5762598705
 20
-23.7123053516
 30
0.0
 10
10.4409812884
 20
-23.6720334247
 30
0.0
 10
10.3527778796
 20
-23.6287149398
 30
0.0
 10
10.3084775897
 20
-23.6031365065
 30
0.0
  0
SPLINE
  5
452
100
AcDbEntity
  8
ASSI
100
AcDbSpline
 62
7
  6
CONTINUOUS
 70
0
 71
3
 72
11
 73
7
 74
0
 42
0.0000001
 43
0.0000001
 44
0.0000000001
 40
0.0
 40
0.0
 40
0.0
 40
0.0
 40
0.2845759374
 40
0.5442323343
 40
0.7808561232
 40
1.0
 40
1.0
 40
1.0
 40
1.0
 10
-0.0152814156
 20
-5.7218614028
 30
0.0
 10
-0.0152814155
 20
-5.6707097828
 30
0.0
 10
-0.0086916554
 20
-5.5726697671
 30
0.0
 10
0.0240764851
 20
-5.4353882445
 30
0.0
 10
0.0788912986
 20
-5.3179577927
 30
0.0
 10
0.1311771421
 20
-5.2534515859
 30
0.0
 10
0.1600607144
 20
-5.2266683065
 30
0.0
  0
SPLINE
  5
453
100
AcDbEntity
  8
ASSI
100
AcDbSpline
 62
7
  6
CONTINUOUS
 70
0
 71
3
 72
9
 73
5
 74
0
 42
0.0000001
 43
0.0000001
 44
0.0000000001
 40
0.0
 40
0.0
 40
0.0
 40
0.0
 40
0.2698109577
 40
1.0
 40
1.0
 40
1.0
 40
1.0
 10
10.4498989459
 20
-23.5214815878
 30
0.0
 10
10.475084895
 20
-23.5360236391
 30
0.0
 10
10.5703612763
 20
-23.5862488392
 30
0.0
 10
10.6747422605
 20
-23.6211853934
 30
0.0
 10
10.7527280886
 20
-23.6318116986
 30
0.0
  0
SPLINE
  5
454
100
AcDbEntity
  8
ASSI
100
AcDbSpline
 62
7
  6
CONTINUOUS
 70
0
 71
3
 72
11
 73
7
 74
0
 42
0.0000001
 43
0.0000001
 44
0.0000000001
 40
0.0
 40
0.0
 40
0.0
 40
0.0
 40
0.2372134857
 40
0.4999938933
 40
0.7627776251
 40
1.0
 40
1.0
 40
1.0
 40
1.0
 10
0.1261399406
 20
-16.5809081931
 30
0.0
 10
0.1261399409
 20
-16.7199957558
 30
0.0
 10
0.1783102032
 20
-17.0133508741
 30
0.0
 10
0.3601606839
 20
-17.425581348
 30
0.0
 10
0.6262411704
 20
-17.7891875302
 30
0.0
 10
0.8542121422
 20
-17.9810522887
 30
0.0
 10
0.974668078
 20
-18.0506020373
 30
0.0
  0
SPLINE
  5
455
100
AcDbEntity
  8
ASSI
100
AcDbSpline
 62
7
  6
CONTINUOUS
 70
0
 71
3
 72
11
 73
7
 74
0
 42
0.0000001
 43
0.0000001
 44
0.0000000001
 40
0.0
 40
0.0
 40
0.0
 40
0.0
 40
0.2372223247
 40
0.5000061052
 40
0.7627865602
 40
1.0
 40
1.0
 40
1.0
 40
1.0
 10
0.8332467218
 20
-18.1322569559
 30
0.0
 10
0.7127908114
 20
-18.0627072224
 30
0.0
 10
0.4848198365
 20
-17.870842472
 30
0.0
 10
0.2187393231
 20
-17.507236273
 30
0.0
 10
0.0368888406
 20
-17.0950057663
 30
0.0
 10
-0.0152814184
 20
-16.8016506475
 30
0.0
 10
-0.0152814156
 20
-16.6625631118
 30
0.0
  0
SPLINE
  5
456
100
AcDbEntity
  8
ASSI
100
AcDbSpline
 62
7
  6
CONTINUOUS
 70
0
 71
3
 72
15
 73
11
 74
0
 42
0.0000001
 43
0.0000001
 44
0.0000000001
 40
0.0
 40
0.0
 40
0.0
 40
0.0
 40
0.144901866
 40
0.2745170643
 40
0.391105345
 40
0.4999889054
 40
0.6088744816
 40
0.7254681215
 40
0.8550905292
 40
1.0
 40
1.0
 40
1.0
 40
1.0
 10
-4.7528968496
 20
2.4022427444
 30
0.0
 10
-4.7528968513
 20
2.3160792132
 30
0.0
 10
-4.7659173089
 20
2.1522706651
 30
0.0
 10
-4.8322921147
 20
1.9272646063
 30
0.0
 10
-4.9440630977
 20
1.7445551476
 30
0.0
 10
-5.0992125526
 20
1.6140758255
 30
0.0
 10
-5.2897963492
 20
1.5449729462
 30
0.0
 10
-5.5039215081
 20
1.5395499609
 30
0.0
 10
-5.7319779431
 20
1.5945868196
 30
0.0
 10
-5.8803558565
 20
1.6652239738
 30
0.0
 10
-5.9549783776
 20
1.7083100826
 30
0.0
  0
SPLINE
  5
457
100
AcDbEntity
  8
ASSI
100
AcDbSpline
 62
7
  6
CONTINUOUS
 70
0
 71
3
 72
15
 73
11
 74
0
 42
0.0000001
 43
0.0000001
 44
0.0000000001
 40
0.0
 40
0.0
 40
0.0
 40
0.0
 40
0.1449018606
 40
0.274517057
 40
0.3911053392
 40
0.4999889011
 40
0.6088744758
 40
0.7254681141
 40
0.8550905238
 40
1.0
 40
1.0
 40
1.0
 40
1.0
 10
-0.7223881968
 20
-5.7218614028
 30
0.0
 10
-0.7223881971
 20
-5.6356978746
 30
0.0
 10
-0.7093677372
 20
-5.4718893311
 30
0.0
 10
-0.6429929361
 20
-5.246883275
 30
0.0
 10
-0.5312219552
 20
-5.0641738142
 30
0.0
 10
-0.3760725021
 20
-4.9336944886
 30
0.0
 10
-0.1854887076
 20
-4.864591606
 30
0.0
 10
0.0286364505
 20
-4.8591686178
 30
0.0
 10
0.2566928902
 20
-4.9142054738
 30
0.0
 10
0.4050708063
 20
-4.9848426322
 30
0.0
 10
0.4796933312
 20
-5.0279287409
 30
0.0
  0
SPLINE
  5
458
100
AcDbEntity
  8
ASSI
100
AcDbSpline
 62
7
  6
CONTINUOUS
 70
0
 71
3
 72
11
 73
7
 74
0
 42
0.0000001
 43
0.0000001
 44
0.0000000001
 40
0.0
 40
0.0
 40
0.0
 40
0.0
 40
0.2845759374
 40
0.5442323343
 40
0.7808561232
 40
1.0
 40
1.0
 40
1.0
 40
1.0
 10
-15.9251839923
 20
3.4643169471
 30
0.0
 10
-15.9251839922
 20
3.5154685671
 30
0.0
 10
-15.9185942321
 20
3.6135085828
 30
0.0
 10
-15.8858260916
 20
3.7507901054
 30
0.0
 10
-15.8310112781
 20
3.8682205572
 30
0.0
 10
-15.7787254346
 20
3.932726764
 30
0.0
 10
-15.7498418623
 20
3.9595100434
 30
0.0
  0
SPLINE
  5
459
100
AcDbEntity
  8
ASSI
100
AcDbSpline
 62
7
  6
CONTINUOUS
 70
0
 71
3
 72
9
 73
5
 74
0
 42
0.0000001
 43
0.0000001
 44
0.0000000001
 40
0.0
 40
0.0
 40
0.0
 40
0.0
 40
0.2698109577
 40
1.0
 40
1.0
 40
1.0
 40
1.0
 10
-5.4600036308
 20
-14.335303238
 30
0.0
 10
-5.4348176817
 20
-14.3498452892
 30
0.0
 10
-5.3395413004
 20
-14.4000704893
 30
0.0
 10
-5.2351603162
 20
-14.4350070435
 30
0.0
 10
-5.1571744881
 20
-14.4456333487
 30
0.0
  0
SPLINE
  5
45A
100
AcDbEntity
  8
ASSI
100
AcDbSpline
 62
7
  6
CONTINUOUS
 70
0
 71
3
 72
11
 73
7
 74
0
 42
0.0000001
 43
0.0000001
 44
0.0000000001
 40
0.0
 40
0.0
 40
0.0
 40
0.0
 40
0.2372134857
 40
0.4999938933
 40
0.7627776251
 40
1.0
 40
1.0
 40
1.0
 40
1.0
 10
-15.7837626361
 20
-7.3947298432
 30
0.0
 10
-15.7837626358
 20
-7.5338174059
 30
0.0
 10
-15.7315923735
 20
-7.8271725242
 30
0.0
 10
-15.5497418928
 20
-8.2394029981
 30
0.0
 10
-15.2836614063
 20
-8.6030091804
 30
0.0
 10
-15.0556904345
 20
-8.7948739388
 30
0.0
 10
-14.9352344987
 20
-8.8644236874
 30
0.0
  0
SPLINE
  5
45B
100
AcDbEntity
  8
ASSI
100
AcDbSpline
 62
7
  6
CONTINUOUS
 70
0
 71
3
 72
11
 73
7
 74
0
 42
0.0000001
 43
0.0000001
 44
0.0000000001
 40
0.0
 40
0.0
 40
0.0
 40
0.0
 40
0.2372223247
 40
0.5000061052
 40
0.7627865602
 40
1.0
 40
1.0
 40
1.0
 40
1.0
 10
-15.0766558549
 20
-8.946078606
 30
0.0
 10
-15.1971117653
 20
-8.8765288725
 30
0.0
 10
-15.4250827402
 20
-8.6846641221
 30
0.0
 10
-15.6911632536
 20
-8.3210579232
 30
0.0
 10
-15.8730137361
 20
-7.9088274164
 30
0.0
 10
-15.9251839951
 20
-7.6154722976
 30
0.0
 10
-15.9251839923
 20
-7.4763847619
 30
0.0
  0
SPLINE
  5
45C
100
AcDbEntity
  8
ASSI
100
AcDbSpline
 62
7
  6
CONTINUOUS
 70
0
 71
3
 72
15
 73
11
 74
0
 42
0.0000001
 43
0.0000001
 44
0.0000000001
 40
0.0
 40
0.0
 40
0.0
 40
0.0
 40
0.144901866
 40
0.2745170643
 40
0.391105345
 40
0.4999889054
 40
0.6088744816
 40
0.7254681215
 40
0.8550905292
 40
1.0
 40
1.0
 40
1.0
 40
1.0
 10
-16.6322907735
 20
20.2019576214
 30
0.0
 10
-16.6322907718
 20
20.2881211527
 30
0.0
 10
-16.6192703142
 20
20.4519297007
 30
0.0
 10
-16.5528955084
 20
20.6769357595
 30
0.0
 10
-16.4411245254
 20
20.8596452182
 30
0.0
 10
-16.2859750705
 20
20.9901245403
 30
0.0
 10
-16.0953912739
 20
21.0592274197
 30
0.0
 10
-15.881266115
 20
21.064650405
 30
0.0
 10
-15.65320968
 20
21.0096135462
 30
0.0
 10
-15.5048317666
 20
20.9389763921
 30
0.0
 10
-15.4302092455
 20
20.8958902833
 30
0.0
  0
SPLINE
  5
45D
100
AcDbEntity
  8
ASSI
100
AcDbSpline
 62
7
  6
CONTINUOUS
 70
0
 71
3
 72
13
 73
9
 74
0
 42
0.0000001
 43
0.0000001
 44
0.0000000001
 40
0.0
 40
0.0
 40
0.0
 40
0.0
 40
0.114261602
 40
0.2375404911
 40
0.5000060678
 40
0.7624683267
 40
0.8857433366
 40
1.0
 40
1.0
 40
1.0
 40
1.0
 10
-15.4302092455
 20
7.1791896331
 30
0.0
 10
-15.5125032424
 20
7.2267051577
 30
0.0
 10
-15.6750650112
 20
7.3406460443
 30
0.0
 10
-15.9793697967
 20
7.6255076978
 30
0.0
 10
-16.3008489225
 20
8.0645849873
 30
0.0
 10
-16.5203610659
 20
8.5625297587
 30
0.0
 10
-16.6149003549
 20
8.9684873451
 30
0.0
 10
-16.6322907738
 20
9.1662335654
 30
0.0
 10
-16.6322907735
 20
9.2612559124
 30
0.0
  0
SPLINE
  5
45E
100
AcDbEntity
  8
ASSI
100
AcDbSpline
 62
7
  6
CONTINUOUS
 70
0
 71
3
 72
9
 73
5
 74
0
 42
0.0000001
 43
0.0000001
 44
0.0000000001
 40
0.0
 40
0.0
 40
0.0
 40
0.0
 40
0.2698109559
 40
1.0
 40
1.0
 40
1.0
 40
1.0
 10
10.4498989459
 20
-6.7838409136
 30
0.0
 10
10.4750848948
 20
-6.7983829647
 30
0.0
 10
10.5703612758
 20
-6.8486081655
 30
0.0
 10
10.6747422603
 20
-6.8835447185
 30
0.0
 10
10.7527280885
 20
-6.8941710242
 30
0.0
  0
SPLINE
  5
45F
100
AcDbEntity
  8
ASSI
100
AcDbSpline
 62
7
  6
CONTINUOUS
 70
0
 71
3
 72
11
 73
7
 74
0
 42
0.0000001
 43
0.0000001
 44
0.0000000001
 40
0.0
 40
0.0
 40
0.0
 40
0.0
 40
0.2372134853
 40
0.499993893
 40
0.7627776247
 40
1.0
 40
1.0
 40
1.0
 40
1.0
 10
0.1261399406
 20
0.1567324811
 30
0.0
 10
0.1261399414
 20
0.0176449187
 30
0.0
 10
0.1783102029
 20
-0.2757101994
 30
0.0
 10
0.3601606836
 20
-0.6879406732
 30
0.0
 10
0.6262411702
 20
-1.0515468555
 30
0.0
 10
0.8542121418
 20
-1.2434116148
 30
0.0
 10
0.974668078
 20
-1.312961363
 30
0.0
  0
SPLINE
  5
460
100
AcDbEntity
  8
ASSI
100
AcDbSpline
 62
7
  6
CONTINUOUS
 70
0
 71
3
 72
11
 73
7
 74
0
 42
0.0000001
 43
0.0000001
 44
0.0000000001
 40
0.0
 40
0.0
 40
0.0
 40
0.0
 40
0.2372223294
 40
0.5000061084
 40
0.762786565
 40
1.0
 40
1.0
 40
1.0
 40
1.0
 10
0.8332467218
 20
-1.3946162817
 30
0.0
 10
0.7127908073
 20
-1.3250665495
 30
0.0
 10
0.4848198337
 20
-1.1332017929
 30
0.0
 10
0.2187393196
 20
-0.7695955927
 30
0.0
 10
0.0368888378
 20
-0.3573650872
 30
0.0
 10
-0.0152814152
 20
-0.0640099705
 30
0.0
 10
-0.0152814156
 20
0.0750775625
 30
0.0
  0
SPLINE
  5
461
100
AcDbEntity
  8
ASSI
100
AcDbSpline
 62
7
  6
CONTINUOUS
 70
0
 71
3
 72
11
 73
7
 74
0
 42
0.0000001
 43
0.0000001
 44
0.0000000001
 40
0.0
 40
0.0
 40
0.0
 40
0.0
 40
0.2845760135
 40
0.5442324186
 40
0.7808561624
 40
1.0
 40
1.0
 40
1.0
 40
1.0
 10
-0.0152814156
 20
11.0157792715
 30
0.0
 10
-0.0152814167
 20
11.0669310094
 30
0.0
 10
-0.0086916254
 20
11.1649712415
 30
0.0
 10
0.0240766696
 20
11.302253035
 30
0.0
 10
0.0788917436
 20
11.4196836496
 30
0.0
 10
0.1311778298
 20
11.4841898677
 30
0.0
 10
0.1600615263
 20
11.5109731208
 30
0.0
  0
SPLINE
  5
462
100
AcDbEntity
  8
ASSI
100
AcDbSpline
 62
7
  6
CONTINUOUS
 70
0
 71
3
 72
9
 73
5
 74
0
 42
0.0000001
 43
0.0000001
 44
0.0000000001
 40
0.0
 40
0.0
 40
0.0
 40
0.0
 40
0.2698109559
 40
1.0
 40
1.0
 40
1.0
 40
1.0
 10
-5.4600036308
 20
2.4023374363
 30
0.0
 10
-5.4348176819
 20
2.3877953852
 30
0.0
 10
-5.3395413009
 20
2.3375701844
 30
0.0
 10
-5.2351603164
 20
2.3026336314
 30
0.0
 10
-5.1571744881
 20
2.2920073257
 30
0.0
  0
SPLINE
  5
463
100
AcDbEntity
  8
ASSI
100
AcDbSpline
 62
7
  6
CONTINUOUS
 70
0
 71
3
 72
11
 73
7
 74
0
 42
0.0000001
 43
0.0000001
 44
0.0000000001
 40
0.0
 40
0.0
 40
0.0
 40
0.0
 40
0.2372134853
 40
0.499993893
 40
0.7627776247
 40
1.0
 40
1.0
 40
1.0
 40
1.0
 10
-15.7837626361
 20
9.342910831
 30
0.0
 10
-15.7837626353
 20
9.2038232686
 30
0.0
 10
-15.7315923738
 20
8.9104681505
 30
0.0
 10
-15.5497418931
 20
8.4982376766
 30
0.0
 10
-15.2836614065
 20
8.1346314944
 30
0.0
 10
-15.0556904349
 20
7.9427667351
 30
0.0
 10
-14.9352344987
 20
7.8732169869
 30
0.0
  0
SPLINE
  5
464
100
AcDbEntity
  8
ASSI
100
AcDbSpline
 62
7
  6
CONTINUOUS
 70
0
 71
3
 72
11
 73
7
 74
0
 42
0.0000001
 43
0.0000001
 44
0.0000000001
 40
0.0
 40
0.0
 40
0.0
 40
0.0
 40
0.2372223294
 40
0.5000061084
 40
0.762786565
 40
1.0
 40
1.0
 40
1.0
 40
1.0
 10
-15.0766558549
 20
7.7915620682
 30
0.0
 10
-15.1971117694
 20
7.8611118004
 30
0.0
 10
-15.425082743
 20
8.052976557
 30
0.0
 10
-15.6911632571
 20
8.4165827572
 30
0.0
 10
-15.8730137389
 20
8.8288132627
 30
0.0
 10
-15.9251839919
 20
9.1221683794
 30
0.0
 10
-15.9251839923
 20
9.2612559124
 30
0.0
  0
SPLINE
  5
465
100
AcDbEntity
  8
ASSI
100
AcDbSpline
 62
7
  6
CONTINUOUS
 70
0
 71
3
 72
11
 73
7
 74
0
 42
0.0000001
 43
0.0000001
 44
0.0000000001
 40
0.0
 40
0.0
 40
0.0
 40
0.0
 40
0.2845760135
 40
0.5442324186
 40
0.7808561624
 40
1.0
 40
1.0
 40
1.0
 40
1.0
 10
-15.9251839923
 20
20.2019576214
 30
0.0
 10
-15.9251839934
 20
20.2531093593
 30
0.0
 10
-15.9185942021
 20
20.3511495913
 30
0.0
 10
-15.8858259071
 20
20.4884313849
 30
0.0
 10
-15.8310108331
 20
20.6058619994
 30
0.0
 10
-15.7787247469
 20
20.6703682175
 30
0.0
 10
-15.7498410504
 20
20.6971514707
 30
0.0
  0
SPLINE
  5
466
100
AcDbEntity
  8
IMPORT_IGES
100
AcDbSpline
 62
7
  6
CONTINUOUS
 70
0
 71
3
 72
9
 73
5
 74
0
 42
0.0000001
 43
0.0000001
 44
0.0000000001
 40
0.0
 40
0.0
 40
0.0
 40
0.0
 40
0.5206208722
 40
1.0
 40
1.0
 40
1.0
 40
1.0
 10
31.311956114
 20
-42.673834402
 30
0.0
 10
31.3909898517
 20
-42.6299194129
 30
0.0
 10
31.5636382742
 20
-42.5992931402
 30
0.0
 10
31.5944309669
 20
-42.7714504488
 30
0.0
 10
31.5960561922
 20
-42.8518072462
 30
0.0
  0
SPLINE
  5
467
100
AcDbEntity
  8
IMPORT_IGES
100
AcDbSpline
 62
7
  6
CONTINUOUS
 70
0
 71
3
 72
9
 73
5
 74
0
 42
0.0000001
 43
0.0000001
 44
0.0000000001
 40
0.0
 40
0.0
 40
0.0
 40
0.0
 40
0.5013510385
 40
1.0
 40
1.0
 40
1.0
 40
1.0
 10
31.0834202697
 20
-43.0375381302
 30
0.0
 10
31.0899137386
 20
-42.9716025595
 30
0.0
 10
31.1391682954
 20
-42.818791936
 30
0.0
 10
31.2559606702
 20
-42.7049613334
 30
0.0
 10
31.311956114
 20
-42.673834402
 30
0.0
  0
SPLINE
  5
468
100
AcDbEntity
  8
IMPORT_IGES
100
AcDbSpline
 62
7
  6
CONTINUOUS
 70
0
 71
3
 72
9
 73
5
 74
0
 42
0.0000001
 43
0.0000001
 44
0.0000000001
 40
0.0
 40
0.0
 40
0.0
 40
0.0
 40
0.2703953699
 40
1.0
 40
1.0
 40
1.0
 40
1.0
 10
31.0941821556
 20
-43.3654985228
 30
0.0
 10
31.0896372916
 20
-43.3382106368
 30
0.0
 10
31.0746895961
 20
-43.2359463649
 30
0.0
 10
31.0750140937
 20
-43.1229144926
 30
0.0
 10
31.0834202697
 20
-43.0375381302
 30
0.0
  0
SPLINE
  5
469
100
AcDbEntity
  8
IMPORT_IGES
100
AcDbSpline
 62
7
  6
CONTINUOUS
 70
0
 71
3
 72
9
 73
5
 74
0
 42
0.0000001
 43
0.0000001
 44
0.0000000001
 40
0.0
 40
0.0
 40
0.0
 40
0.0
 40
0.2426586216
 40
1.0
 40
1.0
 40
1.0
 40
1.0
 10
32.116108905
 20
-41.8845920253
 30
0.0
 10
32.0828876024
 20
-41.9125829217
 30
0.0
 10
31.9487318869
 20
-42.0234103325
 30
0.0
 10
31.7973424778
 20
-42.1903537264
 30
0.0
 10
31.7575393183
 20
-42.3232217351
 30
0.0
  0
SPLINE
  5
46A
100
AcDbEntity
  8
IMPORT_IGES
100
AcDbSpline
 62
7
  6
CONTINUOUS
 70
0
 71
3
 72
9
 73
5
 74
0
 42
0.0000001
 43
0.0000001
 44
0.0000000001
 40
0.0
 40
0.0
 40
0.0
 40
0.0
 40
0.1980141723
 40
1.0
 40
1.0
 40
1.0
 40
1.0
 10
32.6109225961
 20
-41.4725313766
 30
0.0
 10
32.578327284
 20
-41.4999645292
 30
0.0
 10
32.4133462758
 20
-41.6371673779
 30
0.0
 10
32.2480962628
 20
-41.773382783
 30
0.0
 10
32.116108905
 20
-41.8845920253
 30
0.0
  0
SPLINE
  5
46B
100
AcDbEntity
  8
IMPORT_IGES
100
AcDbSpline
 62
7
  6
CONTINUOUS
 70
0
 71
3
 72
9
 73
5
 74
0
 42
0.0000001
 43
0.0000001
 44
0.0000000001
 40
0.0
 40
0.0
 40
0.0
 40
0.0
 40
0.5586214172
 40
1.0
 40
1.0
 40
1.0
 40
1.0
 10
32.0565552332
 20
-42.3670967632
 30
0.0
 10
32.1574741181
 20
-42.2704334397
 30
0.0
 10
32.3443474061
 20
-42.1141537748
 30
0.0
 10
32.5290591845
 20
-41.952673498
 30
0.0
 10
32.6109225961
 20
-41.8823211546
 30
0.0
  0
SPLINE
  5
46C
100
AcDbEntity
  8
IMPORT_IGES
100
AcDbSpline
 62
7
  6
CONTINUOUS
 70
0
 71
3
 72
9
 73
5
 74
0
 42
0.0000001
 43
0.0000001
 44
0.0000000001
 40
0.0
 40
0.0
 40
0.0
 40
0.0
 40
0.3559141631
 40
1.0
 40
1.0
 40
1.0
 40
1.0
 10
31.89546968
 20
-42.691514577
 30
0.0
 10
31.89546968
 20
-42.6543892781
 30
0.0
 10
31.9156066418
 20
-42.5367475552
 30
0.0
 10
32.0002118442
 20
-42.4210392042
 30
0.0
 10
32.0565552332
 20
-42.3670967632
 30
0.0
  0
SPLINE
  5
46D
100
AcDbEntity
  8
IMPORT_IGES
100
AcDbSpline
 62
7
  6
CONTINUOUS
 70
0
 71
3
 72
9
 73
5
 74
0
 42
0.0000001
 43
0.0000001
 44
0.0000000001
 40
0.0
 40
0.0
 40
0.0
 40
0.0
 40
0.2957417834
 40
1.0
 40
1.0
 40
1.0
 40
1.0
 10
30.8233390757
 20
-42.8701413661
 30
0.0
 10
30.791578571
 20
-42.9853850522
 30
0.0
 10
30.7398070553
 20
-43.3660250887
 30
0.0
 10
30.7716930226
 20
-43.7034724693
 30
0.0
 10
30.8040910657
 20
-43.9318778059
 30
0.0
  0
SPLINE
  5
46E
100
AcDbEntity
  8
IMPORT_IGES
100
AcDbSpline
 62
7
  6
CONTINUOUS
 70
0
 71
3
 72
17
 73
13
 74
0
 42
0.0000001
 43
0.0000001
 44
0.0000000001
 40
0.0
 40
0.0
 40
0.0
 40
0.0
 40
0.0559780952
 40
0.1687540387
 40
0.321006234
 40
0.4122750837
 40
0.516613223
 40
0.6013931059
 40
0.6776022439
 40
0.8103422694
 40
0.9200404832
 40
1.0
 40
1.0
 40
1.0
 40
1.0
 10
31.7467363042
 20
-42.3290383212
 30
0.0
 10
31.7440165647
 20
-42.3069716071
 30
0.0
 10
31.7018199754
 20
-42.2698782308
 30
0.0
 10
31.6213815043
 20
-42.2139952678
 30
0.0
 10
31.4975589668
 20
-42.2076265337
 30
0.0
 10
31.3683840331
 20
-42.2446406605
 30
0.0
 10
31.2611715346
 20
-42.2993095393
 30
0.0
 10
31.1610359307
 20
-42.3693341917
 30
0.0
 10
31.05463404
 20
-42.4656669913
 30
0.0
 10
30.9503578674
 20
-42.5951435492
 30
0.0
 10
30.8688111613
 20
-42.7425890946
 30
0.0
 10
30.8336408138
 20
-42.8327150808
 30
0.0
 10
30.8233390757
 20
-42.8701413661
 30
0.0
  0
SPLINE
  5
46F
100
AcDbEntity
  8
CURVE
100
AcDbSpline
 62
250
  6
CONTINUOUS
 70
0
 71
3
 72
9
 73
5
 74
0
 42
0.0000001
 43
0.0000001
 44
0.0000000001
 40
0.0
 40
0.0
 40
0.0
 40
0.0
 40
0.5206208722
 40
1.0
 40
1.0
 40
1.0
 40
1.0
 10
31.311956114
 20
-42.673834402
 30
0.0
 10
31.3909898517
 20
-42.6299194129
 30
0.0
 10
31.5636382742
 20
-42.5992931402
 30
0.0
 10
31.5944309669
 20
-42.7714504488
 30
0.0
 10
31.5960561922
 20
-42.8518072462
 30
0.0
  0
SPLINE
  5
470
100
AcDbEntity
  8
CURVE
100
AcDbSpline
 62
250
  6
CONTINUOUS
 70
0
 71
3
 72
9
 73
5
 74
0
 42
0.0000001
 43
0.0000001
 44
0.0000000001
 40
0.0
 40
0.0
 40
0.0
 40
0.0
 40
0.5013510385
 40
1.0
 40
1.0
 40
1.0
 40
1.0
 10
31.0834202697
 20
-43.0375381302
 30
0.0
 10
31.0899137386
 20
-42.9716025595
 30
0.0
 10
31.1391682954
 20
-42.818791936
 30
0.0
 10
31.2559606702
 20
-42.7049613334
 30
0.0
 10
31.311956114
 20
-42.673834402
 30
0.0
  0
SPLINE
  5
471
100
AcDbEntity
  8
CURVE
100
AcDbSpline
 62
250
  6
CONTINUOUS
 70
0
 71
3
 72
9
 73
5
 74
0
 42
0.0000001
 43
0.0000001
 44
0.0000000001
 40
0.0
 40
0.0
 40
0.0
 40
0.0
 40
0.2703953699
 40
1.0
 40
1.0
 40
1.0
 40
1.0
 10
31.0941821556
 20
-43.3654985228
 30
0.0
 10
31.0896372916
 20
-43.3382106368
 30
0.0
 10
31.0746895961
 20
-43.2359463649
 30
0.0
 10
31.0750140937
 20
-43.1229144926
 30
0.0
 10
31.0834202697
 20
-43.0375381302
 30
0.0
  0
SPLINE
  5
472
100
AcDbEntity
  8
CURVE
100
AcDbSpline
 62
250
  6
CONTINUOUS
 70
0
 71
3
 72
9
 73
5
 74
0
 42
0.0000001
 43
0.0000001
 44
0.0000000001
 40
0.0
 40
0.0
 40
0.0
 40
0.0
 40
0.2957417834
 40
1.0
 40
1.0
 40
1.0
 40
1.0
 10
30.8233390757
 20
-42.8701413661
 30
0.0
 10
30.791578571
 20
-42.9853850522
 30
0.0
 10
30.7398070553
 20
-43.3660250887
 30
0.0
 10
30.7716930226
 20
-43.7034724693
 30
0.0
 10
30.8040910657
 20
-43.9318778059
 30
0.0
  0
SPLINE
  5
473
100
AcDbEntity
  8
CURVE
100
AcDbSpline
 62
250
  6
CONTINUOUS
 70
0
 71
3
 72
17
 73
13
 74
0
 42
0.0000001
 43
0.0000001
 44
0.0000000001
 40
0.0
 40
0.0
 40
0.0
 40
0.0
 40
0.0559780952
 40
0.1687540387
 40
0.321006234
 40
0.4122750837
 40
0.516613223
 40
0.6013931059
 40
0.6776022439
 40
0.8103422694
 40
0.9200404832
 40
1.0
 40
1.0
 40
1.0
 40
1.0
 10
31.7467363042
 20
-42.3290383212
 30
0.0
 10
31.7440165647
 20
-42.3069716071
 30
0.0
 10
31.7018199754
 20
-42.2698782308
 30
0.0
 10
31.6213815043
 20
-42.2139952678
 30
0.0
 10
31.4975589668
 20
-42.2076265337
 30
0.0
 10
31.3683840331
 20
-42.2446406605
 30
0.0
 10
31.2611715346
 20
-42.2993095393
 30
0.0
 10
31.1610359307
 20
-42.3693341917
 30
0.0
 10
31.05463404
 20
-42.4656669913
 30
0.0
 10
30.9503578674
 20
-42.5951435492
 30
0.0
 10
30.8688111613
 20
-42.7425890946
 30
0.0
 10
30.8336408138
 20
-42.8327150808
 30
0.0
 10
30.8233390757
 20
-42.8701413661
 30
0.0
  0
SPLINE
  5
474
100
AcDbEntity
  8
CURVE
100
AcDbSpline
 62
250
  6
CONTINUOUS
 70
0
 71
3
 72
9
 73
5
 74
0
 42
0.0000001
 43
0.0000001
 44
0.0000000001
 40
0.0
 40
0.0
 40
0.0
 40
0.0
 40
0.2426586216
 40
1.0
 40
1.0
 40
1.0
 40
1.0
 10
32.116108905
 20
-41.8845920253
 30
0.0
 10
32.0828876024
 20
-41.9125829217
 30
0.0
 10
31.9487318869
 20
-42.0234103325
 30
0.0
 10
31.7973424778
 20
-42.1903537264
 30
0.0
 10
31.7575393183
 20
-42.3232217351
 30
0.0
  0
SPLINE
  5
475
100
AcDbEntity
  8
CURVE
100
AcDbSpline
 62
250
  6
CONTINUOUS
 70
0
 71
3
 72
9
 73
5
 74
0
 42
0.0000001
 43
0.0000001
 44
0.0000000001
 40
0.0
 40
0.0
 40
0.0
 40
0.0
 40
0.1980141723
 40
1.0
 40
1.0
 40
1.0
 40
1.0
 10
32.6109225961
 20
-41.4725313766
 30
0.0
 10
32.578327284
 20
-41.4999645292
 30
0.0
 10
32.4133462758
 20
-41.6371673779
 30
0.0
 10
32.2480962628
 20
-41.773382783
 30
0.0
 10
32.116108905
 20
-41.8845920253
 30
0.0
  0
SPLINE
  5
476
100
AcDbEntity
  8
CURVE
100
AcDbSpline
 62
250
  6
CONTINUOUS
 70
0
 71
3
 72
9
 73
5
 74
0
 42
0.0000001
 43
0.0000001
 44
0.0000000001
 40
0.0
 40
0.0
 40
0.0
 40
0.0
 40
0.5586214172
 40
1.0
 40
1.0
 40
1.0
 40
1.0
 10
32.0565552332
 20
-42.3670967632
 30
0.0
 10
32.1574741181
 20
-42.2704334397
 30
0.0
 10
32.3443474061
 20
-42.1141537748
 30
0.0
 10
32.5290591845
 20
-41.952673498
 30
0.0
 10
32.6109225961
 20
-41.8823211546
 30
0.0
  0
SPLINE
  5
477
100
AcDbEntity
  8
CURVE
100
AcDbSpline
 62
250
  6
CONTINUOUS
 70
0
 71
3
 72
9
 73
5
 74
0
 42
0.0000001
 43
0.0000001
 44
0.0000000001
 40
0.0
 40
0.0
 40
0.0
 40
0.0
 40
0.3559141631
 40
1.0
 40
1.0
 40
1.0
 40
1.0
 10
31.89546968
 20
-42.691514577
 30
0.0
 10
31.89546968
 20
-42.6543892781
 30
0.0
 10
31.9156066418
 20
-42.5367475552
 30
0.0
 10
32.0002118442
 20
-42.4210392042
 30
0.0
 10
32.0565552332
 20
-42.3670967632
 30
0.0
  0
ELLIPSE
  5
478
100
AcDbEntity
  8
0
100
AcDbEllipse
 62
7
  6
CONTINUOUS
 10
-5.569882034
 20
-12.6218609497
 30
0.0
 11
0.1998333781
 21
-0.0157785196
 31
0.0
 40
0.5172961965
 41
0.8262203412
 42
2.3446567905
  0
ELLIPSE
  5
479
100
AcDbEntity
  8
0
100
AcDbEllipse
 62
7
  6
CONTINUOUS
 10
10.3400205427
 20
-21.8080392996
 30
0.0
 11
0.1998333781
 21
-0.0157785196
 31
0.0
 40
0.5172961965
 41
0.8262203412
 42
2.3446567905
  0
ENDSEC
  0
SECTION
  2
OBJECTS
  0
DICTIONARY
  5
C
100
AcDbDictionary
280
0
281
1
  3
ACAD_GROUP
350
D
  3
ACAD_MLINESTYLE
350
17
  3
ACAD_LAYOUT
350
1A
  3
ACAD_PLOTSETTINGS
350
19
  3
ACAD_PLOTSTYLENAME
350
E
  0
DICTIONARY
  5
D
102
{ACAD_REACTORS
330
C
102
}
100
AcDbDictionary
280
0
281
1
  0
ACDBDICTIONARYWDFLT
  5
E
102
{ACAD_REACTORS
330
C
102
}
100
AcDbDictionary
281
1
  3
Normal
350
F
100
AcDbDictionaryWithDefault
340
F
  0
DICTIONARY
  5
17
102
{ACAD_REACTORS
330
C
102
}
100
AcDbDictionary
280
0
281
1
  3
Standard
350
18
  0
DICTIONARY
  5
19
102
{ACAD_REACTORS
330
C
102
}
100
AcDbDictionary
281
1
  0
DICTIONARY
  5
1A
102
{ACAD_REACTORS
330
C
102
}
100
AcDbDictionary
281
1
  3
Model
350
47A
  3
Layout1
350
47B
  0
ACDBPLACEHOLDER
  5
F
102
{ACAD_REACTORS
330
E
102
}
  0
MLINESTYLE
  5
18
102
{ACAD_REACTORS
330
17
102
}
100
AcDbMlineStyle
  2
STANDARD
 70
0
  3

 62
256
 51
90.0
 52
90.0
 71
2
 49
0.5
 62
256
  6
BYLAYER
 49
-0.5
 62
256
  6
BYLAYER
  0
LAYOUT
  5
47A
102
{ACAD_REACTORS
330
1A
102
}
100
AcDbPlotSettings
  1

  2
none_device
  4
ISO_A4_(297.00_x_210.00_MM)
  6

 40
0.0
 41
0.0
 42
0.0
 43
0.0
 44
297.0
 45
210.0
 46
0.0
 47
0.0
 48
0.0
 49
0.0
140
0.0
141
0.0
142
1.0
143
1.0
 70
1024
 72
1
 73
0
 74
0
  7

 75
0
147
1.0
148
0.0
149
0.0
100
AcDbLayout
  1
Model
 70
0
 71
0
 10
0.0
 20
0.0
 11
297.0
 21
210.0
 12
0.0
 22
0.0
 32
0.0
 14
0.0
 24
0.0
 34
0.0
 15
0.0
 25
0.0
 35
0.0
146
0.0
 13
0.0
 23
0.0
 33
0.0
 16
1.0
 26
0.0
 36
0.0
 17
0.0
 27
1.0
 37
0.0
 76
0
330
21E
345
0
346
0
  0
LAYOUT
  5
47B
102
{ACAD_REACTORS
330
1A
102
}
100
AcDbPlotSettings
  1

  2
none_device
  4
ISO_A4_(297.00_x_210.00_MM)
  6

 40
0.0
 41
0.0
 42
0.0
 43
0.0
 44
297.0
 45
210.0
 46
0.0
 47
0.0
 48
0.0
 49
0.0
140
0.0
141
0.0
142
1.0
143
1.0
 70
0
 72
1
 73
0
 74
0
  7

 75
0
147
1.0
148
0.0
149
0.0
100
AcDbLayout
  1
Layout1
 70
0
 71
1
 10
0.0
 20
0.0
 11
297.0
 21
210.0
 12
0.0
 22
0.0
 32
0.0
 14
0.0
 24
0.0
 34
0.0
 15
0.0
 25
0.0
 35
0.0
146
0.0
 13
0.0
 23
0.0
 33
0.0
 16
1.0
 26
0.0
 36
0.0
 17
0.0
 27
1.0
 37
0.0
 76
0
330
21F
345
0
346
0
  0
ENDSEC
  0
EOF
