  0
SECTION
  2
HEADER
  9
$ACADVER
  1
AC1024
  9
$DWGCODEPAGE
  3
ANSI_1252
  9
$EXTMAX
 10
297.0
 20
210.0
 30
0.0
  9
$EXTMIN
 10
0.0
 20
0.0
 30
0.0
  9
$LIMMIN
 10
0.0
 20
0.0
  9
$LIMMAX
 10
297.0
 20
210.0
  9
$VIEWCTR
 10
148.5
 20
105.0
  9
$VIEWSIZE
 40
210.0
  9
$CLAYER
  8
0
  9
$LTSCALE
 40
16.335
  9
$CELTYPE
  6
BYLAYER
  9
$DIMSCALE
 40
1.0
  9
$DIMASZ
 40
3.0
  9
$DIMEXO
 40
0.5
  9
$DIMDLI
 40
11.286
  9
$DIMEXE
 40
1.5
  9
$DIMCEN
 40
2.673
  9
$DIMLFAC
 40
1.0
  9
$DIMBLK
  1
_FILLED
  9
$DIMALT
 70
0
  9
$DIMALTF
 40
0.0393700787
  9
$DIMTXT
 40
3.0
  9
$DIMTOL
 70
1
  9
$DIMLIM
 70
0
  9
$DIMTFAC
 40
1.0
  9
$DIMTP
 40
0.01
  9
$DIMTM
 40
0.01
  9
$DIMGAP
 40
0.625
  9
$DIMDSEP
 70
44
  9
$AUNITS
 70
0
  9
$PDMODE
 70
3
  9
$PDSIZE
 40
3.0
  9
$HANDSEED
  5
2F8
  9
$TILEMODE
 70
1
  9
$MEASUREMENT
 70
1
  9
$INSUNITS
 70
4
  0
ENDSEC
  0
SECTION
  2
CLASSES
  0
CLASS
  1
ACDBDICTIONARYWDFLT
  2
AcDbDictionaryWithDefault
  3
AutoCAD 2000
 90
0
 91
1
280
0
281
0
  0
CLASS
  1
ACDBPLACEHOLDER
  2
AcDbPlaceHolder
  3
AutoCAD 2000
 90
0
 91
1
280
0
281
0
  0
CLASS
  1
LAYOUT
  2
AcDbLayout
  3
AutoCAD 2000
 90
0
 91
0
280
0
281
0
  0
ENDSEC
  0
SECTION
  2
TABLES
  0
TABLE
  2
VPORT
  5
8
100
AcDbSymbolTable
 70
2
  0
VPORT
  5
1F4
100
AcDbSymbolTableRecord
100
AcDbViewportTableRecord
  2
*ACTIVE
 70
0
 10
0.0
 20
0.0
 11
1.0
 21
1.0
 12
148.5
 22
105.0
 13
0.0
 23
0.0
 14
1.0
 24
1.0
 15
0.0
 25
0.0
 16
0.0
 26
0.0
 36
1.0
 17
0.0
 27
0.0
 37
0.0
 40
210.0
 41
1.4142857143
 42
50.0
 43
0.0
 44
0.0
 50
0.0
 51
0.0
 71
0
 72
100
 73
1
 74
1
 75
0
 76
0
 77
0
 78
0
  0
ENDTAB
  0
TABLE
  2
LTYPE
  5
5
100
AcDbSymbolTable
 70
6
  0
LTYPE
  5
14
100
AcDbSymbolTableRecord
100
AcDbLinetypeTableRecord
  2
BYBLOCK
 70
0
  3

 72
65
 73
0
 40
0.0
  0
LTYPE
  5
15
100
AcDbSymbolTableRecord
100
AcDbLinetypeTableRecord
  2
BYLAYER
 70
0
  3

 72
65
 73
0
 40
0.0
  0
LTYPE
  5
16
100
AcDbSymbolTableRecord
100
AcDbLinetypeTableRecord
  2
CONTINUOUS
 70
64
  3
Solid line
 72
65
 73
0
 40
0.0
  0
LTYPE
  5
1F5
100
AcDbSymbolTableRecord
100
AcDbLinetypeTableRecord
  2
CENTER
 70
64
  3
____ _ ____ _ ____ _ ____ _ ____ _ ____ _ ____
 72
65
 73
4
 40
0.6
 49
0.375
 74
0
 49
-0.075
 74
0
 49
0.075
 74
0
 49
-0.075
 74
0
  0
LTYPE
  5
1F6
100
AcDbSymbolTableRecord
100
AcDbLinetypeTableRecord
  2
HIDDEN
 70
64
  3
- - - - - - - - - - - - - - - - - - - -
 72
65
 73
2
 40
0.2
 49
0.1
 74
0
 49
-0.1
 74
0
  0
LTYPE
  5
1F7
100
AcDbSymbolTableRecord
100
AcDbLinetypeTableRecord
  2
PHANTOM
 70
64
  3
_____ _ _ _____ _ _ _____ _ _ _____
 72
65
 73
6
 40
0.8
 49
0.45
 74
0
 49
-0.05
 74
0
 49
0.1
 74
0
 49
-0.05
 74
0
 49
0.1
 74
0
 49
-0.05
 74
0
  0
LTYPE
  5
1F8
100
AcDbSymbolTableRecord
100
AcDbLinetypeTableRecord
  2
DOT
 70
64
  3
. . . . . . . . . . . . . . . . . . . .
 72
65
 73
2
 40
0.2
 49
0.1
 74
0
 49
-0.1
 74
0
  0
LTYPE
  5
1F9
100
AcDbSymbolTableRecord
100
AcDbLinetypeTableRecord
  2
DASHED
 70
64
  3
- - - - - - - - - - - - - - - - - - - -
 72
65
 73
2
 40
0.2
 49
0.1
 74
0
 49
-0.1
 74
0
  0
ENDTAB
  0
TABLE
  2
LAYER
  5
2
100
AcDbSymbolTable
 70
36
  0
LAYER
  5
10
100
AcDbSymbolTableRecord
100
AcDbLayerTableRecord
  2
0
 70
0
 62
7
  6
CONTINUOUS
370
-3
390
F
  0
LAYER
  5
1FA
100
AcDbSymbolTableRecord
100
AcDbLayerTableRecord
  2
DEFAULT_1
 70
0
 62
7
  6
CENTER
370
-3
390
F
  0
LAYER
  5
1FB
100
AcDbSymbolTableRecord
100
AcDbLayerTableRecord
  2
DEFAULT_2
 70
0
 62
7
  6
HIDDEN
370
-3
390
F
  0
LAYER
  5
1FC
100
AcDbSymbolTableRecord
100
AcDbLayerTableRecord
  2
DEFAULT_3
 70
0
 62
7
  6
PHANTOM
370
-3
390
F
  0
LAYER
  5
1FD
100
AcDbSymbolTableRecord
100
AcDbLayerTableRecord
  2
ASSI
 70
0
 62
7
  6
CONTINUOUS
370
-3
390
F
  0
LAYER
  5
1FE
100
AcDbSymbolTableRecord
100
AcDbLayerTableRecord
  2
COORDINATE
 70
0
 62
7
  6
CONTINUOUS
370
-3
390
F
  0
LAYER
  5
1FF
100
AcDbSymbolTableRecord
100
AcDbLayerTableRecord
  2
COORD_ORIGINE
 70
0
 62
7
  6
CONTINUOUS
370
-3
390
F
  0
LAYER
  5
200
100
AcDbSymbolTableRecord
100
AcDbLayerTableRecord
  2
COPY_PUBLISH
 70
0
 62
7
  6
CONTINUOUS
370
-3
390
F
  0
LAYER
  5
201
100
AcDbSymbolTableRecord
100
AcDbLayerTableRecord
  2
COSMETIC
 70
0
 62
7
  6
CONTINUOUS
370
-3
390
F
  0
LAYER
  5
202
100
AcDbSymbolTableRecord
100
AcDbLayerTableRecord
  2
COSMETICI
 70
0
 62
7
  6
CONTINUOUS
370
-3
390
F
  0
LAYER
  5
203
100
AcDbSymbolTableRecord
100
AcDbLayerTableRecord
  2
CURVE
 70
0
 62
7
  6
CONTINUOUS
370
-3
390
F
  0
LAYER
  5
204
100
AcDbSymbolTableRecord
100
AcDbLayerTableRecord
  2
CURVE_TASSELLI
 70
0
 62
7
  6
CONTINUOUS
370
-3
390
F
  0
LAYER
  5
205
100
AcDbSymbolTableRecord
100
AcDbLayerTableRecord
  2
DRAFT
 70
0
 62
7
  6
CONTINUOUS
370
-3
390
F
  0
LAYER
  5
206
100
AcDbSymbolTableRecord
100
AcDbLayerTableRecord
  2
IMPORT_IGES
 70
0
 62
7
  6
CONTINUOUS
370
-3
390
F
  0
LAYER
  5
207
100
AcDbSymbolTableRecord
100
AcDbLayerTableRecord
  2
INTFCLR_2
 70
0
 62
7
  6
CONTINUOUS
370
-3
390
F
  0
LAYER
  5
208
100
AcDbSymbolTableRecord
100
AcDbLayerTableRecord
  2
INTF_1
 70
0
 62
7
  6
CONTINUOUS
370
-3
390
F
  0
LAYER
  5
209
100
AcDbSymbolTableRecord
100
AcDbLayerTableRecord
  2
INTF_21
 70
0
 62
7
  6
CONTINUOUS
370
-3
390
F
  0
LAYER
  5
20A
100
AcDbSymbolTableRecord
100
AcDbLayerTableRecord
  2
INTF_7
 70
0
 62
7
  6
CONTINUOUS
370
-3
390
F
  0
LAYER
  5
20B
100
AcDbSymbolTableRecord
100
AcDbLayerTableRecord
  2
INTF_CYAN
 70
0
 62
7
  6
CONTINUOUS
370
-3
390
F
  0
LAYER
  5
20C
100
AcDbSymbolTableRecord
100
AcDbLayerTableRecord
  2
NOTE
 70
0
 62
7
  6
CONTINUOUS
370
-3
390
F
  0
LAYER
  5
20D
100
AcDbSymbolTableRecord
100
AcDbLayerTableRecord
  2
PIANI
 70
0
 62
7
  6
CONTINUOUS
370
-3
390
F
  0
LAYER
  5
20E
100
AcDbSymbolTableRecord
100
AcDbLayerTableRecord
  2
PIANI_ORIGINE
 70
0
 62
7
  6
CONTINUOUS
370
-3
390
F
  0
LAYER
  5
20F
100
AcDbSymbolTableRecord
100
AcDbLayerTableRecord
  2
PIANI_RIFERIMENTO
 70
0
 62
7
  6
CONTINUOUS
370
-3
390
F
  0
LAYER
  5
210
100
AcDbSymbolTableRecord
100
AcDbLayerTableRecord
  2
PUNTI
 70
0
 62
7
  6
CONTINUOUS
370
-3
390
F
  0
LAYER
  5
211
100
AcDbSymbolTableRecord
100
AcDbLayerTableRecord
  2
RACCORDO
 70
0
 62
7
  6
CONTINUOUS
370
-3
390
F
  0
LAYER
  5
212
100
AcDbSymbolTableRecord
100
AcDbLayerTableRecord
  2
RGB__255__255__255__
 70
0
 62
7
  6
CONTINUOUS
370
-3
390
F
  0
LAYER
  5
213
100
AcDbSymbolTableRecord
100
AcDbLayerTableRecord
  2
RGB____0____0____0__
 70
0
 62
7
  6
CONTINUOUS
370
-3
390
F
  0
LAYER
  5
214
100
AcDbSymbolTableRecord
100
AcDbLayerTableRecord
  2
SIMBOLI
 70
0
 62
7
  6
CONTINUOUS
370
-3
390
F
  0
LAYER
  5
215
100
AcDbSymbolTableRecord
100
AcDbLayerTableRecord
  2
SMUSSO
 70
0
 62
7
  6
CONTINUOUS
370
-3
390
F
  0
LAYER
  5
216
100
AcDbSymbolTableRecord
100
AcDbLayerTableRecord
  2
SUPERFICI
 70
0
 62
7
  6
CONTINUOUS
370
-3
390
F
  0
LAYER
  5
217
100
AcDbSymbolTableRecord
100
AcDbLayerTableRecord
  2
TRASH
 70
0
 62
7
  6
CONTINUOUS
370
-3
390
F
  0
LAYER
  5
218
100
AcDbSymbolTableRecord
100
AcDbLayerTableRecord
  2
XSEC_DATUMS
 70
0
 62
7
  6
CONTINUOUS
370
-3
390
F
  0
ENDTAB
  0
TABLE
  2
STYLE
  5
3
100
AcDbSymbolTable
 70
1
  0
STYLE
  5
11
100
AcDbSymbolTableRecord
100
AcDbTextStyleTableRecord
  2
STANDARD
 70
0
 40
0.0
 41
0.8
 50
0.0
 71
0
 42
0.2
  3
txt
  4

  0
STYLE
  5
219
100
AcDbSymbolTableRecord
100
AcDbTextStyleTableRecord
  2
TEXTSTYLE_1
 70
0
 40
0.0
 41
0.8
 50
0.0
 71
0
 42
0.2
  3
gdt
  4

  0
ENDTAB
  0
TABLE
  2
VIEW
  5
6
100
AcDbSymbolTable
 70
0
  0
ENDTAB
  0
TABLE
  2
UCS
  5
7
100
AcDbSymbolTable
 70
0
  0
ENDTAB
  0
TABLE
  2
APPID
  5
9
100
AcDbSymbolTable
 70
1
  0
APPID
  5
21A
100
AcDbSymbolTableRecord
100
AcDbRegAppTableRecord
  2
ACAD
 70
0
  0
ENDTAB
  0
TABLE
  2
BLOCK_RECORD
  5
1
100
AcDbSymbolTable
 70
0
  0
BLOCK_RECORD
  5
21B
100
AcDbSymbolTableRecord
100
AcDbBlockTableRecord
  2
*Model_Space
  0
BLOCK_RECORD
  5
21C
100
AcDbSymbolTableRecord
100
AcDbBlockTableRecord
  2
*Paper_Space
  0
BLOCK_RECORD
  5
21D
100
AcDbSymbolTableRecord
100
AcDbBlockTableRecord
  2
_FILLED
  0
ENDTAB
  0
TABLE
  2
DIMSTYLE
  5
A
100
AcDbSymbolTable
 70
1
100
AcDbDimStyleTable
 71
0
  0
DIMSTYLE
105
21E
100
AcDbSymbolTableRecord
100
AcDbDimStyleTableRecord
  2
STANDARD
 70
0
  3

  4

 40
1.0
 41
3.0
 42
0.5
 43
0.38
 44
1.5
 45
0.0
 46
0.0
 47
0.01
 48
0.01
140
3.0
141
0.09
142
0.0
143
25.4
144
1.0
145
0.0
146
1.0
147
0.625
 71
1.0
 72
0.0
 73
0
 74
0
 75
0
 76
0
 77
1
 78
8
 79
2
170
0
171
1
172
0
173
0
174
0
175
0
176
0
177
0
178
0
270
2
179
2
271
2
272
2
273
2
274
2
275
0
280
0
281
0
282
0
283
1
284
8
285
0
286
0
287
3
288
0
340
11
278
44
341
21D
342
21D
343
21D
344
21D
  0
ENDTAB
  0
ENDSEC
  0
SECTION
  2
BLOCKS
  0
BLOCK
  5
20
100
AcDbEntity
  8
0
100
AcDbBlockBegin
  2
*Model_Space
 70
0
 10
0.0
 20
0.0
 30
0.0
  3
*Model_Space
  1

  0
ENDBLK
  5
21
100
AcDbEntity
  8
0
100
AcDbBlockEnd
  0
BLOCK
  5
1C
100
AcDbEntity
  8
0
100
AcDbBlockBegin
  2
*Paper_Space
 70
0
 10
0.0
 20
0.0
 30
0.0
  3
*Paper_Space
  1

  0
ENDBLK
  5
1D
100
AcDbEntity
  8
0
100
AcDbBlockEnd
  0
BLOCK
  5
21F
100
AcDbEntity
  8
0
100
AcDbBlockBegin
  2
_FILLED
 70
64
 10
0.0
 20
0.0
  3
_FILLED
  1

  0
SOLID
  5
220
100
AcDbEntity
  8
0
  6
BYBLOCK
 62
0
100
AcDbTrace
 10
0.0
 20
0.0
 11
-1.0
 21
0.3166666667
 12
-1.0
 22
-0.3166666667
 13
-1.0
 23
-0.3166666667
  0
ENDBLK
  5
221
100
AcDbEntity
  8
0
  6
BYBLOCK
 62
0
100
AcDbBlockEnd
  0
ENDSEC
  0
SECTION
  2
ENTITIES
  0
LINE
  5
222
100
AcDbEntity
  8
0
100
AcDbLine
 62
7
  6
CONTINUOUS
 10
113.961966407
 20
151.2128018072
 11
117.7497801941
 21
153.7163686985
  0
LINE
  5
223
100
AcDbEntity
  8
0
100
AcDbLine
 62
7
  6
CONTINUOUS
 10
114.6695036763
 20
151.621246001
 11
118.4573174634
 21
154.1248128924
  0
LINE
  5
224
100
AcDbEntity
  8
0
100
AcDbLine
 62
7
  6
CONTINUOUS
 10
114.6487400621
 20
151.6084066501
 11
114.6695036763
 21
151.621246001
  0
LINE
  5
225
100
AcDbEntity
  8
0
100
AcDbLine
 62
7
  6
CONTINUOUS
 10
117.7497801941
 20
153.7163686985
 11
118.4573174634
 21
154.1248128924
  0
LINE
  5
226
100
AcDbEntity
  8
0
100
AcDbLine
 62
7
  6
CONTINUOUS
 10
114.6487400621
 20
151.6084066501
 11
113.9623417145
 21
151.2121654456
  0
LINE
  5
227
100
AcDbEntity
  8
0
100
AcDbLine
 62
7
  6
CONTINUOUS
 10
114.2660507622
 20
150.1931782117
 11
113.9870748281
 21
150.0321321361
  0
LINE
  5
228
100
AcDbEntity
  8
0
100
AcDbLine
 62
7
  6
CONTINUOUS
 10
114.2660507622
 20
150.1931782117
 11
114.6487400621
 21
151.6084066501
  0
LINE
  5
229
100
AcDbEntity
  8
0
100
AcDbLine
 62
7
  6
CONTINUOUS
 10
175.8889970334
 20
43.4591044687
 11
177.3059561643
 21
43.0829250129
  0
LINE
  5
22A
100
AcDbEntity
  8
0
100
AcDbLine
 62
7
  6
CONTINUOUS
 10
113.9870748281
 20
79.2004985368
 11
114.2660507622
 21
78.7172980453
  0
LINE
  5
22B
100
AcDbEntity
  8
0
100
AcDbLine
 62
7
  6
CONTINUOUS
 10
113.9870748281
 20
79.2004985368
 11
113.9623417145
 21
79.6567341143
  0
LINE
  5
22C
100
AcDbEntity
  8
0
100
AcDbLine
 62
7
  6
CONTINUOUS
 10
114.2660507622
 20
78.7172980453
 11
114.6487400621
 21
78.4678573032
  0
LINE
  5
22D
100
AcDbEntity
  8
0
100
AcDbLine
 62
7
  6
CONTINUOUS
 10
113.9870748281
 20
150.0321321361
 11
113.9623417145
 21
151.2121654456
  0
LINE
  5
22E
100
AcDbEntity
  8
0
100
AcDbLine
 62
7
  6
CONTINUOUS
 10
113.9623417145
 20
79.6567341143
 11
113.961966407
 21
79.680926975
  0
LINE
  5
22F
100
AcDbEntity
  8
0
100
AcDbLine
 62
7
  6
CONTINUOUS
 10
113.961966407
 20
151.2128018072
 11
113.961966407
 21
79.680926975
  0
LINE
  5
230
100
AcDbEntity
  8
0
100
AcDbLine
 62
7
  6
CONTINUOUS
 10
113.9870748281
 20
150.0321321361
 11
113.9870748281
 21
79.2004985368
  0
LINE
  5
231
100
AcDbEntity
  8
0
100
AcDbLine
 62
7
  6
CONTINUOUS
 10
114.6695036763
 20
78.4554364776
 11
176.6199202469
 21
42.6860423708
  0
LINE
  5
232
100
AcDbEntity
  8
0
100
AcDbLine
 62
7
  6
CONTINUOUS
 10
114.2660507622
 20
78.7172980453
 11
175.6100210993
 21
43.2980583932
  0
LINE
  5
233
100
AcDbEntity
  8
0
100
AcDbLine
 62
7
  6
CONTINUOUS
 10
114.6695036763
 20
78.4554364776
 11
114.6487400621
 21
78.4678573032
  0
LINE
  5
234
100
AcDbEntity
  8
0
100
AcDbLine
 62
7
  6
CONTINUOUS
 10
175.6100210993
 20
43.2980583932
 11
176.6195578167
 21
42.6866838085
  0
LWPOLYLINE
  5
235
100
AcDbEntity
  8
0
100
AcDbPolyline
 62
7
  6
CONTINUOUS
 90
4
 70
0
 10
132.0672678618
 20
119.1842466733
 10
132.0349257918
 20
119.1508083418
 10
132.0056019863
 20
119.1132912761
 10
131.9794238471
 20
119.0718566758
  0
LWPOLYLINE
  5
236
100
AcDbEntity
  8
0
100
AcDbPolyline
 62
7
  6
CONTINUOUS
 90
3
 70
0
 10
131.9258356422
 20
119.10258168
 10
131.9610632259
 20
119.1318061799
 10
131.9989936069
 20
119.1566694863
  0
LWPOLYLINE
  5
237
100
AcDbEntity
  8
0
100
AcDbPolyline
 62
7
  6
CONTINUOUS
 90
13
 70
0
 10
131.9989936069
 20
119.1566694863
 10
132.0395525231
 20
119.1771160212
 10
132.0824780918
 20
119.1930073023
 10
132.1276157753
 20
119.2042922341
 10
132.1747724662
 20
119.210922542
 10
132.223745986
 20
119.2128698037
 10
132.2743257198
 20
119.2101258014
 10
132.3262951666
 20
119.2027025222
 10
132.37943151
 20
119.1906320281
 10
132.4335056189
 20
119.1739668073
 10
132.4882853243
 20
119.1527790846
 10
132.5435365107
 20
119.1271600745
 10
132.599022599
 20
119.0972200731
  0
LWPOLYLINE
  5
238
100
AcDbEntity
  8
0
100
AcDbPolyline
 62
7
  6
CONTINUOUS
 90
11
 70
0
 10
158.500701609
 20
74.7065042224
 10
158.4555640529
 20
74.6952191942
 10
158.4084075514
 20
74.6885887789
 10
158.3594342552
 20
74.6866413817
 10
158.3088546727
 20
74.6893852233
 10
158.2568852805
 20
74.6968083413
 10
158.2037489041
 20
74.7088786953
 10
158.1496746069
 20
74.7255438403
 10
158.0948945323
 20
74.7467315972
 10
158.0396428168
 20
74.7723507801
 10
157.9841560436
 20
74.8022911251
  0
LWPOLYLINE
  5
239
100
AcDbEntity
  8
0
100
AcDbPolyline
 62
7
  6
CONTINUOUS
 90
7
 70
0
 10
131.9477643364
 20
119.0063710456
 10
131.9369444325
 20
118.9779670762
 10
131.9208250582
 20
118.9259142575
 10
131.9082168215
 20
118.8707519847
 10
131.8991732087
 20
118.8127182188
 10
131.8937319978
 20
118.7520608968
 10
131.8919158179
 20
118.6890401716
  0
LINE
  5
23A
100
AcDbEntity
  8
0
100
AcDbLine
 62
250
  6
CONTINUOUS
 10
132.1312680336
 20
119.2048057476
 11
131.8919158179
 21
118.6890401716
  0
LWPOLYLINE
  5
23B
100
AcDbEntity
  8
0
100
AcDbPolyline
 62
7
  6
CONTINUOUS
 90
3
 70
0
 10
131.9794238471
 20
119.0718566758
 10
131.9565052839
 20
119.026684113
 10
131.9477643364
 20
119.0063710456
  0
LINE
  5
23C
100
AcDbEntity
  8
0
100
AcDbLine
 62
250
  6
CONTINUOUS
 10
131.8919158179
 20
118.6890401716
 11
131.7504944616
 21
118.607385253
  0
LINE
  5
23D
100
AcDbEntity
  8
0
100
AcDbLine
 62
250
  6
CONTINUOUS
 10
158.6920413169
 20
74.8333847647
 11
158.1255773999
 21
74.8839460437
  0
LWPOLYLINE
  5
23E
100
AcDbEntity
  8
0
100
AcDbPolyline
 62
7
  6
CONTINUOUS
 90
6
 70
0
 10
158.4284064154
 20
74.7736163908
 10
158.4502929053
 20
74.771038469
 10
158.5008751416
 20
74.7682961445
 10
158.5498500488
 20
74.7702455844
 10
158.5970051472
 20
74.7768779448
 10
158.6421371227
 20
74.7881635104
  0
LWPOLYLINE
  5
23F
100
AcDbEntity
  8
0
100
AcDbPolyline
 62
7
  6
CONTINUOUS
 90
28
 70
0
 10
131.0433876804
 20
118.607385253
 10
131.0454776264
 20
118.6873270231
 10
131.0515644069
 20
118.7641494679
 10
131.0616480221
 20
118.8378525873
 10
131.0757894595
 20
118.9086647917
 10
131.0939277315
 20
118.9763576708
 10
131.1158798754
 20
119.0402459933
 10
131.1416847096
 20
119.100290787
 10
131.1713034156
 20
119.1565310242
 10
131.2044365756
 20
119.2083983902
 10
131.2411197008
 20
119.2558482682
 10
131.2813172799
 20
119.2989252751
 10
131.3246233614
 20
119.3371949476
 10
131.3710690859
 20
119.3706085775
 10
131.4206233129
 20
119.3992148729
 10
131.472786669
 20
119.4227254948
 10
131.5275858681
 20
119.441089108
 10
131.5849941963
 20
119.4543570478
 10
131.6444321388
 20
119.4623949803
 10
131.7059205287
 20
119.4651497831
 10
131.7694385328
 20
119.4626745788
 10
131.834344137
 20
119.4549944014
 10
131.9006516372
 20
119.4420561536
 10
131.9683467374
 20
119.4239129327
 10
132.0367445349
 20
119.4007490657
 10
132.1056167287
 20
119.3726259949
 10
132.1751916199
 20
119.3394822779
 10
132.2454692084
 20
119.3013179148
  0
LINE
  5
240
100
AcDbEntity
  8
0
100
AcDbLine
 62
250
  6
CONTINUOUS
 10
132.2505460067
 20
108.5211289102
 11
131.8919158179
 21
107.7483384626
  0
LINE
  5
241
100
AcDbEntity
  8
0
100
AcDbLine
 62
250
  6
CONTINUOUS
 10
132.2454692084
 20
105.5846172647
 11
132.599022599
 21
106.1969896998
  0
LINE
  5
242
100
AcDbEntity
  8
0
100
AcDbLine
 62
250
  6
CONTINUOUS
 10
149.4988746694
 20
80.2790879054
 11
148.650346532
 21
80.3548255943
  0
LWPOLYLINE
  5
243
100
AcDbEntity
  8
0
100
AcDbPolyline
 62
7
  6
CONTINUOUS
 90
25
 70
0
 10
131.8919158179
 20
91.0106977883
 10
131.8937319978
 20
90.9455797841
 10
131.8991732087
 20
90.8786390881
 10
131.9082168215
 20
90.8101619848
 10
131.9208250582
 20
90.7404400363
 10
131.9369444325
 20
90.6697729682
 10
131.9565052839
 20
90.5984675506
 10
131.9794238471
 20
90.5268292055
 10
132.0056019863
 20
90.4551647462
 10
132.0349257918
 20
90.383785285
 10
132.0672678618
 20
90.3129991417
 10
132.1024902805
 20
90.2431065377
 10
132.1404439968
 20
90.1744026814
 10
132.18096653
 20
90.1071817016
 10
132.2238843822
 20
90.0417314116
 10
132.2690163891
 20
89.9783285467
 10
132.3161714603
 20
89.9172427136
 10
132.3651463212
 20
89.8587383465
 10
132.415728599
 20
89.8030695384
 10
132.4677017899
 20
89.7504745789
 10
132.5208431464
 20
89.7011788936
 10
132.5749215273
 20
89.6553964664
 10
132.6297039885
 20
89.6133235254
 10
132.684957005
 20
89.5751384497
 10
132.7404439553
 20
89.5410039442
  0
LWPOLYLINE
  5
244
100
AcDbEntity
  8
0
100
AcDbPolyline
 62
7
  6
CONTINUOUS
 90
25
 70
0
 10
131.8919158179
 20
107.7483384626
 10
131.8937319627
 20
107.6832210961
 10
131.8991730953
 20
107.6162808218
 10
131.908216627
 20
107.5478039004
 10
131.9208248457
 20
107.4780817491
 10
131.9369442906
 20
107.4074142075
 10
131.9565052221
 20
107.3361084327
 10
131.979423794
 20
107.2644700347
 10
132.0056018974
 20
107.1928056495
 10
132.0349256707
 20
107.1214262384
 10
132.067267747
 20
107.0506400551
 10
132.1024901869
 20
106.9807473892
 10
132.1404439137
 20
106.9120434996
 10
132.1809664233
 20
106.8448225456
 10
132.2238842325
 20
106.7793723049
 10
132.2690162079
 20
106.7159694654
 10
132.3161713064
 20
106.6548835794
 10
132.3651462135
 20
106.5963791442
 10
132.4157284499
 20
106.5407103701
 10
132.4677013716
 20
106.4881156586
 10
132.5208423532
 20
106.4388202712
 10
132.5749205495
 20
106.3930379298
 10
132.6297031277
 20
106.3509648275
 10
132.6849564703
 20
106.3127794732
 10
132.7404439553
 20
106.2786446185
  0
LWPOLYLINE
  5
245
100
AcDbEntity
  8
0
100
AcDbPolyline
 62
7
  6
CONTINUOUS
 90
28
 70
0
 10
132.2505460067
 20
91.783488236
 10
132.2528724195
 20
91.6917988951
 10
132.2596487513
 20
91.5984428054
 10
132.2708750021
 20
91.5034199669
 10
132.2866189063
 20
91.4063977689
 10
132.3068127294
 20
91.3077088221
 10
132.3312532684
 20
91.2083509582
 10
132.3599838025
 20
91.1083174577
 10
132.3929610524
 20
91.0076150402
 10
132.4298519775
 20
90.9072616961
 10
132.4706961931
 20
90.8072613675
 10
132.5154540839
 20
90.7076101123
 10
132.563673763
 20
90.6093140957
 10
132.615390244
 20
90.5123871495
 10
132.6705685133
 20
90.4168154419
 10
132.7286516428
 20
90.3235636422
 10
132.789669201
 20
90.2326550713
 10
132.8535916193
 20
90.1440664084
 10
132.9197732646
 20
90.0586923611
 10
132.9882372155
 20
89.9765654407
 10
133.0589603933
 20
89.8976531358
 10
133.1312279291
 20
89.8227526202
 10
133.205055712
 20
89.7519046255
 10
133.2804278528
 20
89.6850684201
 10
133.356581815
 20
89.6229189825
 10
133.4332634196
 20
89.5656813056
 10
133.5107268455
 20
89.5131303965
 10
133.5889720927
 20
89.4652662553
  0
LWPOLYLINE
  5
246
100
AcDbEntity
  8
0
100
AcDbPolyline
 62
7
  6
CONTINUOUS
 90
28
 70
0
 10
132.2505460067
 20
108.5211289102
 10
132.2528724997
 20
108.4294387039
 10
132.2596489318
 20
108.3360818989
 10
132.2708753032
 20
108.2410584952
 10
132.2866193679
 20
108.1440358814
 10
132.3068133718
 20
108.0453466689
 10
132.3312540526
 20
107.9459886918
 10
132.3599846315
 20
107.8459553415
 10
132.3929618874
 20
107.7452532266
 10
132.4298528943
 20
107.6449000074
 10
132.4706973493
 20
107.5448994115
 10
132.5154555554
 20
107.4452477113
 10
132.563675496
 20
107.3469513845
 10
132.6153921537
 20
107.2500243743
 10
132.6705705458
 20
107.1544527376
 10
132.7286537082
 20
107.0612011229
 10
132.7896711285
 20
106.9702929335
 10
132.8535933191
 20
106.8817047662
 10
132.9197748526
 20
106.7963310598
 10
132.9882389526
 20
106.7142041479
 10
133.0589623955
 20
106.6352916968
 10
133.1312300838
 20
106.5603911449
 10
133.2050578395
 20
106.4895433297
 10
133.2804298406
 20
106.4227074136
 10
133.3565835229
 20
106.3605583229
 10
133.4332646983
 20
106.3033210331
 10
133.5107275549
 20
106.2507705686
 10
133.5889720927
 20
106.2029069295
  0
LINE
  5
247
100
AcDbEntity
  8
0
100
AcDbLine
 62
7
  6
CONTINUOUS
 10
131.0433876804
 20
90.9290428697
 11
131.0433876804
 21
101.8697445787
  0
LINE
  5
248
100
AcDbEntity
  8
0
100
AcDbLine
 62
7
  6
CONTINUOUS
 10
131.0433876804
 20
107.6666835439
 11
131.0433876804
 21
118.607385253
  0
LINE
  5
249
100
AcDbEntity
  8
0
100
AcDbLine
 62
7
  6
CONTINUOUS
 10
131.7504944616
 20
90.9290428697
 11
131.7504944616
 21
101.8697445787
  0
LINE
  5
24A
100
AcDbEntity
  8
0
100
AcDbLine
 62
7
  6
CONTINUOUS
 10
131.7504944616
 20
107.6666835439
 11
131.7504944616
 21
118.607385253
  0
LINE
  5
24B
100
AcDbEntity
  8
0
100
AcDbLine
 62
7
  6
CONTINUOUS
 10
131.8919158179
 20
118.6890401716
 11
131.8919158179
 21
107.7483384626
  0
LINE
  5
24C
100
AcDbEntity
  8
0
100
AcDbLine
 62
7
  6
CONTINUOUS
 10
131.8919158179
 20
101.9513994974
 11
131.8919158179
 21
91.0106977883
  0
LINE
  5
24D
100
AcDbEntity
  8
0
100
AcDbLine
 62
7
  6
CONTINUOUS
 10
132.2505460067
 20
119.2114158752
 11
132.2505460067
 21
108.5211289102
  0
LINE
  5
24E
100
AcDbEntity
  8
0
100
AcDbLine
 62
7
  6
CONTINUOUS
 10
132.2505460067
 20
102.4737752078
 11
132.2505460067
 21
91.783488236
  0
LWPOLYLINE
  5
24F
100
AcDbEntity
  8
0
100
AcDbPolyline
 62
7
  6
CONTINUOUS
 90
28
 70
0
 10
131.0433876804
 20
101.8697445787
 10
131.045477498
 20
101.9496848992
 10
131.0515640801
 20
102.0265061591
 10
131.0616474268
 20
102.1002083585
 10
131.0757884873
 20
102.1710199166
 10
131.0939263123
 20
102.2387124142
 10
131.1158780543
 20
102.302600593
 10
131.1416825499
 20
102.3626455222
 10
131.1713009625
 20
102.4188861327
 10
131.2044339348
 20
102.4707539593
 10
131.2411170564
 20
102.5182043978
 10
131.2813147377
 20
102.5612820523
 10
131.3246208533
 20
102.5995522702
 10
131.3710665038
 20
102.6329662485
 10
131.4206205886
 20
102.6615727902
 10
131.4727836799
 20
102.6850836504
 10
131.5275823897
 20
102.7034475068
 10
131.5849901059
 20
102.7167156819
 10
131.6444275648
 20
102.7247538978
 10
131.7059156497
 20
102.7275090933
 10
131.7694334773
 20
102.7250343298
 10
131.8343391333
 20
102.7173545134
 10
131.9006469589
 20
102.7044165417
 10
131.968342613
 20
102.6862735172
 10
132.0367411587
 20
102.6631096535
 10
132.1056142837
 20
102.634986355
 10
132.1751903003
 20
102.6018422174
 10
132.2454692084
 20
102.5636772406
  0
LWPOLYLINE
  5
250
100
AcDbEntity
  8
0
100
AcDbPolyline
 62
7
  6
CONTINUOUS
 90
11
 70
0
 10
131.7504944616
 20
118.607385253
 10
131.7523105949
 20
118.6704051832
 10
131.7577515445
 20
118.7310607772
 10
131.7667945022
 20
118.7890920307
 10
131.7794013599
 20
118.8442505976
 10
131.7955185459
 20
118.8962993621
 10
131.8150769375
 20
118.9450137439
 10
131.8379928599
 20
118.9901847672
 10
131.8641684243
 20
119.031618994
 10
131.8934912469
 20
119.0691382471
 10
131.9258356422
 20
119.10258168
  0
LWPOLYLINE
  5
251
100
AcDbEntity
  8
0
100
AcDbPolyline
 62
7
  6
CONTINUOUS
 90
11
 70
0
 10
131.7504944616
 20
101.8697445787
 10
131.75231055
 20
101.9327637441
 10
131.7577513848
 20
101.9934187936
 10
131.7667941873
 20
102.0514497103
 10
131.7794008853
 20
102.106608152
 10
131.7955179335
 20
102.158656958
 10
131.8150762127
 20
102.2073714677
 10
131.8379920716
 20
102.2525427023
 10
131.8641676305
 20
102.2939771905
 10
131.8934904548
 20
102.3314966614
 10
131.9258348302
 20
102.3649402527
  0
LWPOLYLINE
  5
252
100
AcDbEntity
  8
0
100
AcDbPolyline
 62
7
  6
CONTINUOUS
 90
7
 70
0
 10
131.9477643364
 20
102.2687303713
 10
131.9369442906
 20
102.2403260009
 10
131.9208248457
 20
102.1882727901
 10
131.908216627
 20
102.1331102937
 10
131.8991730953
 20
102.075076616
 10
131.8937319627
 20
102.0144196253
 10
131.8919158179
 20
101.9513994974
  0
LINE
  5
253
100
AcDbEntity
  8
0
100
AcDbLine
 62
250
  6
CONTINUOUS
 10
132.1312680072
 20
102.4671650166
 11
131.8919158179
 21
101.9513994974
  0
LWPOLYLINE
  5
254
100
AcDbEntity
  8
0
100
AcDbPolyline
 62
7
  6
CONTINUOUS
 90
3
 70
0
 10
131.979423794
 20
102.3342159079
 10
131.9565052221
 20
102.2890433022
 10
131.9477643364
 20
102.2687303713
  0
LWPOLYLINE
  5
255
100
AcDbEntity
  8
0
100
AcDbPolyline
 62
7
  6
CONTINUOUS
 90
4
 70
0
 10
132.067267747
 20
102.4466058925
 10
132.0349256707
 20
102.4131675282
 10
132.0056018974
 20
102.3756504755
 10
131.979423794
 20
102.3342159079
  0
LWPOLYLINE
  5
256
100
AcDbEntity
  8
0
100
AcDbPolyline
 62
7
  6
CONTINUOUS
 90
3
 70
0
 10
131.9258348302
 20
102.3649402527
 10
131.9610623854
 20
102.3941648843
 10
131.9989936069
 20
102.4190288121
  0
LINE
  5
257
100
AcDbEntity
  8
0
100
AcDbLine
 62
250
  6
CONTINUOUS
 10
131.8919158179
 20
107.7483384626
 11
131.7504944616
 21
107.6666835439
  0
LINE
  5
258
100
AcDbEntity
  8
0
100
AcDbLine
 62
250
  6
CONTINUOUS
 10
132.7404439553
 20
106.2786446185
 11
132.599022599
 21
106.1969896998
  0
LWPOLYLINE
  5
259
100
AcDbEntity
  8
0
100
AcDbPolyline
 62
7
  6
CONTINUOUS
 90
11
 70
0
 10
142.5907990323
 20
83.8926825723
 10
142.5456614762
 20
83.8813975441
 10
142.4985049747
 20
83.8747671287
 10
142.4495316785
 20
83.8728197316
 10
142.398952096
 20
83.8755635732
 10
142.3469827038
 20
83.8829866912
 10
142.2938463274
 20
83.8950570451
 10
142.2397720302
 20
83.9117221902
 10
142.1849919556
 20
83.9329099471
 10
142.1297402401
 20
83.95852913
 10
142.0742534669
 20
83.9884694749
  0
LINE
  5
25A
100
AcDbEntity
  8
0
100
AcDbLine
 62
250
  6
CONTINUOUS
 10
146.9532902571
 20
81.7428645198
 11
147.6603970383
 21
81.7428645198
  0
LINE
  5
25B
100
AcDbEntity
  8
0
100
AcDbLine
 62
250
  6
CONTINUOUS
 10
142.7821387402
 20
84.0195631146
 11
142.2156748232
 21
84.0701243936
  0
LWPOLYLINE
  5
25C
100
AcDbEntity
  8
0
100
AcDbPolyline
 62
7
  6
CONTINUOUS
 90
6
 70
0
 10
142.5185038387
 20
83.9597947407
 10
142.5403903286
 20
83.9572168189
 10
142.5909725649
 20
83.9544744943
 10
142.6399474721
 20
83.9564239343
 10
142.6871025706
 20
83.9630562946
 10
142.732234546
 20
83.9743418602
  0
LWPOLYLINE
  5
25D
100
AcDbEntity
  8
0
100
AcDbPolyline
 62
7
  6
CONTINUOUS
 90
7
 70
0
 10
158.1255773999
 20
74.8839460437
 10
158.1810648849
 20
74.8540053417
 10
158.2363182275
 20
74.8283855209
 10
158.2911008056
 20
74.8071970751
 10
158.3451790019
 20
74.790531271
 10
158.3983199836
 20
74.7784607847
 10
158.4284064154
 20
74.7736163908
  0
LWPOLYLINE
  5
25E
100
AcDbEntity
  8
0
100
AcDbPolyline
 62
7
  6
CONTINUOUS
 90
7
 70
0
 10
142.2156748232
 20
84.0701243936
 10
142.2711623082
 20
84.0401836915
 10
142.3264156508
 20
84.0145638708
 10
142.3811982289
 20
83.993375425
 10
142.4352764252
 20
83.9767096209
 10
142.4884174069
 20
83.9646391346
 10
142.5185038387
 20
83.9597947407
  0
LINE
  5
25F
100
AcDbEntity
  8
0
100
AcDbLine
 62
7
  6
CONTINUOUS
 10
157.630602653
 20
74.18991869
 11
148.1553717851
 21
79.6607982406
  0
LINE
  5
260
100
AcDbEntity
  8
0
100
AcDbLine
 62
7
  6
CONTINUOUS
 10
141.7207000763
 20
83.3760970399
 11
132.2454692084
 21
88.8469765905
  0
LINE
  5
261
100
AcDbEntity
  8
0
100
AcDbLine
 62
7
  6
CONTINUOUS
 10
157.9841560436
 20
74.8022911251
 11
148.5089251757
 21
80.2731706757
  0
LINE
  5
262
100
AcDbEntity
  8
0
100
AcDbLine
 62
7
  6
CONTINUOUS
 10
142.0742534669
 20
83.9884694749
 11
132.599022599
 21
89.4593490255
  0
LINE
  5
263
100
AcDbEntity
  8
0
100
AcDbLine
 62
7
  6
CONTINUOUS
 10
132.7404439553
 20
89.5410039442
 11
142.2156748232
 21
84.0701243936
  0
LINE
  5
264
100
AcDbEntity
  8
0
100
AcDbLine
 62
7
  6
CONTINUOUS
 10
148.650346532
 20
80.3548255943
 11
158.1255773999
 21
74.8839460437
  0
LINE
  5
265
100
AcDbEntity
  8
0
100
AcDbLine
 62
7
  6
CONTINUOUS
 10
133.5889720927
 20
89.4652662553
 11
142.8474694677
 21
84.1195259072
  0
LINE
  5
266
100
AcDbEntity
  8
0
100
AcDbLine
 62
7
  6
CONTINUOUS
 10
149.4988746694
 20
80.2790879054
 11
158.7573720444
 21
74.9333475573
  0
LINE
  5
267
100
AcDbEntity
  8
0
100
AcDbLine
 62
7
  6
CONTINUOUS
 10
142.2472177762
 20
85.848892195
 11
142.9227816044
 21
85.4588301074
  0
LINE
  5
268
100
AcDbEntity
  8
0
100
AcDbLine
 62
7
  6
CONTINUOUS
 10
158.1571203529
 20
76.6627138452
 11
158.8326841811
 21
76.2726517576
  0
LWPOLYLINE
  5
269
100
AcDbEntity
  8
0
100
AcDbPolyline
 62
7
  6
CONTINUOUS
 90
28
 70
0
 10
132.2454692084
 20
88.8469765905
 10
132.1751916199
 20
88.889967025
 10
132.1056167287
 20
88.9371666485
 10
132.0367445349
 20
88.9885754608
 10
131.9683467374
 20
89.0443956559
 10
131.9006516372
 20
89.1044250399
 10
131.834344137
 20
89.1680570312
 10
131.7694385328
 20
89.2353282186
 10
131.7059205287
 20
89.3062020133
 10
131.6444321388
 20
89.3799620675
 10
131.5849941963
 20
89.4566374462
 10
131.5275858681
 20
89.5361990843
 10
131.472786669
 20
89.6178434391
 10
131.4206233129
 20
89.7015909971
 10
131.3710690859
 20
89.7874212717
 10
131.3246233614
 20
89.8744692601
 10
131.2813172799
 20
89.96274771
 10
131.2411197008
 20
90.0522438736
 10
131.2044365756
 20
90.1420545051
 10
131.1713034156
 20
90.2321832138
 10
131.1416847096
 20
90.3226263903
 10
131.1158798754
 20
90.4124699597
 10
131.0939277315
 20
90.5017080677
 10
131.0757894595
 20
90.5903465686
 10
131.0616480221
 20
90.6774889505
 10
131.0515644069
 20
90.762836376
 10
131.0454776264
 20
90.8466876824
 10
131.0433876804
 20
90.9290428697
  0
LWPOLYLINE
  5
26A
100
AcDbEntity
  8
0
100
AcDbPolyline
 62
7
  6
CONTINUOUS
 90
28
 70
0
 10
148.1553717851
 20
79.6607982406
 10
148.0850941966
 20
79.7037886751
 10
148.0155193054
 20
79.7509882986
 10
147.9466471115
 20
79.8023971109
 10
147.8782493141
 20
79.858217306
 10
147.8105542139
 20
79.91824669
 10
147.7442467137
 20
79.9818786814
 10
147.6793411095
 20
80.0491498687
 10
147.6158231054
 20
80.1200236634
 10
147.5543347155
 20
80.1937837176
 10
147.494896773
 20
80.2704590963
 10
147.4374884448
 20
80.3500207345
 10
147.3826892457
 20
80.4316650892
 10
147.3305258896
 20
80.5154126472
 10
147.2809716626
 20
80.6012429218
 10
147.2345259381
 20
80.6882909102
 10
147.1912198566
 20
80.7765693601
 10
147.1510222775
 20
80.8660655238
 10
147.1143391523
 20
80.9558761552
 10
147.0812059923
 20
81.0460048639
 10
147.0515872863
 20
81.1364480404
 10
147.0257824521
 20
81.2262916098
 10
147.0038303082
 20
81.3155297178
 10
146.9856920362
 20
81.4041682188
 10
146.9715505988
 20
81.4913106006
 10
146.9614669836
 20
81.5766580261
 10
146.9553802031
 20
81.6605093325
 10
146.9532902571
 20
81.7428645198
  0
LWPOLYLINE
  5
26B
100
AcDbEntity
  8
0
100
AcDbPolyline
 62
7
  6
CONTINUOUS
 90
25
 70
0
 10
132.599022599
 20
89.4593490255
 10
132.5435365107
 20
89.4934829682
 10
132.4882853243
 20
89.5316666432
 10
132.4335056189
 20
89.5737371511
 10
132.37943151
 20
89.6195153559
 10
132.3262951666
 20
89.6688053793
 10
132.2743257198
 20
89.7213951146
 10
132.223745986
 20
89.7770593211
 10
132.1747724662
 20
89.8355599758
 10
132.1276157753
 20
89.8966456484
 10
132.0824780918
 20
89.9600544456
 10
132.0395525231
 20
90.0255150975
 10
131.9990230424
 20
90.0927470668
 10
131.9610632259
 20
90.1614624118
 10
131.9258356422
 20
90.2313668424
 10
131.8934912469
 20
90.3021607722
 10
131.8641684243
 20
90.3735412859
 10
131.8379928599
 20
90.4452023984
 10
131.8150769375
 20
90.5168361544
 10
131.7955185459
 20
90.5881360765
 10
131.7794013599
 20
90.6587965634
 10
131.7667945022
 20
90.7285132137
 10
131.7577515445
 20
90.7969870479
 10
131.7523105949
 20
90.8639257143
 10
131.7504944616
 20
90.9290428697
  0
LWPOLYLINE
  5
26C
100
AcDbEntity
  8
0
100
AcDbPolyline
 62
7
  6
CONTINUOUS
 90
25
 70
0
 10
148.5089251757
 20
80.2731706757
 10
148.4534390874
 20
80.3073046184
 10
148.398187901
 20
80.3454882934
 10
148.3434081956
 20
80.3875588013
 10
148.2893340867
 20
80.433337006
 10
148.2361977433
 20
80.4826270294
 10
148.1842282965
 20
80.5352167647
 10
148.1336485627
 20
80.5908809712
 10
148.0846750429
 20
80.6493816259
 10
148.037518352
 20
80.7104672985
 10
147.9923806685
 20
80.7738760957
 10
147.9494550998
 20
80.8393367476
 10
147.9089256191
 20
80.906568717
 10
147.8709658026
 20
80.9752840619
 10
147.8357382189
 20
81.0451884926
 10
147.8033938236
 20
81.1159824223
 10
147.774071001
 20
81.1873629361
 10
147.7478954366
 20
81.2590240485
 10
147.7249795142
 20
81.3306578046
 10
147.7054211226
 20
81.4019577266
 10
147.6893039366
 20
81.4726182136
 10
147.6766970789
 20
81.5423348638
 10
147.6676541212
 20
81.6108086981
 10
147.6622131716
 20
81.6777473644
 10
147.6603970383
 20
81.7428645198
  0
LINE
  5
26D
100
AcDbEntity
  8
0
100
AcDbLine
 62
250
  6
CONTINUOUS
 10
132.2505460067
 20
91.783488236
 11
131.8919158179
 21
91.0106977883
  0
LINE
  5
26E
100
AcDbEntity
  8
0
100
AcDbLine
 62
250
  6
CONTINUOUS
 10
132.2454692084
 20
88.8469765905
 11
132.599022599
 21
89.4593490255
  0
LWPOLYLINE
  5
26F
100
AcDbEntity
  8
0
100
AcDbPolyline
 62
7
  6
CONTINUOUS
 90
3
 70
0
 10
147.8357382189
 20
109.9164033301
 10
147.8709658026
 20
109.94562783
 10
147.9088961836
 20
109.9704911365
  0
LINE
  5
270
100
AcDbEntity
  8
0
100
AcDbLine
 62
250
  6
CONTINUOUS
 10
131.7504944616
 20
101.8697445787
 11
131.8919158179
 21
101.9513994974
  0
LINE
  5
271
100
AcDbEntity
  8
0
100
AcDbLine
 62
250
  6
CONTINUOUS
 10
147.8018183945
 20
109.5028618217
 11
147.6603970383
 21
109.4212069031
  0
LWPOLYLINE
  5
272
100
AcDbEntity
  8
0
100
AcDbPolyline
 62
7
  6
CONTINUOUS
 90
13
 70
0
 10
131.9989936069
 20
102.4190288121
 10
132.0395515647
 20
102.4394749298
 10
132.0824770337
 20
102.4553663015
 10
132.1276145898
 20
102.4666513297
 10
132.1747710913
 20
102.4732817451
 10
132.2237443874
 20
102.4752291422
 10
132.27432397
 20
102.4724853007
 10
132.3262933622
 20
102.4650621826
 10
132.3794297386
 20
102.4529918287
 10
132.4335040358
 20
102.4363266836
 10
132.4882841104
 20
102.4151389267
 10
132.5435358258
 20
102.3895197438
 10
132.599022599
 20
102.3595793989
  0
LWPOLYLINE
  5
273
100
AcDbEntity
  8
0
100
AcDbPolyline
 62
7
  6
CONTINUOUS
 90
13
 70
0
 10
147.9088961836
 20
109.9704911365
 10
147.9494550998
 20
109.9909376713
 10
147.9923806685
 20
110.0068289524
 10
148.037518352
 20
110.0181138842
 10
148.0846750429
 20
110.0247441921
 10
148.1336485627
 20
110.0266914538
 10
148.1842282965
 20
110.0239474515
 10
148.2361977433
 20
110.0165241723
 10
148.2893340867
 20
110.0044536782
 10
148.3434081956
 20
109.9877884575
 10
148.398187901
 20
109.9666007347
 10
148.4534390874
 20
109.9409817246
 10
148.5089251757
 20
109.9110417232
  0
LWPOLYLINE
  5
274
100
AcDbEntity
  8
0
100
AcDbPolyline
 62
7
  6
CONTINUOUS
 90
11
 70
0
 10
158.5007005508
 20
91.4441445701
 10
158.4555628674
 20
91.4328596383
 10
158.4084061765
 20
91.4262293304
 10
158.3594326567
 20
91.4242820687
 10
158.3088529229
 20
91.427026071
 10
158.2568834761
 20
91.4344493502
 10
158.2037471327
 20
91.4465198443
 10
158.1496730238
 20
91.4631850651
 10
158.0948933184
 20
91.4843727878
 10
158.039642132
 20
91.509991798
 10
157.9841560436
 20
91.5399317993
  0
LINE
  5
275
100
AcDbEntity
  8
0
100
AcDbLine
 62
250
  6
CONTINUOUS
 10
133.5889720927
 20
89.4652662553
 11
132.7404439553
 21
89.5410039442
  0
LINE
  5
276
100
AcDbEntity
  8
0
100
AcDbLine
 62
7
  6
CONTINUOUS
 10
142.9227816044
 20
111.748372085
 11
142.9227816044
 21
100.807670376
  0
LINE
  5
277
100
AcDbEntity
  8
0
100
AcDbLine
 62
7
  6
CONTINUOUS
 10
142.9227816044
 20
95.0107314108
 11
142.9227816044
 21
84.0700297018
  0
LWPOLYLINE
  5
278
100
AcDbEntity
  8
0
100
AcDbPolyline
 62
7
  6
CONTINUOUS
 90
28
 70
0
 10
142.9227816044
 20
100.807670376
 10
142.9206916584
 20
100.7277286059
 10
142.9146048779
 20
100.6509061611
 10
142.9045212627
 20
100.5772030417
 10
142.8903798253
 20
100.5063908372
 10
142.8722415533
 20
100.4386979582
 10
142.8502894094
 20
100.3748096357
 10
142.8244845752
 20
100.314764842
 10
142.7948658692
 20
100.2585246048
 10
142.7617327092
 20
100.2066572387
 10
142.725049584
 20
100.1592073608
 10
142.6848520049
 20
100.1161303538
 10
142.6415459234
 20
100.0778606814
 10
142.5951001989
 20
100.0444470515
 10
142.5455459719
 20
100.0158407561
 10
142.4933826158
 20
99.9923301342
 10
142.4385834167
 20
99.9739665209
 10
142.3811750885
 20
99.9606985812
 10
142.321737146
 20
99.9526606487
 10
142.2602487561
 20
99.9499058459
 10
142.1967307519
 20
99.9523810502
 10
142.1318251478
 20
99.9600612275
 10
142.0655176476
 20
99.9729994754
 10
141.9978225474
 20
99.9911426963
 10
141.9294247499
 20
100.0143065633
 10
141.860552556
 20
100.0424296341
 10
141.7909776648
 20
100.0755733511
 10
141.7207000763
 20
100.1137377141
  0
LWPOLYLINE
  5
279
100
AcDbEntity
  8
0
100
AcDbPolyline
 62
7
  6
CONTINUOUS
 90
28
 70
0
 10
142.9227816044
 20
84.0700297018
 10
142.9206917868
 20
83.9900893813
 10
142.9146052047
 20
83.9132681214
 10
142.904521858
 20
83.839565922
 10
142.8903807975
 20
83.7687543639
 10
142.8722429725
 20
83.7010618663
 10
142.8502912305
 20
83.6371736874
 10
142.8244867349
 20
83.5771287582
 10
142.7948683223
 20
83.5208881477
 10
142.76173535
 20
83.4690203212
 10
142.7250522284
 20
83.4215698827
 10
142.6848545471
 20
83.3784922281
 10
142.6415484315
 20
83.3402220103
 10
142.5951027809
 20
83.3068080319
 10
142.5455486961
 20
83.2782014903
 10
142.4933856049
 20
83.2546906301
 10
142.4385868951
 20
83.2363267736
 10
142.3811791788
 20
83.2230585986
 10
142.32174172
 20
83.2150203827
 10
142.2602536351
 20
83.2122651871
 10
142.1967358075
 20
83.2147399507
 10
142.1318301515
 20
83.2224197671
 10
142.0655223259
 20
83.2353577387
 10
141.9978266718
 20
83.2535007633
 10
141.9294281261
 20
83.276664627
 10
141.8605550011
 20
83.3047879254
 10
141.7909789845
 20
83.3379320631
 10
141.7207000763
 20
83.3760970399
  0
LWPOLYLINE
  5
27A
100
AcDbEntity
  8
0
100
AcDbPolyline
 62
7
  6
CONTINUOUS
 90
7
 70
0
 10
142.9227816044
 20
101.2159449694
 10
142.9209654711
 20
101.1529250391
 10
142.9155245214
 20
101.0922694451
 10
142.9064815638
 20
101.0342381916
 10
142.8938747061
 20
100.9790796247
 10
142.8777575201
 20
100.9270308602
 10
142.8581991285
 20
100.8783164784
  0
LWPOLYLINE
  5
27B
100
AcDbEntity
  8
0
100
AcDbPolyline
 62
7
  6
CONTINUOUS
 90
7
 70
0
 10
142.9227816044
 20
84.4783042951
 10
142.920965516
 20
84.4152851297
 10
142.9155246812
 20
84.3546300802
 10
142.9064818787
 20
84.2965991635
 10
142.8938751807
 20
84.2414407218
 10
142.8777581325
 20
84.1893919158
 10
142.8581998532
 20
84.1406774061
  0
LWPOLYLINE
  5
27C
100
AcDbEntity
  8
0
100
AcDbPolyline
 62
7
  6
CONTINUOUS
 90
7
 70
0
 10
147.8576669131
 20
109.8201926957
 10
147.8468470092
 20
109.7917887263
 10
147.8307276349
 20
109.7397359077
 10
147.8181193982
 20
109.6845736348
 10
147.8090757854
 20
109.626539869
 10
147.8036345745
 20
109.5658825469
 10
147.8018183945
 20
109.5028618217
  0
LINE
  5
27D
100
AcDbEntity
  8
0
100
AcDbLine
 62
250
  6
CONTINUOUS
 10
148.0411706103
 20
110.0186273977
 11
147.8018183945
 21
109.5028618217
  0
LWPOLYLINE
  5
27E
100
AcDbEntity
  8
0
100
AcDbPolyline
 62
7
  6
CONTINUOUS
 90
7
 70
0
 10
142.8581991285
 20
100.8783164784
 10
142.8352832061
 20
100.8331454551
 10
142.8091076417
 20
100.7917112283
 10
142.7797848191
 20
100.7541919752
 10
142.7474404238
 20
100.7207485423
 10
142.7122128401
 20
100.6915240424
 10
142.6742824591
 20
100.666660736
  0
LWPOLYLINE
  5
27F
100
AcDbEntity
  8
0
100
AcDbPolyline
 62
7
  6
CONTINUOUS
 90
3
 70
0
 10
147.8893264238
 20
109.8856783259
 10
147.8664078605
 20
109.8405057632
 10
147.8576669131
 20
109.8201926957
  0
LINE
  5
280
100
AcDbEntity
  8
0
100
AcDbLine
 62
250
  6
CONTINUOUS
 10
141.7207000763
 20
100.1137377141
 11
142.0742534669
 21
100.7261101492
  0
LWPOLYLINE
  5
281
100
AcDbEntity
  8
0
100
AcDbPolyline
 62
7
  6
CONTINUOUS
 90
4
 70
0
 10
147.9771704385
 20
109.9980683234
 10
147.9448283685
 20
109.9646299919
 10
147.915504563
 20
109.9271129262
 10
147.8893264238
 20
109.8856783259
  0
LINE
  5
282
100
AcDbEntity
  8
0
100
AcDbLine
 62
250
  6
CONTINUOUS
 10
142.2156748232
 20
100.8077650679
 11
142.0742534669
 21
100.7261101492
  0
LWPOLYLINE
  5
283
100
AcDbEntity
  8
0
100
AcDbPolyline
 62
7
  6
CONTINUOUS
 90
3
 70
0
 10
142.6742824591
 20
100.666660736
 10
142.6337235428
 20
100.6462142011
 10
142.5907979741
 20
100.63032292
  0
LINE
  5
284
100
AcDbEntity
  8
0
100
AcDbLine
 62
250
  6
CONTINUOUS
 10
131.0433876804
 20
90.9290428697
 11
131.7504944616
 21
90.9290428697
  0
LINE
  5
285
100
AcDbEntity
  8
0
100
AcDbLine
 62
250
  6
CONTINUOUS
 10
146.9532902571
 20
92.6835662288
 11
147.6603970383
 21
92.6835662288
  0
LINE
  5
286
100
AcDbEntity
  8
0
100
AcDbLine
 62
250
  6
CONTINUOUS
 10
158.692041255
 20
91.5710254445
 11
158.1255773999
 21
91.621586718
  0
LWPOLYLINE
  5
287
100
AcDbEntity
  8
0
100
AcDbPolyline
 62
7
  6
CONTINUOUS
 90
6
 70
0
 10
158.4284064154
 20
91.5112570651
 10
158.4502927561
 20
91.5086791581
 10
158.500875034
 20
91.5059368196
 10
158.5498498949
 20
91.507886245
 10
158.597004966
 20
91.5145185838
 10
158.642136973
 20
91.5258041384
  0
LINE
  5
288
100
AcDbEntity
  8
0
100
AcDbLine
 62
7
  6
CONTINUOUS
 10
132.2454692084
 20
102.5636772406
 11
141.7207000763
 21
97.09279769
  0
LINE
  5
289
100
AcDbEntity
  8
0
100
AcDbLine
 62
7
  6
CONTINUOUS
 10
148.1553717851
 20
93.3774988907
 11
157.630602653
 21
87.9066193401
  0
LWPOLYLINE
  5
28A
100
AcDbEntity
  8
0
100
AcDbPolyline
 62
7
  6
CONTINUOUS
 90
28
 70
0
 10
141.7207000763
 20
97.09279769
 10
141.7909776648
 20
97.0498072555
 10
141.860552556
 20
97.002607632
 10
141.9294247499
 20
96.9511988197
 10
141.9978225474
 20
96.8953786246
 10
142.0655176476
 20
96.8353492406
 10
142.1318251478
 20
96.7717172492
 10
142.1967307519
 20
96.7044460619
 10
142.2602487561
 20
96.6335722672
 10
142.321737146
 20
96.559812213
 10
142.3811750885
 20
96.4831368343
 10
142.4385834167
 20
96.4035751961
 10
142.4933826158
 20
96.3219308414
 10
142.5455459719
 20
96.2381832834
 10
142.5951001989
 20
96.1523530088
 10
142.6415459234
 20
96.0653050204
 10
142.6848520049
 20
95.9770265705
 10
142.725049584
 20
95.8875304068
 10
142.7617327092
 20
95.7977197754
 10
142.7948658692
 20
95.7075910667
 10
142.8244845752
 20
95.6171478902
 10
142.8502894094
 20
95.5273043208
 10
142.8722415533
 20
95.4380662128
 10
142.8903798253
 20
95.3494277118
 10
142.9045212627
 20
95.26228533
 10
142.9146048779
 20
95.1769379045
 10
142.9206916584
 20
95.0930865981
 10
142.9227816044
 20
95.0107314108
  0
LWPOLYLINE
  5
28B
100
AcDbEntity
  8
0
100
AcDbPolyline
 62
7
  6
CONTINUOUS
 90
28
 70
0
 10
157.630602653
 20
87.9066193401
 10
157.7008802415
 20
87.8636289056
 10
157.7704551327
 20
87.8164292821
 10
157.8393273266
 20
87.7650204698
 10
157.9077251241
 20
87.7092002747
 10
157.9754202243
 20
87.6491708907
 10
158.0417277245
 20
87.5855388994
 10
158.1066333286
 20
87.518267712
 10
158.1701513328
 20
87.4473939173
 10
158.2316397227
 20
87.3736338631
 10
158.2910776652
 20
87.2969584844
 10
158.3484859934
 20
87.2173968463
 10
158.4032851925
 20
87.1357524915
 10
158.4554485486
 20
87.0520049335
 10
158.5050027756
 20
86.9661746589
 10
158.5514485001
 20
86.8791266705
 10
158.5947545816
 20
86.7908482206
 10
158.6349521607
 20
86.701352057
 10
158.6716352859
 20
86.6115414255
 10
158.7047684459
 20
86.5214127168
 10
158.7343871519
 20
86.4309695403
 10
158.7601919861
 20
86.3411259709
 10
158.78214413
 20
86.2518878629
 10
158.800282402
 20
86.163249362
 10
158.8144238394
 20
86.0761069801
 10
158.8245074546
 20
85.9907595546
 10
158.8305942351
 20
85.9069082482
 10
158.8326841811
 20
85.8245530609
  0
LWPOLYLINE
  5
28C
100
AcDbEntity
  8
0
100
AcDbPolyline
 62
7
  6
CONTINUOUS
 90
25
 70
0
 10
147.8018183945
 20
81.8245194385
 10
147.8036345745
 20
81.7594014343
 10
147.8090757854
 20
81.6924607383
 10
147.8181193982
 20
81.6239836349
 10
147.8307276349
 20
81.5542616864
 10
147.8468470092
 20
81.4835946184
 10
147.8664078605
 20
81.4122892007
 10
147.8893264238
 20
81.3406508556
 10
147.915504563
 20
81.2689863963
 10
147.9448283685
 20
81.1976069351
 10
147.9771704385
 20
81.1268207918
 10
148.0123928572
 20
81.0569281878
 10
148.0503465735
 20
80.9882243315
 10
148.0908691067
 20
80.9210033518
 10
148.1337869589
 20
80.8555530617
 10
148.1789189658
 20
80.7921501968
 10
148.226074037
 20
80.7310643638
 10
148.2750488979
 20
80.6725599966
 10
148.3256311757
 20
80.6168911885
 10
148.3776043666
 20
80.564296229
 10
148.4307457231
 20
80.5150005437
 10
148.484824104
 20
80.4692181165
 10
148.5396065652
 20
80.4271451755
 10
148.5948595817
 20
80.3889600999
 10
148.650346532
 20
80.3548255943
  0
LWPOLYLINE
  5
28D
100
AcDbEntity
  8
0
100
AcDbPolyline
 62
7
  6
CONTINUOUS
 90
25
 70
0
 10
147.8018183945
 20
98.5621601127
 10
147.8036345394
 20
98.4970427462
 10
147.809075672
 20
98.4301024719
 10
147.8181192037
 20
98.3616255505
 10
147.8307274224
 20
98.2919033992
 10
147.8468468673
 20
98.2212358576
 10
147.8664077988
 20
98.1499300829
 10
147.8893263707
 20
98.0782916848
 10
147.9155044741
 20
98.0066272996
 10
147.9448282474
 20
97.9352478885
 10
147.9771703237
 20
97.8644617052
 10
148.0123927636
 20
97.7945690394
 10
148.0503464904
 20
97.7258651497
 10
148.090869
 20
97.6586441957
 10
148.1337868092
 20
97.593193955
 10
148.1789187846
 20
97.5297911155
 10
148.2260738831
 20
97.4687052295
 10
148.2750487902
 20
97.4102007943
 10
148.3256310266
 20
97.3545320202
 10
148.3776039483
 20
97.3019373087
 10
148.4307449299
 20
97.2526419214
 10
148.4848231262
 20
97.2068595799
 10
148.5396057044
 20
97.1647864776
 10
148.594859047
 20
97.1266011234
 10
148.650346532
 20
97.0924662686
  0
LWPOLYLINE
  5
28E
100
AcDbEntity
  8
0
100
AcDbPolyline
 62
7
  6
CONTINUOUS
 90
28
 70
0
 10
148.1604485834
 20
82.5973098861
 10
148.1627749962
 20
82.5056205452
 10
148.169551328
 20
82.4122644556
 10
148.1807775788
 20
82.317241617
 10
148.196521483
 20
82.220219419
 10
148.2167153061
 20
82.1215304722
 10
148.2411558451
 20
82.0221726084
 10
148.2698863792
 20
81.9221391079
 10
148.3028636291
 20
81.8214366903
 10
148.3397545542
 20
81.7210833463
 10
148.3805987698
 20
81.6210830176
 10
148.4253566606
 20
81.5214317625
 10
148.4735763397
 20
81.4231357459
 10
148.5252928207
 20
81.3262087996
 10
148.58047109
 20
81.230637092
 10
148.6385542195
 20
81.1373852924
 10
148.6995717777
 20
81.0464767214
 10
148.763494196
 20
80.9578880585
 10
148.8296758413
 20
80.8725140112
 10
148.8981397922
 20
80.7903870908
 10
148.96886297
 20
80.7114747859
 10
149.0411305058
 20
80.6365742703
 10
149.1149582887
 20
80.5657262757
 10
149.1903304295
 20
80.4988900702
 10
149.2664843917
 20
80.4367406326
 10
149.3431659962
 20
80.3795029557
 10
149.4206294222
 20
80.3269520466
 10
149.4988746694
 20
80.2790879054
  0
LWPOLYLINE
  5
28F
100
AcDbEntity
  8
0
100
AcDbPolyline
 62
7
  6
CONTINUOUS
 90
28
 70
0
 10
148.1604485834
 20
99.3349505603
 10
148.1627750764
 20
99.2432603541
 10
148.1695515085
 20
99.1499035491
 10
148.1807778799
 20
99.0548801454
 10
148.1965219446
 20
98.9578575315
 10
148.2167159485
 20
98.859168319
 10
148.2411566293
 20
98.7598103419
 10
148.2698872082
 20
98.6597769916
 10
148.3028644641
 20
98.5590748767
 10
148.339755471
 20
98.4587216576
 10
148.380599926
 20
98.3587210616
 10
148.4253581321
 20
98.2590693614
 10
148.4735780727
 20
98.1607730347
 10
148.5252947304
 20
98.0638460245
 10
148.5804731225
 20
97.9682743877
 10
148.6385562849
 20
97.875022773
 10
148.6995737052
 20
97.7841145837
 10
148.7634958958
 20
97.6955264164
 10
148.8296774293
 20
97.61015271
 10
148.8981415292
 20
97.528025798
 10
148.9688649722
 20
97.4491133469
 10
149.0411326605
 20
97.3742127951
 10
149.1149604162
 20
97.3033649798
 10
149.1903324173
 20
97.2365290637
 10
149.2664860996
 20
97.1743799731
 10
149.343167275
 20
97.1171426832
 10
149.4206301316
 20
97.0645922187
 10
149.4988746694
 20
97.0167285797
  0
LINE
  5
290
100
AcDbEntity
  8
0
100
AcDbLine
 62
7
  6
CONTINUOUS
 10
146.9532902571
 20
81.7428645198
 11
146.9532902571
 21
92.6835662288
  0
LINE
  5
291
100
AcDbEntity
  8
0
100
AcDbLine
 62
7
  6
CONTINUOUS
 10
146.9532902571
 20
98.4805051941
 11
146.9532902571
 21
109.4212069031
  0
LINE
  5
292
100
AcDbEntity
  8
0
100
AcDbLine
 62
7
  6
CONTINUOUS
 10
147.6603970383
 20
81.7428645198
 11
147.6603970383
 21
92.6835662288
  0
LINE
  5
293
100
AcDbEntity
  8
0
100
AcDbLine
 62
7
  6
CONTINUOUS
 10
147.6603970383
 20
98.4805051941
 11
147.6603970383
 21
109.4212069031
  0
LINE
  5
294
100
AcDbEntity
  8
0
100
AcDbLine
 62
7
  6
CONTINUOUS
 10
147.8018183945
 20
109.5028618217
 11
147.8018183945
 21
98.5621601127
  0
LINE
  5
295
100
AcDbEntity
  8
0
100
AcDbLine
 62
7
  6
CONTINUOUS
 10
147.8018183945
 20
92.7652211475
 11
147.8018183945
 21
81.8245194385
  0
LINE
  5
296
100
AcDbEntity
  8
0
100
AcDbLine
 62
7
  6
CONTINUOUS
 10
148.1604485834
 20
110.0252375253
 11
148.1604485834
 21
99.3349505603
  0
LINE
  5
297
100
AcDbEntity
  8
0
100
AcDbLine
 62
7
  6
CONTINUOUS
 10
148.1604485834
 20
93.2875968579
 11
148.1604485834
 21
82.5973098861
  0
LWPOLYLINE
  5
298
100
AcDbEntity
  8
0
100
AcDbPolyline
 62
7
  6
CONTINUOUS
 90
28
 70
0
 10
146.9532902571
 20
109.4212069031
 10
146.9553802031
 20
109.5011486732
 10
146.9614669836
 20
109.577971118
 10
146.9715505988
 20
109.6516742374
 10
146.9856920362
 20
109.7224864419
 10
147.0038303082
 20
109.7901793209
 10
147.0257824521
 20
109.8540676434
 10
147.0515872863
 20
109.9141124371
 10
147.0812059923
 20
109.9703526743
 10
147.1143391523
 20
110.0222200404
 10
147.1510222775
 20
110.0696699183
 10
147.1912198566
 20
110.1127469253
 10
147.2345259381
 20
110.1510165977
 10
147.2809716626
 20
110.1844302276
 10
147.3305258896
 20
110.213036523
 10
147.3826892457
 20
110.2365471449
 10
147.4374884448
 20
110.2549107582
 10
147.494896773
 20
110.2681786979
 10
147.5543347155
 20
110.2762166304
 10
147.6158231054
 20
110.2789714332
 10
147.6793411095
 20
110.2764962289
 10
147.7442467137
 20
110.2688160516
 10
147.8105542139
 20
110.2558778037
 10
147.8782493141
 20
110.2377345828
 10
147.9466471115
 20
110.2145707158
 10
148.0155193054
 20
110.186447645
 10
148.0850941966
 20
110.153303928
 10
148.1553717851
 20
110.115139565
  0
LWPOLYLINE
  5
299
100
AcDbEntity
  8
0
100
AcDbPolyline
 62
7
  6
CONTINUOUS
 90
28
 70
0
 10
146.9532902571
 20
92.6835662288
 10
146.9553800747
 20
92.7635065493
 10
146.9614666568
 20
92.8403278092
 10
146.9715500035
 20
92.9140300086
 10
146.985691064
 20
92.9848415667
 10
147.003828889
 20
93.0525340643
 10
147.025780631
 20
93.1164222432
 10
147.0515851266
 20
93.1764671724
 10
147.0812035392
 20
93.2327077829
 10
147.1143365115
 20
93.2845756094
 10
147.1510196331
 20
93.3320260479
 10
147.1912173144
 20
93.3751037025
 10
147.23452343
 20
93.4133739203
 10
147.2809690805
 20
93.4467878987
 10
147.3305231653
 20
93.4753944403
 10
147.3826862566
 20
93.4989053005
 10
147.4374849664
 20
93.517269157
 10
147.4948926826
 20
93.530537332
 10
147.5543301415
 20
93.5385755479
 10
147.6158182264
 20
93.5413307435
 10
147.679336054
 20
93.5388559799
 10
147.74424171
 20
93.5311761635
 10
147.8105495356
 20
93.5182381919
 10
147.8782451897
 20
93.5000951673
 10
147.9466437354
 20
93.4769313036
 10
148.0155168604
 20
93.4488080052
 10
148.085092877
 20
93.4156638675
 10
148.1553717851
 20
93.3774988907
  0
LWPOLYLINE
  5
29A
100
AcDbEntity
  8
0
100
AcDbPolyline
 62
7
  6
CONTINUOUS
 90
11
 70
0
 10
147.6603970383
 20
109.4212069031
 10
147.6622131716
 20
109.4842268333
 10
147.6676541212
 20
109.5448824274
 10
147.6766970789
 20
109.6029136808
 10
147.6893039366
 20
109.6580722477
 10
147.7054211226
 20
109.7101210123
 10
147.7249795142
 20
109.758835394
 10
147.7478954366
 20
109.8040064173
 10
147.774071001
 20
109.8454406441
 10
147.8033938236
 20
109.8829598973
 10
147.8357382189
 20
109.9164033301
  0
LWPOLYLINE
  5
29B
100
AcDbEntity
  8
0
100
AcDbPolyline
 62
7
  6
CONTINUOUS
 90
11
 70
0
 10
147.6603970383
 20
92.6835662288
 10
147.6622131267
 20
92.7465853942
 10
147.6676539615
 20
92.8072404438
 10
147.676696764
 20
92.8652713604
 10
147.689303462
 20
92.9204298021
 10
147.7054205102
 20
92.9724786082
 10
147.7249787894
 20
93.0211931178
 10
147.7478946483
 20
93.0663643524
 10
147.7740702072
 20
93.1077988406
 10
147.8033930315
 20
93.1453183115
 10
147.8357374069
 20
93.1787619028
  0
LINE
  5
29C
100
AcDbEntity
  8
0
100
AcDbLine
 62
250
  6
CONTINUOUS
 10
148.1604485834
 20
99.3349505603
 11
147.8018183945
 21
98.5621601127
  0
LINE
  5
29D
100
AcDbEntity
  8
0
100
AcDbLine
 62
250
  6
CONTINUOUS
 10
131.7504944616
 20
90.9290428697
 11
131.8919158179
 21
91.0106977883
  0
LINE
  5
29E
100
AcDbEntity
  8
0
100
AcDbLine
 62
7
  6
CONTINUOUS
 10
176.6199202469
 20
115.8518518942
 11
180.6818532316
 21
118.1971457964
  0
LINE
  5
29F
100
AcDbEntity
  8
0
100
AcDbLine
 62
250
  6
CONTINUOUS
 10
147.8018183945
 20
98.5621601127
 11
147.6603970383
 21
98.4805051941
  0
LINE
  5
2A0
100
AcDbEntity
  8
0
100
AcDbLine
 62
250
  6
CONTINUOUS
 10
132.599022599
 20
89.4593490255
 11
132.7404439553
 21
89.5410039442
  0
LINE
  5
2A1
100
AcDbEntity
  8
0
100
AcDbLine
 62
250
  6
CONTINUOUS
 10
146.9532902571
 20
98.4805051941
 11
147.6603970383
 21
98.4805051941
  0
LINE
  5
2A2
100
AcDbEntity
  8
0
100
AcDbLine
 62
250
  6
CONTINUOUS
 10
149.4988746694
 20
97.0167285797
 11
148.650346532
 21
97.0924662686
  0
LWPOLYLINE
  5
2A3
100
AcDbEntity
  8
0
100
AcDbPolyline
 62
7
  6
CONTINUOUS
 90
7
 70
0
 10
158.1255773999
 20
91.621586718
 10
158.1810643501
 20
91.5916462842
 10
158.2363173666
 20
91.5660265613
 10
158.2910998278
 20
91.5448380893
 10
158.3451782087
 20
91.5281721578
 10
158.3983195653
 20
91.5161015366
 10
158.4284064154
 20
91.5112570651
  0
LWPOLYLINE
  5
2A4
100
AcDbEntity
  8
0
100
AcDbPolyline
 62
7
  6
CONTINUOUS
 90
7
 70
0
 10
142.2156748232
 20
100.8077650679
 10
142.2711617734
 20
100.7778246341
 10
142.3264147899
 20
100.7522049112
 10
142.3811972511
 20
100.7310164392
 10
142.435275632
 20
100.7143505077
 10
142.4884169886
 20
100.7022798864
 10
142.5185038387
 20
100.6974354149
  0
LINE
  5
2A5
100
AcDbEntity
  8
0
100
AcDbLine
 62
7
  6
CONTINUOUS
 10
157.630602653
 20
90.9275593643
 11
148.1553717851
 21
96.3984389149
  0
LINE
  5
2A6
100
AcDbEntity
  8
0
100
AcDbLine
 62
7
  6
CONTINUOUS
 10
141.7207000763
 20
100.1137377141
 11
132.2454692084
 21
105.5846172647
  0
LINE
  5
2A7
100
AcDbEntity
  8
0
100
AcDbLine
 62
7
  6
CONTINUOUS
 10
157.9841560436
 20
91.5399317993
 11
148.5089251757
 21
97.0108113499
  0
LINE
  5
2A8
100
AcDbEntity
  8
0
100
AcDbLine
 62
7
  6
CONTINUOUS
 10
142.0742534669
 20
100.7261101492
 11
132.599022599
 21
106.1969896998
  0
LINE
  5
2A9
100
AcDbEntity
  8
0
100
AcDbLine
 62
7
  6
CONTINUOUS
 10
132.7404439553
 20
106.2786446185
 11
142.2156748232
 21
100.8077650679
  0
LINE
  5
2AA
100
AcDbEntity
  8
0
100
AcDbLine
 62
7
  6
CONTINUOUS
 10
148.650346532
 20
97.0924662686
 11
158.1255773999
 21
91.621586718
  0
LINE
  5
2AB
100
AcDbEntity
  8
0
100
AcDbLine
 62
7
  6
CONTINUOUS
 10
133.5889720927
 20
106.2029069295
 11
142.8474694739
 21
100.8571665779
  0
LINE
  5
2AC
100
AcDbEntity
  8
0
100
AcDbLine
 62
7
  6
CONTINUOUS
 10
149.4988746694
 20
97.0167285797
 11
158.7573720506
 21
91.670988228
  0
LWPOLYLINE
  5
2AD
100
AcDbEntity
  8
0
100
AcDbPolyline
 62
7
  6
CONTINUOUS
 90
28
 70
0
 10
132.2454692084
 20
105.5846172647
 10
132.1751903003
 20
105.6276086094
 10
132.1056142837
 20
105.6748091118
 10
132.0367411587
 20
105.7262187717
 10
131.968342613
 20
105.7820398341
 10
131.9006469589
 20
105.8420700541
 10
131.8343391333
 20
105.9057026973
 10
131.7694334773
 20
105.9729743056
 10
131.7059156497
 20
106.0438483372
 10
131.6444275648
 20
106.117608432
 10
131.5849901059
 20
106.1942835355
 10
131.5275823897
 20
106.2738447023
 10
131.4727836799
 20
106.3554887352
 10
131.4206205886
 20
106.4392362257
 10
131.3710665038
 20
106.5250665824
 10
131.3246208533
 20
106.6121148338
 10
131.2813147377
 20
106.7003938684
 10
131.2411170564
 20
106.7898907977
 10
131.2044339348
 20
106.8797019855
 10
131.1713009625
 20
106.9698309381
 10
131.1416825499
 20
107.060274149
 10
131.1158780543
 20
107.1501174629
 10
131.0939263123
 20
107.2393549632
 10
131.0757884873
 20
107.3279925664
 10
131.0616474268
 20
107.4151338667
 10
131.0515640801
 20
107.5004800621
 10
131.045477498
 20
107.5843299545
 10
131.0433876804
 20
107.6666835439
  0
LWPOLYLINE
  5
2AE
100
AcDbEntity
  8
0
100
AcDbPolyline
 62
7
  6
CONTINUOUS
 90
28
 70
0
 10
148.1553717851
 20
96.3984389149
 10
148.085092877
 20
96.4414302596
 10
148.0155168604
 20
96.4886307619
 10
147.9466437354
 20
96.5400404219
 10
147.8782451897
 20
96.5958614842
 10
147.8105495356
 20
96.6558917042
 10
147.74424171
 20
96.7195243474
 10
147.679336054
 20
96.7867959558
 10
147.6158182264
 20
96.8576699873
 10
147.5543301415
 20
96.9314300821
 10
147.4948926826
 20
97.0081051857
 10
147.4374849664
 20
97.0876663524
 10
147.3826862566
 20
97.1693103854
 10
147.3305231653
 20
97.2530578759
 10
147.2809690805
 20
97.3388882325
 10
147.23452343
 20
97.425936484
 10
147.1912173144
 20
97.5142155185
 10
147.1510196331
 20
97.6037124479
 10
147.1143365115
 20
97.6935236356
 10
147.0812035392
 20
97.7836525882
 10
147.0515851266
 20
97.8740957991
 10
147.025780631
 20
97.963939113
 10
147.003828889
 20
98.0531766133
 10
146.985691064
 20
98.1418142166
 10
146.9715500035
 20
98.2289555169
 10
146.9614666568
 20
98.3143017122
 10
146.9553800747
 20
98.3981516046
 10
146.9532902571
 20
98.4805051941
  0
LWPOLYLINE
  5
2AF
100
AcDbEntity
  8
0
100
AcDbPolyline
 62
7
  6
CONTINUOUS
 90
25
 70
0
 10
132.599022599
 20
106.1969896998
 10
132.5435358258
 20
106.2311240897
 10
132.4882841104
 20
106.2693082028
 10
132.4335040358
 20
106.311379103
 10
132.3794297386
 20
106.357157601
 10
132.3262933622
 20
106.4064478025
 10
132.27432397
 20
106.459037636
 10
132.2237443874
 20
106.5147018285
 10
132.1747710913
 20
106.5732023605
 10
132.1276145898
 20
106.6342879217
 10
132.0824770337
 20
106.6976966684
 10
132.0395515647
 20
106.7631572956
 10
131.9990221557
 20
106.8303892768
 10
131.9610623854
 20
106.899104678
 10
131.9258348302
 20
106.9690092073
 10
131.8934904548
 20
107.0398032726
 10
131.8641676305
 20
107.1111840061
 10
131.8379920716
 20
107.1828453735
 10
131.8150762127
 20
107.2544792676
 10
131.7955179335
 20
107.3257791879
 10
131.7794008853
 20
107.3964395572
 10
131.7667941873
 20
107.4661558977
 10
131.7577513848
 20
107.534629216
 10
131.75231055
 20
107.6015672052
 10
131.7504944616
 20
107.6666835439
  0
LWPOLYLINE
  5
2B0
100
AcDbEntity
  8
0
100
AcDbPolyline
 62
7
  6
CONTINUOUS
 90
25
 70
0
 10
148.5089251757
 20
97.0108113499
 10
148.4534384025
 20
97.0449457398
 10
148.3981866871
 20
97.083129853
 10
148.3434066125
 20
97.1252007531
 10
148.2893323153
 20
97.1709792511
 10
148.2361959389
 20
97.2202694527
 10
148.1842265467
 20
97.2728592861
 10
148.1336469641
 20
97.3285234786
 10
148.084673668
 20
97.3870240106
 10
148.0375171665
 20
97.4481095719
 10
147.9923796104
 20
97.5115183185
 10
147.9494541414
 20
97.5769789457
 10
147.9089247324
 20
97.6442109269
 10
147.8709649621
 20
97.7129263281
 10
147.8357374069
 20
97.7828308575
 10
147.8033930315
 20
97.8536249227
 10
147.7740702072
 20
97.9250056562
 10
147.7478946483
 20
97.9966670237
 10
147.7249787894
 20
98.0683009177
 10
147.7054205102
 20
98.139600838
 10
147.689303462
 20
98.2102612073
 10
147.676696764
 20
98.2799775478
 10
147.6676539615
 20
98.3484508662
 10
147.6622131267
 20
98.4153888553
 10
147.6603970383
 20
98.4805051941
  0
LINE
  5
2B1
100
AcDbEntity
  8
0
100
AcDbLine
 62
7
  6
CONTINUOUS
 10
113.961966407
 20
151.2128018072
 11
113.9623417145
 21
151.2121654456
  0
LINE
  5
2B2
100
AcDbEntity
  8
0
100
AcDbLine
 62
7
  6
CONTINUOUS
 10
176.6195578167
 20
42.6866838085
 11
176.6199202469
 21
42.6860423708
  0
LWPOLYLINE
  5
2B3
100
AcDbEntity
  8
0
100
AcDbPolyline
 62
7
  6
CONTINUOUS
 90
7
 70
0
 10
147.8576669131
 20
93.0825520214
 10
147.8468468673
 20
93.054147651
 10
147.8307274224
 20
93.0020944403
 10
147.8181192037
 20
92.9469319438
 10
147.809075672
 20
92.8888982662
 10
147.8036345394
 20
92.8282412754
 10
147.8018183945
 20
92.7652211475
  0
LINE
  5
2B4
100
AcDbEntity
  8
0
100
AcDbLine
 62
250
  6
CONTINUOUS
 10
148.0411705839
 20
93.2809866667
 11
147.8018183945
 21
92.7652211475
  0
LWPOLYLINE
  5
2B5
100
AcDbEntity
  8
0
100
AcDbPolyline
 62
7
  6
CONTINUOUS
 90
7
 70
0
 10
142.8581998532
 20
84.1406774061
 10
142.8352839944
 20
84.0955061715
 10
142.8091084355
 20
84.0540716833
 10
142.7797856112
 20
84.0165522124
 10
142.7474412358
 20
83.9831086211
 10
142.7122136806
 20
83.9538839895
 10
142.6742824591
 20
83.9290200617
  0
LWPOLYLINE
  5
2B6
100
AcDbEntity
  8
0
100
AcDbPolyline
 62
7
  6
CONTINUOUS
 90
3
 70
0
 10
147.8893263707
 20
93.148037558
 10
147.8664077988
 20
93.1028649524
 10
147.8576669131
 20
93.0825520214
  0
LINE
  5
2B7
100
AcDbEntity
  8
0
100
AcDbLine
 62
250
  6
CONTINUOUS
 10
148.1553717851
 20
96.3984389149
 11
148.5089251757
 21
97.0108113499
  0
LINE
  5
2B8
100
AcDbEntity
  8
0
100
AcDbLine
 62
250
  6
CONTINUOUS
 10
141.7207000763
 20
83.3760970399
 11
142.0742534669
 21
83.9884694749
  0
LWPOLYLINE
  5
2B9
100
AcDbEntity
  8
0
100
AcDbPolyline
 62
7
  6
CONTINUOUS
 90
4
 70
0
 10
147.9771703237
 20
93.2604275426
 10
147.9448282474
 20
93.2269891783
 10
147.9155044741
 20
93.1894721256
 10
147.8893263707
 20
93.148037558
  0
LWPOLYLINE
  5
2BA
100
AcDbEntity
  8
0
100
AcDbPolyline
 62
7
  6
CONTINUOUS
 90
3
 70
0
 10
147.8357374069
 20
93.1787619028
 10
147.8709649621
 20
93.2079865344
 10
147.9088961836
 20
93.2328504622
  0
LINE
  5
2BB
100
AcDbEntity
  8
0
100
AcDbLine
 62
7
  6
CONTINUOUS
 10
177.3274575162
 20
114.6263613968
 11
181.3893905009
 21
116.971655299
  0
LINE
  5
2BC
100
AcDbEntity
  8
0
100
AcDbLine
 62
250
  6
CONTINUOUS
 10
148.650346532
 20
97.0924662686
 11
148.5089251757
 21
97.0108113499
  0
LWPOLYLINE
  5
2BD
100
AcDbEntity
  8
0
100
AcDbPolyline
 62
7
  6
CONTINUOUS
 90
13
 70
0
 10
147.9088961836
 20
93.2328504622
 10
147.9494541414
 20
93.25329658
 10
147.9923796104
 20
93.2691879516
 10
148.0375171665
 20
93.2804729798
 10
148.084673668
 20
93.2871033952
 10
148.1336469641
 20
93.2890507924
 10
148.1842265467
 20
93.2863069508
 10
148.2361959389
 20
93.2788838327
 10
148.2893323153
 20
93.2668134788
 10
148.3434066125
 20
93.2501483337
 10
148.3981866871
 20
93.2289605768
 10
148.4534384025
 20
93.2033413939
 10
148.5089251757
 20
93.173401049
  0
LWPOLYLINE
  5
2BE
100
AcDbEntity
  8
0
100
AcDbPolyline
 62
7
  6
CONTINUOUS
 90
11
 70
0
 10
142.5907979741
 20
100.63032292
 10
142.5456602907
 20
100.6190379882
 10
142.4985035998
 20
100.6124076803
 10
142.44953008
 20
100.6104604186
 10
142.3989503462
 20
100.6132044209
 10
142.3469808994
 20
100.6206277001
 10
142.293844556
 20
100.6326981942
 10
142.2397704471
 20
100.649363415
 10
142.1849907417
 20
100.6705511377
 10
142.1297395553
 20
100.6961701478
 10
142.0742534669
 20
100.7261101492
  0
LINE
  5
2BF
100
AcDbEntity
  8
0
100
AcDbLine
 62
250
  6
CONTINUOUS
 10
131.0433876804
 20
101.8697445787
 11
131.7504944616
 21
101.8697445787
  0
LINE
  5
2C0
100
AcDbEntity
  8
0
100
AcDbLine
 62
250
  6
CONTINUOUS
 10
142.7821386783
 20
100.7572037943
 11
142.2156748232
 21
100.8077650679
  0
LWPOLYLINE
  5
2C1
100
AcDbEntity
  8
0
100
AcDbPolyline
 62
7
  6
CONTINUOUS
 90
6
 70
0
 10
142.5185038387
 20
100.6974354149
 10
142.5403901794
 20
100.6948575079
 10
142.5909724573
 20
100.6921151694
 10
142.6399473182
 20
100.6940645948
 10
142.6871023893
 20
100.7006969337
 10
142.7322343963
 20
100.7119824883
  0
LINE
  5
2C2
100
AcDbEntity
  8
0
100
AcDbLine
 62
250
  6
CONTINUOUS
 10
148.1604485834
 20
82.5973098861
 11
147.8018183945
 21
81.8245194385
  0
LINE
  5
2C3
100
AcDbEntity
  8
0
100
AcDbLine
 62
7
  6
CONTINUOUS
 10
175.6100210993
 20
114.7739385596
 11
176.6195578167
 21
115.8272331554
  0
LINE
  5
2C4
100
AcDbEntity
  8
0
100
AcDbLine
 62
250
  6
CONTINUOUS
 10
147.6603970383
 20
92.6835662288
 11
147.8018183945
 21
92.7652211475
  0
LINE
  5
2C5
100
AcDbEntity
  8
0
100
AcDbLine
 62
7
  6
CONTINUOUS
 10
175.8889970334
 20
114.2907380681
 11
177.3059561643
 21
114.6383563443
  0
LINE
  5
2C6
100
AcDbEntity
  8
0
100
AcDbLine
 62
250
  6
CONTINUOUS
 10
131.0433876804
 20
107.6666835439
 11
131.7504944616
 21
107.6666835439
  0
LINE
  5
2C7
100
AcDbEntity
  8
0
100
AcDbLine
 62
250
  6
CONTINUOUS
 10
133.5889720927
 20
106.2029069295
 11
132.7404439553
 21
106.2786446185
  0
LINE
  5
2C8
100
AcDbEntity
  8
0
100
AcDbLine
 62
7
  6
CONTINUOUS
 10
158.8326841811
 20
102.5621937352
 11
158.8326841811
 21
91.6214920262
  0
LINE
  5
2C9
100
AcDbEntity
  8
0
100
AcDbLine
 62
7
  6
CONTINUOUS
 10
158.8326841811
 20
85.8245530609
 11
158.8326841811
 21
74.8838513519
  0
LWPOLYLINE
  5
2CA
100
AcDbEntity
  8
0
100
AcDbPolyline
 62
7
  6
CONTINUOUS
 90
28
 70
0
 10
158.8326841811
 20
91.6214920262
 10
158.8305942351
 20
91.541550256
 10
158.8245074546
 20
91.4647278112
 10
158.8144238394
 20
91.3910246918
 10
158.800282402
 20
91.3202124874
 10
158.78214413
 20
91.2525196083
 10
158.7601919861
 20
91.1886312858
 10
158.7343871519
 20
91.1285864921
 10
158.7047684459
 20
91.072346255
 10
158.6716352859
 20
91.0204788889
 10
158.6349521607
 20
90.9730290109
 10
158.5947545816
 20
90.929952004
 10
158.5514485001
 20
90.8916823315
 10
158.5050027756
 20
90.8582687016
 10
158.4554485486
 20
90.8296624062
 10
158.4032851925
 20
90.8061517843
 10
158.3484859934
 20
90.7877881711
 10
158.2910776652
 20
90.7745202314
 10
158.2316397227
 20
90.7664822988
 10
158.1701513328
 20
90.763727496
 10
158.1066333286
 20
90.7662027003
 10
158.0417277245
 20
90.7738828777
 10
157.9754202243
 20
90.7868211256
 10
157.9077251241
 20
90.8049643464
 10
157.8393273266
 20
90.8281282134
 10
157.7704551327
 20
90.8562512842
 10
157.7008802415
 20
90.8893950012
 10
157.630602653
 20
90.9275593643
  0
LWPOLYLINE
  5
2CB
100
AcDbEntity
  8
0
100
AcDbPolyline
 62
7
  6
CONTINUOUS
 90
28
 70
0
 10
158.8326841811
 20
74.8838513519
 10
158.8305943635
 20
74.8039110314
 10
158.8245077814
 20
74.7270897715
 10
158.8144244347
 20
74.6533875721
 10
158.8002833742
 20
74.582576014
 10
158.7821455492
 20
74.5148835164
 10
158.7601938072
 20
74.4509953376
 10
158.7343893116
 20
74.3909504084
 10
158.704770899
 20
74.3347097979
 10
158.6716379267
 20
74.2828419713
 10
158.6349548051
 20
74.2353915328
 10
158.5947571238
 20
74.1923138783
 10
158.5514510082
 20
74.1540436604
 10
158.5050053576
 20
74.1206296821
 10
158.4554512728
 20
74.0920231404
 10
158.4032881816
 20
74.0685122802
 10
158.3484894718
 20
74.0501484238
 10
158.2910817555
 20
74.0368802487
 10
158.2316442967
 20
74.0288420328
 10
158.1701562118
 20
74.0260868373
 10
158.1066383842
 20
74.0285616008
 10
158.0417327282
 20
74.0362414172
 10
157.9754249026
 20
74.0491793889
 10
157.9077292485
 20
74.0673224134
 10
157.8393307028
 20
74.0904862771
 10
157.7704575778
 20
74.1186095756
 10
157.7008815612
 20
74.1517537132
 10
157.630602653
 20
74.18991869
  0
LWPOLYLINE
  5
2CC
100
AcDbEntity
  8
0
100
AcDbPolyline
 62
7
  6
CONTINUOUS
 90
7
 70
0
 10
158.8326841811
 20
92.0297666195
 10
158.8308680478
 20
91.9667466893
 10
158.8254270981
 20
91.9060910952
 10
158.8163841405
 20
91.8480598418
 10
158.8037772828
 20
91.7929012748
 10
158.7876600968
 20
91.7408525103
 10
158.7681017052
 20
91.6921381285
  0
LWPOLYLINE
  5
2CD
100
AcDbEntity
  8
0
100
AcDbPolyline
 62
7
  6
CONTINUOUS
 90
7
 70
0
 10
158.8326841811
 20
75.2921259452
 10
158.8308680927
 20
75.2291067798
 10
158.8254272579
 20
75.1684517303
 10
158.8163844554
 20
75.1104208137
 10
158.8037777574
 20
75.055262372
 10
158.7876607092
 20
75.0032135659
 10
158.7681024299
 20
74.9544990563
  0
LWPOLYLINE
  5
2CE
100
AcDbEntity
  8
0
100
AcDbPolyline
 62
7
  6
CONTINUOUS
 90
7
 70
0
 10
158.7681017052
 20
91.6921381285
 10
158.7451857828
 20
91.6469671053
 10
158.7190102184
 20
91.6055328785
 10
158.6896873958
 20
91.5680136253
 10
158.6573430005
 20
91.5345701925
 10
158.6221154168
 20
91.5053456925
 10
158.5841850358
 20
91.4804823861
  0
LINE
  5
2CF
100
AcDbEntity
  8
0
100
AcDbLine
 62
250
  6
CONTINUOUS
 10
148.1553717851
 20
79.6607982406
 11
148.5089251757
 21
80.2731706757
  0
LINE
  5
2D0
100
AcDbEntity
  8
0
100
AcDbLine
 62
250
  6
CONTINUOUS
 10
157.630602653
 20
90.9275593643
 11
157.9841560436
 21
91.5399317993
  0
LINE
  5
2D1
100
AcDbEntity
  8
0
100
AcDbLine
 62
250
  6
CONTINUOUS
 10
142.0742534669
 20
83.9884694749
 11
142.2156748232
 21
84.0701243936
  0
LINE
  5
2D2
100
AcDbEntity
  8
0
100
AcDbLine
 62
250
  6
CONTINUOUS
 10
158.1255773999
 20
91.621586718
 11
157.9841560436
 21
91.5399317993
  0
LWPOLYLINE
  5
2D3
100
AcDbEntity
  8
0
100
AcDbPolyline
 62
7
  6
CONTINUOUS
 90
3
 70
0
 10
142.6742824591
 20
83.9290200617
 10
142.6337245013
 20
83.908573944
 10
142.5907990323
 20
83.8926825723
  0
LWPOLYLINE
  5
2D4
100
AcDbEntity
  8
0
100
AcDbPolyline
 62
7
  6
CONTINUOUS
 90
3
 70
0
 10
158.5841850358
 20
91.4804823861
 10
158.5436261195
 20
91.4600358512
 10
158.5007005508
 20
91.4441445701
  0
LINE
  5
2D5
100
AcDbEntity
  8
0
100
AcDbLine
 62
7
  6
CONTINUOUS
 10
140.7127971246
 20
85.3520589643
 11
141.9719702987
 21
85.8685285685
  0
LINE
  5
2D6
100
AcDbEntity
  8
0
100
AcDbLine
 62
250
  6
CONTINUOUS
 10
146.9532902571
 20
109.4212069031
 11
147.6603970383
 21
109.4212069031
  0
LINE
  5
2D7
100
AcDbEntity
  8
0
100
AcDbLine
 62
7
  6
CONTINUOUS
 10
132.2454692084
 20
119.3013179148
 11
141.7207000763
 21
113.8304383643
  0
LINE
  5
2D8
100
AcDbEntity
  8
0
100
AcDbLine
 62
7
  6
CONTINUOUS
 10
148.1553717851
 20
110.115139565
 11
157.630602653
 21
104.6442600144
  0
LWPOLYLINE
  5
2D9
100
AcDbEntity
  8
0
100
AcDbPolyline
 62
7
  6
CONTINUOUS
 90
28
 70
0
 10
141.7207000763
 20
113.8304383643
 10
141.7909789845
 20
113.7874470195
 10
141.8605550011
 20
113.7402465172
 10
141.9294281261
 20
113.6888368573
 10
141.9978266718
 20
113.6330157949
 10
142.0655223259
 20
113.5729855749
 10
142.1318301515
 20
113.5093529317
 10
142.1967358075
 20
113.4420813233
 10
142.2602536351
 20
113.3712072918
 10
142.32174172
 20
113.297447197
 10
142.3811791788
 20
113.2207720934
 10
142.4385868951
 20
113.1412109267
 10
142.4933856049
 20
113.0595668938
 10
142.5455486961
 20
112.9758194032
 10
142.5951027809
 20
112.8899890466
 10
142.6415484315
 20
112.8029407952
 10
142.6848545471
 20
112.7146617606
 10
142.7250522284
 20
112.6251648312
 10
142.76173535
 20
112.5353536435
 10
142.7948683223
 20
112.4452246909
 10
142.8244867349
 20
112.35478148
 10
142.8502912305
 20
112.2649381661
 10
142.8722429725
 20
112.1757006658
 10
142.8903807975
 20
112.0870630625
 10
142.904521858
 20
111.9999217623
 10
142.9146052047
 20
111.9145755669
 10
142.9206917868
 20
111.8307256745
 10
142.9227816044
 20
111.748372085
  0
LWPOLYLINE
  5
2DA
100
AcDbEntity
  8
0
100
AcDbPolyline
 62
7
  6
CONTINUOUS
 90
28
 70
0
 10
157.630602653
 20
104.6442600144
 10
157.7008815612
 20
104.6012686697
 10
157.7704575778
 20
104.5540681673
 10
157.8393307028
 20
104.5026585074
 10
157.9077292485
 20
104.446837445
 10
157.9754249026
 20
104.386807225
 10
158.0417327282
 20
104.3231745818
 10
158.1066383842
 20
104.2559029735
 10
158.1701562118
 20
104.1850289419
 10
158.2316442967
 20
104.1112688472
 10
158.2910817555
 20
104.0345937436
 10
158.3484894718
 20
103.9550325768
 10
158.4032881816
 20
103.8733885439
 10
158.4554512728
 20
103.7896410534
 10
158.5050053576
 20
103.7038106967
 10
158.5514510082
 20
103.6167624453
 10
158.5947571238
 20
103.5284834107
 10
158.6349548051
 20
103.4389864814
 10
158.6716379267
 20
103.3491752936
 10
158.704770899
 20
103.259046341
 10
158.7343893116
 20
103.1686031301
 10
158.7601938072
 20
103.0787598162
 10
158.7821455492
 20
102.9895223159
 10
158.8002833742
 20
102.9008847127
 10
158.8144244347
 20
102.8137434124
 10
158.8245077814
 20
102.728397217
 10
158.8305943635
 20
102.6445473246
 10
158.8326841811
 20
102.5621937352
  0
LINE
  5
2DB
100
AcDbEntity
  8
0
100
AcDbLine
 62
250
  6
CONTINUOUS
 10
147.6603970383
 20
81.7428645198
 11
147.8018183945
 21
81.8245194385
  0
LINE
  5
2DC
100
AcDbEntity
  8
0
100
AcDbLine
 62
250
  6
CONTINUOUS
 10
148.5089251757
 20
80.2731706757
 11
148.650346532
 21
80.3548255943
  0
LWPOLYLINE
  5
2DD
100
AcDbEntity
  8
0
100
AcDbPolyline
 62
7
  6
CONTINUOUS
 90
7
 70
0
 10
158.7681024299
 20
74.9544990563
 10
158.7451865711
 20
74.9093278216
 10
158.7190110122
 20
74.8678933335
 10
158.6896881879
 20
74.8303738625
 10
158.6573438124
 20
74.7969302712
 10
158.6221162573
 20
74.7677056396
 10
158.5841850358
 20
74.7428417119
  0
LINE
  5
2DE
100
AcDbEntity
  8
0
100
AcDbLine
 62
250
  6
CONTINUOUS
 10
157.630602653
 20
74.18991869
 11
157.9841560436
 21
74.8022911251
  0
LINE
  5
2DF
100
AcDbEntity
  8
0
100
AcDbLine
 62
250
  6
CONTINUOUS
 10
131.0433876804
 20
118.607385253
 11
131.7504944616
 21
118.607385253
  0
LINE
  5
2E0
100
AcDbEntity
  8
0
100
AcDbLine
 62
250
  6
CONTINUOUS
 10
157.9841560436
 20
74.8022911251
 11
158.1255773999
 21
74.8839460437
  0
LWPOLYLINE
  5
2E1
100
AcDbEntity
  8
0
100
AcDbPolyline
 62
7
  6
CONTINUOUS
 90
3
 70
0
 10
158.5841850358
 20
74.7428417119
 10
158.543627078
 20
74.7223955941
 10
158.500701609
 20
74.7065042224
  0
LINE
  5
2E2
100
AcDbEntity
  8
0
100
AcDbLine
 62
7
  6
CONTINUOUS
 10
156.6226997013
 20
76.1658806145
 11
157.8818728753
 21
76.6823502187
  0
LINE
  5
2E3
100
AcDbEntity
  8
0
100
AcDbLine
 62
7
  6
CONTINUOUS
 10
175.8889970334
 20
43.4591044687
 11
175.8889970334
 21
114.2907380681
  0
LINE
  5
2E4
100
AcDbEntity
  8
0
100
AcDbLine
 62
7
  6
CONTINUOUS
 10
177.3274575162
 20
43.0944865646
 11
177.3274575162
 21
114.6263613968
  0
LINE
  5
2E5
100
AcDbEntity
  8
0
100
AcDbLine
 62
7
  6
CONTINUOUS
 10
176.6199202469
 20
115.8518518942
 11
176.6195578167
 21
115.8272331554
  0
LINE
  5
2E6
100
AcDbEntity
  8
0
100
AcDbLine
 62
7
  6
CONTINUOUS
 10
177.3059561643
 20
114.6383563443
 11
177.3274575162
 21
114.6263613968
  0
LINE
  5
2E7
100
AcDbEntity
  8
0
100
AcDbLine
 62
7
  6
CONTINUOUS
 10
175.6100210993
 20
114.7739385596
 11
114.2660507622
 21
150.1931782117
  0
LINE
  5
2E8
100
AcDbEntity
  8
0
100
AcDbLine
 62
7
  6
CONTINUOUS
 10
176.6199202469
 20
115.8518518942
 11
114.6695036763
 21
151.621246001
  0
LINE
  5
2E9
100
AcDbEntity
  8
0
100
AcDbLine
 62
7
  6
CONTINUOUS
 10
181.3893905009
 20
45.1232650789
 11
181.3893905009
 21
116.971655299
  0
LINE
  5
2EA
100
AcDbEntity
  8
0
100
AcDbLine
 62
7
  6
CONTINUOUS
 10
180.6818532316
 20
118.1971457964
 11
118.4573174634
 21
154.1248128924
  0
LINE
  5
2EB
100
AcDbEntity
  8
0
100
AcDbLine
 62
7
  6
CONTINUOUS
 10
175.8889970334
 20
114.2907380681
 11
175.6100210993
 21
114.7739385596
  0
LINE
  5
2EC
100
AcDbEntity
  8
0
100
AcDbLine
 62
7
  6
CONTINUOUS
 10
177.3059561643
 20
114.6383563443
 11
176.6195578167
 21
115.8272331554
  0
LINE
  5
2ED
100
AcDbEntity
  8
0
100
AcDbLine
 62
7
  6
CONTINUOUS
 10
180.6818532316
 20
118.1971457964
 11
181.3893905009
 21
116.971655299
  0
LINE
  5
2EE
100
AcDbEntity
  8
0
100
AcDbLine
 62
7
  6
CONTINUOUS
 10
175.6100210993
 20
43.2980583932
 11
175.8889970334
 21
43.4591044687
  0
LINE
  5
2EF
100
AcDbEntity
  8
0
100
AcDbLine
 62
7
  6
CONTINUOUS
 10
176.6195578167
 20
42.6866838085
 11
177.3059561643
 21
43.0829250129
  0
LINE
  5
2F0
100
AcDbEntity
  8
0
100
AcDbLine
 62
7
  6
CONTINUOUS
 10
181.3893905009
 20
45.1232650789
 11
180.6818532316
 21
44.7148208851
  0
LINE
  5
2F1
100
AcDbEntity
  8
0
100
AcDbLine
 62
7
  6
CONTINUOUS
 10
177.3274575162
 20
43.0944865646
 11
177.3059561643
 21
43.0829250129
  0
LINE
  5
2F2
100
AcDbEntity
  8
0
100
AcDbLine
 62
7
  6
CONTINUOUS
 10
177.3274575162
 20
43.0944865646
 11
181.3893905009
 21
45.1232650789
  0
LINE
  5
2F3
100
AcDbEntity
  8
0
100
AcDbLine
 62
7
  6
CONTINUOUS
 10
176.6199202469
 20
42.6860423708
 11
180.6818532316
 21
44.7148208851
  0
ELLIPSE
  5
2F4
100
AcDbEntity
  8
0
100
AcDbEllipse
 62
7
  6
CONTINUOUS
 10
142.1057964199
 20
85.7835666819
 30
0.0
 11
0.1998333781
 21
-0.0157785196
 31
0.0
 40
0.5172961965
 41
0.8262203412
 42
2.3446567905
  0
ELLIPSE
  5
2F5
100
AcDbEntity
  8
0
100
AcDbEllipse
 62
7
  6
CONTINUOUS
 10
158.0156989966
 20
76.597388332
 30
0.0
 11
0.1998333781
 21
-0.0157785196
 31
0.0
 40
0.5172961965
 41
0.8262203412
 42
2.3446567905
  0
ENDSEC
  0
SECTION
  2
OBJECTS
  0
DICTIONARY
  5
C
100
AcDbDictionary
280
0
281
1
  3
ACAD_GROUP
350
D
  3
ACAD_MLINESTYLE
350
17
  3
ACAD_LAYOUT
350
1A
  3
ACAD_PLOTSETTINGS
350
19
  3
ACAD_PLOTSTYLENAME
350
E
  0
DICTIONARY
  5
D
102
{ACAD_REACTORS
330
C
102
}
100
AcDbDictionary
280
0
281
1
  0
ACDBDICTIONARYWDFLT
  5
E
102
{ACAD_REACTORS
330
C
102
}
100
AcDbDictionary
281
1
  3
Normal
350
F
100
AcDbDictionaryWithDefault
340
F
  0
DICTIONARY
  5
17
102
{ACAD_REACTORS
330
C
102
}
100
AcDbDictionary
280
0
281
1
  3
Standard
350
18
  0
DICTIONARY
  5
19
102
{ACAD_REACTORS
330
C
102
}
100
AcDbDictionary
281
1
  0
DICTIONARY
  5
1A
102
{ACAD_REACTORS
330
C
102
}
100
AcDbDictionary
281
1
  3
Model
350
2F6
  3
Layout1
350
2F7
  0
ACDBPLACEHOLDER
  5
F
102
{ACAD_REACTORS
330
E
102
}
  0
MLINESTYLE
  5
18
102
{ACAD_REACTORS
330
17
102
}
100
AcDbMlineStyle
  2
STANDARD
 70
0
  3

 62
256
 51
90.0
 52
90.0
 71
2
 49
0.5
 62
256
  6
BYLAYER
 49
-0.5
 62
256
  6
BYLAYER
  0
LAYOUT
  5
2F6
102
{ACAD_REACTORS
330
1A
102
}
100
AcDbPlotSettings
  1

  2
none_device
  4
ISO_A4_(297.00_x_210.00_MM)
  6

 40
0.0
 41
0.0
 42
0.0
 43
0.0
 44
297.0
 45
210.0
 46
0.0
 47
0.0
 48
0.0
 49
0.0
140
0.0
141
0.0
142
1.0
143
1.0
 70
1024
 72
1
 73
0
 74
0
  7

 75
0
147
1.0
148
0.0
149
0.0
100
AcDbLayout
  1
Model
 70
0
 71
0
 10
0.0
 20
0.0
 11
297.0
 21
210.0
 12
0.0
 22
0.0
 32
0.0
 14
0.0
 24
0.0
 34
0.0
 15
0.0
 25
0.0
 35
0.0
146
0.0
 13
0.0
 23
0.0
 33
0.0
 16
1.0
 26
0.0
 36
0.0
 17
0.0
 27
1.0
 37
0.0
 76
0
330
21B
345
0
346
0
  0
LAYOUT
  5
2F7
102
{ACAD_REACTORS
330
1A
102
}
100
AcDbPlotSettings
  1

  2
none_device
  4
ISO_A4_(297.00_x_210.00_MM)
  6

 40
0.0
 41
0.0
 42
0.0
 43
0.0
 44
297.0
 45
210.0
 46
0.0
 47
0.0
 48
0.0
 49
0.0
140
0.0
141
0.0
142
1.0
143
1.0
 70
0
 72
1
 73
0
 74
0
  7

 75
0
147
1.0
148
0.0
149
0.0
100
AcDbLayout
  1
Layout1
 70
0
 71
1
 10
0.0
 20
0.0
 11
297.0
 21
210.0
 12
0.0
 22
0.0
 32
0.0
 14
0.0
 24
0.0
 34
0.0
 15
0.0
 25
0.0
 35
0.0
146
0.0
 13
0.0
 23
0.0
 33
0.0
 16
1.0
 26
0.0
 36
0.0
 17
0.0
 27
1.0
 37
0.0
 76
0
330
21C
345
0
346
0
  0
ENDSEC
  0
EOF
