  0
SECTION
  2
HEADER
  9
$ACADVER
  1
AC1024
  9
$DWGCODEPAGE
  3
ANSI_1252
  9
$EXTMAX
 10
297.0
 20
210.0
 30
0.0
  9
$EXTMIN
 10
0.0
 20
0.0
 30
0.0
  9
$LIMMIN
 10
0.0
 20
0.0
  9
$LIMMAX
 10
297.0
 20
210.0
  9
$VIEWCTR
 10
148.5
 20
105.0
  9
$VIEWSIZE
 40
210.0
  9
$CLAYER
  8
0
  9
$LTSCALE
 40
16.335
  9
$CELTYPE
  6
BYLAYER
  9
$DIMSCALE
 40
1.0
  9
$DIMASZ
 40
3.0
  9
$DIMEXO
 40
0.5
  9
$DIMDLI
 40
11.286
  9
$DIMEXE
 40
1.5
  9
$DIMCEN
 40
2.673
  9
$DIMLFAC
 40
1.0
  9
$DIMBLK
  1
_FILLED
  9
$DIMALT
 70
0
  9
$DIMALTF
 40
0.0393700787
  9
$DIMTXT
 40
3.0
  9
$DIMTOL
 70
1
  9
$DIMLIM
 70
0
  9
$DIMTFAC
 40
1.0
  9
$DIMTP
 40
0.01
  9
$DIMTM
 40
0.01
  9
$DIMGAP
 40
0.625
  9
$DIMDSEP
 70
44
  9
$AUNITS
 70
0
  9
$PDMODE
 70
3
  9
$PDSIZE
 40
3.0
  9
$HANDSEED
  5
3EB
  9
$TILEMODE
 70
1
  9
$MEASUREMENT
 70
1
  9
$INSUNITS
 70
4
  0
ENDSEC
  0
SECTION
  2
CLASSES
  0
CLASS
  1
ACDBDICTIONARYWDFLT
  2
AcDbDictionaryWithDefault
  3
AutoCAD 2000
 90
0
 91
1
280
0
281
0
  0
CLASS
  1
ACDBPLACEHOLDER
  2
AcDbPlaceHolder
  3
AutoCAD 2000
 90
0
 91
1
280
0
281
0
  0
CLASS
  1
LAYOUT
  2
AcDbLayout
  3
AutoCAD 2000
 90
0
 91
0
280
0
281
0
  0
ENDSEC
  0
SECTION
  2
TABLES
  0
TABLE
  2
VPORT
  5
8
100
AcDbSymbolTable
 70
2
  0
VPORT
  5
1F4
100
AcDbSymbolTableRecord
100
AcDbViewportTableRecord
  2
*ACTIVE
 70
0
 10
0.0
 20
0.0
 11
1.0
 21
1.0
 12
148.5
 22
105.0
 13
0.0
 23
0.0
 14
1.0
 24
1.0
 15
0.0
 25
0.0
 16
0.0
 26
0.0
 36
1.0
 17
0.0
 27
0.0
 37
0.0
 40
210.0
 41
1.4142857143
 42
50.0
 43
0.0
 44
0.0
 50
0.0
 51
0.0
 71
0
 72
100
 73
1
 74
1
 75
0
 76
0
 77
0
 78
0
  0
ENDTAB
  0
TABLE
  2
LTYPE
  5
5
100
AcDbSymbolTable
 70
6
  0
LTYPE
  5
14
100
AcDbSymbolTableRecord
100
AcDbLinetypeTableRecord
  2
BYBLOCK
 70
0
  3

 72
65
 73
0
 40
0.0
  0
LTYPE
  5
15
100
AcDbSymbolTableRecord
100
AcDbLinetypeTableRecord
  2
BYLAYER
 70
0
  3

 72
65
 73
0
 40
0.0
  0
LTYPE
  5
16
100
AcDbSymbolTableRecord
100
AcDbLinetypeTableRecord
  2
CONTINUOUS
 70
64
  3
Solid line
 72
65
 73
0
 40
0.0
  0
LTYPE
  5
1F5
100
AcDbSymbolTableRecord
100
AcDbLinetypeTableRecord
  2
CENTER
 70
64
  3
____ _ ____ _ ____ _ ____ _ ____ _ ____ _ ____
 72
65
 73
4
 40
0.6
 49
0.375
 74
0
 49
-0.075
 74
0
 49
0.075
 74
0
 49
-0.075
 74
0
  0
LTYPE
  5
1F6
100
AcDbSymbolTableRecord
100
AcDbLinetypeTableRecord
  2
HIDDEN
 70
64
  3
- - - - - - - - - - - - - - - - - - - -
 72
65
 73
2
 40
0.2
 49
0.1
 74
0
 49
-0.1
 74
0
  0
LTYPE
  5
1F7
100
AcDbSymbolTableRecord
100
AcDbLinetypeTableRecord
  2
PHANTOM
 70
64
  3
_____ _ _ _____ _ _ _____ _ _ _____
 72
65
 73
6
 40
0.8
 49
0.45
 74
0
 49
-0.05
 74
0
 49
0.1
 74
0
 49
-0.05
 74
0
 49
0.1
 74
0
 49
-0.05
 74
0
  0
LTYPE
  5
1F8
100
AcDbSymbolTableRecord
100
AcDbLinetypeTableRecord
  2
DOT
 70
64
  3
. . . . . . . . . . . . . . . . . . . .
 72
65
 73
2
 40
0.2
 49
0.1
 74
0
 49
-0.1
 74
0
  0
LTYPE
  5
1F9
100
AcDbSymbolTableRecord
100
AcDbLinetypeTableRecord
  2
DASHED
 70
64
  3
- - - - - - - - - - - - - - - - - - - -
 72
65
 73
2
 40
0.2
 49
0.1
 74
0
 49
-0.1
 74
0
  0
ENDTAB
  0
TABLE
  2
LAYER
  5
2
100
AcDbSymbolTable
 70
36
  0
LAYER
  5
10
100
AcDbSymbolTableRecord
100
AcDbLayerTableRecord
  2
0
 70
0
 62
7
  6
CONTINUOUS
370
-3
390
F
  0
LAYER
  5
1FA
100
AcDbSymbolTableRecord
100
AcDbLayerTableRecord
  2
DEFAULT_1
 70
0
 62
7
  6
CENTER
370
-3
390
F
  0
LAYER
  5
1FB
100
AcDbSymbolTableRecord
100
AcDbLayerTableRecord
  2
DEFAULT_2
 70
0
 62
7
  6
HIDDEN
370
-3
390
F
  0
LAYER
  5
1FC
100
AcDbSymbolTableRecord
100
AcDbLayerTableRecord
  2
DEFAULT_3
 70
0
 62
7
  6
PHANTOM
370
-3
390
F
  0
LAYER
  5
1FD
100
AcDbSymbolTableRecord
100
AcDbLayerTableRecord
  2
ASSI
 70
0
 62
7
  6
CONTINUOUS
370
-3
390
F
  0
LAYER
  5
1FE
100
AcDbSymbolTableRecord
100
AcDbLayerTableRecord
  2
COORDINATE
 70
0
 62
7
  6
CONTINUOUS
370
-3
390
F
  0
LAYER
  5
1FF
100
AcDbSymbolTableRecord
100
AcDbLayerTableRecord
  2
COORD_ORIGINE
 70
0
 62
7
  6
CONTINUOUS
370
-3
390
F
  0
LAYER
  5
200
100
AcDbSymbolTableRecord
100
AcDbLayerTableRecord
  2
COPY_PUBLISH
 70
0
 62
7
  6
CONTINUOUS
370
-3
390
F
  0
LAYER
  5
201
100
AcDbSymbolTableRecord
100
AcDbLayerTableRecord
  2
COSMETIC
 70
0
 62
7
  6
CONTINUOUS
370
-3
390
F
  0
LAYER
  5
202
100
AcDbSymbolTableRecord
100
AcDbLayerTableRecord
  2
COSMETICI
 70
0
 62
7
  6
CONTINUOUS
370
-3
390
F
  0
LAYER
  5
203
100
AcDbSymbolTableRecord
100
AcDbLayerTableRecord
  2
CURVA_TASSELLO
 70
0
 62
7
  6
CONTINUOUS
370
-3
390
F
  0
LAYER
  5
204
100
AcDbSymbolTableRecord
100
AcDbLayerTableRecord
  2
CURVE
 70
0
 62
7
  6
CONTINUOUS
370
-3
390
F
  0
LAYER
  5
205
100
AcDbSymbolTableRecord
100
AcDbLayerTableRecord
  2
DRAFT
 70
0
 62
7
  6
CONTINUOUS
370
-3
390
F
  0
LAYER
  5
206
100
AcDbSymbolTableRecord
100
AcDbLayerTableRecord
  2
IMPORT_IGES
 70
0
 62
7
  6
CONTINUOUS
370
-3
390
F
  0
LAYER
  5
207
100
AcDbSymbolTableRecord
100
AcDbLayerTableRecord
  2
INTFCLR_2
 70
0
 62
7
  6
CONTINUOUS
370
-3
390
F
  0
LAYER
  5
208
100
AcDbSymbolTableRecord
100
AcDbLayerTableRecord
  2
INTF_1
 70
0
 62
7
  6
CONTINUOUS
370
-3
390
F
  0
LAYER
  5
209
100
AcDbSymbolTableRecord
100
AcDbLayerTableRecord
  2
INTF_21
 70
0
 62
7
  6
CONTINUOUS
370
-3
390
F
  0
LAYER
  5
20A
100
AcDbSymbolTableRecord
100
AcDbLayerTableRecord
  2
INTF_6
 70
0
 62
7
  6
CONTINUOUS
370
-3
390
F
  0
LAYER
  5
20B
100
AcDbSymbolTableRecord
100
AcDbLayerTableRecord
  2
INTF_7
 70
0
 62
7
  6
CONTINUOUS
370
-3
390
F
  0
LAYER
  5
20C
100
AcDbSymbolTableRecord
100
AcDbLayerTableRecord
  2
INTF_9
 70
0
 62
7
  6
CONTINUOUS
370
-3
390
F
  0
LAYER
  5
20D
100
AcDbSymbolTableRecord
100
AcDbLayerTableRecord
  2
LIVELLO_1
 70
0
 62
7
  6
CONTINUOUS
370
-3
390
F
  0
LAYER
  5
20E
100
AcDbSymbolTableRecord
100
AcDbLayerTableRecord
  2
NOTE
 70
0
 62
7
  6
CONTINUOUS
370
-3
390
F
  0
LAYER
  5
20F
100
AcDbSymbolTableRecord
100
AcDbLayerTableRecord
  2
PIANI
 70
0
 62
7
  6
CONTINUOUS
370
-3
390
F
  0
LAYER
  5
210
100
AcDbSymbolTableRecord
100
AcDbLayerTableRecord
  2
PIANI_ORIGINE
 70
0
 62
7
  6
CONTINUOUS
370
-3
390
F
  0
LAYER
  5
211
100
AcDbSymbolTableRecord
100
AcDbLayerTableRecord
  2
PIANI_RIFERIMENTO
 70
0
 62
7
  6
CONTINUOUS
370
-3
390
F
  0
LAYER
  5
212
100
AcDbSymbolTableRecord
100
AcDbLayerTableRecord
  2
PUNTI
 70
0
 62
7
  6
CONTINUOUS
370
-3
390
F
  0
LAYER
  5
213
100
AcDbSymbolTableRecord
100
AcDbLayerTableRecord
  2
RACCORDO
 70
0
 62
7
  6
CONTINUOUS
370
-3
390
F
  0
LAYER
  5
214
100
AcDbSymbolTableRecord
100
AcDbLayerTableRecord
  2
RGB__255__255__255__
 70
0
 62
7
  6
CONTINUOUS
370
-3
390
F
  0
LAYER
  5
215
100
AcDbSymbolTableRecord
100
AcDbLayerTableRecord
  2
RGB____0____0____0__
 70
0
 62
7
  6
CONTINUOUS
370
-3
390
F
  0
LAYER
  5
216
100
AcDbSymbolTableRecord
100
AcDbLayerTableRecord
  2
SIMBOLI
 70
0
 62
7
  6
CONTINUOUS
370
-3
390
F
  0
LAYER
  5
217
100
AcDbSymbolTableRecord
100
AcDbLayerTableRecord
  2
SMUSSO
 70
0
 62
7
  6
CONTINUOUS
370
-3
390
F
  0
LAYER
  5
218
100
AcDbSymbolTableRecord
100
AcDbLayerTableRecord
  2
SUPERFICI
 70
0
 62
7
  6
CONTINUOUS
370
-3
390
F
  0
LAYER
  5
219
100
AcDbSymbolTableRecord
100
AcDbLayerTableRecord
  2
TRASH
 70
0
 62
7
  6
CONTINUOUS
370
-3
390
F
  0
LAYER
  5
21A
100
AcDbSymbolTableRecord
100
AcDbLayerTableRecord
  2
WHITE
 70
0
 62
7
  6
CONTINUOUS
370
-3
390
F
  0
LAYER
  5
21B
100
AcDbSymbolTableRecord
100
AcDbLayerTableRecord
  2
XSEC_DATUMS
 70
0
 62
7
  6
CONTINUOUS
370
-3
390
F
  0
ENDTAB
  0
TABLE
  2
STYLE
  5
3
100
AcDbSymbolTable
 70
1
  0
STYLE
  5
11
100
AcDbSymbolTableRecord
100
AcDbTextStyleTableRecord
  2
STANDARD
 70
0
 40
0.0
 41
0.8
 50
0.0
 71
0
 42
0.2
  3
txt
  4

  0
STYLE
  5
21C
100
AcDbSymbolTableRecord
100
AcDbTextStyleTableRecord
  2
TEXTSTYLE_1
 70
0
 40
0.0
 41
0.8
 50
0.0
 71
0
 42
0.2
  3
gdt
  4

  0
ENDTAB
  0
TABLE
  2
VIEW
  5
6
100
AcDbSymbolTable
 70
0
  0
ENDTAB
  0
TABLE
  2
UCS
  5
7
100
AcDbSymbolTable
 70
0
  0
ENDTAB
  0
TABLE
  2
APPID
  5
9
100
AcDbSymbolTable
 70
1
  0
APPID
  5
21D
100
AcDbSymbolTableRecord
100
AcDbRegAppTableRecord
  2
ACAD
 70
0
  0
ENDTAB
  0
TABLE
  2
BLOCK_RECORD
  5
1
100
AcDbSymbolTable
 70
0
  0
BLOCK_RECORD
  5
21E
100
AcDbSymbolTableRecord
100
AcDbBlockTableRecord
  2
*Model_Space
  0
BLOCK_RECORD
  5
21F
100
AcDbSymbolTableRecord
100
AcDbBlockTableRecord
  2
*Paper_Space
  0
BLOCK_RECORD
  5
220
100
AcDbSymbolTableRecord
100
AcDbBlockTableRecord
  2
_FILLED
  0
ENDTAB
  0
TABLE
  2
DIMSTYLE
  5
A
100
AcDbSymbolTable
 70
1
100
AcDbDimStyleTable
 71
0
  0
DIMSTYLE
105
221
100
AcDbSymbolTableRecord
100
AcDbDimStyleTableRecord
  2
STANDARD
 70
0
  3

  4

 40
1.0
 41
3.0
 42
0.5
 43
0.38
 44
1.5
 45
0.0
 46
0.0
 47
0.01
 48
0.01
140
3.0
141
0.09
142
0.0
143
25.4
144
1.0
145
0.0
146
1.0
147
0.625
 71
1
 72
0
 73
0
 74
0
 75
0
 76
0
 77
1
 78
8
 79
2
170
0
171
1
172
0
173
0
174
0
175
0
176
0
177
0
178
0
270
2
179
2
271
2
272
2
273
2
274
2
275
0
280
0
281
0
282
0
283
1
284
8
285
0
286
0
287
3
288
0
340
11
278
44
341
220
342
220
343
220
344
220
  0
ENDTAB
  0
ENDSEC
  0
SECTION
  2
BLOCKS
  0
BLOCK
  5
20
100
AcDbEntity
  8
0
100
AcDbBlockBegin
  2
*Model_Space
 70
0
 10
0.0
 20
0.0
 30
0.0
  3
*Model_Space
  1

  0
ENDBLK
  5
21
100
AcDbEntity
  8
0
100
AcDbBlockEnd
  0
BLOCK
  5
1C
100
AcDbEntity
  8
0
100
AcDbBlockBegin
  2
*Paper_Space
 70
0
 10
0.0
 20
0.0
 30
0.0
  3
*Paper_Space
  1

  0
ENDBLK
  5
1D
100
AcDbEntity
  8
0
100
AcDbBlockEnd
  0
BLOCK
  5
222
100
AcDbEntity
  8
0
100
AcDbBlockBegin
  2
_FILLED
 70
64
 10
0.0
 20
0.0
  3
_FILLED
  1

  0
SOLID
  5
223
100
AcDbEntity
  8
0
  6
BYBLOCK
 62
0
100
AcDbTrace
 10
0.0
 20
0.0
 11
-1.0
 21
0.3166666667
 12
-1.0
 22
-0.3166666667
 13
-1.0
 23
-0.3166666667
  0
ENDBLK
  5
224
100
AcDbEntity
  8
0
  6
BYBLOCK
 62
0
100
AcDbBlockEnd
  0
ENDSEC
  0
SECTION
  2
ENTITIES
  0
LINE
  5
225
100
AcDbEntity
  8
0
100
AcDbLine
 62
7
  6
CONTINUOUS
 10
-45.0274205459
 20
59.3397676688
 11
-41.2396067588
 21
61.8433345602
  0
LINE
  5
226
100
AcDbEntity
  8
0
100
AcDbLine
 62
7
  6
CONTINUOUS
 10
-44.3198832767
 20
59.7482118627
 11
-40.5320694895
 21
62.251778754
  0
LINE
  5
227
100
AcDbEntity
  8
0
100
AcDbLine
 62
7
  6
CONTINUOUS
 10
-44.3406468908
 20
59.7353725117
 11
-44.3198832767
 21
59.7482118627
  0
LINE
  5
228
100
AcDbEntity
  8
0
100
AcDbLine
 62
7
  6
CONTINUOUS
 10
-41.2396067588
 20
61.8433345602
 11
-40.5320694895
 21
62.251778754
  0
LINE
  5
229
100
AcDbEntity
  8
0
100
AcDbLine
 62
7
  6
CONTINUOUS
 10
-44.3406468908
 20
59.7353725117
 11
-45.0270452385
 21
59.3391313073
  0
LINE
  5
22A
100
AcDbEntity
  8
0
100
AcDbLine
 62
7
  6
CONTINUOUS
 10
-44.7233361907
 20
58.3201440733
 11
-45.0023121248
 21
58.1590979978
  0
LINE
  5
22B
100
AcDbEntity
  8
CURVE
100
AcDbLine
 62
250
  6
CONTINUOUS
 10
43.3548407276
 20
-55.3787693924
 11
42.0964399064
 21
-55.6553921924
  0
LINE
  5
22C
100
AcDbEntity
  8
CURVE
100
AcDbLine
 62
250
  6
CONTINUOUS
 10
42.0964399064
 20
-55.2296551971
 11
43.924631083
 21
-54.9013620047
  0
LINE
  5
22D
100
AcDbEntity
  8
0
100
AcDbLine
 62
7
  6
CONTINUOUS
 10
-44.7233361907
 20
58.3201440733
 11
-44.3406468908
 21
59.7353725117
  0
LINE
  5
22E
100
AcDbEntity
  8
CURVE
100
AcDbLine
 62
250
  6
CONTINUOUS
 10
42.5987804353
 20
-51.1706906246
 11
43.2772455626
 21
-51.0175160448
  0
LINE
  5
22F
100
AcDbEntity
  8
CURVE
100
AcDbLine
 62
250
  6
CONTINUOUS
 10
43.5596592572
 20
-50.9526041056
 11
43.924631083
 21
-50.873652894
  0
LINE
  5
230
100
AcDbEntity
  8
CURVE
100
AcDbLine
 62
250
  6
CONTINUOUS
 10
43.924631083
 20
-51.2950585144
 11
42.0964399064
 21
-51.6392230726
  0
LINE
  5
231
100
AcDbEntity
  8
CURVE
100
AcDbLine
 62
250
  6
CONTINUOUS
 10
43.111457186
 20
-52.838182211
 11
42.0964399064
 21
-52.9586619011
  0
LINE
  5
232
100
AcDbEntity
  8
CURVE
100
AcDbLine
 62
250
  6
CONTINUOUS
 10
42.7358331935
 20
-52.506330148
 11
43.924631083
 21
-52.3728017292
  0
LINE
  5
233
100
AcDbEntity
  8
0
100
AcDbLine
 62
7
  6
CONTINUOUS
 10
-45.0023121248
 20
-12.6725356016
 11
-45.0270452385
 21
-12.2163000241
  0
LINE
  5
234
100
AcDbEntity
  8
0
100
AcDbLine
 62
7
  6
CONTINUOUS
 10
39.5270270784
 20
-61.4787166561
 11
40.9439862093
 21
-61.8548961119
  0
LINE
  5
235
100
AcDbEntity
  8
0
100
AcDbLine
 62
7
  6
CONTINUOUS
 10
-45.0023121248
 20
58.1590979978
 11
-45.0270452385
 21
59.3391313073
  0
LINE
  5
236
100
AcDbEntity
  8
0
100
AcDbLine
 62
7
  6
CONTINUOUS
 10
-45.0270452385
 20
-12.2163000241
 11
-45.0274205459
 21
-12.1921071634
  0
LINE
  5
237
100
AcDbEntity
  8
0
100
AcDbLine
 62
7
  6
CONTINUOUS
 10
-45.0274205459
 20
59.3397676688
 11
-45.0274205459
 21
-12.1921071634
  0
LINE
  5
238
100
AcDbEntity
  8
0
100
AcDbLine
 62
7
  6
CONTINUOUS
 10
-45.0023121248
 20
58.1590979978
 11
-45.0023121248
 21
-12.6725356016
  0
LINE
  5
239
100
AcDbEntity
  8
0
100
AcDbLine
 62
7
  6
CONTINUOUS
 10
-45.0023121248
 20
-12.6725356016
 11
-44.7233361907
 21
-13.1557360931
  0
LINE
  5
23A
100
AcDbEntity
  8
0
100
AcDbLine
 62
7
  6
CONTINUOUS
 10
-44.7233361907
 20
-13.1557360931
 11
-44.3406468908
 21
-13.4051768352
  0
LINE
  5
23B
100
AcDbEntity
  8
0
100
AcDbLine
 62
250
  6
CONTINUOUS
 10
-22.9610126322
 20
25.1624347479
 11
-23.8094246026
 21
24.6725723093
  0
LINE
  5
23C
100
AcDbEntity
  8
0
100
AcDbLine
 62
7
  6
CONTINUOUS
 10
-44.3198832767
 20
-13.4175976608
 11
40.2579502919
 21
-62.251778754
  0
LINE
  5
23D
100
AcDbEntity
  8
0
100
AcDbLine
 62
7
  6
CONTINUOUS
 10
-44.7233361907
 20
-13.1557360931
 11
39.2480511443
 21
-61.6397627316
  0
LINE
  5
23E
100
AcDbEntity
  8
0
100
AcDbLine
 62
7
  6
CONTINUOUS
 10
-44.3198832767
 20
-13.4175976608
 11
-44.3406468908
 21
-13.4051768352
  0
LINE
  5
23F
100
AcDbEntity
  8
0
100
AcDbLine
 62
7
  6
CONTINUOUS
 10
39.2480511443
 20
-61.6397627316
 11
40.2575878617
 21
-62.2511373164
  0
LINE
  5
240
100
AcDbEntity
  8
0
100
AcDbLine
 62
250
  6
CONTINUOUS
 10
-23.3144498557
 20
11.8130983764
 11
-22.9608964651
 21
12.4254708115
  0
LINE
  5
241
100
AcDbEntity
  8
0
100
AcDbLine
 62
250
  6
CONTINUOUS
 10
-21.9874634081
 20
17.6417747182
 11
-22.8194751089
 21
17.1613799403
  0
LINE
  5
242
100
AcDbEntity
  8
0
100
AcDbLine
 62
250
  6
CONTINUOUS
 10
-21.7753636825
 20
17.2744072176
 11
-22.8194751089
 21
16.6715482958
  0
LINE
  5
243
100
AcDbEntity
  8
0
100
AcDbLine
 62
7
  6
CONTINUOUS
 10
-22.5524355234
 20
17.9009816467
 11
-22.8194751089
 21
17.7573763994
  0
LINE
  5
244
100
AcDbEntity
  8
0
100
AcDbLine
 62
250
  6
CONTINUOUS
 10
-22.4066455137
 20
17.8838052124
 11
-22.8194751089
 21
17.6617988158
  0
LINE
  5
245
100
AcDbEntity
  8
0
100
AcDbLine
 62
7
  6
CONTINUOUS
 10
-24.5872420619
 20
-2.883295587
 11
-24.5872420619
 21
8.0574061221
  0
LINE
  5
246
100
AcDbEntity
  8
0
100
AcDbLine
 62
7
  6
CONTINUOUS
 10
-24.5872420619
 20
13.8543450873
 11
-24.5872420619
 21
24.7950467963
  0
LINE
  5
247
100
AcDbEntity
  8
0
100
AcDbLine
 62
7
  6
CONTINUOUS
 10
-24.5165313837
 20
-2.8424760186
 11
-24.5165313837
 21
7.934931635
  0
LINE
  5
248
100
AcDbEntity
  8
0
100
AcDbLine
 62
7
  6
CONTINUOUS
 10
-24.5165313837
 20
13.8951646556
 11
-24.5165313837
 21
24.6725723093
  0
LINE
  5
249
100
AcDbEntity
  8
0
100
AcDbLine
 62
7
  6
CONTINUOUS
 10
-23.8094246026
 20
-2.8424760186
 11
-23.8094246026
 21
7.934931635
  0
LINE
  5
24A
100
AcDbEntity
  8
0
100
AcDbLine
 62
7
  6
CONTINUOUS
 10
-23.8094246026
 20
13.8951646556
 11
-23.8094246026
 21
24.6725723093
  0
LINE
  5
24B
100
AcDbEntity
  8
0
100
AcDbLine
 62
7
  6
CONTINUOUS
 10
-22.8194751089
 20
-2.270891588
 11
-22.8194751089
 21
8.3430720816
  0
LINE
  5
24C
100
AcDbEntity
  8
0
100
AcDbLine
 62
7
  6
CONTINUOUS
 10
-22.8194751089
 20
14.4667490863
 11
-22.8194751089
 21
25.0807127559
  0
LINE
  5
24D
100
AcDbEntity
  8
0
100
AcDbLine
 62
250
  6
CONTINUOUS
 10
-21.7753636825
 20
17.2744072176
 11
-21.7753636825
 21
12.9938062209
  0
LINE
  5
24E
100
AcDbEntity
  8
0
100
AcDbLine
 62
7
  6
CONTINUOUS
 10
-21.6911656226
 20
17.3947333287
 11
-21.6911656226
 21
13.114132332
  0
LINE
  5
24F
100
AcDbEntity
  8
0
100
AcDbLine
 62
250
  6
CONTINUOUS
 10
-21.7753636825
 20
12.9938062209
 11
-21.8670831107
 21
12.9370855507
  0
LINE
  5
250
100
AcDbEntity
  8
0
100
AcDbLine
 62
250
  6
CONTINUOUS
 10
-22.8194751089
 20
14.4667490863
 11
-23.8094246026
 21
13.8951646556
  0
LINE
  5
251
100
AcDbEntity
  8
0
100
AcDbLine
 62
250
  6
CONTINUOUS
 10
-21.9709469715
 20
12.9970552422
 11
-22.9608964651
 21
12.4254708115
  0
LINE
  5
252
100
AcDbEntity
  8
0
100
AcDbLine
 62
250
  6
CONTINUOUS
 10
7.3032737696
 20
-21.2148327184
 11
8.0103805508
 21
-21.2148327184
  0
LINE
  5
253
100
AcDbEntity
  8
0
100
AcDbLine
 62
250
  6
CONTINUOUS
 10
-23.3144498557
 20
-4.9245422978
 11
-22.9608964651
 21
-4.3121698628
  0
LINE
  5
254
100
AcDbEntity
  8
0
100
AcDbLine
 62
250
  6
CONTINUOUS
 10
-13.9806403441
 20
6.4238737445
 11
-13.6270869535
 21
7.0362461796
  0
LINE
  5
255
100
AcDbEntity
  8
0
100
AcDbLine
 62
250
  6
CONTINUOUS
 10
-22.9610126322
 20
8.4247940737
 11
-23.8094246026
 21
7.934931635
  0
LINE
  5
256
100
AcDbEntity
  8
0
100
AcDbLine
 62
250
  6
CONTINUOUS
 10
-7.0511100555
 20
15.976256398
 11
-7.8995220259
 21
15.4863939594
  0
LINE
  5
257
100
AcDbEntity
  8
0
100
AcDbLine
 62
7
  6
CONTINUOUS
 10
17.9098754874
 20
-28.8085981165
 11
8.4346446195
 21
-23.3377185659
  0
LINE
  5
258
100
AcDbEntity
  8
0
100
AcDbLine
 62
7
  6
CONTINUOUS
 10
1.9999729107
 20
-19.6224197666
 11
-7.4752579572
 21
-14.151540216
  0
LINE
  5
259
100
AcDbEntity
  8
0
100
AcDbLine
 62
7
  6
CONTINUOUS
 10
-13.909929666
 20
-10.4362414168
 11
-23.3851605339
 21
-4.9653618662
  0
LINE
  5
25A
100
AcDbEntity
  8
0
100
AcDbLine
 62
7
  6
CONTINUOUS
 10
17.8391648093
 20
-28.6861236295
 11
8.5053552977
 21
-23.2968989976
  0
LINE
  5
25B
100
AcDbEntity
  8
0
100
AcDbLine
 62
7
  6
CONTINUOUS
 10
1.9292622326
 20
-19.4999452796
 11
-7.404547279
 21
-14.1107206477
  0
LINE
  5
25C
100
AcDbEntity
  8
0
100
AcDbLine
 62
7
  6
CONTINUOUS
 10
-13.9806403441
 20
-10.3137669297
 11
-23.3144498557
 21
-4.9245422978
  0
LINE
  5
25D
100
AcDbEntity
  8
0
100
AcDbLine
 62
7
  6
CONTINUOUS
 10
18.1927181999
 20
-28.0737511944
 11
8.8589086883
 21
-22.6845265625
  0
LINE
  5
25E
100
AcDbEntity
  8
0
100
AcDbLine
 62
7
  6
CONTINUOUS
 10
2.2828156232
 20
-18.8875728446
 11
-7.0509938884
 21
-13.4983482126
  0
LINE
  5
25F
100
AcDbEntity
  8
0
100
AcDbLine
 62
7
  6
CONTINUOUS
 10
-13.6270869535
 20
-9.7013944947
 11
-22.9608964651
 21
-4.3121698628
  0
LINE
  5
260
100
AcDbEntity
  8
0
100
AcDbLine
 62
7
  6
CONTINUOUS
 10
-12.7785588161
 20
17.8952140601
 11
-12.7785588161
 21
7.1178064064
  0
LINE
  5
261
100
AcDbEntity
  8
0
100
AcDbLine
 62
7
  6
CONTINUOUS
 10
-12.7785588161
 20
1.1575733858
 11
-12.7785588161
 21
-9.6198342679
  0
LINE
  5
262
100
AcDbEntity
  8
0
100
AcDbLine
 62
7
  6
CONTINUOUS
 10
-12.7078481379
 20
17.9360336284
 11
-12.7078481379
 21
6.9953319194
  0
LINE
  5
263
100
AcDbEntity
  8
0
100
AcDbLine
 62
7
  6
CONTINUOUS
 10
-12.7078481379
 20
1.1983929542
 11
-12.7078481379
 21
-9.7423087549
  0
LINE
  5
264
100
AcDbEntity
  8
0
100
AcDbLine
 62
250
  6
CONTINUOUS
 10
-12.7785588161
 20
7.5261756916
 11
-13.6270869535
 21
7.0362461796
  0
LINE
  5
265
100
AcDbEntity
  8
0
100
AcDbLine
 62
250
  6
CONTINUOUS
 10
-8.6066288071
 20
-12.0286543685
 11
-7.8995220259
 21
-12.0286543685
  0
LINE
  5
266
100
AcDbEntity
  8
0
100
AcDbLine
 62
250
  6
CONTINUOUS
 10
7.3032737696
 20
-10.4374250647
 11
8.0103805508
 21
-10.4374250647
  0
LINE
  5
267
100
AcDbEntity
  8
0
100
AcDbLine
 62
7
  6
CONTINUOUS
 10
19.0412463373
 20
-27.4205118451
 11
9.8488581819
 21
-22.1129421319
  0
LINE
  5
268
100
AcDbEntity
  8
0
100
AcDbLine
 62
7
  6
CONTINUOUS
 10
3.1313437606
 20
-18.2343334952
 11
-6.0610443948
 21
-12.926763782
  0
LINE
  5
269
100
AcDbEntity
  8
0
100
AcDbLine
 62
7
  6
CONTINUOUS
 10
-12.7785588161
 20
-9.0481551454
 11
-21.9709469715
 21
-3.7405854321
  0
LINE
  5
26A
100
AcDbEntity
  8
0
100
AcDbLine
 62
7
  6
CONTINUOUS
 10
-13.3834119661
 20
-7.9634462616
 11
-12.7785588161
 21
-8.3126808899
  0
LINE
  5
26B
100
AcDbEntity
  8
0
100
AcDbLine
 62
7
  6
CONTINUOUS
 10
18.4363931873
 20
-26.3358029614
 11
19.0412463373
 21
-26.6850375896
  0
LINE
  5
26C
100
AcDbEntity
  8
0
100
AcDbLine
 62
7
  6
CONTINUOUS
 10
2.5935925386
 20
-17.149472765
 11
3.1313437606
 21
-17.459963581
  0
LINE
  5
26D
100
AcDbEntity
  8
0
100
AcDbLine
 62
7
  6
CONTINUOUS
 10
-8.6773394852
 20
-12.0694739368
 11
-8.6773394852
 21
-1.1287722278
  0
LINE
  5
26E
100
AcDbEntity
  8
0
100
AcDbLine
 62
7
  6
CONTINUOUS
 10
-8.6773394852
 20
4.6681667374
 11
-8.6773394852
 21
15.6088684464
  0
LINE
  5
26F
100
AcDbEntity
  8
0
100
AcDbLine
 62
7
  6
CONTINUOUS
 10
-8.6066288071
 20
-12.0286543685
 11
-8.6066288071
 21
-1.2512467148
  0
LINE
  5
270
100
AcDbEntity
  8
0
100
AcDbLine
 62
7
  6
CONTINUOUS
 10
-8.6066288071
 20
4.7089863058
 11
-8.6066288071
 21
15.4863939594
  0
LINE
  5
271
100
AcDbEntity
  8
0
100
AcDbLine
 62
7
  6
CONTINUOUS
 10
-7.8995220259
 20
-12.0286543685
 11
-7.8995220259
 21
-1.2512467148
  0
LINE
  5
272
100
AcDbEntity
  8
0
100
AcDbLine
 62
7
  6
CONTINUOUS
 10
-7.8995220259
 20
4.7089863058
 11
-7.8995220259
 21
15.4863939594
  0
LINE
  5
273
100
AcDbEntity
  8
0
100
AcDbLine
 62
7
  6
CONTINUOUS
 10
-6.9095725322
 20
-11.4570699378
 11
-6.9095725322
 21
-0.8431062683
  0
LINE
  5
274
100
AcDbEntity
  8
0
100
AcDbLine
 62
7
  6
CONTINUOUS
 10
-6.9095725322
 20
5.2805707364
 11
-6.9095725322
 21
15.894534406
  0
LINE
  5
275
100
AcDbEntity
  8
0
100
AcDbLine
 62
250
  6
CONTINUOUS
 10
-7.404547279
 20
2.6269200266
 11
-7.0509938884
 21
3.2392924616
  0
LINE
  5
276
100
AcDbEntity
  8
0
100
AcDbLine
 62
250
  6
CONTINUOUS
 10
-13.9806403441
 20
-10.3137669297
 11
-13.6270869535
 21
-9.7013944947
  0
LINE
  5
277
100
AcDbEntity
  8
0
100
AcDbLine
 62
250
  6
CONTINUOUS
 10
-22.8194751089
 20
-2.270891588
 11
-23.8094246026
 21
-2.8424760186
  0
LINE
  5
278
100
AcDbEntity
  8
0
100
AcDbLine
 62
250
  6
CONTINUOUS
 10
-6.9095725322
 20
5.2805707364
 11
-7.8995220259
 21
4.7089863058
  0
LINE
  5
279
100
AcDbEntity
  8
0
100
AcDbLine
 62
250
  6
CONTINUOUS
 10
-21.9709469715
 20
-3.7405854321
 11
-22.9608964651
 21
-4.3121698628
  0
LINE
  5
27A
100
AcDbEntity
  8
0
100
AcDbLine
 62
250
  6
CONTINUOUS
 10
-6.0610443948
 20
3.8108768923
 11
-7.0509938884
 21
3.2392924616
  0
LINE
  5
27B
100
AcDbEntity
  8
0
100
AcDbLine
 62
250
  6
CONTINUOUS
 10
7.3032737696
 20
-4.4771920441
 11
8.0103805508
 21
-4.4771920441
  0
LINE
  5
27C
100
AcDbEntity
  8
0
100
AcDbLine
 62
7
  6
CONTINUOUS
 10
-45.0274205459
 20
59.3397676688
 11
-45.0270452385
 21
59.3391313073
  0
LINE
  5
27D
100
AcDbEntity
  8
0
100
AcDbLine
 62
250
  6
CONTINUOUS
 10
-7.404547279
 20
-14.1107206477
 11
-7.0509938884
 21
-13.4983482126
  0
LINE
  5
27E
100
AcDbEntity
  8
0
100
AcDbLine
 62
250
  6
CONTINUOUS
 10
-7.0511100555
 20
-0.7613842762
 11
-7.8995220259
 21
-1.2512467148
  0
LINE
  5
27F
100
AcDbEntity
  8
0
100
AcDbLine
 62
250
  6
CONTINUOUS
 10
8.8587925212
 20
6.7900780482
 11
8.0103805508
 21
6.3002156096
  0
LINE
  5
280
100
AcDbEntity
  8
0
100
AcDbLine
 62
7
  6
CONTINUOUS
 10
39.5270270784
 20
9.3529169433
 11
40.9439862093
 21
9.7005352194
  0
LINE
  5
281
100
AcDbEntity
  8
0
100
AcDbLine
 62
250
  6
CONTINUOUS
 10
-24.5165313837
 20
-2.8424760186
 11
-23.8094246026
 21
-2.8424760186
  0
LINE
  5
282
100
AcDbEntity
  8
0
100
AcDbLine
 62
250
  6
CONTINUOUS
 10
-8.6066288071
 20
-1.2512467148
 11
-7.8995220259
 21
-1.2512467148
  0
LINE
  5
283
100
AcDbEntity
  8
0
100
AcDbLine
 62
7
  6
CONTINUOUS
 10
-23.3144498557
 20
8.6288642969
 11
-13.9806403441
 21
3.239639665
  0
LINE
  5
284
100
AcDbEntity
  8
0
100
AcDbLine
 62
7
  6
CONTINUOUS
 10
-7.404547279
 20
-0.5573140529
 11
1.9292622326
 21
-5.9465386849
  0
LINE
  5
285
100
AcDbEntity
  8
0
100
AcDbLine
 62
7
  6
CONTINUOUS
 10
8.5053552977
 20
-9.7434924028
 11
17.8391648093
 21
-15.1327170347
  0
LINE
  5
286
100
AcDbEntity
  8
0
100
AcDbLine
 62
7
  6
CONTINUOUS
 10
-23.3851605339
 20
8.751338784
 11
-13.909929666
 21
3.2804592334
  0
LINE
  5
287
100
AcDbEntity
  8
0
100
AcDbLine
 62
7
  6
CONTINUOUS
 10
-7.4752579572
 20
-0.4348395659
 11
1.9999729107
 21
-5.9057191165
  0
LINE
  5
288
100
AcDbEntity
  8
0
100
AcDbLine
 62
7
  6
CONTINUOUS
 10
8.4346446195
 20
-9.6210179158
 11
17.9098754874
 21
-15.0918974664
  0
LINE
  5
289
100
AcDbEntity
  8
0
100
AcDbLine
 62
7
  6
CONTINUOUS
 10
17.9098754874
 20
-12.0709574423
 11
8.4346446195
 21
-6.6000778917
  0
LINE
  5
28A
100
AcDbEntity
  8
0
100
AcDbLine
 62
7
  6
CONTINUOUS
 10
-13.909929666
 20
6.3013992575
 11
-23.3851605339
 21
11.7722788081
  0
LINE
  5
28B
100
AcDbEntity
  8
0
100
AcDbLine
 62
7
  6
CONTINUOUS
 10
17.8391648093
 20
-11.9484829552
 11
8.5053552977
 21
-6.5592583233
  0
LINE
  5
28C
100
AcDbEntity
  8
0
100
AcDbLine
 62
7
  6
CONTINUOUS
 10
1.9292622326
 20
-2.7623046054
 11
-7.404547279
 21
2.6269200266
  0
LINE
  5
28D
100
AcDbEntity
  8
0
100
AcDbLine
 62
7
  6
CONTINUOUS
 10
-13.9806403441
 20
6.4238737445
 11
-23.3144498557
 21
11.8130983764
  0
LINE
  5
28E
100
AcDbEntity
  8
0
100
AcDbLine
 62
7
  6
CONTINUOUS
 10
18.1927181999
 20
-11.3361105202
 11
8.8589086883
 21
-5.9468858883
  0
LINE
  5
28F
100
AcDbEntity
  8
0
100
AcDbLine
 62
7
  6
CONTINUOUS
 10
2.2828156232
 20
-2.1499321703
 11
-7.0509938884
 21
3.2392924616
  0
LINE
  5
290
100
AcDbEntity
  8
0
100
AcDbLine
 62
7
  6
CONTINUOUS
 10
-13.6270869535
 20
7.0362461796
 11
-22.9608964651
 21
12.4254708115
  0
LINE
  5
291
100
AcDbEntity
  8
0
100
AcDbLine
 62
7
  6
CONTINUOUS
 10
19.0412463373
 20
-10.6828711709
 11
9.8488581819
 21
-5.3753014576
  0
LINE
  5
292
100
AcDbEntity
  8
0
100
AcDbLine
 62
7
  6
CONTINUOUS
 10
3.1313437606
 20
-1.496692821
 11
-6.0610443948
 21
3.8108768923
  0
LINE
  5
293
100
AcDbEntity
  8
0
100
AcDbLine
 62
7
  6
CONTINUOUS
 10
-12.7785588161
 20
7.6894855289
 11
-21.9709469715
 21
12.9970552422
  0
LINE
  5
294
100
AcDbEntity
  8
0
100
AcDbLine
 62
7
  6
CONTINUOUS
 10
3.1313437606
 20
8.7090357102
 11
3.1313437606
 21
-2.0683719435
  0
LINE
  5
295
100
AcDbEntity
  8
0
100
AcDbLine
 62
7
  6
CONTINUOUS
 10
3.1313437606
 20
-8.0286049641
 11
3.1313437606
 21
-18.8060126177
  0
LINE
  5
296
100
AcDbEntity
  8
0
100
AcDbLine
 62
7
  6
CONTINUOUS
 10
3.2020544388
 20
8.7498552785
 11
3.2020544388
 21
-2.1908464305
  0
LINE
  5
297
100
AcDbEntity
  8
0
100
AcDbLine
 62
7
  6
CONTINUOUS
 10
3.2020544388
 20
-7.9877853957
 11
3.2020544388
 21
-18.9284871047
  0
LINE
  5
298
100
AcDbEntity
  8
0
100
AcDbLine
 62
250
  6
CONTINUOUS
 10
1.9292622326
 20
-2.7623046054
 11
2.2828156232
 21
-2.1499321703
  0
LINE
  5
299
100
AcDbEntity
  8
0
100
AcDbLine
 62
250
  6
CONTINUOUS
 10
-12.7785588161
 20
-9.2114649827
 11
-13.6270869535
 21
-9.7013944947
  0
LINE
  5
29A
100
AcDbEntity
  8
0
100
AcDbLine
 62
250
  6
CONTINUOUS
 10
3.1313437606
 20
-1.6600026583
 11
2.2828156232
 21
-2.1499321703
  0
LINE
  5
29B
100
AcDbEntity
  8
0
100
AcDbLine
 62
7
  6
CONTINUOUS
 10
-14.2623598065
 20
-8.1914270498
 11
-13.6586594436
 21
-7.9438098881
  0
LINE
  5
29C
100
AcDbEntity
  8
0
100
AcDbLine
 62
250
  6
CONTINUOUS
 10
-8.6773394852
 20
4.6681667374
 11
-7.970232704
 21
4.6681667374
  0
LINE
  5
29D
100
AcDbEntity
  8
0
100
AcDbLine
 62
250
  6
CONTINUOUS
 10
-8.6066288071
 20
4.7089863058
 11
-7.8995220259
 21
4.7089863058
  0
LINE
  5
29E
100
AcDbEntity
  8
0
100
AcDbLine
 62
250
  6
CONTINUOUS
 10
-22.4066455137
 20
17.8838052124
 11
-21.9874634081
 21
17.6417747182
  0
LINE
  5
29F
100
AcDbEntity
  8
0
100
AcDbLine
 62
7
  6
CONTINUOUS
 10
-22.2603404801
 20
17.8965672592
 11
-21.8411583745
 21
17.654536765
  0
LINE
  5
2A0
100
AcDbEntity
  8
0
100
AcDbLine
 62
7
  6
CONTINUOUS
 10
40.2575878617
 20
-62.2511373164
 11
40.2579502919
 21
-62.251778754
  0
LINE
  5
2A1
100
AcDbEntity
  8
0
100
AcDbLine
 62
7
  6
CONTINUOUS
 10
7.2325630915
 20
-21.2556522867
 11
7.2325630915
 21
-10.3149505777
  0
LINE
  5
2A2
100
AcDbEntity
  8
0
100
AcDbLine
 62
7
  6
CONTINUOUS
 10
7.2325630915
 20
-4.5180116125
 11
7.2325630915
 21
6.4226900966
  0
LINE
  5
2A3
100
AcDbEntity
  8
0
100
AcDbLine
 62
7
  6
CONTINUOUS
 10
7.3032737696
 20
-21.2148327184
 11
7.3032737696
 21
-10.4374250647
  0
LINE
  5
2A4
100
AcDbEntity
  8
0
100
AcDbLine
 62
7
  6
CONTINUOUS
 10
7.3032737696
 20
-4.4771920441
 11
7.3032737696
 21
6.3002156096
  0
LINE
  5
2A5
100
AcDbEntity
  8
0
100
AcDbLine
 62
7
  6
CONTINUOUS
 10
8.0103805508
 20
-21.2148327184
 11
8.0103805508
 21
-10.4374250647
  0
LINE
  5
2A6
100
AcDbEntity
  8
0
100
AcDbLine
 62
7
  6
CONTINUOUS
 10
8.0103805508
 20
-4.4771920441
 11
8.0103805508
 21
6.3002156096
  0
LINE
  5
2A7
100
AcDbEntity
  8
0
100
AcDbLine
 62
7
  6
CONTINUOUS
 10
9.0003300445
 20
-20.6432482877
 11
9.0003300445
 21
-10.0292846181
  0
LINE
  5
2A8
100
AcDbEntity
  8
0
100
AcDbLine
 62
7
  6
CONTINUOUS
 10
9.0003300445
 20
-3.9056076135
 11
9.0003300445
 21
6.7083560561
  0
LINE
  5
2A9
100
AcDbEntity
  8
0
100
AcDbLine
 62
250
  6
CONTINUOUS
 10
8.5053552977
 20
-6.5592583233
 11
8.8589086883
 21
-5.9468858883
  0
LINE
  5
2AA
100
AcDbEntity
  8
0
100
AcDbLine
 62
250
  6
CONTINUOUS
 10
-6.9095725322
 20
-11.4570699378
 11
-7.8995220259
 21
-12.0286543685
  0
LINE
  5
2AB
100
AcDbEntity
  8
0
100
AcDbLine
 62
250
  6
CONTINUOUS
 10
9.0003300445
 20
-3.9056076135
 11
8.0103805508
 21
-4.4771920441
  0
LINE
  5
2AC
100
AcDbEntity
  8
0
100
AcDbLine
 62
250
  6
CONTINUOUS
 10
-6.0610443948
 20
-12.926763782
 11
-7.0509938884
 21
-13.4983482126
  0
LINE
  5
2AD
100
AcDbEntity
  8
0
100
AcDbLine
 62
250
  6
CONTINUOUS
 10
9.8488581819
 20
-5.3753014576
 11
8.8589086883
 21
-5.9468858883
  0
LINE
  5
2AE
100
AcDbEntity
  8
0
100
AcDbLine
 62
7
  6
CONTINUOUS
 10
40.2579502919
 20
10.9140307694
 11
44.3198832767
 21
13.2593246716
  0
LINE
  5
2AF
100
AcDbEntity
  8
0
100
AcDbLine
 62
250
  6
CONTINUOUS
 10
7.3032737696
 20
6.3002156096
 11
8.0103805508
 21
6.3002156096
  0
LINE
  5
2B0
100
AcDbEntity
  8
0
100
AcDbLine
 62
250
  6
CONTINUOUS
 10
-24.5165313837
 20
7.934931635
 11
-23.8094246026
 21
7.934931635
  0
LINE
  5
2B1
100
AcDbEntity
  8
0
100
AcDbLine
 62
7
  6
CONTINUOUS
 10
-23.3144498557
 20
25.3665049712
 11
-13.9806403441
 21
19.9772803393
  0
LINE
  5
2B2
100
AcDbEntity
  8
0
100
AcDbLine
 62
7
  6
CONTINUOUS
 10
-7.404547279
 20
16.1803266213
 11
1.9292622326
 21
10.7911019894
  0
LINE
  5
2B3
100
AcDbEntity
  8
0
100
AcDbLine
 62
7
  6
CONTINUOUS
 10
8.5053552977
 20
6.9941482714
 11
17.8391648093
 21
1.6049236395
  0
LINE
  5
2B4
100
AcDbEntity
  8
0
100
AcDbLine
 62
7
  6
CONTINUOUS
 10
-23.3851605339
 20
25.4889794582
 11
-13.909929666
 21
20.0180999076
  0
LINE
  5
2B5
100
AcDbEntity
  8
0
100
AcDbLine
 62
7
  6
CONTINUOUS
 10
-7.4752579572
 20
16.3028011083
 11
1.9999729107
 21
10.8319215577
  0
LINE
  5
2B6
100
AcDbEntity
  8
0
100
AcDbLine
 62
7
  6
CONTINUOUS
 10
8.4346446195
 20
7.1166227585
 11
17.9098754874
 21
1.6457432079
  0
LINE
  5
2B7
100
AcDbEntity
  8
0
100
AcDbLine
 62
250
  6
CONTINUOUS
 10
1.9292622326
 20
-19.4999452796
 11
2.2828156232
 21
-18.8875728446
  0
LINE
  5
2B8
100
AcDbEntity
  8
0
100
AcDbLine
 62
7
  6
CONTINUOUS
 10
40.9654875612
 20
9.688540272
 11
45.0274205459
 21
12.0338341742
  0
LINE
  5
2B9
100
AcDbEntity
  8
0
100
AcDbLine
 62
250
  6
CONTINUOUS
 10
8.8587925212
 20
-9.9475626261
 11
8.0103805508
 21
-10.4374250647
  0
LINE
  5
2BA
100
AcDbEntity
  8
0
100
AcDbLine
 62
250
  6
CONTINUOUS
 10
-24.5165313837
 20
13.8951646556
 11
-23.8094246026
 21
13.8951646556
  0
LINE
  5
2BB
100
AcDbEntity
  8
0
100
AcDbLine
 62
250
  6
CONTINUOUS
 10
-8.6066288071
 20
15.4863939594
 11
-7.8995220259
 21
15.4863939594
  0
LINE
  5
2BC
100
AcDbEntity
  8
0
100
AcDbLine
 62
250
  6
CONTINUOUS
 10
-8.6773394852
 20
15.6088684464
 11
-7.970232704
 21
15.6088684464
  0
LINE
  5
2BD
100
AcDbEntity
  8
0
100
AcDbLine
 62
7
  6
CONTINUOUS
 10
19.0412463373
 20
-0.4771426397
 11
19.0412463373
 21
-11.2545502934
  0
LINE
  5
2BE
100
AcDbEntity
  8
0
100
AcDbLine
 62
7
  6
CONTINUOUS
 10
19.0412463373
 20
-17.2147833139
 11
19.0412463373
 21
-27.9921909676
  0
LINE
  5
2BF
100
AcDbEntity
  8
0
100
AcDbLine
 62
7
  6
CONTINUOUS
 10
19.1119570155
 20
-0.4363230713
 11
19.1119570155
 21
-11.3770247804
  0
LINE
  5
2C0
100
AcDbEntity
  8
0
100
AcDbLine
 62
7
  6
CONTINUOUS
 10
19.1119570155
 20
-17.1739637456
 11
19.1119570155
 21
-28.1146654546
  0
LINE
  5
2C1
100
AcDbEntity
  8
0
100
AcDbLine
 62
250
  6
CONTINUOUS
 10
8.5053552977
 20
-23.2968989976
 11
8.8589086883
 21
-22.6845265625
  0
LINE
  5
2C2
100
AcDbEntity
  8
0
100
AcDbLine
 62
250
  6
CONTINUOUS
 10
3.1313437606
 20
-18.3976433326
 11
2.2828156232
 21
-18.8875728446
  0
LINE
  5
2C3
100
AcDbEntity
  8
0
100
AcDbLine
 62
250
  6
CONTINUOUS
 10
19.0412463373
 20
-10.8461810082
 11
18.1927181999
 21
-11.3361105202
  0
LINE
  5
2C4
100
AcDbEntity
  8
0
100
AcDbLine
 62
7
  6
CONTINUOUS
 10
1.6803499119
 20
-17.3965478322
 11
2.1807213223
 21
-17.1412046937
  0
LINE
  5
2C5
100
AcDbEntity
  8
0
100
AcDbLine
 62
250
  6
CONTINUOUS
 10
17.8391648093
 20
-11.9484829552
 11
18.1927181999
 21
-11.3361105202
  0
LINE
  5
2C6
100
AcDbEntity
  8
0
100
AcDbLine
 62
7
  6
CONTINUOUS
 10
39.2480511443
 20
9.8361174348
 11
40.2575878617
 21
10.8894120305
  0
LINE
  5
2C7
100
AcDbEntity
  8
0
100
AcDbLine
 62
250
  6
CONTINUOUS
 10
9.0003300445
 20
-20.6432482877
 11
8.0103805508
 21
-21.2148327184
  0
LINE
  5
2C8
100
AcDbEntity
  8
0
100
AcDbLine
 62
250
  6
CONTINUOUS
 10
9.8488581819
 20
-22.1129421319
 11
8.8589086883
 21
-22.6845265625
  0
LINE
  5
2C9
100
AcDbEntity
  8
0
100
AcDbLine
 62
250
  6
CONTINUOUS
 10
-24.5165313837
 20
24.6725723093
 11
-23.8094246026
 21
24.6725723093
  0
LINE
  5
2CA
100
AcDbEntity
  8
0
100
AcDbLine
 62
250
  6
CONTINUOUS
 10
17.8391648093
 20
-28.6861236295
 11
18.1927181999
 21
-28.0737511944
  0
LINE
  5
2CB
100
AcDbEntity
  8
0
100
AcDbLine
 62
7
  6
CONTINUOUS
 10
17.5574453468
 20
-26.5637837496
 11
18.1611457098
 21
-26.3161665879
  0
LINE
  5
2CC
100
AcDbEntity
  8
0
100
AcDbLine
 62
7
  6
CONTINUOUS
 10
40.9439862093
 20
9.7005352194
 11
40.9654875612
 21
9.688540272
  0
LINE
  5
2CD
100
AcDbEntity
  8
0
100
AcDbLine
 62
7
  6
CONTINUOUS
 10
39.2480511443
 20
9.8361174348
 11
-44.7233361907
 21
58.3201440733
  0
LINE
  5
2CE
100
AcDbEntity
  8
0
100
AcDbLine
 62
7
  6
CONTINUOUS
 10
40.2579502919
 20
10.9140307694
 11
-44.3198832767
 21
59.7482118627
  0
LINE
  5
2CF
100
AcDbEntity
  8
0
100
AcDbLine
 62
250
  6
CONTINUOUS
 10
19.0412463373
 20
-27.5838216824
 11
18.1927181999
 21
-28.0737511944
  0
LINE
  5
2D0
100
AcDbEntity
  8
0
100
AcDbLine
 62
7
  6
CONTINUOUS
 10
44.3198832767
 20
13.2593246716
 11
-40.5320694895
 21
62.251778754
  0
LINE
  5
2D1
100
AcDbEntity
  8
0
100
AcDbLine
 62
7
  6
CONTINUOUS
 10
39.5270270784
 20
-61.4787166561
 11
39.5270270784
 21
9.3529169433
  0
LINE
  5
2D2
100
AcDbEntity
  8
0
100
AcDbLine
 62
7
  6
CONTINUOUS
 10
40.9654875612
 20
-61.8433345602
 11
40.9654875612
 21
9.688540272
  0
LINE
  5
2D3
100
AcDbEntity
  8
0
100
AcDbLine
 62
7
  6
CONTINUOUS
 10
40.2579502919
 20
10.9140307694
 11
40.2575878617
 21
10.8894120305
  0
LINE
  5
2D4
100
AcDbEntity
  8
0
100
AcDbLine
 62
7
  6
CONTINUOUS
 10
39.5270270784
 20
9.3529169433
 11
39.2480511443
 21
9.8361174348
  0
LINE
  5
2D5
100
AcDbEntity
  8
0
100
AcDbLine
 62
7
  6
CONTINUOUS
 10
40.9439862093
 20
9.7005352194
 11
40.2575878617
 21
10.8894120305
  0
LINE
  5
2D6
100
AcDbEntity
  8
CURVE
100
AcDbLine
 62
250
  6
CONTINUOUS
 10
42.0963309347
 20
-54.6455849069
 11
42.0963309347
 21
-55.071613382
  0
LINE
  5
2D7
100
AcDbEntity
  8
CURVE
100
AcDbLine
 62
250
  6
CONTINUOUS
 10
42.0964399064
 20
-56.9081629569
 11
42.0964399064
 21
-56.4453647428
  0
LINE
  5
2D8
100
AcDbEntity
  8
CURVE
100
AcDbLine
 62
250
  6
CONTINUOUS
 10
42.0964399064
 20
-55.6553921924
 11
42.0964399064
 21
-55.2296551971
  0
LINE
  5
2D9
100
AcDbEntity
  8
CURVE
100
AcDbLine
 62
250
  6
CONTINUOUS
 10
42.0964399064
 20
-54.2318950436
 11
42.0964399064
 21
-53.8062192836
  0
LINE
  5
2DA
100
AcDbEntity
  8
CURVE
100
AcDbLine
 62
250
  6
CONTINUOUS
 10
42.0964399064
 20
-52.9586619011
 11
42.0964399064
 21
-52.5371485066
  0
LINE
  5
2DB
100
AcDbEntity
  8
CURVE
100
AcDbLine
 62
250
  6
CONTINUOUS
 10
42.0964399064
 20
-51.6392230726
 11
42.0964399064
 21
-51.227091738
  0
LINE
  5
2DC
100
AcDbEntity
  8
CURVE
100
AcDbLine
 62
250
  6
CONTINUOUS
 10
42.9097646912
 20
-49.3842007395
 11
42.9097646912
 21
-49.6276717307
  0
LINE
  5
2DD
100
AcDbEntity
  8
CURVE
100
AcDbLine
 62
250
  6
CONTINUOUS
 10
43.209178179
 20
-49.452334305
 11
43.209178179
 21
-49.2239080702
  0
LINE
  5
2DE
100
AcDbEntity
  8
CURVE
100
AcDbLine
 62
250
  6
CONTINUOUS
 10
43.2772455626
 20
-51.0175160448
 11
43.2772455626
 21
-50.6096238239
  0
LINE
  5
2DF
100
AcDbEntity
  8
CURVE
100
AcDbLine
 62
250
  6
CONTINUOUS
 10
43.5596592572
 20
-50.3724244093
 11
43.5596592572
 21
-50.9526041056
  0
LINE
  5
2E0
100
AcDbEntity
  8
CURVE
100
AcDbLine
 62
250
  6
CONTINUOUS
 10
43.924631083
 20
-54.0872154023
 11
43.924631083
 21
-53.6611869272
  0
LINE
  5
2E1
100
AcDbEntity
  8
CURVE
100
AcDbLine
 62
250
  6
CONTINUOUS
 10
43.9246310951
 20
-49.4914325069
 11
43.9246310951
 21
-49.0671183405
  0
LINE
  5
2E2
100
AcDbEntity
  8
CURVE
100
AcDbLine
 62
250
  6
CONTINUOUS
 10
43.9246310951
 20
-48.4147146479
 11
43.9246310951
 21
-48.0049248698
  0
LINE
  5
2E3
100
AcDbEntity
  8
CURVE
100
AcDbLine
 62
250
  6
CONTINUOUS
 10
43.924631083
 20
-49.6165352417
 11
43.924631083
 21
-50.0655514375
  0
LINE
  5
2E4
100
AcDbEntity
  8
CURVE
100
AcDbLine
 62
250
  6
CONTINUOUS
 10
43.924631083
 20
-50.873652894
 11
43.924631083
 21
-51.2950585144
  0
LINE
  5
2E5
100
AcDbEntity
  8
CURVE
100
AcDbLine
 62
250
  6
CONTINUOUS
 10
43.924631083
 20
-51.361956823
 11
43.924631083
 21
-51.7787257087
  0
LINE
  5
2E6
100
AcDbEntity
  8
CURVE
100
AcDbLine
 62
250
  6
CONTINUOUS
 10
43.924631083
 20
-52.3728017292
 11
43.924631083
 21
-52.432552657
  0
LINE
  5
2E7
100
AcDbEntity
  8
CURVE
100
AcDbLine
 62
250
  6
CONTINUOUS
 10
43.924631083
 20
-53.0242723442
 11
43.924631083
 21
-53.4318428758
  0
LINE
  5
2E8
100
AcDbEntity
  8
CURVE
100
AcDbLine
 62
250
  6
CONTINUOUS
 10
43.924631083
 20
-54.9013620047
 11
43.924631083
 21
-55.2767995321
  0
LINE
  5
2E9
100
AcDbEntity
  8
0
100
AcDbLine
 62
7
  6
CONTINUOUS
 10
45.0274205459
 20
-59.8145560459
 11
45.0274205459
 21
12.0338341742
  0
LINE
  5
2EA
100
AcDbEntity
  8
0
100
AcDbLine
 62
7
  6
CONTINUOUS
 10
44.3198832767
 20
13.2593246716
 11
45.0274205459
 21
12.0338341742
  0
LINE
  5
2EB
100
AcDbEntity
  8
CURVE
100
AcDbLine
 62
7
  6
CONTINUOUS
 10
42.3129946118
 20
-49.0702405179
 11
42.4892249716
 21
-48.894010158
  0
LINE
  5
2EC
100
AcDbEntity
  8
CURVE
100
AcDbLine
 62
7
  6
CONTINUOUS
 10
42.1198196699
 20
-49.4734261738
 11
42.8470594932
 21
-48.7461863505
  0
LINE
  5
2ED
100
AcDbEntity
  8
CURVE
100
AcDbLine
 62
7
  6
CONTINUOUS
 10
42.0837766594
 20
-49.7194798982
 11
43.005909674
 21
-48.7973468837
  0
LINE
  5
2EE
100
AcDbEntity
  8
CURVE
100
AcDbLine
 62
7
  6
CONTINUOUS
 10
42.0756804027
 20
-49.9375868689
 11
42.3931157712
 21
-49.6201515005
  0
LINE
  5
2EF
100
AcDbEntity
  8
CURVE
100
AcDbLine
 62
7
  6
CONTINUOUS
 10
42.834751047
 20
-49.1785162246
 11
43.9246310951
 21
-48.0886361766
  0
LINE
  5
2F0
100
AcDbEntity
  8
CURVE
100
AcDbLine
 62
7
  6
CONTINUOUS
 10
42.0827327686
 20
-50.140545217
 11
42.397727872
 21
-49.8255501136
  0
LINE
  5
2F1
100
AcDbEntity
  8
CURVE
100
AcDbLine
 62
7
  6
CONTINUOUS
 10
42.9048532605
 20
-49.3184247251
 11
43.9246310951
 21
-48.2986468906
  0
LINE
  5
2F2
100
AcDbEntity
  8
CURVE
100
AcDbLine
 62
7
  6
CONTINUOUS
 10
42.1007607358
 20
-50.3325279639
 11
42.6841303665
 21
-49.7491583332
  0
LINE
  5
2F3
100
AcDbEntity
  8
CURVE
100
AcDbLine
 62
7
  6
CONTINUOUS
 10
42.9097646912
 20
-49.5235240085
 11
43.209178179
 21
-49.2241105207
  0
LINE
  5
2F4
100
AcDbEntity
  8
CURVE
100
AcDbLine
 62
7
  6
CONTINUOUS
 10
42.2504502094
 20
-50.3928492043
 11
43.209178179
 21
-49.4341212347
  0
LINE
  5
2F5
100
AcDbEntity
  8
CURVE
100
AcDbLine
 62
7
  6
CONTINUOUS
 10
42.7054349622
 20
-50.1478751655
 11
43.6247046149
 21
-49.2286055128
  0
LINE
  5
2F6
100
AcDbEntity
  8
CURVE
100
AcDbLine
 62
7
  6
CONTINUOUS
 10
43.160419715
 20
-49.9029011267
 11
43.9246310951
 21
-49.1386897466
  0
LINE
  5
2F7
100
AcDbEntity
  8
CURVE
100
AcDbLine
 62
7
  6
CONTINUOUS
 10
43.6154044678
 20
-49.6579270879
 11
43.9246310951
 21
-49.3487004606
  0
LINE
  5
2F8
100
AcDbEntity
  8
CURVE
100
AcDbLine
 62
7
  6
CONTINUOUS
 10
42.0964399064
 20
-51.3869023634
 11
43.438893116
 21
-50.0444491538
  0
LINE
  5
2F9
100
AcDbEntity
  8
CURVE
100
AcDbLine
 62
7
  6
CONTINUOUS
 10
42.0964399064
 20
-51.5969130774
 11
43.924631083
 21
-49.7687219007
  0
LINE
  5
2FA
100
AcDbEntity
  8
CURVE
100
AcDbLine
 62
7
  6
CONTINUOUS
 10
42.3030325447
 20
-51.6003311531
 11
42.7717161297
 21
-51.1316475681
  0
LINE
  5
2FB
100
AcDbEntity
  8
CURVE
100
AcDbLine
 62
7
  6
CONTINUOUS
 10
43.2772455626
 20
-50.6261181352
 11
43.924631083
 21
-49.9787326147
  0
LINE
  5
2FC
100
AcDbEntity
  8
CURVE
100
AcDbLine
 62
7
  6
CONTINUOUS
 10
42.5617474017
 20
-51.5516270101
 11
43.0429659104
 21
-51.0704085014
  0
LINE
  5
2FD
100
AcDbEntity
  8
CURVE
100
AcDbLine
 62
7
  6
CONTINUOUS
 10
43.2772455626
 20
-50.8361288492
 11
43.5596592572
 21
-50.5537151546
  0
LINE
  5
2FE
100
AcDbEntity
  8
CURVE
100
AcDbLine
 62
7
  6
CONTINUOUS
 10
42.8204622587
 20
-51.5029228671
 11
43.5596592572
 21
-50.7637258686
  0
LINE
  5
2FF
100
AcDbEntity
  8
CURVE
100
AcDbLine
 62
7
  6
CONTINUOUS
 10
43.0791771156
 20
-51.4542187242
 11
43.5866250014
 21
-50.9467708384
  0
LINE
  5
300
100
AcDbEntity
  8
CURVE
100
AcDbLine
 62
7
  6
CONTINUOUS
 10
42.0964399064
 20
-52.6469666475
 11
42.4038958207
 21
-52.3395107331
  0
LINE
  5
301
100
AcDbEntity
  8
CURVE
100
AcDbLine
 62
7
  6
CONTINUOUS
 10
43.3378919726
 20
-51.4055145812
 11
43.8546056641
 21
-50.8888008898
  0
LINE
  5
302
100
AcDbEntity
  8
CURVE
100
AcDbLine
 62
7
  6
CONTINUOUS
 10
42.0964399064
 20
-52.8569773615
 11
42.9918591169
 21
-51.961558151
  0
LINE
  5
303
100
AcDbEntity
  8
CURVE
100
AcDbLine
 62
7
  6
CONTINUOUS
 10
43.5966068296
 20
-51.3568104382
 11
43.924631083
 21
-51.0287861848
  0
LINE
  5
304
100
AcDbEntity
  8
CURVE
100
AcDbLine
 62
250
  6
CONTINUOUS
 10
42.0964399064
 20
-51.227091738
 11
43.924631083
 21
-49.6165352417
  0
LINE
  5
305
100
AcDbEntity
  8
CURVE
100
AcDbLine
 62
250
  6
CONTINUOUS
 10
43.924631083
 20
-50.0655514375
 11
43.5596592572
 21
-50.3724244093
  0
LINE
  5
306
100
AcDbEntity
  8
CURVE
100
AcDbLine
 62
250
  6
CONTINUOUS
 10
43.2772455626
 20
-50.6096238239
 11
42.5987804353
 21
-51.1706906246
  0
LINE
  5
307
100
AcDbEntity
  8
CURVE
100
AcDbLine
 62
250
  6
CONTINUOUS
 10
42.0964399064
 20
-52.5371485066
 11
43.924631083
 21
-51.361956823
  0
LINE
  5
308
100
AcDbEntity
  8
CURVE
100
AcDbLine
 62
250
  6
CONTINUOUS
 10
43.924631083
 20
-51.7787257087
 11
42.7358331935
 21
-52.506330148
  0
LINE
  5
309
100
AcDbEntity
  8
CURVE
100
AcDbLine
 62
250
  6
CONTINUOUS
 10
43.0712478173
 20
-48.8556152283
 11
43.0604448031
 21
-48.8614318145
  0
LINE
  5
30A
100
AcDbEntity
  8
CURVE
100
AcDbLine
 62
250
  6
CONTINUOUS
 10
43.9246310951
 20
-49.0671183405
 11
43.209178179
 21
-49.452334305
  0
LINE
  5
30B
100
AcDbEntity
  8
CURVE
100
AcDbLine
 62
250
  6
CONTINUOUS
 10
42.9097646912
 20
-49.6276717307
 11
42.4078906545
 21
-49.897892016
  0
LINE
  5
30C
100
AcDbEntity
  8
CURVE
100
AcDbLine
 62
250
  6
CONTINUOUS
 10
42.1177995647
 20
-50.4642712992
 11
43.9246310951
 21
-49.4914325069
  0
LINE
  5
30D
100
AcDbEntity
  8
CURVE
100
AcDbLine
 62
250
  6
CONTINUOUS
 10
42.730857063
 20
-53.5750901621
 11
43.924631083
 21
-53.0242723442
  0
LINE
  5
30E
100
AcDbEntity
  8
CURVE
100
AcDbLine
 62
250
  6
CONTINUOUS
 10
43.924631083
 20
-53.4318428758
 11
42.0964399064
 21
-54.2318950436
  0
LINE
  5
30F
100
AcDbEntity
  8
CURVE
100
AcDbLine
 62
7
  6
CONTINUOUS
 10
42.2193558578
 20
-52.9440721241
 11
43.579822413
 21
-51.5836055688
  0
LINE
  5
310
100
AcDbEntity
  8
CURVE
100
AcDbLine
 62
7
  6
CONTINUOUS
 10
43.8553216866
 20
-51.3081062953
 11
43.924631083
 21
-51.2387968988
  0
LINE
  5
311
100
AcDbEntity
  8
CURVE
100
AcDbLine
 62
7
  6
CONTINUOUS
 10
42.4576516053
 20
-52.9157870905
 11
42.8837194619
 21
-52.4897192339
  0
LINE
  5
312
100
AcDbEntity
  8
CURVE
100
AcDbLine
 62
7
  6
CONTINUOUS
 10
43.0742158486
 20
-52.2992228473
 11
43.924631083
 21
-51.4488076128
  0
LINE
  5
313
100
AcDbEntity
  8
CURVE
100
AcDbLine
 62
7
  6
CONTINUOUS
 10
42.6959473529
 20
-52.887502057
 11
43.120303861
 21
-52.4631455489
  0
LINE
  5
314
100
AcDbEntity
  8
CURVE
100
AcDbLine
 62
7
  6
CONTINUOUS
 10
43.615551146
 20
-51.9678982638
 11
43.924631083
 21
-51.6588183268
  0
LINE
  5
315
100
AcDbEntity
  8
CURVE
100
AcDbLine
 62
7
  6
CONTINUOUS
 10
42.9342431004
 20
-52.8592170234
 11
43.3568882601
 21
-52.4365718638
  0
LINE
  5
316
100
AcDbEntity
  8
CURVE
100
AcDbLine
 62
7
  6
CONTINUOUS
 10
42.0964399064
 20
-53.9070309315
 11
43.5934726592
 21
-52.4099981787
  0
LINE
  5
317
100
AcDbEntity
  8
CURVE
100
AcDbLine
 62
7
  6
CONTINUOUS
 10
42.0964399064
 20
-54.1170416455
 11
43.8300570582
 21
-52.3834244937
  0
LINE
  5
318
100
AcDbEntity
  8
CURVE
100
AcDbLine
 62
7
  6
CONTINUOUS
 10
42.2656444243
 20
-54.1578478416
 11
42.9491024356
 21
-53.4743898303
  0
LINE
  5
319
100
AcDbEntity
  8
CURVE
100
AcDbLine
 62
7
  6
CONTINUOUS
 10
42.6390761598
 20
-53.9944268202
 11
43.3390284267
 21
-53.2944745533
  0
LINE
  5
31A
100
AcDbEntity
  8
CURVE
100
AcDbLine
 62
7
  6
CONTINUOUS
 10
42.0963309347
 20
-54.7471827593
 11
42.3164410084
 21
-54.5270726855
  0
LINE
  5
31B
100
AcDbEntity
  8
CURVE
100
AcDbLine
 62
7
  6
CONTINUOUS
 10
43.0125078952
 20
-53.8310057987
 11
43.7289544177
 21
-53.1145592763
  0
LINE
  5
31C
100
AcDbEntity
  8
CURVE
100
AcDbLine
 62
7
  6
CONTINUOUS
 10
42.0963309347
 20
-54.9571934733
 11
42.7714257613
 21
-54.2820986467
  0
LINE
  5
31D
100
AcDbEntity
  8
CURVE
100
AcDbLine
 62
7
  6
CONTINUOUS
 10
43.3859396307
 20
-53.6675847773
 11
43.924631083
 21
-53.1288933249
  0
LINE
  5
31E
100
AcDbEntity
  8
CURVE
100
AcDbLine
 62
7
  6
CONTINUOUS
 10
42.3034268398
 20
-54.9601082822
 11
43.2264105141
 21
-54.0371246079
  0
LINE
  5
31F
100
AcDbEntity
  8
CURVE
100
AcDbLine
 62
7
  6
CONTINUOUS
 10
43.7593713661
 20
-53.5041637558
 11
43.924631083
 21
-53.3389040389
  0
LINE
  5
320
100
AcDbEntity
  8
CURVE
100
AcDbLine
 62
7
  6
CONTINUOUS
 10
42.0964399064
 20
-55.3771059296
 11
42.2761642149
 21
-55.1973816211
  0
LINE
  5
321
100
AcDbEntity
  8
CURVE
100
AcDbLine
 62
7
  6
CONTINUOUS
 10
42.7584115926
 20
-54.7151342434
 11
43.6813952669
 21
-53.7921505691
  0
LINE
  5
322
100
AcDbEntity
  8
CURVE
100
AcDbLine
 62
7
  6
CONTINUOUS
 10
42.0964399064
 20
-55.5871166436
 11
42.532141447
 21
-55.151415103
  0
LINE
  5
323
100
AcDbEntity
  8
CURVE
100
AcDbLine
 62
7
  6
CONTINUOUS
 10
43.2133963454
 20
-54.4701602046
 11
43.924631083
 21
-53.758925467
  0
LINE
  5
324
100
AcDbEntity
  8
CURVE
100
AcDbLine
 62
7
  6
CONTINUOUS
 10
42.2781099422
 20
-55.6154573218
 11
42.788118679
 21
-55.105448585
  0
LINE
  5
325
100
AcDbEntity
  8
CURVE
100
AcDbLine
 62
7
  6
CONTINUOUS
 10
43.6683810982
 20
-54.2251861658
 11
43.924631083
 21
-53.968936181
  0
LINE
  5
326
100
AcDbEntity
  8
CURVE
100
AcDbLine
 62
7
  6
CONTINUOUS
 10
42.5472926386
 20
-55.5562853394
 11
43.0440959111
 21
-55.0594820669
  0
LINE
  5
327
100
AcDbEntity
  8
CURVE
100
AcDbLine
 62
7
  6
CONTINUOUS
 10
42.8164753349
 20
-55.4971133571
 11
43.3000731431
 21
-55.0135155489
  0
LINE
  5
328
100
AcDbEntity
  8
CURVE
100
AcDbLine
 62
7
  6
CONTINUOUS
 10
43.0856580313
 20
-55.4379413748
 11
43.5560503752
 21
-54.9675490308
  0
LINE
  5
329
100
AcDbEntity
  8
CURVE
100
AcDbLine
 62
7
  6
CONTINUOUS
 10
42.0964399064
 20
-56.6371702137
 11
43.8120276073
 21
-54.9215825128
  0
LINE
  5
32A
100
AcDbEntity
  8
CURVE
100
AcDbLine
 62
7
  6
CONTINUOUS
 10
42.0964399064
 20
-56.8471809277
 11
43.924631083
 21
-55.018989751
  0
LINE
  5
32B
100
AcDbEntity
  8
CURVE
100
AcDbLine
 62
7
  6
CONTINUOUS
 10
43.4806599879
 20
-55.6729715602
 11
43.924631083
 21
-55.229000465
  0
LINE
  5
32C
100
AcDbEntity
  8
CURVE
100
AcDbLine
 62
250
  6
CONTINUOUS
 10
43.924631083
 20
-52.432552657
 11
42.730857063
 21
-53.5750901621
  0
LINE
  5
32D
100
AcDbEntity
  8
CURVE
100
AcDbLine
 62
250
  6
CONTINUOUS
 10
42.0964399064
 20
-53.8062192836
 11
43.111457186
 21
-52.838182211
  0
LINE
  5
32E
100
AcDbEntity
  8
CURVE
100
AcDbLine
 62
250
  6
CONTINUOUS
 10
43.924631083
 20
-55.2767995321
 11
42.0964399064
 21
-56.9081629569
  0
LINE
  5
32F
100
AcDbEntity
  8
CURVE
100
AcDbLine
 62
250
  6
CONTINUOUS
 10
42.0964399064
 20
-56.4453647428
 11
43.3548407276
 21
-55.3787693924
  0
LINE
  5
330
100
AcDbEntity
  8
0
100
AcDbLine
 62
7
  6
CONTINUOUS
 10
39.2480511443
 20
-61.6397627316
 11
39.5270270784
 21
-61.4787166561
  0
LINE
  5
331
100
AcDbEntity
  8
0
100
AcDbLine
 62
7
  6
CONTINUOUS
 10
40.2575878617
 20
-62.2511373164
 11
40.9439862093
 21
-61.8548961119
  0
LINE
  5
332
100
AcDbEntity
  8
0
100
AcDbLine
 62
7
  6
CONTINUOUS
 10
45.0274205459
 20
-59.8145560459
 11
44.3198832767
 21
-60.2230002398
  0
LINE
  5
333
100
AcDbEntity
  8
CURVE
100
AcDbLine
 62
250
  6
CONTINUOUS
 10
43.924631083
 20
-53.6611869272
 11
42.0963309347
 21
-54.6455849069
  0
LINE
  5
334
100
AcDbEntity
  8
CURVE
100
AcDbLine
 62
250
  6
CONTINUOUS
 10
42.0963309347
 20
-55.071613382
 11
43.924631083
 21
-54.0872154023
  0
LINE
  5
335
100
AcDbEntity
  8
0
100
AcDbLine
 62
7
  6
CONTINUOUS
 10
40.9654875612
 20
-61.8433345602
 11
40.9439862093
 21
-61.8548961119
  0
LINE
  5
336
100
AcDbEntity
  8
0
100
AcDbLine
 62
7
  6
CONTINUOUS
 10
40.9654875612
 20
-61.8433345602
 11
45.0274205459
 21
-59.8145560459
  0
LINE
  5
337
100
AcDbEntity
  8
0
100
AcDbLine
 62
7
  6
CONTINUOUS
 10
40.2579502919
 20
-62.251778754
 11
44.3198832767
 21
-60.2230002398
  0
ARC
  5
338
100
AcDbEntity
  8
0
100
AcDbCircle
 62
7
  6
CONTINUOUS
 10
-8.1654425493
 20
-1.8734930016
 40
1.5202922868
100
AcDbArc
 50
59.967394439
 51
62.9821923456
  0
ARC
  5
339
100
AcDbEntity
  8
0
100
AcDbCircle
 62
7
  6
CONTINUOUS
 10
-8.1070113102
 20
-1.7575405522
 40
1.3904509944
100
AcDbArc
 50
62.9566833809
 51
66.1321272141
  0
ARC
  5
33A
100
AcDbEntity
  8
0
100
AcDbCircle
 62
7
  6
CONTINUOUS
 10
-14.0608181818
 20
-9.6396892737
 40
1.2814254224
100
AcDbArc
 50
350.5406526648
 51
353.8669362737
  0
ARC
  5
33B
100
AcDbEntity
  8
0
100
AcDbCircle
 62
7
  6
CONTINUOUS
 10
-8.0548148074
 20
-1.6379512055
 40
1.2599687696
100
AcDbArc
 50
66.1022692844
 51
69.4854056296
  0
ARC
  5
33C
100
AcDbEntity
  8
0
100
AcDbCircle
 62
7
  6
CONTINUOUS
 10
-14.8364384958
 20
1.7614344782
 40
1.708084625
100
AcDbArc
 50
57.1684526841
 51
58.6326329143
  0
ARC
  5
33D
100
AcDbEntity
  8
0
100
AcDbCircle
 62
7
  6
CONTINUOUS
 10
-14.8364384958
 20
18.4990751525
 40
1.7080846249
100
AcDbArc
 50
57.1684526841
 51
58.6326329144
  0
ARC
  5
33E
100
AcDbEntity
  8
0
100
AcDbCircle
 62
7
  6
CONTINUOUS
 10
-14.7965047043
 20
1.8269035997
 40
1.6313975127
100
AcDbArc
 50
58.6333056133
 51
59.9932838956
  0
ARC
  5
33F
100
AcDbEntity
  8
0
100
AcDbCircle
 62
7
  6
CONTINUOUS
 10
-14.7965047043
 20
18.564544274
 40
1.6313975127
100
AcDbArc
 50
58.6333056133
 51
59.9932838956
  0
ARC
  5
340
100
AcDbEntity
  8
0
100
AcDbCircle
 62
7
  6
CONTINUOUS
 10
-24.075345126
 20
24.0503260226
 40
1.5202922868
100
AcDbArc
 50
59.967394439
 51
62.9821923456
  0
ARC
  5
341
100
AcDbEntity
  8
0
100
AcDbCircle
 62
7
  6
CONTINUOUS
 10
-24.075345126
 20
7.3126853483
 40
1.5202922868
100
AcDbArc
 50
59.967394439
 51
62.9821923456
  0
ARC
  5
342
100
AcDbEntity
  8
0
100
AcDbCircle
 62
7
  6
CONTINUOUS
 10
-8.1654425493
 20
14.8641476727
 40
1.5202922868
100
AcDbArc
 50
59.9673944391
 51
62.9821923456
  0
ARC
  5
343
100
AcDbEntity
  8
0
100
AcDbCircle
 62
7
  6
CONTINUOUS
 10
-24.0169138869
 20
24.1662784719
 40
1.3904509944
100
AcDbArc
 50
62.9566833809
 51
66.1321272141
  0
ARC
  5
344
100
AcDbEntity
  8
0
100
AcDbCircle
 62
7
  6
CONTINUOUS
 10
-24.0169138869
 20
7.4286377976
 40
1.3904509944
100
AcDbArc
 50
62.9566833809
 51
66.1321272141
  0
ARC
  5
345
100
AcDbEntity
  8
0
100
AcDbCircle
 62
7
  6
CONTINUOUS
 10
-8.1070113102
 20
14.980100122
 40
1.3904509944
100
AcDbArc
 50
62.9566833809
 51
66.1321272141
  0
ARC
  5
346
100
AcDbEntity
  8
0
100
AcDbCircle
 62
7
  6
CONTINUOUS
 10
-14.0608181818
 20
7.0979514005
 40
1.2814254224
100
AcDbArc
 50
350.5406526648
 51
353.8669362737
  0
ARC
  5
347
100
AcDbEntity
  8
0
100
AcDbCircle
 62
7
  6
CONTINUOUS
 10
-23.9647173841
 20
24.2858678187
 40
1.2599687696
100
AcDbArc
 50
66.1022692845
 51
69.4854056296
  0
ARC
  5
348
100
AcDbEntity
  8
0
100
AcDbCircle
 62
7
  6
CONTINUOUS
 10
-23.9647173841
 20
7.5482271444
 40
1.2599687695
100
AcDbArc
 50
66.1022692844
 51
69.4854056296
  0
ARC
  5
349
100
AcDbEntity
  8
0
100
AcDbCircle
 62
7
  6
CONTINUOUS
 10
-8.0548148074
 20
15.0996894688
 40
1.2599687695
100
AcDbArc
 50
66.1022692844
 51
69.4854056296
  0
ARC
  5
34A
100
AcDbEntity
  8
0
100
AcDbCircle
 62
7
  6
CONTINUOUS
 10
-23.3599701164
 20
24.8739784629
 40
0.4017489359
100
AcDbArc
 50
120.0133189515
 51
126.4838132268
  0
ARC
  5
34B
100
AcDbEntity
  8
0
100
AcDbCircle
 62
7
  6
CONTINUOUS
 10
-7.4500675397
 20
-1.0498405613
 40
0.4017489359
100
AcDbArc
 50
120.0133189515
 51
126.4838132268
  0
ARC
  5
34C
100
AcDbEntity
  8
0
100
AcDbCircle
 62
7
  6
CONTINUOUS
 10
-7.4500675397
 20
15.687800113
 40
0.4017489359
100
AcDbArc
 50
120.0133189515
 51
126.4838132268
  0
ARC
  5
34D
100
AcDbEntity
  8
0
100
AcDbCircle
 62
7
  6
CONTINUOUS
 10
-23.3599701164
 20
8.1363377886
 40
0.4017489359
100
AcDbArc
 50
120.0133189515
 51
126.4838132268
  0
ARC
  5
34E
100
AcDbEntity
  8
0
100
AcDbCircle
 62
7
  6
CONTINUOUS
 10
-21.9911656226
 20
17.3947333287
 40
0.3
100
AcDbArc
 50
0.0007992921
 51
59.9992007414
  0
ARC
  5
34F
100
AcDbEntity
  8
0
100
AcDbCircle
 62
7
  6
CONTINUOUS
 10
-22.4103477282
 20
17.6367638229
 40
0.3
100
AcDbArc
 50
60.0005489507
 51
118.2699256376
  0
ARC
  5
350
100
AcDbEntity
  8
0
100
AcDbCircle
 62
7
  6
CONTINUOUS
 10
-21.9911656226
 20
13.114132332
 40
0.3
100
AcDbArc
 50
312.271154542
 51
359.9978457589
  0
ARC
  5
351
100
AcDbEntity
  8
0
100
AcDbCircle
 62
7
  6
CONTINUOUS
 10
16.9833666576
 20
-16.6109222215
 40
1.708084625
100
AcDbArc
 50
57.1684526841
 51
58.6326329143
  0
ARC
  5
352
100
AcDbEntity
  8
0
100
AcDbCircle
 62
7
  6
CONTINUOUS
 10
1.0734640809
 20
-7.4247438716
 40
1.708084625
100
AcDbArc
 50
57.1684526841
 51
58.6326329144
  0
ARC
  5
353
100
AcDbEntity
  8
0
100
AcDbCircle
 62
7
  6
CONTINUOUS
 10
17.0233004491
 20
-16.5454531
 40
1.6313975127
100
AcDbArc
 50
58.6333056133
 51
59.9932838956
  0
ARC
  5
354
100
AcDbEntity
  8
0
100
AcDbCircle
 62
7
  6
CONTINUOUS
 10
1.1133978724
 20
-7.3592747502
 40
1.6313975127
100
AcDbArc
 50
58.6333056133
 51
59.9932838956
  0
ARC
  5
355
100
AcDbEntity
  8
0
100
AcDbCircle
 62
7
  6
CONTINUOUS
 10
7.7444600274
 20
-11.0596713515
 40
1.5202922868
100
AcDbArc
 50
59.967394439
 51
62.9821923456
  0
ARC
  5
356
100
AcDbEntity
  8
0
100
AcDbCircle
 62
7
  6
CONTINUOUS
 10
7.8028912665
 20
-10.9437189021
 40
1.3904509944
100
AcDbArc
 50
62.9566833809
 51
66.1321272141
  0
ARC
  5
357
100
AcDbEntity
  8
0
100
AcDbCircle
 62
7
  6
CONTINUOUS
 10
1.8490843949
 20
-2.0882269493
 40
1.2814254224
100
AcDbArc
 50
350.5406526648
 51
353.8669362737
  0
ARC
  5
358
100
AcDbEntity
  8
0
100
AcDbCircle
 62
7
  6
CONTINUOUS
 10
17.7589869716
 20
-28.0120459735
 40
1.2814254224
100
AcDbArc
 50
350.5406526648
 51
353.8669362737
  0
ARC
  5
359
100
AcDbEntity
  8
0
100
AcDbCircle
 62
7
  6
CONTINUOUS
 10
1.8490843949
 20
-18.8258676236
 40
1.2814254224
100
AcDbArc
 50
350.5406526648
 51
353.8669362737
  0
ARC
  5
35A
100
AcDbEntity
  8
0
100
AcDbCircle
 62
7
  6
CONTINUOUS
 10
17.7589869716
 20
-11.2744052992
 40
1.2814254224
100
AcDbArc
 50
350.5406526648
 51
353.8669362737
  0
ARC
  5
35B
100
AcDbEntity
  8
0
100
AcDbCircle
 62
7
  6
CONTINUOUS
 10
7.8550877693
 20
-10.8241295553
 40
1.2599687696
100
AcDbArc
 50
66.1022692844
 51
69.4854056296
  0
ARC
  5
35C
100
AcDbEntity
  8
0
100
AcDbCircle
 62
7
  6
CONTINUOUS
 10
8.459835037
 20
-10.2360189111
 40
0.4017489359
100
AcDbArc
 50
120.0133189515
 51
126.4838132268
  0
ARC
  5
35D
100
AcDbEntity
  8
0
100
AcDbCircle
 62
7
  6
CONTINUOUS
 10
16.9833666576
 20
0.1267184527
 40
1.708084625
100
AcDbArc
 50
57.1684526841
 51
58.6326329143
  0
ARC
  5
35E
100
AcDbEntity
  8
0
100
AcDbCircle
 62
7
  6
CONTINUOUS
 10
1.0734640809
 20
9.3128968026
 40
1.708084625
100
AcDbArc
 50
57.1684526841
 51
58.6326329143
  0
ARC
  5
35F
100
AcDbEntity
  8
0
100
AcDbCircle
 62
7
  6
CONTINUOUS
 10
17.0233004491
 20
0.1921875742
 40
1.6313975127
100
AcDbArc
 50
58.6333056133
 51
59.9932838956
  0
ARC
  5
360
100
AcDbEntity
  8
0
100
AcDbCircle
 62
7
  6
CONTINUOUS
 10
1.1133978724
 20
9.3783659241
 40
1.6313975127
100
AcDbArc
 50
58.6333056133
 51
59.9932838956
  0
ARC
  5
361
100
AcDbEntity
  8
0
100
AcDbCircle
 62
7
  6
CONTINUOUS
 10
7.7444600274
 20
5.6779693228
 40
1.5202922868
100
AcDbArc
 50
59.967394439
 51
62.9821923456
  0
ARC
  5
362
100
AcDbEntity
  8
0
100
AcDbCircle
 62
7
  6
CONTINUOUS
 10
7.8028912665
 20
5.7939217721
 40
1.3904509944
100
AcDbArc
 50
62.9566833809
 51
66.1321272141
  0
ARC
  5
363
100
AcDbEntity
  8
0
100
AcDbCircle
 62
7
  6
CONTINUOUS
 10
7.8550877693
 20
5.9135111189
 40
1.2599687696
100
AcDbArc
 50
66.1022692844
 51
69.4854056296
  0
ARC
  5
364
100
AcDbEntity
  8
0
100
AcDbCircle
 62
7
  6
CONTINUOUS
 10
8.459835037
 20
6.5016217631
 40
0.4017489359
100
AcDbArc
 50
120.0133189515
 51
126.4838132268
  0
SPLINE
  5
365
100
AcDbEntity
  8
0
100
AcDbSpline
 62
250
  6
CONTINUOUS
 70
0
 71
3
 72
11
 73
7
 74
0
 42
0.0000001
 43
0.0000001
 44
0.0000000001
 40
0.0
 40
0.0
 40
0.0
 40
0.0
 40
0.2187603581
 40
0.4523095269
 40
0.7113215761
 40
1.0
 40
1.0
 40
1.0
 40
1.0
 10
-21.6911656688
 20
17.3947333287
 30
0.0
 10
-21.6911664869
 20
17.3835634627
 30
0.0
 10
-21.6951868976
 20
17.3603187733
 30
0.0
 10
-21.7124362824
 20
17.3278097223
 30
0.0
 10
-21.7397733238
 20
17.2982824603
 30
0.0
 10
-21.7627126546
 20
17.2819712953
 30
0.0
 10
-21.7753636825
 20
17.2744072176
 30
0.0
  0
SPLINE
  5
366
100
AcDbEntity
  8
0
100
AcDbSpline
 62
250
  6
CONTINUOUS
 70
0
 71
3
 72
11
 73
7
 74
0
 42
0.0000001
 43
0.0000001
 44
0.0000000001
 40
0.0
 40
0.0
 40
0.0
 40
0.0
 40
0.2187556894
 40
0.4523030936
 40
0.7113134247
 40
1.0
 40
1.0
 40
1.0
 40
1.0
 10
-21.841162019
 20
17.6545388216
 30
0.0
 10
-21.8508355442
 20
17.6601227531
 30
0.0
 10
-21.8729762241
 20
17.6682619134
 30
0.0
 10
-21.9097537606
 20
17.6695755721
 30
0.0
 10
-21.9489927564
 20
17.660661891
 30
0.0
 10
-21.9745874231
 20
17.6489496387
 30
0.0
 10
-21.9874634081
 20
17.6417747182
 30
0.0
  0
SPLINE
  5
367
100
AcDbEntity
  8
0
100
AcDbSpline
 62
250
  6
CONTINUOUS
 70
0
 71
3
 72
11
 73
7
 74
0
 42
0.0000001
 43
0.0000001
 44
0.0000000001
 40
0.0
 40
0.0
 40
0.0
 40
0.0
 40
0.2187504078
 40
0.4522967227
 40
0.7113126141
 40
1.0
 40
1.0
 40
1.0
 40
1.0
 10
-22.2603502408
 20
17.8965728406
 30
0.0
 10
-22.2700235065
 20
17.9021556661
 30
0.0
 10
-22.2921631426
 20
17.9102933277
 30
0.0
 10
-22.328938996
 20
17.9116055458
 30
0.0
 10
-22.3681762474
 20
17.90269158
 30
0.0
 10
-22.3937700781
 20
17.8909798267
 30
0.0
 10
-22.4066455137
 20
17.8838052124
 30
0.0
  0
SPLINE
  5
368
100
AcDbEntity
  8
0
100
AcDbSpline
 62
250
  6
CONTINUOUS
 70
0
 71
3
 72
11
 73
7
 74
0
 42
0.0000001
 43
0.0000001
 44
0.0000000001
 40
0.0
 40
0.0
 40
0.0
 40
0.0
 40
0.2187601249
 40
0.4523110155
 40
0.711323703
 40
1.0
 40
1.0
 40
1.0
 40
1.0
 10
-21.6911656702
 20
13.1141210525
 30
0.0
 10
-21.6911677548
 20
13.1029520119
 30
0.0
 10
-21.695190154
 20
13.0797094411
 30
0.0
 10
-21.7124401946
 20
13.0472037896
 30
0.0
 10
-21.7397759994
 20
13.0176794676
 30
0.0
 10
-21.762713669
 20
13.0013696921
 30
0.0
 10
-21.7753636825
 20
12.9938062209
 30
0.0
  0
SPLINE
  5
369
100
AcDbEntity
  8
0
100
AcDbSpline
 62
250
  6
CONTINUOUS
 70
0
 71
3
 72
11
 73
7
 74
0
 42
0.0000001
 43
0.0000001
 44
0.0000000001
 40
0.0
 40
0.0
 40
0.0
 40
0.0
 40
0.2187326905
 40
0.4522634167
 40
0.7112958566
 40
1.0
 40
1.0
 40
1.0
 40
1.0
 10
-22.5524353979
 20
17.9009814133
 30
0.0
 10
-22.5426022159
 20
17.9062672987
 30
0.0
 10
-22.5202376667
 20
17.913732778
 30
0.0
 10
-22.4834521238
 20
17.9139332203
 30
0.0
 10
-22.44451564
 20
17.9038390143
 30
0.0
 10
-22.4192945087
 20
17.8913634666
 30
0.0
 10
-22.4066455137
 20
17.8838052124
 30
0.0
  0
SPLINE
  5
36A
100
AcDbEntity
  8
0
100
AcDbSpline
 62
250
  6
CONTINUOUS
 70
0
 71
3
 72
11
 73
7
 74
0
 42
0.0000001
 43
0.0000001
 44
0.0000000001
 40
0.0
 40
0.0
 40
0.0
 40
0.0
 40
0.2377546645
 40
0.500005962
 40
0.762254009
 40
1.0
 40
1.0
 40
1.0
 40
1.0
 10
-21.9874634081
 20
17.6417747182
 30
0.0
 10
-21.9569608181
 20
17.6247564635
 30
0.0
 10
-21.8992271097
 20
17.5773292926
 30
0.0
 10
-21.8322190541
 20
17.4864907694
 30
0.0
 10
-21.787054958
 20
17.3830420719
 30
0.0
 10
-21.7748496746
 20
17.3093310744
 30
0.0
 10
-21.7753636825
 20
17.2744072176
 30
0.0
  0
SPLINE
  5
36B
100
AcDbEntity
  8
0
100
AcDbSpline
 62
250
  6
CONTINUOUS
 70
0
 71
3
 72
9
 73
5
 74
0
 42
0.0000001
 43
0.0000001
 44
0.0000000001
 40
0.0
 40
0.0
 40
0.0
 40
0.0
 40
0.2764406463
 40
1.0
 40
1.0
 40
1.0
 40
1.0
 10
-21.7753636825
 20
12.9938062209
 30
0.0
 10
-21.7752253611
 20
12.9845734876
 30
0.0
 10
-21.7763796545
 20
12.9512676444
 30
0.0
 10
-21.7850341451
 20
12.9175220274
 30
0.0
 10
-21.7972623123
 20
12.8966751428
 30
0.0
  0
SPLINE
  5
36C
100
AcDbEntity
  8
0
100
AcDbSpline
 62
7
  6
CONTINUOUS
 70
0
 71
3
 72
13
 73
9
 74
0
 42
0.0000001
 43
0.0000001
 44
0.0000000001
 40
0.0
 40
0.0
 40
0.0
 40
0.0
 40
0.1142615855
 40
0.2375404653
 40
0.5000060639
 40
0.7624683436
 40
0.8857433475
 40
1.0
 40
1.0
 40
1.0
 40
1.0
 10
17.9098754874
 20
-15.0918974664
 30
0.0
 10
17.9921694733
 20
-15.1394129825
 30
0.0
 10
18.1547312242
 20
-15.2533538571
 30
0.0
 10
18.4590360138
 20
-15.5382155006
 30
0.0
 10
18.7805151618
 20
-15.97729281
 30
0.0
 10
19.0000273151
 20
-16.475237611
 30
0.0
 10
19.0945666
 20
-16.8811952016
 30
0.0
 10
19.1119570153
 20
-17.0789414077
 30
0.0
 10
19.1119570155
 20
-17.1739637456
 30
0.0
  0
SPLINE
  5
36D
100
AcDbEntity
  8
0
100
AcDbSpline
 62
7
  6
CONTINUOUS
 70
0
 71
3
 72
13
 73
9
 74
0
 42
0.0000001
 43
0.0000001
 44
0.0000000001
 40
0.0
 40
0.0
 40
0.0
 40
0.0
 40
0.1142615855
 40
0.2375404653
 40
0.5000060639
 40
0.7624683436
 40
0.8857433475
 40
1.0
 40
1.0
 40
1.0
 40
1.0
 10
1.9999729107
 20
-5.9057191165
 30
0.0
 10
2.0822668966
 20
-5.9532346326
 30
0.0
 10
2.2448286475
 20
-6.0671755072
 30
0.0
 10
2.5491334371
 20
-6.3520371507
 30
0.0
 10
2.8706125851
 20
-6.7911144601
 30
0.0
 10
3.0901247384
 20
-7.2890592612
 30
0.0
 10
3.1846640234
 20
-7.6950168517
 30
0.0
 10
3.2020544386
 20
-7.8927630579
 30
0.0
 10
3.2020544388
 20
-7.9877853957
 30
0.0
  0
SPLINE
  5
36E
100
AcDbEntity
  8
0
100
AcDbSpline
 62
7
  6
CONTINUOUS
 70
0
 71
3
 72
13
 73
9
 74
0
 42
0.0000001
 43
0.0000001
 44
0.0000000001
 40
0.0
 40
0.0
 40
0.0
 40
0.0
 40
0.1142615855
 40
0.2375404653
 40
0.5000060639
 40
0.7624683436
 40
0.8857433475
 40
1.0
 40
1.0
 40
1.0
 40
1.0
 10
-13.909929666
 20
3.2804592334
 30
0.0
 10
-13.8276356801
 20
3.2329437173
 30
0.0
 10
-13.6650739292
 20
3.1190028426
 30
0.0
 10
-13.3607691396
 20
2.8341411992
 30
0.0
 10
-13.0392899916
 20
2.3950638898
 30
0.0
 10
-12.8197778383
 20
1.8971190887
 30
0.0
 10
-12.7252385533
 20
1.4911614981
 30
0.0
 10
-12.7078481381
 20
1.293415292
 30
0.0
 10
-12.7078481379
 20
1.1983929542
 30
0.0
  0
SPLINE
  5
36F
100
AcDbEntity
  8
0
100
AcDbSpline
 62
7
  6
CONTINUOUS
 70
0
 71
3
 72
13
 73
9
 74
0
 42
0.0000001
 43
0.0000001
 44
0.0000000001
 40
0.0
 40
0.0
 40
0.0
 40
0.0
 40
0.1142615855
 40
0.2375404653
 40
0.5000060639
 40
0.7624683436
 40
0.8857433475
 40
1.0
 40
1.0
 40
1.0
 40
1.0
 10
17.9098754874
 20
1.6457432079
 30
0.0
 10
17.9921694733
 20
1.5982276918
 30
0.0
 10
18.1547312242
 20
1.4842868172
 30
0.0
 10
18.4590360138
 20
1.1994251737
 30
0.0
 10
18.7805151618
 20
0.7603478643
 30
0.0
 10
19.0000273151
 20
0.2624030632
 30
0.0
 10
19.0945666
 20
-0.1435545274
 30
0.0
 10
19.1119570153
 20
-0.3413007335
 30
0.0
 10
19.1119570155
 20
-0.4363230713
 30
0.0
  0
SPLINE
  5
370
100
AcDbEntity
  8
0
100
AcDbSpline
 62
7
  6
CONTINUOUS
 70
0
 71
3
 72
13
 73
9
 74
0
 42
0.0000001
 43
0.0000001
 44
0.0000000001
 40
0.0
 40
0.0
 40
0.0
 40
0.0
 40
0.1142615855
 40
0.2375404653
 40
0.5000060639
 40
0.7624683436
 40
0.8857433475
 40
1.0
 40
1.0
 40
1.0
 40
1.0
 10
1.9999729107
 20
10.8319215577
 30
0.0
 10
2.0822668966
 20
10.7844060417
 30
0.0
 10
2.2448286475
 20
10.670465167
 30
0.0
 10
2.5491334371
 20
10.3856035236
 30
0.0
 10
2.8706125851
 20
9.9465262142
 30
0.0
 10
3.0901247384
 20
9.4485814131
 30
0.0
 10
3.1846640234
 20
9.0426238225
 30
0.0
 10
3.2020544386
 20
8.8448776164
 30
0.0
 10
3.2020544388
 20
8.7498552785
 30
0.0
  0
SPLINE
  5
371
100
AcDbEntity
  8
0
100
AcDbSpline
 62
7
  6
CONTINUOUS
 70
0
 71
3
 72
13
 73
9
 74
0
 42
0.0000001
 43
0.0000001
 44
0.0000000001
 40
0.0
 40
0.0
 40
0.0
 40
0.0
 40
0.1142615855
 40
0.2375404653
 40
0.5000060639
 40
0.7624683436
 40
0.8857433475
 40
1.0
 40
1.0
 40
1.0
 40
1.0
 10
-13.909929666
 20
20.0180999076
 30
0.0
 10
-13.8276356801
 20
19.9705843915
 30
0.0
 10
-13.6650739292
 20
19.8566435169
 30
0.0
 10
-13.3607691396
 20
19.5717818734
 30
0.0
 10
-13.0392899916
 20
19.132704564
 30
0.0
 10
-12.8197778383
 20
18.634759763
 30
0.0
 10
-12.7252385533
 20
18.2288021724
 30
0.0
 10
-12.7078481381
 20
18.0310559663
 30
0.0
 10
-12.7078481379
 20
17.9360336284
 30
0.0
  0
SPLINE
  5
372
100
AcDbEntity
  8
0
100
AcDbSpline
 62
7
  6
CONTINUOUS
 70
0
 71
3
 72
13
 73
9
 74
0
 42
0.0000001
 43
0.0000001
 44
0.0000000001
 40
0.0
 40
0.0
 40
0.0
 40
0.0
 40
0.1142615855
 40
0.2375404653
 40
0.5000060639
 40
0.7624683436
 40
0.8857433475
 40
1.0
 40
1.0
 40
1.0
 40
1.0
 10
-7.4752579572
 20
-14.151540216
 30
0.0
 10
-7.557551943
 20
-14.1040247
 30
0.0
 10
-7.7201136939
 20
-13.9900838253
 30
0.0
 10
-8.0244184835
 20
-13.7052221819
 30
0.0
 10
-8.3458976315
 20
-13.2661448725
 30
0.0
 10
-8.5654097848
 20
-12.7682000714
 30
0.0
 10
-8.6599490698
 20
-12.3622424808
 30
0.0
 10
-8.677339485
 20
-12.1644962747
 30
0.0
 10
-8.6773394852
 20
-12.0694739368
 30
0.0
  0
SPLINE
  5
373
100
AcDbEntity
  8
0
100
AcDbSpline
 62
7
  6
CONTINUOUS
 70
0
 71
3
 72
15
 73
11
 74
0
 42
0.0000001
 43
0.0000001
 44
0.0000000001
 40
0.0
 40
0.0
 40
0.0
 40
0.0
 40
0.1449018469
 40
0.2745170393
 40
0.3911053272
 40
0.4999889023
 40
0.6088744922
 40
0.7254681378
 40
0.8550905417
 40
1.0
 40
1.0
 40
1.0
 40
1.0
 10
3.2020544388
 20
-18.9284871047
 30
0.0
 10
3.2020544387
 20
-19.0146506246
 30
0.0
 10
3.1890339816
 20
-19.1784591574
 30
0.0
 10
3.1226591872
 20
-19.4034652073
 30
0.0
 10
3.0108882099
 20
-19.5861746806
 30
0.0
 10
2.8557387418
 20
-19.7166540216
 30
0.0
 10
2.6651549245
 20
-19.7857569071
 30
0.0
 10
2.4510297562
 20
-19.7911798842
 30
0.0
 10
2.222973329
 20
-19.7361430228
 30
0.0
 10
2.0745954256
 20
-19.6655058712
 30
0.0
 10
1.9999729107
 20
-19.6224197666
 30
0.0
  0
SPLINE
  5
374
100
AcDbEntity
  8
0
100
AcDbSpline
 62
7
  6
CONTINUOUS
 70
0
 71
3
 72
15
 73
11
 74
0
 42
0.0000001
 43
0.0000001
 44
0.0000000001
 40
0.0
 40
0.0
 40
0.0
 40
0.0
 40
0.1449018469
 40
0.2745170393
 40
0.3911053272
 40
0.4999889023
 40
0.6088744922
 40
0.7254681378
 40
0.8550905417
 40
1.0
 40
1.0
 40
1.0
 40
1.0
 10
-24.5872420619
 20
8.0574061221
 30
0.0
 10
-24.5872420618
 20
8.1435696419
 30
0.0
 10
-24.5742216047
 20
8.3073781747
 30
0.0
 10
-24.5078468104
 20
8.5323842246
 30
0.0
 10
-24.396075833
 20
8.7150936979
 30
0.0
 10
-24.2409263649
 20
8.8455730389
 30
0.0
 10
-24.0503425476
 20
8.9146759245
 30
0.0
 10
-23.8362173793
 20
8.9200989015
 30
0.0
 10
-23.6081609521
 20
8.8650620401
 30
0.0
 10
-23.4597830487
 20
8.7944248886
 30
0.0
 10
-23.3851605339
 20
8.751338784
 30
0.0
  0
SPLINE
  5
375
100
AcDbEntity
  8
0
100
AcDbSpline
 62
7
  6
CONTINUOUS
 70
0
 71
3
 72
13
 73
9
 74
0
 42
0.0000001
 43
0.0000001
 44
0.0000000001
 40
0.0
 40
0.0
 40
0.0
 40
0.0
 40
0.1142615855
 40
0.2375404653
 40
0.5000060639
 40
0.7624683436
 40
0.8857433475
 40
1.0
 40
1.0
 40
1.0
 40
1.0
 10
-23.3851605339
 20
-4.9653618662
 30
0.0
 10
-23.4674545197
 20
-4.9178463501
 30
0.0
 10
-23.6300162706
 20
-4.8039054755
 30
0.0
 10
-23.9343210602
 20
-4.519043832
 30
0.0
 10
-24.2558002082
 20
-4.0799665226
 30
0.0
 10
-24.4753123615
 20
-3.5820217215
 30
0.0
 10
-24.5698516465
 20
-3.1760641309
 30
0.0
 10
-24.5872420617
 20
-2.9783179248
 30
0.0
 10
-24.5872420619
 20
-2.883295587
 30
0.0
  0
SPLINE
  5
376
100
AcDbEntity
  8
0
100
AcDbSpline
 62
7
  6
CONTINUOUS
 70
0
 71
3
 72
15
 73
11
 74
0
 42
0.0000001
 43
0.0000001
 44
0.0000000001
 40
0.0
 40
0.0
 40
0.0
 40
0.0
 40
0.1449018469
 40
0.2745170393
 40
0.3911053272
 40
0.4999889023
 40
0.6088744922
 40
0.7254681378
 40
0.8550905417
 40
1.0
 40
1.0
 40
1.0
 40
1.0
 10
-12.7078481379
 20
-9.7423087549
 30
0.0
 10
-12.707848138
 20
-9.8284722747
 30
0.0
 10
-12.7208685951
 20
-9.9922808075
 30
0.0
 10
-12.7872433894
 20
-10.2172868574
 30
0.0
 10
-12.8990143668
 20
-10.3999963307
 30
0.0
 10
-13.0541638349
 20
-10.5304756717
 30
0.0
 10
-13.2447476522
 20
-10.5995785573
 30
0.0
 10
-13.4588728205
 20
-10.6050015343
 30
0.0
 10
-13.6869292477
 20
-10.549964673
 30
0.0
 10
-13.8353071511
 20
-10.4793275214
 30
0.0
 10
-13.909929666
 20
-10.4362414168
 30
0.0
  0
SPLINE
  5
377
100
AcDbEntity
  8
0
100
AcDbSpline
 62
7
  6
CONTINUOUS
 70
0
 71
3
 72
15
 73
11
 74
0
 42
0.0000001
 43
0.0000001
 44
0.0000000001
 40
0.0
 40
0.0
 40
0.0
 40
0.0
 40
0.1449018469
 40
0.2745170393
 40
0.3911053272
 40
0.4999889023
 40
0.6088744922
 40
0.7254681378
 40
0.8550905417
 40
1.0
 40
1.0
 40
1.0
 40
1.0
 10
7.2325630915
 20
-10.3149505777
 30
0.0
 10
7.2325630916
 20
-10.2287870578
 30
0.0
 10
7.2455835487
 20
-10.064978525
 30
0.0
 10
7.311958343
 20
-9.8399724751
 30
0.0
 10
7.4237293204
 20
-9.6572630018
 30
0.0
 10
7.5788787885
 20
-9.5267836608
 30
0.0
 10
7.7694626058
 20
-9.4576807753
 30
0.0
 10
7.9835877741
 20
-9.4522577983
 30
0.0
 10
8.2116442013
 20
-9.5072946596
 30
0.0
 10
8.3600221047
 20
-9.5779318112
 30
0.0
 10
8.4346446195
 20
-9.6210179158
 30
0.0
  0
SPLINE
  5
378
100
AcDbEntity
  8
0
100
AcDbSpline
 62
7
  6
CONTINUOUS
 70
0
 71
3
 72
15
 73
11
 74
0
 42
0.0000001
 43
0.0000001
 44
0.0000000001
 40
0.0
 40
0.0
 40
0.0
 40
0.0
 40
0.1449018469
 40
0.2745170393
 40
0.3911053272
 40
0.4999889023
 40
0.6088744922
 40
0.7254681378
 40
0.8550905417
 40
1.0
 40
1.0
 40
1.0
 40
1.0
 10
7.2325630915
 20
6.4226900966
 30
0.0
 10
7.2325630916
 20
6.5088536164
 30
0.0
 10
7.2455835487
 20
6.6726621492
 30
0.0
 10
7.311958343
 20
6.8976681991
 30
0.0
 10
7.4237293204
 20
7.0803776724
 30
0.0
 10
7.5788787885
 20
7.2108570134
 30
0.0
 10
7.7694626058
 20
7.279959899
 30
0.0
 10
7.9835877741
 20
7.285382876
 30
0.0
 10
8.2116442013
 20
7.2303460146
 30
0.0
 10
8.3600221047
 20
7.1597088631
 30
0.0
 10
8.4346446195
 20
7.1166227585
 30
0.0
  0
SPLINE
  5
379
100
AcDbEntity
  8
0
100
AcDbSpline
 62
7
  6
CONTINUOUS
 70
0
 71
3
 72
13
 73
9
 74
0
 42
0.0000001
 43
0.0000001
 44
0.0000000001
 40
0.0
 40
0.0
 40
0.0
 40
0.0
 40
0.1142615855
 40
0.2375404653
 40
0.5000060639
 40
0.7624683436
 40
0.8857433475
 40
1.0
 40
1.0
 40
1.0
 40
1.0
 10
8.4346446195
 20
-6.6000778917
 30
0.0
 10
8.3523506337
 20
-6.5525623756
 30
0.0
 10
8.1897888828
 20
-6.4386215009
 30
0.0
 10
7.8854840932
 20
-6.1537598575
 30
0.0
 10
7.5640049452
 20
-5.7146825481
 30
0.0
 10
7.3444927919
 20
-5.216737747
 30
0.0
 10
7.2499535069
 20
-4.8107801564
 30
0.0
 10
7.2325630917
 20
-4.6130339503
 30
0.0
 10
7.2325630915
 20
-4.5180116125
 30
0.0
  0
SPLINE
  5
37A
100
AcDbEntity
  8
0
100
AcDbSpline
 62
7
  6
CONTINUOUS
 70
0
 71
3
 72
15
 73
11
 74
0
 42
0.0000001
 43
0.0000001
 44
0.0000000001
 40
0.0
 40
0.0
 40
0.0
 40
0.0
 40
0.1449018469
 40
0.2745170393
 40
0.3911053272
 40
0.4999889023
 40
0.6088744922
 40
0.7254681378
 40
0.8550905417
 40
1.0
 40
1.0
 40
1.0
 40
1.0
 10
19.1119570155
 20
-11.3770247804
 30
0.0
 10
19.1119570154
 20
-11.4631883002
 30
0.0
 10
19.0989365583
 20
-11.626996833
 30
0.0
 10
19.0325617639
 20
-11.8520028829
 30
0.0
 10
18.9207907866
 20
-12.0347123562
 30
0.0
 10
18.7656413185
 20
-12.1651916972
 30
0.0
 10
18.5750575012
 20
-12.2342945828
 30
0.0
 10
18.3609323329
 20
-12.2397175598
 30
0.0
 10
18.1328759057
 20
-12.1846806984
 30
0.0
 10
17.9844980023
 20
-12.1140435469
 30
0.0
 10
17.9098754874
 20
-12.0709574423
 30
0.0
  0
SPLINE
  5
37B
100
AcDbEntity
  8
0
100
AcDbSpline
 62
7
  6
CONTINUOUS
 70
0
 71
3
 72
13
 73
9
 74
0
 42
0.0000001
 43
0.0000001
 44
0.0000000001
 40
0.0
 40
0.0
 40
0.0
 40
0.0
 40
0.1142615855
 40
0.2375404653
 40
0.5000060639
 40
0.7624683436
 40
0.8857433475
 40
1.0
 40
1.0
 40
1.0
 40
1.0
 10
8.4346446195
 20
-23.3377185659
 30
0.0
 10
8.3523506337
 20
-23.2902030498
 30
0.0
 10
8.1897888828
 20
-23.1762621752
 30
0.0
 10
7.8854840932
 20
-22.8914005317
 30
0.0
 10
7.5640049452
 20
-22.4523232223
 30
0.0
 10
7.3444927919
 20
-21.9543784213
 30
0.0
 10
7.2499535069
 20
-21.5484208307
 30
0.0
 10
7.2325630917
 20
-21.3506746246
 30
0.0
 10
7.2325630915
 20
-21.2556522867
 30
0.0
  0
SPLINE
  5
37C
100
AcDbEntity
  8
0
100
AcDbSpline
 62
7
  6
CONTINUOUS
 70
0
 71
3
 72
15
 73
11
 74
0
 42
0.0000001
 43
0.0000001
 44
0.0000000001
 40
0.0
 40
0.0
 40
0.0
 40
0.0
 40
0.1449018469
 40
0.2745170393
 40
0.3911053272
 40
0.4999889023
 40
0.6088744922
 40
0.7254681378
 40
0.8550905417
 40
1.0
 40
1.0
 40
1.0
 40
1.0
 10
-8.6773394852
 20
15.6088684464
 30
0.0
 10
-8.6773394851
 20
15.6950319663
 30
0.0
 10
-8.664319028
 20
15.8588404991
 30
0.0
 10
-8.5979442337
 20
16.083846549
 30
0.0
 10
-8.4861732563
 20
16.2665560223
 30
0.0
 10
-8.3310237882
 20
16.3970353633
 30
0.0
 10
-8.1404399709
 20
16.4661382488
 30
0.0
 10
-7.9263148026
 20
16.4715612258
 30
0.0
 10
-7.6982583754
 20
16.4165243645
 30
0.0
 10
-7.549880472
 20
16.3458872129
 30
0.0
 10
-7.4752579572
 20
16.3028011083
 30
0.0
  0
SPLINE
  5
37D
100
AcDbEntity
  8
0
100
AcDbSpline
 62
7
  6
CONTINUOUS
 70
0
 71
3
 72
13
 73
9
 74
0
 42
0.0000001
 43
0.0000001
 44
0.0000000001
 40
0.0
 40
0.0
 40
0.0
 40
0.0
 40
0.1142615855
 40
0.2375404653
 40
0.5000060639
 40
0.7624683436
 40
0.8857433475
 40
1.0
 40
1.0
 40
1.0
 40
1.0
 10
-7.4752579572
 20
2.5861004582
 30
0.0
 10
-7.557551943
 20
2.6336159743
 30
0.0
 10
-7.7201136939
 20
2.7475568489
 30
0.0
 10
-8.0244184835
 20
3.0324184924
 30
0.0
 10
-8.3458976315
 20
3.4714958018
 30
0.0
 10
-8.5654097848
 20
3.9694406028
 30
0.0
 10
-8.6599490698
 20
4.3753981934
 30
0.0
 10
-8.677339485
 20
4.5731443996
 30
0.0
 10
-8.6773394852
 20
4.6681667374
 30
0.0
  0
SPLINE
  5
37E
100
AcDbEntity
  8
0
100
AcDbSpline
 62
7
  6
CONTINUOUS
 70
0
 71
3
 72
15
 73
11
 74
0
 42
0.0000001
 43
0.0000001
 44
0.0000000001
 40
0.0
 40
0.0
 40
0.0
 40
0.0
 40
0.1449018469
 40
0.2745170393
 40
0.3911053272
 40
0.4999889023
 40
0.6088744922
 40
0.7254681378
 40
0.8550905417
 40
1.0
 40
1.0
 40
1.0
 40
1.0
 10
19.1119570155
 20
-28.1146654546
 30
0.0
 10
19.1119570154
 20
-28.2008289745
 30
0.0
 10
19.0989365583
 20
-28.3646375073
 30
0.0
 10
19.0325617639
 20
-28.5896435572
 30
0.0
 10
18.9207907866
 20
-28.7723530305
 30
0.0
 10
18.7656413185
 20
-28.9028323715
 30
0.0
 10
18.5750575012
 20
-28.971935257
 30
0.0
 10
18.3609323329
 20
-28.977358234
 30
0.0
 10
18.1328759057
 20
-28.9223213727
 30
0.0
 10
17.9844980023
 20
-28.8516842211
 30
0.0
 10
17.9098754874
 20
-28.8085981165
 30
0.0
  0
SPLINE
  5
37F
100
AcDbEntity
  8
0
100
AcDbSpline
 62
7
  6
CONTINUOUS
 70
0
 71
3
 72
15
 73
11
 74
0
 42
0.0000001
 43
0.0000001
 44
0.0000000001
 40
0.0
 40
0.0
 40
0.0
 40
0.0
 40
0.1449018469
 40
0.2745170393
 40
0.3911053272
 40
0.4999889023
 40
0.6088744922
 40
0.7254681378
 40
0.8550905417
 40
1.0
 40
1.0
 40
1.0
 40
1.0
 10
-24.5872420619
 20
24.7950467963
 30
0.0
 10
-24.5872420618
 20
24.8812103162
 30
0.0
 10
-24.5742216047
 20
25.045018849
 30
0.0
 10
-24.5078468104
 20
25.2700248989
 30
0.0
 10
-24.396075833
 20
25.4527343722
 30
0.0
 10
-24.2409263649
 20
25.5832137132
 30
0.0
 10
-24.0503425476
 20
25.6523165987
 30
0.0
 10
-23.8362173793
 20
25.6577395757
 30
0.0
 10
-23.6081609521
 20
25.6027027144
 30
0.0
 10
-23.4597830487
 20
25.5320655628
 30
0.0
 10
-23.3851605339
 20
25.4889794582
 30
0.0
  0
SPLINE
  5
380
100
AcDbEntity
  8
0
100
AcDbSpline
 62
7
  6
CONTINUOUS
 70
0
 71
3
 72
13
 73
9
 74
0
 42
0.0000001
 43
0.0000001
 44
0.0000000001
 40
0.0
 40
0.0
 40
0.0
 40
0.0
 40
0.1142615855
 40
0.2375404653
 40
0.5000060639
 40
0.7624683436
 40
0.8857433475
 40
1.0
 40
1.0
 40
1.0
 40
1.0
 10
-23.3851605339
 20
11.7722788081
 30
0.0
 10
-23.4674545197
 20
11.8197943242
 30
0.0
 10
-23.6300162706
 20
11.9337351988
 30
0.0
 10
-23.9343210602
 20
12.2185968423
 30
0.0
 10
-24.2558002082
 20
12.6576741517
 30
0.0
 10
-24.4753123615
 20
13.1556189527
 30
0.0
 10
-24.5698516465
 20
13.5615765433
 30
0.0
 10
-24.5872420617
 20
13.7593227494
 30
0.0
 10
-24.5872420619
 20
13.8543450873
 30
0.0
  0
SPLINE
  5
381
100
AcDbEntity
  8
0
100
AcDbSpline
 62
7
  6
CONTINUOUS
 70
0
 71
3
 72
15
 73
11
 74
0
 42
0.0000001
 43
0.0000001
 44
0.0000000001
 40
0.0
 40
0.0
 40
0.0
 40
0.0
 40
0.1449018469
 40
0.2745170393
 40
0.3911053272
 40
0.4999889023
 40
0.6088744922
 40
0.7254681378
 40
0.8550905417
 40
1.0
 40
1.0
 40
1.0
 40
1.0
 10
-12.7078481379
 20
6.9953319194
 30
0.0
 10
-12.707848138
 20
6.9091683995
 30
0.0
 10
-12.7208685951
 20
6.7453598667
 30
0.0
 10
-12.7872433894
 20
6.5203538168
 30
0.0
 10
-12.8990143668
 20
6.3376443435
 30
0.0
 10
-13.0541638349
 20
6.2071650025
 30
0.0
 10
-13.2447476522
 20
6.138062117
 30
0.0
 10
-13.4588728205
 20
6.13263914
 30
0.0
 10
-13.6869292477
 20
6.1876760013
 30
0.0
 10
-13.8353071511
 20
6.2583131529
 30
0.0
 10
-13.909929666
 20
6.3013992575
 30
0.0
  0
SPLINE
  5
382
100
AcDbEntity
  8
0
100
AcDbSpline
 62
7
  6
CONTINUOUS
 70
0
 71
3
 72
15
 73
11
 74
0
 42
0.0000001
 43
0.0000001
 44
0.0000000001
 40
0.0
 40
0.0
 40
0.0
 40
0.0
 40
0.1449018469
 40
0.2745170393
 40
0.3911053272
 40
0.4999889023
 40
0.6088744922
 40
0.7254681378
 40
0.8550905417
 40
1.0
 40
1.0
 40
1.0
 40
1.0
 10
-8.6773394852
 20
-1.1287722278
 30
0.0
 10
-8.6773394851
 20
-1.042608708
 30
0.0
 10
-8.664319028
 20
-0.8788001752
 30
0.0
 10
-8.5979442337
 20
-0.6537941252
 30
0.0
 10
-8.4861732563
 20
-0.471084652
 30
0.0
 10
-8.3310237882
 20
-0.3406053109
 30
0.0
 10
-8.1404399709
 20
-0.2715024254
 30
0.0
 10
-7.9263148026
 20
-0.2660794484
 30
0.0
 10
-7.6982583754
 20
-0.3211163097
 30
0.0
 10
-7.549880472
 20
-0.3917534613
 30
0.0
 10
-7.4752579572
 20
-0.4348395659
 30
0.0
  0
SPLINE
  5
383
100
AcDbEntity
  8
0
100
AcDbSpline
 62
7
  6
CONTINUOUS
 70
0
 71
3
 72
9
 73
5
 74
0
 42
0.0000001
 43
0.0000001
 44
0.0000000001
 40
0.0
 40
0.0
 40
0.0
 40
0.0
 40
0.24126708
 40
1.0
 40
1.0
 40
1.0
 40
1.0
 10
17.9094405179
 20
-15.1756730127
 30
0.0
 10
17.9327948192
 20
-15.1907387585
 30
0.0
 10
18.0281006324
 20
-15.2554854866
 30
0.0
 10
18.1174362626
 20
-15.3288706269
 30
0.0
 10
18.1817351973
 20
-15.3880688326
 30
0.0
  0
SPLINE
  5
384
100
AcDbEntity
  8
0
100
AcDbSpline
 62
7
  6
CONTINUOUS
 70
0
 71
3
 72
11
 73
7
 74
0
 42
0.0000001
 43
0.0000001
 44
0.0000000001
 40
0.0
 40
0.0
 40
0.0
 40
0.0
 40
0.2527052401
 40
0.515088273
 40
0.7694942961
 40
1.0
 40
1.0
 40
1.0
 40
1.0
 10
18.1817351973
 20
-15.3880688326
 30
0.0
 10
18.3098402425
 20
-15.5060115147
 30
0.0
 10
18.5445741196
 20
-15.7759262752
 30
0.0
 10
18.8150282861
 20
-16.2351945546
 30
0.0
 10
18.9927678059
 20
-16.7214582746
 30
0.0
 10
19.041246337
 20
-17.0559498884
 30
0.0
 10
19.0412463373
 20
-17.2147833139
 30
0.0
  0
SPLINE
  5
385
100
AcDbEntity
  8
0
100
AcDbSpline
 62
7
  6
CONTINUOUS
 70
0
 71
3
 72
9
 73
5
 74
0
 42
0.0000001
 43
0.0000001
 44
0.0000000001
 40
0.0
 40
0.0
 40
0.0
 40
0.0
 40
0.24126708
 40
1.0
 40
1.0
 40
1.0
 40
1.0
 10
1.9995379412
 20
-5.9894946628
 30
0.0
 10
2.0228922425
 20
-6.0045604086
 30
0.0
 10
2.1181980557
 20
-6.0693071367
 30
0.0
 10
2.2075336859
 20
-6.142692277
 30
0.0
 10
2.2718326206
 20
-6.2018904827
 30
0.0
  0
SPLINE
  5
386
100
AcDbEntity
  8
0
100
AcDbSpline
 62
7
  6
CONTINUOUS
 70
0
 71
3
 72
11
 73
7
 74
0
 42
0.0000001
 43
0.0000001
 44
0.0000000001
 40
0.0
 40
0.0
 40
0.0
 40
0.0
 40
0.2527052401
 40
0.515088273
 40
0.7694942961
 40
1.0
 40
1.0
 40
1.0
 40
1.0
 10
2.2718326206
 20
-6.2018904827
 30
0.0
 10
2.3999376658
 20
-6.3198331649
 30
0.0
 10
2.6346715429
 20
-6.5897479253
 30
0.0
 10
2.9051257094
 20
-7.0490162047
 30
0.0
 10
3.0828652292
 20
-7.5352799247
 30
0.0
 10
3.1313437603
 20
-7.8697715385
 30
0.0
 10
3.1313437606
 20
-8.0286049641
 30
0.0
  0
SPLINE
  5
387
100
AcDbEntity
  8
0
100
AcDbSpline
 62
7
  6
CONTINUOUS
 70
0
 71
3
 72
9
 73
5
 74
0
 42
0.0000001
 43
0.0000001
 44
0.0000000001
 40
0.0
 40
0.0
 40
0.0
 40
0.0
 40
0.24126708
 40
1.0
 40
1.0
 40
1.0
 40
1.0
 10
-13.9103646355
 20
3.196683687
 30
0.0
 10
-13.8870103342
 20
3.1816179412
 30
0.0
 10
-13.791704521
 20
3.1168712132
 30
0.0
 10
-13.7023688908
 20
3.0434860728
 30
0.0
 10
-13.6380699561
 20
2.9842878672
 30
0.0
  0
SPLINE
  5
388
100
AcDbEntity
  8
0
100
AcDbSpline
 62
7
  6
CONTINUOUS
 70
0
 71
3
 72
11
 73
7
 74
0
 42
0.0000001
 43
0.0000001
 44
0.0000000001
 40
0.0
 40
0.0
 40
0.0
 40
0.0
 40
0.2527052401
 40
0.515088273
 40
0.7694942961
 40
1.0
 40
1.0
 40
1.0
 40
1.0
 10
-13.6380699561
 20
2.9842878672
 30
0.0
 10
-13.5099649109
 20
2.866345185
 30
0.0
 10
-13.2752310338
 20
2.5964304245
 30
0.0
 10
-13.0047768673
 20
2.1371621451
 30
0.0
 10
-12.8270373475
 20
1.6508984251
 30
0.0
 10
-12.7785588164
 20
1.3164068114
 30
0.0
 10
-12.7785588161
 20
1.1575733858
 30
0.0
  0
SPLINE
  5
389
100
AcDbEntity
  8
0
100
AcDbSpline
 62
7
  6
CONTINUOUS
 70
0
 71
3
 72
9
 73
5
 74
0
 42
0.0000001
 43
0.0000001
 44
0.0000000001
 40
0.0
 40
0.0
 40
0.0
 40
0.0
 40
0.24126708
 40
1.0
 40
1.0
 40
1.0
 40
1.0
 10
17.9094405179
 20
1.5619676615
 30
0.0
 10
17.9327948192
 20
1.5469019157
 30
0.0
 10
18.0281006324
 20
1.4821551877
 30
0.0
 10
18.1174362626
 20
1.4087700473
 30
0.0
 10
18.1817351973
 20
1.3495718417
 30
0.0
  0
SPLINE
  5
38A
100
AcDbEntity
  8
0
100
AcDbSpline
 62
7
  6
CONTINUOUS
 70
0
 71
3
 72
11
 73
7
 74
0
 42
0.0000001
 43
0.0000001
 44
0.0000000001
 40
0.0
 40
0.0
 40
0.0
 40
0.0
 40
0.2527052401
 40
0.515088273
 40
0.7694942961
 40
1.0
 40
1.0
 40
1.0
 40
1.0
 10
18.1817351973
 20
1.3495718417
 30
0.0
 10
18.3098402425
 20
1.2316291595
 30
0.0
 10
18.5445741196
 20
0.961714399
 30
0.0
 10
18.8150282861
 20
0.5024461196
 30
0.0
 10
18.9927678059
 20
0.0161823996
 30
0.0
 10
19.041246337
 20
-0.3183092141
 30
0.0
 10
19.0412463373
 20
-0.4771426397
 30
0.0
  0
SPLINE
  5
38B
100
AcDbEntity
  8
0
100
AcDbSpline
 62
7
  6
CONTINUOUS
 70
0
 71
3
 72
9
 73
5
 74
0
 42
0.0000001
 43
0.0000001
 44
0.0000000001
 40
0.0
 40
0.0
 40
0.0
 40
0.0
 40
0.24126708
 40
1.0
 40
1.0
 40
1.0
 40
1.0
 10
1.9995379412
 20
10.7481460114
 30
0.0
 10
2.0228922425
 20
10.7330802656
 30
0.0
 10
2.1181980557
 20
10.6683335376
 30
0.0
 10
2.2075336859
 20
10.5949483972
 30
0.0
 10
2.2718326206
 20
10.5357501915
 30
0.0
  0
SPLINE
  5
38C
100
AcDbEntity
  8
0
100
AcDbSpline
 62
7
  6
CONTINUOUS
 70
0
 71
3
 72
11
 73
7
 74
0
 42
0.0000001
 43
0.0000001
 44
0.0000000001
 40
0.0
 40
0.0
 40
0.0
 40
0.0
 40
0.2527052401
 40
0.515088273
 40
0.7694942961
 40
1.0
 40
1.0
 40
1.0
 40
1.0
 10
2.2718326206
 20
10.5357501915
 30
0.0
 10
2.3999376658
 20
10.4178075094
 30
0.0
 10
2.6346715429
 20
10.1478927489
 30
0.0
 10
2.9051257094
 20
9.6886244695
 30
0.0
 10
3.0828652292
 20
9.2023607495
 30
0.0
 10
3.1313437603
 20
8.8678691358
 30
0.0
 10
3.1313437606
 20
8.7090357102
 30
0.0
  0
SPLINE
  5
38D
100
AcDbEntity
  8
0
100
AcDbSpline
 62
7
  6
CONTINUOUS
 70
0
 71
3
 72
9
 73
5
 74
0
 42
0.0000001
 43
0.0000001
 44
0.0000000001
 40
0.0
 40
0.0
 40
0.0
 40
0.0
 40
0.24126708
 40
1.0
 40
1.0
 40
1.0
 40
1.0
 10
-13.9103646355
 20
19.9343243613
 30
0.0
 10
-13.8870103342
 20
19.9192586155
 30
0.0
 10
-13.791704521
 20
19.8545118874
 30
0.0
 10
-13.7023688908
 20
19.7811267471
 30
0.0
 10
-13.6380699561
 20
19.7219285414
 30
0.0
  0
SPLINE
  5
38E
100
AcDbEntity
  8
0
100
AcDbSpline
 62
7
  6
CONTINUOUS
 70
0
 71
3
 72
11
 73
7
 74
0
 42
0.0000001
 43
0.0000001
 44
0.0000000001
 40
0.0
 40
0.0
 40
0.0
 40
0.0
 40
0.2527052401
 40
0.515088273
 40
0.7694942961
 40
1.0
 40
1.0
 40
1.0
 40
1.0
 10
-13.6380699561
 20
19.7219285414
 30
0.0
 10
-13.5099649109
 20
19.6039858593
 30
0.0
 10
-13.2752310338
 20
19.3340710988
 30
0.0
 10
-13.0047768673
 20
18.8748028194
 30
0.0
 10
-12.8270373475
 20
18.3885390994
 30
0.0
 10
-12.7785588164
 20
18.0540474856
 30
0.0
 10
-12.7785588161
 20
17.8952140601
 30
0.0
  0
SPLINE
  5
38F
100
AcDbEntity
  8
0
100
AcDbSpline
 62
7
  6
CONTINUOUS
 70
0
 71
3
 72
11
 73
7
 74
0
 42
0.0000001
 43
0.0000001
 44
0.0000000001
 40
0.0
 40
0.0
 40
0.0
 40
0.0
 40
0.2288397312
 40
0.4671387279
 40
0.7225205219
 40
1.0
 40
1.0
 40
1.0
 40
1.0
 10
-23.5609254573
 20
25.2218565427
 30
0.0
 10
-23.531338847
 20
25.2389394907
 30
0.0
 10
-23.4661175252
 20
25.2660480812
 30
0.0
 10
-23.3584508662
 20
25.2818125458
 30
0.0
 10
-23.2428604603
 20
25.2733149915
 30
0.0
 10
-23.1655453733
 20
25.2527653298
 30
0.0
 10
-23.1264189343
 20
25.2391557724
 30
0.0
  0
SPLINE
  5
390
100
AcDbEntity
  8
0
100
AcDbSpline
 62
7
  6
CONTINUOUS
 70
0
 71
3
 72
9
 73
5
 74
0
 42
0.0000001
 43
0.0000001
 44
0.0000000001
 40
0.0
 40
0.0
 40
0.0
 40
0.0
 40
0.2402814091
 40
1.0
 40
1.0
 40
1.0
 40
1.0
 10
-23.1264189343
 20
25.2391557724
 30
0.0
 10
-23.1126051484
 20
25.2343508498
 30
0.0
 10
-23.0556538426
 20
25.2128155756
 30
0.0
 10
-23.0009434381
 20
25.1855297496
 30
0.0
 10
-22.9608964651
 20
25.1624071295
 30
0.0
  0
SPLINE
  5
391
100
AcDbEntity
  8
0
100
AcDbSpline
 62
7
  6
CONTINUOUS
 70
0
 71
3
 72
11
 73
7
 74
0
 42
0.0000001
 43
0.0000001
 44
0.0000000001
 40
0.0
 40
0.0
 40
0.0
 40
0.0
 40
0.2288397312
 40
0.4671387279
 40
0.7225205219
 40
1.0
 40
1.0
 40
1.0
 40
1.0
 10
-7.6510228806
 20
16.0356781928
 30
0.0
 10
-7.6214362703
 20
16.0527611408
 30
0.0
 10
-7.5562149485
 20
16.0798697314
 30
0.0
 10
-7.4485482895
 20
16.095634196
 30
0.0
 10
-7.3329578836
 20
16.0871366416
 30
0.0
 10
-7.2556427966
 20
16.0665869799
 30
0.0
 10
-7.2165163576
 20
16.0529774225
 30
0.0
  0
SPLINE
  5
392
100
AcDbEntity
  8
0
100
AcDbSpline
 62
7
  6
CONTINUOUS
 70
0
 71
3
 72
9
 73
5
 74
0
 42
0.0000001
 43
0.0000001
 44
0.0000000001
 40
0.0
 40
0.0
 40
0.0
 40
0.0
 40
0.2402814091
 40
1.0
 40
1.0
 40
1.0
 40
1.0
 10
-7.2165163576
 20
16.0529774225
 30
0.0
 10
-7.2027025717
 20
16.0481724999
 30
0.0
 10
-7.1457512659
 20
16.0266372257
 30
0.0
 10
-7.0910408614
 20
15.9993513998
 30
0.0
 10
-7.0509938884
 20
15.9762287796
 30
0.0
  0
SPLINE
  5
393
100
AcDbEntity
  8
0
100
AcDbSpline
 62
7
  6
CONTINUOUS
 70
0
 71
3
 72
11
 73
7
 74
0
 42
0.0000001
 43
0.0000001
 44
0.0000000001
 40
0.0
 40
0.0
 40
0.0
 40
0.0
 40
0.2288397312
 40
0.4671387279
 40
0.7225205219
 40
1.0
 40
1.0
 40
1.0
 40
1.0
 10
8.2588796961
 20
6.8494998429
 30
0.0
 10
8.2884663064
 20
6.8665827909
 30
0.0
 10
8.3536876282
 20
6.8936913815
 30
0.0
 10
8.4613542872
 20
6.9094558461
 30
0.0
 10
8.5769446931
 20
6.9009582917
 30
0.0
 10
8.6542597801
 20
6.88040863
 30
0.0
 10
8.6933862191
 20
6.8667990727
 30
0.0
  0
SPLINE
  5
394
100
AcDbEntity
  8
0
100
AcDbSpline
 62
7
  6
CONTINUOUS
 70
0
 71
3
 72
9
 73
5
 74
0
 42
0.0000001
 43
0.0000001
 44
0.0000000001
 40
0.0
 40
0.0
 40
0.0
 40
0.0
 40
0.2402814091
 40
1.0
 40
1.0
 40
1.0
 40
1.0
 10
8.6933862191
 20
6.8667990727
 30
0.0
 10
8.707200005
 20
6.8619941501
 30
0.0
 10
8.7641513108
 20
6.8404588758
 30
0.0
 10
8.8188617153
 20
6.8131730499
 30
0.0
 10
8.8589086883
 20
6.7900504297
 30
0.0
  0
SPLINE
  5
395
100
AcDbEntity
  8
0
100
AcDbSpline
 62
7
  6
CONTINUOUS
 70
0
 71
3
 72
11
 73
7
 74
0
 42
0.0000001
 43
0.0000001
 44
0.0000000001
 40
0.0
 40
0.0
 40
0.0
 40
0.0
 40
0.2288397312
 40
0.4671387279
 40
0.7225205219
 40
1.0
 40
1.0
 40
1.0
 40
1.0
 10
-23.5609254573
 20
8.4842158684
 30
0.0
 10
-23.531338847
 20
8.5012988164
 30
0.0
 10
-23.4661175252
 20
8.528407407
 30
0.0
 10
-23.3584508662
 20
8.5441718716
 30
0.0
 10
-23.2428604603
 20
8.5356743172
 30
0.0
 10
-23.1655453733
 20
8.5151246555
 30
0.0
 10
-23.1264189343
 20
8.5015150982
 30
0.0
  0
SPLINE
  5
396
100
AcDbEntity
  8
0
100
AcDbSpline
 62
7
  6
CONTINUOUS
 70
0
 71
3
 72
9
 73
5
 74
0
 42
0.0000001
 43
0.0000001
 44
0.0000000001
 40
0.0
 40
0.0
 40
0.0
 40
0.0
 40
0.2402814091
 40
1.0
 40
1.0
 40
1.0
 40
1.0
 10
-23.1264189343
 20
8.5015150982
 30
0.0
 10
-23.1126051484
 20
8.4967101756
 30
0.0
 10
-23.0556538426
 20
8.4751749013
 30
0.0
 10
-23.0009434381
 20
8.4478890754
 30
0.0
 10
-22.9608964651
 20
8.4247664552
 30
0.0
  0
SPLINE
  5
397
100
AcDbEntity
  8
0
100
AcDbSpline
 62
7
  6
CONTINUOUS
 70
0
 71
3
 72
11
 73
7
 74
0
 42
0.0000001
 43
0.0000001
 44
0.0000000001
 40
0.0
 40
0.0
 40
0.0
 40
0.0
 40
0.2288397312
 40
0.4671387279
 40
0.7225205219
 40
1.0
 40
1.0
 40
1.0
 40
1.0
 10
-7.6510228806
 20
-0.7019624815
 30
0.0
 10
-7.6214362703
 20
-0.6848795335
 30
0.0
 10
-7.5562149485
 20
-0.6577709429
 30
0.0
 10
-7.4485482895
 20
-0.6420064783
 30
0.0
 10
-7.3329578836
 20
-0.6505040327
 30
0.0
 10
-7.2556427966
 20
-0.6710536943
 30
0.0
 10
-7.2165163576
 20
-0.6846632517
 30
0.0
  0
SPLINE
  5
398
100
AcDbEntity
  8
0
100
AcDbSpline
 62
7
  6
CONTINUOUS
 70
0
 71
3
 72
9
 73
5
 74
0
 42
0.0000001
 43
0.0000001
 44
0.0000000001
 40
0.0
 40
0.0
 40
0.0
 40
0.0
 40
0.2402814091
 40
1.0
 40
1.0
 40
1.0
 40
1.0
 10
-7.2165163576
 20
-0.6846632517
 30
0.0
 10
-7.2027025717
 20
-0.6894681743
 30
0.0
 10
-7.1457512659
 20
-0.7110034486
 30
0.0
 10
-7.0910408614
 20
-0.7382892745
 30
0.0
 10
-7.0509938884
 20
-0.7614118947
 30
0.0
  0
SPLINE
  5
399
100
AcDbEntity
  8
0
100
AcDbSpline
 62
7
  6
CONTINUOUS
 70
0
 71
3
 72
11
 73
7
 74
0
 42
0.0000001
 43
0.0000001
 44
0.0000000001
 40
0.0
 40
0.0
 40
0.0
 40
0.0
 40
0.2288397312
 40
0.4671387279
 40
0.7225205219
 40
1.0
 40
1.0
 40
1.0
 40
1.0
 10
8.2588796961
 20
-9.8881408313
 30
0.0
 10
8.2884663064
 20
-9.8710578833
 30
0.0
 10
8.3536876282
 20
-9.8439492928
 30
0.0
 10
8.4613542872
 20
-9.8281848282
 30
0.0
 10
8.5769446931
 20
-9.8366823825
 30
0.0
 10
8.6542597801
 20
-9.8572320442
 30
0.0
 10
8.6933862191
 20
-9.8708416016
 30
0.0
  0
SPLINE
  5
39A
100
AcDbEntity
  8
0
100
AcDbSpline
 62
7
  6
CONTINUOUS
 70
0
 71
3
 72
9
 73
5
 74
0
 42
0.0000001
 43
0.0000001
 44
0.0000000001
 40
0.0
 40
0.0
 40
0.0
 40
0.0
 40
0.2402814091
 40
1.0
 40
1.0
 40
1.0
 40
1.0
 10
8.6933862191
 20
-9.8708416016
 30
0.0
 10
8.707200005
 20
-9.8756465242
 30
0.0
 10
8.7641513108
 20
-9.8971817984
 30
0.0
 10
8.8188617153
 20
-9.9244676244
 30
0.0
 10
8.8589086883
 20
-9.9475902445
 30
0.0
  0
SPLINE
  5
39B
100
AcDbEntity
  8
0
100
AcDbSpline
 62
7
  6
CONTINUOUS
 70
0
 71
3
 72
11
 73
7
 74
0
 42
0.0000001
 43
0.0000001
 44
0.0000000001
 40
0.0
 40
0.0
 40
0.0
 40
0.0
 40
0.2372134916
 40
0.4999938932
 40
0.7627776188
 40
1.0
 40
1.0
 40
1.0
 40
1.0
 10
-22.8194751089
 20
14.4667490863
 30
0.0
 10
-22.8194751089
 20
14.3276615202
 30
0.0
 10
-22.7673048451
 20
14.034306402
 30
0.0
 10
-22.5854543651
 20
13.622075932
 30
0.0
 10
-22.3193738816
 20
13.2584697524
 30
0.0
 10
-22.0914029109
 20
13.0666049919
 30
0.0
 10
-21.9709469715
 20
12.9970552422
 30
0.0
  0
SPLINE
  5
39C
100
AcDbEntity
  8
0
100
AcDbSpline
 62
7
  6
CONTINUOUS
 70
0
 71
3
 72
9
 73
5
 74
0
 42
0.0000001
 43
0.0000001
 44
0.0000000001
 40
0.0
 40
0.0
 40
0.0
 40
0.0
 40
0.2715340337
 40
1.0
 40
1.0
 40
1.0
 40
1.0
 10
-12.7785588161
 20
7.5260809997
 30
0.0
 10
-12.7785588161
 20
7.494843597
 30
0.0
 10
-12.7832964309
 20
7.3800242308
 30
0.0
 10
-12.808599208
 20
7.2647868972
 30
0.0
 10
-12.8431483253
 20
7.1884369627
 30
0.0
  0
SPLINE
  5
39D
100
AcDbEntity
  8
0
100
AcDbSpline
 62
7
  6
CONTINUOUS
 70
0
 71
3
 72
9
 73
5
 74
0
 42
0.0000001
 43
0.0000001
 44
0.0000000001
 40
0.0
 40
0.0
 40
0.0
 40
0.0
 40
0.5170807714
 40
1.0
 40
1.0
 40
1.0
 40
1.0
 10
-12.8431483253
 20
7.1884369627
 30
0.0
 10
-12.8633208434
 20
7.1438578082
 30
0.0
 10
-12.9134418818
 20
7.0618322909
 30
0.0
 10
-12.9874827946
 20
6.9996469851
 30
0.0
 10
-13.0270579613
 20
6.9767967664
 30
0.0
  0
SPLINE
  5
39E
100
AcDbEntity
  8
0
100
AcDbSpline
 62
7
  6
CONTINUOUS
 70
0
 71
3
 72
9
 73
5
 74
0
 42
0.0000001
 43
0.0000001
 44
0.0000000001
 40
0.0
 40
0.0
 40
0.0
 40
0.0
 40
0.2715340337
 40
1.0
 40
1.0
 40
1.0
 40
1.0
 10
19.0412463373
 20
-27.5839163743
 30
0.0
 10
19.0412463373
 20
-27.615153777
 30
0.0
 10
19.0365087225
 20
-27.7299731432
 30
0.0
 10
19.0112059454
 20
-27.8452104768
 30
0.0
 10
18.9766568281
 20
-27.9215604113
 30
0.0
  0
SPLINE
  5
39F
100
AcDbEntity
  8
0
100
AcDbSpline
 62
7
  6
CONTINUOUS
 70
0
 71
3
 72
9
 73
5
 74
0
 42
0.0000001
 43
0.0000001
 44
0.0000000001
 40
0.0
 40
0.0
 40
0.0
 40
0.0
 40
0.5170807714
 40
1.0
 40
1.0
 40
1.0
 40
1.0
 10
18.9766568281
 20
-27.9215604113
 30
0.0
 10
18.95648431
 20
-27.9661395658
 30
0.0
 10
18.9063632716
 20
-28.0481650831
 30
0.0
 10
18.8323223588
 20
-28.1103503889
 30
0.0
 10
18.7927471921
 20
-28.1332006076
 30
0.0
  0
SPLINE
  5
3A0
100
AcDbEntity
  8
0
100
AcDbSpline
 62
7
  6
CONTINUOUS
 70
0
 71
3
 72
11
 73
7
 74
0
 42
0.0000001
 43
0.0000001
 44
0.0000000001
 40
0.0
 40
0.0
 40
0.0
 40
0.0
 40
0.2372134916
 40
0.4999938932
 40
0.7627776188
 40
1.0
 40
1.0
 40
1.0
 40
1.0
 10
9.0003300445
 20
-20.6432482877
 30
0.0
 10
9.0003300445
 20
-20.7823358538
 30
0.0
 10
9.0525003083
 20
-21.075690972
 30
0.0
 10
9.2343507883
 20
-21.487921442
 30
0.0
 10
9.5004312718
 20
-21.8515276216
 30
0.0
 10
9.7284022425
 20
-22.0433923821
 30
0.0
 10
9.8488581819
 20
-22.1129421319
 30
0.0
  0
SPLINE
  5
3A1
100
AcDbEntity
  8
0
100
AcDbSpline
 62
7
  6
CONTINUOUS
 70
0
 71
3
 72
9
 73
5
 74
0
 42
0.0000001
 43
0.0000001
 44
0.0000000001
 40
0.0
 40
0.0
 40
0.0
 40
0.0
 40
0.2715340337
 40
1.0
 40
1.0
 40
1.0
 40
1.0
 10
3.1313437606
 20
-18.3977380244
 30
0.0
 10
3.1313437606
 20
-18.4289754271
 30
0.0
 10
3.1266061458
 20
-18.5437947933
 30
0.0
 10
3.1013033687
 20
-18.6590321269
 30
0.0
 10
3.0667542514
 20
-18.7353820614
 30
0.0
  0
SPLINE
  5
3A2
100
AcDbEntity
  8
0
100
AcDbSpline
 62
7
  6
CONTINUOUS
 70
0
 71
3
 72
9
 73
5
 74
0
 42
0.0000001
 43
0.0000001
 44
0.0000000001
 40
0.0
 40
0.0
 40
0.0
 40
0.0
 40
0.5170807714
 40
1.0
 40
1.0
 40
1.0
 40
1.0
 10
3.0667542514
 20
-18.7353820614
 30
0.0
 10
3.0465817333
 20
-18.7799612159
 30
0.0
 10
2.9964606949
 20
-18.8619867332
 30
0.0
 10
2.9224197821
 20
-18.9241720391
 30
0.0
 10
2.8828446154
 20
-18.9470222578
 30
0.0
  0
SPLINE
  5
3A3
100
AcDbEntity
  8
0
100
AcDbSpline
 62
7
  6
CONTINUOUS
 70
0
 71
3
 72
11
 73
7
 74
0
 42
0.0000001
 43
0.0000001
 44
0.0000000001
 40
0.0
 40
0.0
 40
0.0
 40
0.0
 40
0.2372134916
 40
0.4999938932
 40
0.7627776188
 40
1.0
 40
1.0
 40
1.0
 40
1.0
 10
-6.9095725322
 20
-11.4570699378
 30
0.0
 10
-6.9095725322
 20
-11.5961575039
 30
0.0
 10
-6.8574022684
 20
-11.8895126222
 30
0.0
 10
-6.6755517884
 20
-12.3017430921
 30
0.0
 10
-6.4094713049
 20
-12.6653492717
 30
0.0
 10
-6.1815003342
 20
-12.8572140322
 30
0.0
 10
-6.0610443948
 20
-12.926763782
 30
0.0
  0
SPLINE
  5
3A4
100
AcDbEntity
  8
0
100
AcDbSpline
 62
7
  6
CONTINUOUS
 70
0
 71
3
 72
11
 73
7
 74
0
 42
0.0000001
 43
0.0000001
 44
0.0000000001
 40
0.0
 40
0.0
 40
0.0
 40
0.0
 40
0.2372134916
 40
0.4999938932
 40
0.7627776188
 40
1.0
 40
1.0
 40
1.0
 40
1.0
 10
-6.9095725322
 20
5.2805707364
 30
0.0
 10
-6.9095725322
 20
5.1414831703
 30
0.0
 10
-6.8574022684
 20
4.8481280521
 30
0.0
 10
-6.6755517884
 20
4.4358975822
 30
0.0
 10
-6.4094713049
 20
4.0722914025
 30
0.0
 10
-6.1815003342
 20
3.880426642
 30
0.0
 10
-6.0610443948
 20
3.8108768923
 30
0.0
  0
SPLINE
  5
3A5
100
AcDbEntity
  8
0
100
AcDbSpline
 62
7
  6
CONTINUOUS
 70
0
 71
3
 72
9
 73
5
 74
0
 42
0.0000001
 43
0.0000001
 44
0.0000000001
 40
0.0
 40
0.0
 40
0.0
 40
0.0
 40
0.2715340337
 40
1.0
 40
1.0
 40
1.0
 40
1.0
 10
-12.7785588161
 20
-9.2115596745
 30
0.0
 10
-12.7785588161
 20
-9.2427970773
 30
0.0
 10
-12.7832964309
 20
-9.3576164434
 30
0.0
 10
-12.808599208
 20
-9.472853777
 30
0.0
 10
-12.8431483253
 20
-9.5492037115
 30
0.0
  0
SPLINE
  5
3A6
100
AcDbEntity
  8
0
100
AcDbSpline
 62
7
  6
CONTINUOUS
 70
0
 71
3
 72
9
 73
5
 74
0
 42
0.0000001
 43
0.0000001
 44
0.0000000001
 40
0.0
 40
0.0
 40
0.0
 40
0.0
 40
0.5170807714
 40
1.0
 40
1.0
 40
1.0
 40
1.0
 10
-12.8431483253
 20
-9.5492037115
 30
0.0
 10
-12.8633208434
 20
-9.593782866
 30
0.0
 10
-12.9134418818
 20
-9.6758083833
 30
0.0
 10
-12.9874827946
 20
-9.7379936892
 30
0.0
 10
-13.0270579613
 20
-9.7608439079
 30
0.0
  0
SPLINE
  5
3A7
100
AcDbEntity
  8
0
100
AcDbSpline
 62
7
  6
CONTINUOUS
 70
0
 71
3
 72
11
 73
7
 74
0
 42
0.0000001
 43
0.0000001
 44
0.0000000001
 40
0.0
 40
0.0
 40
0.0
 40
0.0
 40
0.2372134916
 40
0.4999938932
 40
0.7627776188
 40
1.0
 40
1.0
 40
1.0
 40
1.0
 10
-22.8194751089
 20
-2.270891588
 30
0.0
 10
-22.8194751089
 20
-2.4099791541
 30
0.0
 10
-22.7673048451
 20
-2.7033342723
 30
0.0
 10
-22.5854543651
 20
-3.1155647422
 30
0.0
 10
-22.3193738816
 20
-3.4791709219
 30
0.0
 10
-22.0914029109
 20
-3.6710356824
 30
0.0
 10
-21.9709469715
 20
-3.7405854321
 30
0.0
  0
SPLINE
  5
3A8
100
AcDbEntity
  8
0
100
AcDbSpline
 62
7
  6
CONTINUOUS
 70
0
 71
3
 72
9
 73
5
 74
0
 42
0.0000001
 43
0.0000001
 44
0.0000000001
 40
0.0
 40
0.0
 40
0.0
 40
0.0
 40
0.2715340337
 40
1.0
 40
1.0
 40
1.0
 40
1.0
 10
3.1313437606
 20
-1.6600973502
 30
0.0
 10
3.1313437606
 20
-1.6913347529
 30
0.0
 10
3.1266061458
 20
-1.8061541191
 30
0.0
 10
3.1013033687
 20
-1.9213914527
 30
0.0
 10
3.0667542514
 20
-1.9977413872
 30
0.0
  0
SPLINE
  5
3A9
100
AcDbEntity
  8
0
100
AcDbSpline
 62
7
  6
CONTINUOUS
 70
0
 71
3
 72
9
 73
5
 74
0
 42
0.0000001
 43
0.0000001
 44
0.0000000001
 40
0.0
 40
0.0
 40
0.0
 40
0.0
 40
0.5170807714
 40
1.0
 40
1.0
 40
1.0
 40
1.0
 10
3.0667542514
 20
-1.9977413872
 30
0.0
 10
3.0465817333
 20
-2.0423205417
 30
0.0
 10
2.9964606949
 20
-2.1243460589
 30
0.0
 10
2.9224197821
 20
-2.1865313648
 30
0.0
 10
2.8828446154
 20
-2.2093815835
 30
0.0
  0
SPLINE
  5
3AA
100
AcDbEntity
  8
0
100
AcDbSpline
 62
7
  6
CONTINUOUS
 70
0
 71
3
 72
9
 73
5
 74
0
 42
0.0000001
 43
0.0000001
 44
0.0000000001
 40
0.0
 40
0.0
 40
0.0
 40
0.0
 40
0.2715340337
 40
1.0
 40
1.0
 40
1.0
 40
1.0
 10
19.0412463373
 20
-10.8462757
 30
0.0
 10
19.0412463373
 20
-10.8775131028
 30
0.0
 10
19.0365087225
 20
-10.9923324689
 30
0.0
 10
19.0112059454
 20
-11.1075698025
 30
0.0
 10
18.9766568281
 20
-11.183919737
 30
0.0
  0
SPLINE
  5
3AB
100
AcDbEntity
  8
0
100
AcDbSpline
 62
7
  6
CONTINUOUS
 70
0
 71
3
 72
9
 73
5
 74
0
 42
0.0000001
 43
0.0000001
 44
0.0000000001
 40
0.0
 40
0.0
 40
0.0
 40
0.0
 40
0.5170807714
 40
1.0
 40
1.0
 40
1.0
 40
1.0
 10
18.9766568281
 20
-11.183919737
 30
0.0
 10
18.95648431
 20
-11.2284988915
 30
0.0
 10
18.9063632716
 20
-11.3105244088
 30
0.0
 10
18.8323223588
 20
-11.3727097147
 30
0.0
 10
18.7927471921
 20
-11.3955599334
 30
0.0
  0
SPLINE
  5
3AC
100
AcDbEntity
  8
0
100
AcDbSpline
 62
7
  6
CONTINUOUS
 70
0
 71
3
 72
11
 73
7
 74
0
 42
0.0000001
 43
0.0000001
 44
0.0000000001
 40
0.0
 40
0.0
 40
0.0
 40
0.0
 40
0.2372134916
 40
0.4999938932
 40
0.7627776188
 40
1.0
 40
1.0
 40
1.0
 40
1.0
 10
9.0003300445
 20
-3.9056076135
 30
0.0
 10
9.0003300445
 20
-4.0446951796
 30
0.0
 10
9.0525003083
 20
-4.3380502978
 30
0.0
 10
9.2343507883
 20
-4.7502807677
 30
0.0
 10
9.5004312718
 20
-5.1138869474
 30
0.0
 10
9.7284022425
 20
-5.3057517079
 30
0.0
 10
9.8488581819
 20
-5.3753014576
 30
0.0
  0
SPLINE
  5
3AD
100
AcDbEntity
  8
0
100
AcDbSpline
 62
7
  6
CONTINUOUS
 70
0
 71
3
 72
13
 73
9
 74
0
 42
0.0000001
 43
0.0000001
 44
0.0000000001
 40
0.0
 40
0.0
 40
0.0
 40
0.0
 40
0.1142615855
 40
0.2375404653
 40
0.5000060639
 40
0.7624683436
 40
0.8857433475
 40
1.0
 40
1.0
 40
1.0
 40
1.0
 10
8.5053552977
 20
-23.2968989976
 30
0.0
 10
8.4230613118
 20
-23.2493834815
 30
0.0
 10
8.2604995609
 20
-23.1354426069
 30
0.0
 10
7.9561947713
 20
-22.8505809634
 30
0.0
 10
7.6347156233
 20
-22.411503654
 30
0.0
 10
7.41520347
 20
-21.9135588529
 30
0.0
 10
7.3206641851
 20
-21.5076012623
 30
0.0
 10
7.3032737698
 20
-21.3098550562
 30
0.0
 10
7.3032737696
 20
-21.2148327184
 30
0.0
  0
SPLINE
  5
3AE
100
AcDbEntity
  8
0
100
AcDbSpline
 62
7
  6
CONTINUOUS
 70
0
 71
3
 72
15
 73
11
 74
0
 42
0.0000001
 43
0.0000001
 44
0.0000000001
 40
0.0
 40
0.0
 40
0.0
 40
0.0
 40
0.1488004778
 40
0.2836513917
 40
0.4059596616
 40
0.5193362816
 40
0.6294431371
 40
0.7428240803
 40
0.8651398772
 40
1.0
 40
1.0
 40
1.0
 40
1.0
 10
-24.5165313837
 20
24.6725723093
 30
0.0
 10
-24.5165313837
 20
24.7496404722
 30
0.0
 10
-24.5060225579
 20
24.8969387884
 30
0.0
 10
-24.4533442708
 20
25.1018829484
 30
0.0
 10
-24.3650114323
 20
25.2744230104
 30
0.0
 10
-24.2422433859
 20
25.408249055
 30
0.0
 10
-24.0887218841
 20
25.4968722105
 30
0.0
 10
-23.9114157781
 20
25.5362495262
 30
0.0
 10
-23.7178756826
 20
25.526477536
 30
0.0
 10
-23.5885911966
 20
25.4903942347
 30
0.0
 10
-23.5231664205
 20
25.4659330909
 30
0.0
  0
SPLINE
  5
3AF
100
AcDbEntity
  8
0
100
AcDbSpline
 62
7
  6
CONTINUOUS
 70
0
 71
3
 72
13
 73
9
 74
0
 42
0.0000001
 43
0.0000001
 44
0.0000000001
 40
0.0
 40
0.0
 40
0.0
 40
0.0
 40
0.1142615855
 40
0.2375404653
 40
0.5000060639
 40
0.7624683436
 40
0.8857433475
 40
1.0
 40
1.0
 40
1.0
 40
1.0
 10
-23.3144498557
 20
11.8130983764
 30
0.0
 10
-23.3967438416
 20
11.8606138925
 30
0.0
 10
-23.5593055925
 20
11.9745547671
 30
0.0
 10
-23.8636103821
 20
12.2594164106
 30
0.0
 10
-24.1850895301
 20
12.69849372
 30
0.0
 10
-24.4046016834
 20
13.1964385211
 30
0.0
 10
-24.4991409683
 20
13.6023961117
 30
0.0
 10
-24.5165313835
 20
13.8001423178
 30
0.0
 10
-24.5165313837
 20
13.8951646556
 30
0.0
  0
SPLINE
  5
3B0
100
AcDbEntity
  8
0
100
AcDbSpline
 62
7
  6
CONTINUOUS
 70
0
 71
3
 72
9
 73
5
 74
0
 42
0.0000001
 43
0.0000001
 44
0.0000000001
 40
0.0
 40
0.0
 40
0.0
 40
0.0
 40
0.2556065575
 40
1.0
 40
1.0
 40
1.0
 40
1.0
 10
-12.7785588161
 20
7.1178064064
 30
0.0
 10
-12.7785588161
 20
7.1044284654
 30
0.0
 10
-12.7792176322
 20
7.0520938189
 30
0.0
 10
-12.7825552583
 20
6.9997827337
 30
0.0
 10
-12.7867270533
 20
6.9610466544
 30
0.0
  0
SPLINE
  5
3B1
100
AcDbEntity
  8
0
100
AcDbSpline
 62
7
  6
CONTINUOUS
 70
0
 71
3
 72
15
 73
11
 74
0
 42
0.0000001
 43
0.0000001
 44
0.0000000001
 40
0.0
 40
0.0
 40
0.0
 40
0.0
 40
0.1348515915
 40
0.2571603084
 40
0.3705368459
 40
0.4806428405
 40
0.5940220991
 40
0.7163355574
 40
0.8511929327
 40
1.0
 40
1.0
 40
1.0
 40
1.0
 10
-12.796816995
 20
6.8873519871
 30
0.0
 10
-12.8083478404
 20
6.818466197
 30
0.0
 10
-12.8417463329
 20
6.6884692821
 30
0.0
 10
-12.9300634103
 20
6.5159871687
 30
0.0
 10
-13.0528291082
 20
6.3821404918
 30
0.0
 10
-13.2063501562
 20
6.2935163732
 30
0.0
 10
-13.3836397683
 20
6.2541267182
 30
0.0
 10
-13.5772381318
 20
6.2639141384
 30
0.0
 10
-13.7810715783
 20
6.320779519
 30
0.0
 10
-13.9138949233
 20
6.3853357753
 30
0.0
 10
-13.9806403441
 20
6.4238737445
 30
0.0
  0
SPLINE
  5
3B2
100
AcDbEntity
  8
0
100
AcDbSpline
 62
7
  6
CONTINUOUS
 70
0
 71
3
 72
13
 73
9
 74
0
 42
0.0000001
 43
0.0000001
 44
0.0000000001
 40
0.0
 40
0.0
 40
0.0
 40
0.0
 40
0.1142615855
 40
0.2375404653
 40
0.5000060639
 40
0.7624683436
 40
0.8857433475
 40
1.0
 40
1.0
 40
1.0
 40
1.0
 10
-7.404547279
 20
2.6269200266
 30
0.0
 10
-7.4868412649
 20
2.6744355426
 30
0.0
 10
-7.6494030158
 20
2.7883764173
 30
0.0
 10
-7.9537078054
 20
3.0732380607
 30
0.0
 10
-8.2751869534
 20
3.5123153701
 30
0.0
 10
-8.4946991067
 20
4.0102601712
 30
0.0
 10
-8.5892383916
 20
4.4162177618
 30
0.0
 10
-8.6066288069
 20
4.6139639679
 30
0.0
 10
-8.6066288071
 20
4.7089863058
 30
0.0
  0
SPLINE
  5
3B3
100
AcDbEntity
  8
0
100
AcDbSpline
 62
7
  6
CONTINUOUS
 70
0
 71
3
 72
9
 73
5
 74
0
 42
0.0000001
 43
0.0000001
 44
0.0000000001
 40
0.0
 40
0.0
 40
0.0
 40
0.0
 40
0.2556065575
 40
1.0
 40
1.0
 40
1.0
 40
1.0
 10
3.1313437606
 20
-2.0683719435
 30
0.0
 10
3.1313437606
 20
-2.0817498844
 30
0.0
 10
3.1306849445
 20
-2.1340845309
 30
0.0
 10
3.1273473184
 20
-2.1863956162
 30
0.0
 10
3.1231755234
 20
-2.2251316955
 30
0.0
  0
SPLINE
  5
3B4
100
AcDbEntity
  8
0
100
AcDbSpline
 62
7
  6
CONTINUOUS
 70
0
 71
3
 72
15
 73
11
 74
0
 42
0.0000001
 43
0.0000001
 44
0.0000000001
 40
0.0
 40
0.0
 40
0.0
 40
0.0
 40
0.1348515915
 40
0.2571603084
 40
0.3705368459
 40
0.4806428405
 40
0.5940220991
 40
0.7163355574
 40
0.8511929327
 40
1.0
 40
1.0
 40
1.0
 40
1.0
 10
3.1130855817
 20
-2.2988263628
 30
0.0
 10
3.1015547363
 20
-2.3677121529
 30
0.0
 10
3.0681562438
 20
-2.4977090678
 30
0.0
 10
2.9798391664
 20
-2.6701911812
 30
0.0
 10
2.8570734685
 20
-2.804037858
 30
0.0
 10
2.7035524204
 20
-2.8926619767
 30
0.0
 10
2.5262628084
 20
-2.9320516317
 30
0.0
 10
2.3326644449
 20
-2.9222642114
 30
0.0
 10
2.1288309984
 20
-2.8653988309
 30
0.0
 10
1.9960076534
 20
-2.8008425746
 30
0.0
 10
1.9292622326
 20
-2.7623046054
 30
0.0
  0
SPLINE
  5
3B5
100
AcDbEntity
  8
0
100
AcDbSpline
 62
7
  6
CONTINUOUS
 70
0
 71
3
 72
9
 73
5
 74
0
 42
0.0000001
 43
0.0000001
 44
0.0000000001
 40
0.0
 40
0.0
 40
0.0
 40
0.0
 40
0.2556065575
 40
1.0
 40
1.0
 40
1.0
 40
1.0
 10
19.0412463373
 20
-27.9921909676
 30
0.0
 10
19.0412463373
 20
-28.0055689086
 30
0.0
 10
19.0405875212
 20
-28.0579035551
 30
0.0
 10
19.0372498951
 20
-28.1102146403
 30
0.0
 10
19.0330781001
 20
-28.1489507196
 30
0.0
  0
SPLINE
  5
3B6
100
AcDbEntity
  8
0
100
AcDbSpline
 62
7
  6
CONTINUOUS
 70
0
 71
3
 72
15
 73
11
 74
0
 42
0.0000001
 43
0.0000001
 44
0.0000000001
 40
0.0
 40
0.0
 40
0.0
 40
0.0
 40
0.1348515915
 40
0.2571603084
 40
0.3705368459
 40
0.4806428405
 40
0.5940220991
 40
0.7163355574
 40
0.8511929327
 40
1.0
 40
1.0
 40
1.0
 40
1.0
 10
19.0229881584
 20
-28.2226453869
 30
0.0
 10
19.011457313
 20
-28.291531177
 30
0.0
 10
18.9780588204
 20
-28.4215280919
 30
0.0
 10
18.8897417431
 20
-28.5940102053
 30
0.0
 10
18.7669760452
 20
-28.7278568822
 30
0.0
 10
18.6134549971
 20
-28.8164810008
 30
0.0
 10
18.4361653851
 20
-28.8558706558
 30
0.0
 10
18.2425670216
 20
-28.8460832356
 30
0.0
 10
18.0387335751
 20
-28.789217855
 30
0.0
 10
17.9059102301
 20
-28.7246615987
 30
0.0
 10
17.8391648093
 20
-28.6861236295
 30
0.0
  0
SPLINE
  5
3B7
100
AcDbEntity
  8
0
100
AcDbSpline
 62
7
  6
CONTINUOUS
 70
0
 71
3
 72
15
 73
11
 74
0
 42
0.0000001
 43
0.0000001
 44
0.0000000001
 40
0.0
 40
0.0
 40
0.0
 40
0.0
 40
0.1488004778
 40
0.2836513917
 40
0.4059596616
 40
0.5193362816
 40
0.6294431371
 40
0.7428240803
 40
0.8651398772
 40
1.0
 40
1.0
 40
1.0
 40
1.0
 10
7.3032737696
 20
-10.4374250647
 30
0.0
 10
7.3032737697
 20
-10.3603569018
 30
0.0
 10
7.3137825955
 20
-10.2130585856
 30
0.0
 10
7.3664608826
 20
-10.0081144256
 30
0.0
 10
7.4547937211
 20
-9.8355743636
 30
0.0
 10
7.5775617675
 20
-9.701748319
 30
0.0
 10
7.7310832692
 20
-9.6131251635
 30
0.0
 10
7.9083893753
 20
-9.5737478478
 30
0.0
 10
8.1019294708
 20
-9.583519838
 30
0.0
 10
8.2312139568
 20
-9.6196031393
 30
0.0
 10
8.2966387328
 20
-9.6440642831
 30
0.0
  0
SPLINE
  5
3B8
100
AcDbEntity
  8
0
100
AcDbSpline
 62
7
  6
CONTINUOUS
 70
0
 71
3
 72
15
 73
11
 74
0
 42
0.0000001
 43
0.0000001
 44
0.0000000001
 40
0.0
 40
0.0
 40
0.0
 40
0.0
 40
0.1488004778
 40
0.2836513917
 40
0.4059596616
 40
0.5193362816
 40
0.6294431371
 40
0.7428240803
 40
0.8651398772
 40
1.0
 40
1.0
 40
1.0
 40
1.0
 10
-8.6066288071
 20
-1.2512467148
 30
0.0
 10
-8.606628807
 20
-1.1741785519
 30
0.0
 10
-8.5961199812
 20
-1.0268802357
 30
0.0
 10
-8.5434416941
 20
-0.8219360757
 30
0.0
 10
-8.4551088556
 20
-0.6493960138
 30
0.0
 10
-8.3323408092
 20
-0.5155699692
 30
0.0
 10
-8.1788193074
 20
-0.4269468136
 30
0.0
 10
-8.0015132014
 20
-0.3875694979
 30
0.0
 10
-7.8079731059
 20
-0.3973414881
 30
0.0
 10
-7.6786886199
 20
-0.4334247894
 30
0.0
 10
-7.6132638439
 20
-0.4578859332
 30
0.0
  0
SPLINE
  5
3B9
100
AcDbEntity
  8
0
100
AcDbSpline
 62
7
  6
CONTINUOUS
 70
0
 71
3
 72
13
 73
9
 74
0
 42
0.0000001
 43
0.0000001
 44
0.0000000001
 40
0.0
 40
0.0
 40
0.0
 40
0.0
 40
0.1142615855
 40
0.2375404653
 40
0.5000060639
 40
0.7624683436
 40
0.8857433475
 40
1.0
 40
1.0
 40
1.0
 40
1.0
 10
-7.404547279
 20
-14.1107206477
 30
0.0
 10
-7.4868412649
 20
-14.0632051316
 30
0.0
 10
-7.6494030158
 20
-13.949264257
 30
0.0
 10
-7.9537078054
 20
-13.6644026135
 30
0.0
 10
-8.2751869534
 20
-13.2253253041
 30
0.0
 10
-8.4946991067
 20
-12.7273805031
 30
0.0
 10
-8.5892383916
 20
-12.3214229125
 30
0.0
 10
-8.6066288069
 20
-12.1236767063
 30
0.0
 10
-8.6066288071
 20
-12.0286543685
 30
0.0
  0
SPLINE
  5
3BA
100
AcDbEntity
  8
0
100
AcDbSpline
 62
7
  6
CONTINUOUS
 70
0
 71
3
 72
9
 73
5
 74
0
 42
0.0000001
 43
0.0000001
 44
0.0000000001
 40
0.0
 40
0.0
 40
0.0
 40
0.0
 40
0.2556065575
 40
1.0
 40
1.0
 40
1.0
 40
1.0
 10
3.1313437606
 20
-18.8060126177
 30
0.0
 10
3.1313437606
 20
-18.8193905587
 30
0.0
 10
3.1306849445
 20
-18.8717252052
 30
0.0
 10
3.1273473184
 20
-18.9240362905
 30
0.0
 10
3.1231755234
 20
-18.9627723697
 30
0.0
  0
SPLINE
  5
3BB
100
AcDbEntity
  8
0
100
AcDbSpline
 62
7
  6
CONTINUOUS
 70
0
 71
3
 72
15
 73
11
 74
0
 42
0.0000001
 43
0.0000001
 44
0.0000000001
 40
0.0
 40
0.0
 40
0.0
 40
0.0
 40
0.1348515915
 40
0.2571603084
 40
0.3705368459
 40
0.4806428405
 40
0.5940220991
 40
0.7163355574
 40
0.8511929327
 40
1.0
 40
1.0
 40
1.0
 40
1.0
 10
3.1130855817
 20
-19.036467037
 30
0.0
 10
3.1015547363
 20
-19.1053528272
 30
0.0
 10
3.0681562438
 20
-19.235349742
 30
0.0
 10
2.9798391664
 20
-19.4078318554
 30
0.0
 10
2.8570734685
 20
-19.5416785323
 30
0.0
 10
2.7035524204
 20
-19.6303026509
 30
0.0
 10
2.5262628084
 20
-19.6696923059
 30
0.0
 10
2.3326644449
 20
-19.6599048857
 30
0.0
 10
2.1288309984
 20
-19.6030395052
 30
0.0
 10
1.9960076534
 20
-19.5384832488
 30
0.0
 10
1.9292622326
 20
-19.4999452796
 30
0.0
  0
SPLINE
  5
3BC
100
AcDbEntity
  8
0
100
AcDbSpline
 62
7
  6
CONTINUOUS
 70
0
 71
3
 72
15
 73
11
 74
0
 42
0.0000001
 43
0.0000001
 44
0.0000000001
 40
0.0
 40
0.0
 40
0.0
 40
0.0
 40
0.1488004778
 40
0.2836513917
 40
0.4059596616
 40
0.5193362816
 40
0.6294431371
 40
0.7428240803
 40
0.8651398772
 40
1.0
 40
1.0
 40
1.0
 40
1.0
 10
-24.5165313837
 20
7.934931635
 30
0.0
 10
-24.5165313837
 20
8.011999798
 30
0.0
 10
-24.5060225579
 20
8.1592981141
 30
0.0
 10
-24.4533442708
 20
8.3642422741
 30
0.0
 10
-24.3650114323
 20
8.5367823361
 30
0.0
 10
-24.2422433859
 20
8.6706083807
 30
0.0
 10
-24.0887218841
 20
8.7592315363
 30
0.0
 10
-23.9114157781
 20
8.798608852
 30
0.0
 10
-23.7178756826
 20
8.7888368618
 30
0.0
 10
-23.5885911966
 20
8.7527535605
 30
0.0
 10
-23.5231664205
 20
8.7282924167
 30
0.0
  0
SPLINE
  5
3BD
100
AcDbEntity
  8
0
100
AcDbSpline
 62
7
  6
CONTINUOUS
 70
0
 71
3
 72
11
 73
7
 74
0
 42
0.0000001
 43
0.0000001
 44
0.0000000001
 40
0.0
 40
0.0
 40
0.0
 40
0.0
 40
0.2874005571
 40
0.5470442903
 40
0.7819664638
 40
1.0
 40
1.0
 40
1.0
 40
1.0
 10
-23.8094246026
 20
24.6725723093
 30
0.0
 10
-23.8094246026
 20
24.7285834362
 30
0.0
 10
-23.8015799681
 20
24.835493815
 30
0.0
 10
-23.7620641455
 20
24.9837957468
 30
0.0
 10
-23.6958491917
 20
25.1075151767
 30
0.0
 10
-23.6330160227
 20
25.1717327765
 30
0.0
 10
-23.5988482914
 20
25.1969946002
 30
0.0
  0
SPLINE
  5
3BE
100
AcDbEntity
  8
0
100
AcDbSpline
 62
7
  6
CONTINUOUS
 70
0
 71
3
 72
11
 73
7
 74
0
 42
0.0000001
 43
0.0000001
 44
0.0000000001
 40
0.0
 40
0.0
 40
0.0
 40
0.0
 40
0.2372223756
 40
0.5000061071
 40
0.7627865148
 40
1.0
 40
1.0
 40
1.0
 40
1.0
 10
-22.9608964651
 20
12.4254708115
 30
0.0
 10
-23.0813524017
 20
12.4950205595
 30
0.0
 10
-23.309323373
 20
12.6868853193
 30
0.0
 10
-23.5754038599
 20
13.0504915015
 30
0.0
 10
-23.7572543398
 20
13.4627219752
 30
0.0
 10
-23.8094246029
 20
13.7560770932
 30
0.0
 10
-23.8094246026
 20
13.8951646556
 30
0.0
  0
SPLINE
  5
3BF
100
AcDbEntity
  8
0
100
AcDbSpline
 62
7
  6
CONTINUOUS
 70
0
 71
3
 72
13
 73
9
 74
0
 42
0.0000001
 43
0.0000001
 44
0.0000000001
 40
0.0
 40
0.0
 40
0.0
 40
0.0
 40
0.1142615855
 40
0.2375404653
 40
0.5000060639
 40
0.7624683436
 40
0.8857433475
 40
1.0
 40
1.0
 40
1.0
 40
1.0
 10
-23.3144498557
 20
-4.9245422978
 30
0.0
 10
-23.3967438416
 20
-4.8770267817
 30
0.0
 10
-23.5593055925
 20
-4.7630859071
 30
0.0
 10
-23.8636103821
 20
-4.4782242636
 30
0.0
 10
-24.1850895301
 20
-4.0391469542
 30
0.0
 10
-24.4046016834
 20
-3.5412021532
 30
0.0
 10
-24.4991409683
 20
-3.1352445626
 30
0.0
 10
-24.5165313835
 20
-2.9374983565
 30
0.0
 10
-24.5165313837
 20
-2.8424760186
 30
0.0
  0
SPLINE
  5
3C0
100
AcDbEntity
  8
0
100
AcDbSpline
 62
7
  6
CONTINUOUS
 70
0
 71
3
 72
11
 73
7
 74
0
 42
0.0000001
 43
0.0000001
 44
0.0000000001
 40
0.0
 40
0.0
 40
0.0
 40
0.0
 40
0.2372223756
 40
0.5000061071
 40
0.7627865148
 40
1.0
 40
1.0
 40
1.0
 40
1.0
 10
8.8589086883
 20
-22.6845265625
 30
0.0
 10
8.7384527517
 20
-22.6149768145
 30
0.0
 10
8.5104817804
 20
-22.4231120547
 30
0.0
 10
8.2444012935
 20
-22.0595058725
 30
0.0
 10
8.0625508136
 20
-21.6472753988
 30
0.0
 10
8.0103805505
 20
-21.3539202808
 30
0.0
 10
8.0103805508
 20
-21.2148327184
 30
0.0
  0
SPLINE
  5
3C1
100
AcDbEntity
  8
0
100
AcDbSpline
 62
7
  6
CONTINUOUS
 70
0
 71
3
 72
11
 73
7
 74
0
 42
0.0000001
 43
0.0000001
 44
0.0000000001
 40
0.0
 40
0.0
 40
0.0
 40
0.0
 40
0.2874005571
 40
0.5470442903
 40
0.7819664638
 40
1.0
 40
1.0
 40
1.0
 40
1.0
 10
8.0103805508
 20
-10.4374250647
 30
0.0
 10
8.0103805508
 20
-10.3814139378
 30
0.0
 10
8.0182251853
 20
-10.274503559
 30
0.0
 10
8.0577410079
 20
-10.1262016272
 30
0.0
 10
8.1239559617
 20
-10.0024821973
 30
0.0
 10
8.1867891307
 20
-9.9382645975
 30
0.0
 10
8.220956862
 20
-9.9130027738
 30
0.0
  0
SPLINE
  5
3C2
100
AcDbEntity
  8
0
100
AcDbSpline
 62
7
  6
CONTINUOUS
 70
0
 71
3
 72
9
 73
5
 74
0
 42
0.0000001
 43
0.0000001
 44
0.0000000001
 40
0.0
 40
0.0
 40
0.0
 40
0.0
 40
0.2556065575
 40
1.0
 40
1.0
 40
1.0
 40
1.0
 10
-12.7785588161
 20
-9.6198342679
 30
0.0
 10
-12.7785588161
 20
-9.6332122088
 30
0.0
 10
-12.7792176322
 20
-9.6855468553
 30
0.0
 10
-12.7825552583
 20
-9.7378579406
 30
0.0
 10
-12.7867270533
 20
-9.7765940199
 30
0.0
  0
SPLINE
  5
3C3
100
AcDbEntity
  8
0
100
AcDbSpline
 62
7
  6
CONTINUOUS
 70
0
 71
3
 72
15
 73
11
 74
0
 42
0.0000001
 43
0.0000001
 44
0.0000000001
 40
0.0
 40
0.0
 40
0.0
 40
0.0
 40
0.1348515915
 40
0.2571603084
 40
0.3705368459
 40
0.4806428405
 40
0.5940220991
 40
0.7163355574
 40
0.8511929327
 40
1.0
 40
1.0
 40
1.0
 40
1.0
 10
-12.796816995
 20
-9.8502886871
 30
0.0
 10
-12.8083478404
 20
-9.9191744773
 30
0.0
 10
-12.8417463329
 20
-10.0491713922
 30
0.0
 10
-12.9300634103
 20
-10.2216535055
 30
0.0
 10
-13.0528291082
 20
-10.3555001824
 30
0.0
 10
-13.2063501562
 20
-10.4441243011
 30
0.0
 10
-13.3836397683
 20
-10.4835139561
 30
0.0
 10
-13.5772381318
 20
-10.4737265358
 30
0.0
 10
-13.7810715783
 20
-10.4168611553
 30
0.0
 10
-13.9138949233
 20
-10.352304899
 30
0.0
 10
-13.9806403441
 20
-10.3137669297
 30
0.0
  0
SPLINE
  5
3C4
100
AcDbEntity
  8
0
100
AcDbSpline
 62
7
  6
CONTINUOUS
 70
0
 71
3
 72
11
 73
7
 74
0
 42
0.0000001
 43
0.0000001
 44
0.0000000001
 40
0.0
 40
0.0
 40
0.0
 40
0.0
 40
0.2372223756
 40
0.5000061071
 40
0.7627865148
 40
1.0
 40
1.0
 40
1.0
 40
1.0
 10
-7.0509938884
 20
-13.4983482126
 30
0.0
 10
-7.171449825
 20
-13.4287984646
 30
0.0
 10
-7.3994207963
 20
-13.2369337048
 30
0.0
 10
-7.6655012832
 20
-12.8733275226
 30
0.0
 10
-7.8473517631
 20
-12.4610970489
 30
0.0
 10
-7.8995220262
 20
-12.1677419309
 30
0.0
 10
-7.8995220259
 20
-12.0286543685
 30
0.0
  0
SPLINE
  5
3C5
100
AcDbEntity
  8
0
100
AcDbSpline
 62
7
  6
CONTINUOUS
 70
0
 71
3
 72
11
 73
7
 74
0
 42
0.0000001
 43
0.0000001
 44
0.0000000001
 40
0.0
 40
0.0
 40
0.0
 40
0.0
 40
0.2874005571
 40
0.5470442903
 40
0.7819664638
 40
1.0
 40
1.0
 40
1.0
 40
1.0
 10
-7.8995220259
 20
-1.2512467148
 30
0.0
 10
-7.8995220259
 20
-1.1952355879
 30
0.0
 10
-7.8916773914
 20
-1.0883252092
 30
0.0
 10
-7.8521615688
 20
-0.9400232773
 30
0.0
 10
-7.785946615
 20
-0.8163038475
 30
0.0
 10
-7.723113446
 20
-0.7520862477
 30
0.0
 10
-7.6889457147
 20
-0.726824424
 30
0.0
  0
SPLINE
  5
3C6
100
AcDbEntity
  8
0
100
AcDbSpline
 62
7
  6
CONTINUOUS
 70
0
 71
3
 72
9
 73
5
 74
0
 42
0.0000001
 43
0.0000001
 44
0.0000000001
 40
0.0
 40
0.0
 40
0.0
 40
0.0
 40
0.2474995002
 40
1.0
 40
1.0
 40
1.0
 40
1.0
 10
-13.0270579613
 20
6.9767967664
 30
0.0
 10
-13.036881409
 20
6.9711248274
 30
0.0
 10
-13.0775336604
 20
6.9498964395
 30
0.0
 10
-13.1218031101
 20
6.9357506804
 30
0.0
 10
-13.1556594089
 20
6.9291780412
 30
0.0
  0
SPLINE
  5
3C7
100
AcDbEntity
  8
0
100
AcDbSpline
 62
7
  6
CONTINUOUS
 70
0
 71
3
 72
10
 73
6
 74
0
 42
0.0000001
 43
0.0000001
 44
0.0000000001
 40
0.0
 40
0.0
 40
0.0
 40
0.0
 40
0.4579074902
 40
0.7178898928
 40
1.0
 40
1.0
 40
1.0
 40
1.0
 10
-13.1556594089
 20
6.9291780412
 30
0.0
 10
-13.2293523688
 20
6.9148717747
 30
0.0
 10
-13.3511992724
 20
6.9222755331
 30
0.0
 10
-13.5071065863
 20
6.9733144369
 30
0.0
 10
-13.587034983
 20
7.0131206737
 30
0.0
 10
-13.6270869535
 20
7.0362461796
 30
0.0
  0
SPLINE
  5
3C8
100
AcDbEntity
  8
0
100
AcDbSpline
 62
7
  6
CONTINUOUS
 70
0
 71
3
 72
9
 73
5
 74
0
 42
0.0000001
 43
0.0000001
 44
0.0000000001
 40
0.0
 40
0.0
 40
0.0
 40
0.0
 40
0.2474995002
 40
1.0
 40
1.0
 40
1.0
 40
1.0
 10
2.8828446154
 20
-2.2093815835
 30
0.0
 10
2.8730211677
 20
-2.2150535224
 30
0.0
 10
2.8323689163
 20
-2.2362819104
 30
0.0
 10
2.7880994666
 20
-2.2504276695
 30
0.0
 10
2.7542431678
 20
-2.2570003087
 30
0.0
  0
SPLINE
  5
3C9
100
AcDbEntity
  8
0
100
AcDbSpline
 62
7
  6
CONTINUOUS
 70
0
 71
3
 72
10
 73
6
 74
0
 42
0.0000001
 43
0.0000001
 44
0.0000000001
 40
0.0
 40
0.0
 40
0.0
 40
0.0
 40
0.4579074902
 40
0.7178898928
 40
1.0
 40
1.0
 40
1.0
 40
1.0
 10
2.7542431678
 20
-2.2570003087
 30
0.0
 10
2.6805502079
 20
-2.2713065752
 30
0.0
 10
2.5587033043
 20
-2.2639028168
 30
0.0
 10
2.4027959904
 20
-2.212863913
 30
0.0
 10
2.3228675937
 20
-2.1730576762
 30
0.0
 10
2.2828156232
 20
-2.1499321703
 30
0.0
  0
SPLINE
  5
3CA
100
AcDbEntity
  8
0
100
AcDbSpline
 62
7
  6
CONTINUOUS
 70
0
 71
3
 72
15
 73
11
 74
0
 42
0.0000001
 43
0.0000001
 44
0.0000000001
 40
0.0
 40
0.0
 40
0.0
 40
0.0
 40
0.1488004778
 40
0.2836513917
 40
0.4059596616
 40
0.5193362816
 40
0.6294431371
 40
0.7428240803
 40
0.8651398772
 40
1.0
 40
1.0
 40
1.0
 40
1.0
 10
7.3032737696
 20
6.3002156096
 30
0.0
 10
7.3032737697
 20
6.3772837725
 30
0.0
 10
7.3137825955
 20
6.5245820886
 30
0.0
 10
7.3664608826
 20
6.7295262486
 30
0.0
 10
7.4547937211
 20
6.9020663106
 30
0.0
 10
7.5775617675
 20
7.0358923552
 30
0.0
 10
7.7310832692
 20
7.1245155108
 30
0.0
 10
7.9083893753
 20
7.1638928265
 30
0.0
 10
8.1019294708
 20
7.1541208363
 30
0.0
 10
8.2312139568
 20
7.118037535
 30
0.0
 10
8.2966387328
 20
7.0935763912
 30
0.0
  0
SPLINE
  5
3CB
100
AcDbEntity
  8
0
100
AcDbSpline
 62
7
  6
CONTINUOUS
 70
0
 71
3
 72
9
 73
5
 74
0
 42
0.0000001
 43
0.0000001
 44
0.0000000001
 40
0.0
 40
0.0
 40
0.0
 40
0.0
 40
0.2474995002
 40
1.0
 40
1.0
 40
1.0
 40
1.0
 10
18.7927471921
 20
-11.3955599334
 30
0.0
 10
18.7829237444
 20
-11.4012318723
 30
0.0
 10
18.742271493
 20
-11.4224602603
 30
0.0
 10
18.6980020433
 20
-11.4366060194
 30
0.0
 10
18.6641457445
 20
-11.4431786585
 30
0.0
  0
SPLINE
  5
3CC
100
AcDbEntity
  8
0
100
AcDbSpline
 62
7
  6
CONTINUOUS
 70
0
 71
3
 72
10
 73
6
 74
0
 42
0.0000001
 43
0.0000001
 44
0.0000000001
 40
0.0
 40
0.0
 40
0.0
 40
0.0
 40
0.4579074902
 40
0.7178898928
 40
1.0
 40
1.0
 40
1.0
 40
1.0
 10
18.6641457445
 20
-11.4431786585
 30
0.0
 10
18.5904527846
 20
-11.457484925
 30
0.0
 10
18.468605881
 20
-11.4500811666
 30
0.0
 10
18.3126985671
 20
-11.3990422629
 30
0.0
 10
18.2327701704
 20
-11.3592360261
 30
0.0
 10
18.1927181999
 20
-11.3361105202
 30
0.0
  0
SPLINE
  5
3CD
100
AcDbEntity
  8
0
100
AcDbSpline
 62
7
  6
CONTINUOUS
 70
0
 71
3
 72
11
 73
7
 74
0
 42
0.0000001
 43
0.0000001
 44
0.0000000001
 40
0.0
 40
0.0
 40
0.0
 40
0.0
 40
0.2874005571
 40
0.5470442903
 40
0.7819664638
 40
1.0
 40
1.0
 40
1.0
 40
1.0
 10
-7.8995220259
 20
15.4863939594
 30
0.0
 10
-7.8995220259
 20
15.5424050863
 30
0.0
 10
-7.8916773914
 20
15.6493154651
 30
0.0
 10
-7.8521615688
 20
15.7976173969
 30
0.0
 10
-7.785946615
 20
15.9213368268
 30
0.0
 10
-7.723113446
 20
15.9855544266
 30
0.0
 10
-7.6889457147
 20
16.0108162503
 30
0.0
  0
SPLINE
  5
3CE
100
AcDbEntity
  8
0
100
AcDbSpline
 62
7
  6
CONTINUOUS
 70
0
 71
3
 72
13
 73
9
 74
0
 42
0.0000001
 43
0.0000001
 44
0.0000000001
 40
0.0
 40
0.0
 40
0.0
 40
0.0
 40
0.1142615855
 40
0.2375404653
 40
0.5000060639
 40
0.7624683436
 40
0.8857433475
 40
1.0
 40
1.0
 40
1.0
 40
1.0
 10
8.5053552977
 20
-6.5592583233
 30
0.0
 10
8.4230613118
 20
-6.5117428072
 30
0.0
 10
8.2604995609
 20
-6.3978019326
 30
0.0
 10
7.9561947713
 20
-6.1129402891
 30
0.0
 10
7.6347156233
 20
-5.6738629797
 30
0.0
 10
7.41520347
 20
-5.1759181787
 30
0.0
 10
7.3206641851
 20
-4.7699605881
 30
0.0
 10
7.3032737698
 20
-4.572214382
 30
0.0
 10
7.3032737696
 20
-4.4771920441
 30
0.0
  0
SPLINE
  5
3CF
100
AcDbEntity
  8
0
100
AcDbSpline
 62
7
  6
CONTINUOUS
 70
0
 71
3
 72
11
 73
7
 74
0
 42
0.0000001
 43
0.0000001
 44
0.0000000001
 40
0.0
 40
0.0
 40
0.0
 40
0.0
 40
0.2372223756
 40
0.5000061071
 40
0.7627865148
 40
1.0
 40
1.0
 40
1.0
 40
1.0
 10
-7.0509938884
 20
3.2392924616
 30
0.0
 10
-7.171449825
 20
3.3088422097
 30
0.0
 10
-7.3994207963
 20
3.5007069695
 30
0.0
 10
-7.6655012832
 20
3.8643131516
 30
0.0
 10
-7.8473517631
 20
4.2765436254
 30
0.0
 10
-7.8995220262
 20
4.5698987434
 30
0.0
 10
-7.8995220259
 20
4.7089863058
 30
0.0
  0
SPLINE
  5
3D0
100
AcDbEntity
  8
0
100
AcDbSpline
 62
7
  6
CONTINUOUS
 70
0
 71
3
 72
9
 73
5
 74
0
 42
0.0000001
 43
0.0000001
 44
0.0000000001
 40
0.0
 40
0.0
 40
0.0
 40
0.0
 40
0.2474995002
 40
1.0
 40
1.0
 40
1.0
 40
1.0
 10
-13.0270579613
 20
-9.7608439079
 30
0.0
 10
-13.036881409
 20
-9.7665158468
 30
0.0
 10
-13.0775336604
 20
-9.7877442348
 30
0.0
 10
-13.1218031101
 20
-9.8018899939
 30
0.0
 10
-13.1556594089
 20
-9.808462633
 30
0.0
  0
SPLINE
  5
3D1
100
AcDbEntity
  8
0
100
AcDbSpline
 62
7
  6
CONTINUOUS
 70
0
 71
3
 72
10
 73
6
 74
0
 42
0.0000001
 43
0.0000001
 44
0.0000000001
 40
0.0
 40
0.0
 40
0.0
 40
0.0
 40
0.4579074902
 40
0.7178898928
 40
1.0
 40
1.0
 40
1.0
 40
1.0
 10
-13.1556594089
 20
-9.808462633
 30
0.0
 10
-13.2293523688
 20
-9.8227688995
 30
0.0
 10
-13.3511992724
 20
-9.8153651412
 30
0.0
 10
-13.5071065863
 20
-9.7643262374
 30
0.0
 10
-13.587034983
 20
-9.7245200006
 30
0.0
 10
-13.6270869535
 20
-9.7013944947
 30
0.0
  0
SPLINE
  5
3D2
100
AcDbEntity
  8
0
100
AcDbSpline
 62
7
  6
CONTINUOUS
 70
0
 71
3
 72
9
 73
5
 74
0
 42
0.0000001
 43
0.0000001
 44
0.0000000001
 40
0.0
 40
0.0
 40
0.0
 40
0.0
 40
0.2556065575
 40
1.0
 40
1.0
 40
1.0
 40
1.0
 10
19.0412463373
 20
-11.2545502934
 30
0.0
 10
19.0412463373
 20
-11.2679282343
 30
0.0
 10
19.0405875212
 20
-11.3202628808
 30
0.0
 10
19.0372498951
 20
-11.3725739661
 30
0.0
 10
19.0330781001
 20
-11.4113100454
 30
0.0
  0
SPLINE
  5
3D3
100
AcDbEntity
  8
0
100
AcDbSpline
 62
7
  6
CONTINUOUS
 70
0
 71
3
 72
15
 73
11
 74
0
 42
0.0000001
 43
0.0000001
 44
0.0000000001
 40
0.0
 40
0.0
 40
0.0
 40
0.0
 40
0.1348515915
 40
0.2571603084
 40
0.3705368459
 40
0.4806428405
 40
0.5940220991
 40
0.7163355574
 40
0.8511929327
 40
1.0
 40
1.0
 40
1.0
 40
1.0
 10
19.0229881584
 20
-11.4850047126
 30
0.0
 10
19.011457313
 20
-11.5538905028
 30
0.0
 10
18.9780588204
 20
-11.6838874177
 30
0.0
 10
18.8897417431
 20
-11.856369531
 30
0.0
 10
18.7669760452
 20
-11.9902162079
 30
0.0
 10
18.6134549971
 20
-12.0788403265
 30
0.0
 10
18.4361653851
 20
-12.1182299816
 30
0.0
 10
18.2425670216
 20
-12.1084425613
 30
0.0
 10
18.0387335751
 20
-12.0515771808
 30
0.0
 10
17.9059102301
 20
-11.9870209245
 30
0.0
 10
17.8391648093
 20
-11.9484829552
 30
0.0
  0
SPLINE
  5
3D4
100
AcDbEntity
  8
0
100
AcDbSpline
 62
7
  6
CONTINUOUS
 70
0
 71
3
 72
11
 73
7
 74
0
 42
0.0000001
 43
0.0000001
 44
0.0000000001
 40
0.0
 40
0.0
 40
0.0
 40
0.0
 40
0.2372223756
 40
0.5000061071
 40
0.7627865148
 40
1.0
 40
1.0
 40
1.0
 40
1.0
 10
-22.9608964651
 20
-4.3121698628
 30
0.0
 10
-23.0813524017
 20
-4.2426201147
 30
0.0
 10
-23.309323373
 20
-4.0507553549
 30
0.0
 10
-23.5754038599
 20
-3.6871491728
 30
0.0
 10
-23.7572543398
 20
-3.274918699
 30
0.0
 10
-23.8094246029
 20
-2.981563581
 30
0.0
 10
-23.8094246026
 20
-2.8424760186
 30
0.0
  0
SPLINE
  5
3D5
100
AcDbEntity
  8
0
100
AcDbSpline
 62
7
  6
CONTINUOUS
 70
0
 71
3
 72
9
 73
5
 74
0
 42
0.0000001
 43
0.0000001
 44
0.0000000001
 40
0.0
 40
0.0
 40
0.0
 40
0.0
 40
0.2474995002
 40
1.0
 40
1.0
 40
1.0
 40
1.0
 10
2.8828446154
 20
-18.9470222578
 30
0.0
 10
2.8730211677
 20
-18.9526941967
 30
0.0
 10
2.8323689163
 20
-18.9739225847
 30
0.0
 10
2.7880994666
 20
-18.9880683438
 30
0.0
 10
2.7542431678
 20
-18.9946409829
 30
0.0
  0
SPLINE
  5
3D6
100
AcDbEntity
  8
0
100
AcDbSpline
 62
7
  6
CONTINUOUS
 70
0
 71
3
 72
10
 73
6
 74
0
 42
0.0000001
 43
0.0000001
 44
0.0000000001
 40
0.0
 40
0.0
 40
0.0
 40
0.0
 40
0.4579074902
 40
0.7178898928
 40
1.0
 40
1.0
 40
1.0
 40
1.0
 10
2.7542431678
 20
-18.9946409829
 30
0.0
 10
2.6805502079
 20
-19.0089472494
 30
0.0
 10
2.5587033043
 20
-19.001543491
 30
0.0
 10
2.4027959904
 20
-18.9505045872
 30
0.0
 10
2.3228675937
 20
-18.9106983504
 30
0.0
 10
2.2828156232
 20
-18.8875728446
 30
0.0
  0
SPLINE
  5
3D7
100
AcDbEntity
  8
0
100
AcDbSpline
 62
7
  6
CONTINUOUS
 70
0
 71
3
 72
11
 73
7
 74
0
 42
0.0000001
 43
0.0000001
 44
0.0000000001
 40
0.0
 40
0.0
 40
0.0
 40
0.0
 40
0.2874005571
 40
0.5470442903
 40
0.7819664638
 40
1.0
 40
1.0
 40
1.0
 40
1.0
 10
-23.8094246026
 20
7.934931635
 30
0.0
 10
-23.8094246026
 20
7.9909427619
 30
0.0
 10
-23.8015799681
 20
8.0978531407
 30
0.0
 10
-23.7620641455
 20
8.2461550726
 30
0.0
 10
-23.6958491917
 20
8.3698745024
 30
0.0
 10
-23.6330160227
 20
8.4340921022
 30
0.0
 10
-23.5988482914
 20
8.4593539259
 30
0.0
  0
SPLINE
  5
3D8
100
AcDbEntity
  8
0
100
AcDbSpline
 62
7
  6
CONTINUOUS
 70
0
 71
3
 72
9
 73
5
 74
0
 42
0.0000001
 43
0.0000001
 44
0.0000000001
 40
0.0
 40
0.0
 40
0.0
 40
0.0
 40
0.2474995002
 40
1.0
 40
1.0
 40
1.0
 40
1.0
 10
18.7927471921
 20
-28.1332006076
 30
0.0
 10
18.7829237444
 20
-28.1388725466
 30
0.0
 10
18.742271493
 20
-28.1601009345
 30
0.0
 10
18.6980020433
 20
-28.1742466936
 30
0.0
 10
18.6641457445
 20
-28.1808193328
 30
0.0
  0
SPLINE
  5
3D9
100
AcDbEntity
  8
0
100
AcDbSpline
 62
7
  6
CONTINUOUS
 70
0
 71
3
 72
10
 73
6
 74
0
 42
0.0000001
 43
0.0000001
 44
0.0000000001
 40
0.0
 40
0.0
 40
0.0
 40
0.0
 40
0.4579074902
 40
0.7178898928
 40
1.0
 40
1.0
 40
1.0
 40
1.0
 10
18.6641457445
 20
-28.1808193328
 30
0.0
 10
18.5904527846
 20
-28.1951255993
 30
0.0
 10
18.468605881
 20
-28.1877218409
 30
0.0
 10
18.3126985671
 20
-28.1366829371
 30
0.0
 10
18.2327701704
 20
-28.0968767003
 30
0.0
 10
18.1927181999
 20
-28.0737511944
 30
0.0
  0
SPLINE
  5
3DA
100
AcDbEntity
  8
0
100
AcDbSpline
 62
7
  6
CONTINUOUS
 70
0
 71
3
 72
11
 73
7
 74
0
 42
0.0000001
 43
0.0000001
 44
0.0000000001
 40
0.0
 40
0.0
 40
0.0
 40
0.0
 40
0.2372223756
 40
0.5000061071
 40
0.7627865148
 40
1.0
 40
1.0
 40
1.0
 40
1.0
 10
8.8589086883
 20
-5.9468858883
 30
0.0
 10
8.7384527517
 20
-5.8773361402
 30
0.0
 10
8.5104817804
 20
-5.6854713804
 30
0.0
 10
8.2444012935
 20
-5.3218651983
 30
0.0
 10
8.0625508136
 20
-4.9096347245
 30
0.0
 10
8.0103805505
 20
-4.6162796065
 30
0.0
 10
8.0103805508
 20
-4.4771920441
 30
0.0
  0
SPLINE
  5
3DB
100
AcDbEntity
  8
0
100
AcDbSpline
 62
7
  6
CONTINUOUS
 70
0
 71
3
 72
11
 73
7
 74
0
 42
0.0000001
 43
0.0000001
 44
0.0000000001
 40
0.0
 40
0.0
 40
0.0
 40
0.0
 40
0.2874005571
 40
0.5470442903
 40
0.7819664638
 40
1.0
 40
1.0
 40
1.0
 40
1.0
 10
8.0103805508
 20
6.3002156096
 30
0.0
 10
8.0103805508
 20
6.3562267364
 30
0.0
 10
8.0182251853
 20
6.4631371152
 30
0.0
 10
8.0577410079
 20
6.6114390471
 30
0.0
 10
8.1239559617
 20
6.7351584769
 30
0.0
 10
8.1867891307
 20
6.7993760767
 30
0.0
 10
8.220956862
 20
6.8246379004
 30
0.0
  0
SPLINE
  5
3DC
100
AcDbEntity
  8
0
100
AcDbSpline
 62
7
  6
CONTINUOUS
 70
0
 71
3
 72
15
 73
11
 74
0
 42
0.0000001
 43
0.0000001
 44
0.0000000001
 40
0.0
 40
0.0
 40
0.0
 40
0.0
 40
0.1488004778
 40
0.2836513917
 40
0.4059596616
 40
0.5193362816
 40
0.6294431371
 40
0.7428240803
 40
0.8651398772
 40
1.0
 40
1.0
 40
1.0
 40
1.0
 10
-8.6066288071
 20
15.4863939594
 30
0.0
 10
-8.606628807
 20
15.5634621223
 30
0.0
 10
-8.5961199812
 20
15.7107604385
 30
0.0
 10
-8.5434416941
 20
15.9157045985
 30
0.0
 10
-8.4551088556
 20
16.0882446605
 30
0.0
 10
-8.3323408092
 20
16.2220707051
 30
0.0
 10
-8.1788193074
 20
16.3106938607
 30
0.0
 10
-8.0015132014
 20
16.3500711763
 30
0.0
 10
-7.8079731059
 20
16.3402991861
 30
0.0
 10
-7.6786886199
 20
16.3042158848
 30
0.0
 10
-7.6132638439
 20
16.279754741
 30
0.0
  0
SPLINE
  5
3DD
100
AcDbEntity
  8
CURVE
100
AcDbSpline
 62
250
  6
CONTINUOUS
 70
0
 71
3
 72
9
 73
5
 74
0
 42
0.0000001
 43
0.0000001
 44
0.0000000001
 40
0.0
 40
0.0
 40
0.0
 40
0.0
 40
0.5206208722
 40
1.0
 40
1.0
 40
1.0
 40
1.0
 10
42.625664613
 20
-49.2062278952
 30
0.0
 10
42.7046983507
 20
-49.1623129062
 30
0.0
 10
42.8773467732
 20
-49.1316866335
 30
0.0
 10
42.9081394659
 20
-49.303843942
 30
0.0
 10
42.9097646912
 20
-49.3842007395
 30
0.0
  0
SPLINE
  5
3DE
100
AcDbEntity
  8
CURVE
100
AcDbSpline
 62
250
  6
CONTINUOUS
 70
0
 71
3
 72
9
 73
5
 74
0
 42
0.0000001
 43
0.0000001
 44
0.0000000001
 40
0.0
 40
0.0
 40
0.0
 40
0.0
 40
0.5013510385
 40
1.0
 40
1.0
 40
1.0
 40
1.0
 10
42.3971287686
 20
-49.5699316234
 30
0.0
 10
42.4036222376
 20
-49.5039960527
 30
0.0
 10
42.4528767944
 20
-49.3511854293
 30
0.0
 10
42.5696691691
 20
-49.2373548266
 30
0.0
 10
42.625664613
 20
-49.2062278952
 30
0.0
  0
SPLINE
  5
3DF
100
AcDbEntity
  8
CURVE
100
AcDbSpline
 62
250
  6
CONTINUOUS
 70
0
 71
3
 72
9
 73
5
 74
0
 42
0.0000001
 43
0.0000001
 44
0.0000000001
 40
0.0
 40
0.0
 40
0.0
 40
0.0
 40
0.2703953699
 40
1.0
 40
1.0
 40
1.0
 40
1.0
 10
42.4078906545
 20
-49.897892016
 30
0.0
 10
42.4033457905
 20
-49.8706041301
 30
0.0
 10
42.3883980951
 20
-49.7683398582
 30
0.0
 10
42.3887225926
 20
-49.6553079858
 30
0.0
 10
42.3971287686
 20
-49.5699316234
 30
0.0
  0
SPLINE
  5
3E0
100
AcDbEntity
  8
CURVE
100
AcDbSpline
 62
250
  6
CONTINUOUS
 70
0
 71
3
 72
9
 73
5
 74
0
 42
0.0000001
 43
0.0000001
 44
0.0000000001
 40
0.0
 40
0.0
 40
0.0
 40
0.0
 40
0.2957417834
 40
1.0
 40
1.0
 40
1.0
 40
1.0
 10
42.1370475746
 20
-49.4025348593
 30
0.0
 10
42.10528707
 20
-49.5177785455
 30
0.0
 10
42.0535155543
 20
-49.8984185819
 30
0.0
 10
42.0854015216
 20
-50.2358659625
 30
0.0
 10
42.1177995647
 20
-50.4642712992
 30
0.0
  0
SPLINE
  5
3E1
100
AcDbEntity
  8
CURVE
100
AcDbSpline
 62
250
  6
CONTINUOUS
 70
0
 71
3
 72
17
 73
13
 74
0
 42
0.0000001
 43
0.0000001
 44
0.0000000001
 40
0.0
 40
0.0
 40
0.0
 40
0.0
 40
0.0559780952
 40
0.1687540387
 40
0.321006234
 40
0.4122750837
 40
0.516613223
 40
0.6013931059
 40
0.6776022439
 40
0.8103422694
 40
0.9200404832
 40
1.0
 40
1.0
 40
1.0
 40
1.0
 10
43.0604448031
 20
-48.8614318145
 30
0.0
 10
43.0577250637
 20
-48.8393651003
 30
0.0
 10
43.0155284743
 20
-48.802271724
 30
0.0
 10
42.9350900033
 20
-48.7463887611
 30
0.0
 10
42.8112674658
 20
-48.7400200269
 30
0.0
 10
42.6820925321
 20
-48.7770341538
 30
0.0
 10
42.5748800336
 20
-48.8317030325
 30
0.0
 10
42.4747444297
 20
-48.9017276849
 30
0.0
 10
42.3683425389
 20
-48.9980604846
 30
0.0
 10
42.2640663664
 20
-49.1275370424
 30
0.0
 10
42.1825196602
 20
-49.2749825878
 30
0.0
 10
42.1473493128
 20
-49.365108574
 30
0.0
 10
42.1370475746
 20
-49.4025348593
 30
0.0
  0
SPLINE
  5
3E2
100
AcDbEntity
  8
CURVE
100
AcDbSpline
 62
250
  6
CONTINUOUS
 70
0
 71
3
 72
9
 73
5
 74
0
 42
0.0000001
 43
0.0000001
 44
0.0000000001
 40
0.0
 40
0.0
 40
0.0
 40
0.0
 40
0.2426586216
 40
1.0
 40
1.0
 40
1.0
 40
1.0
 10
43.4298174039
 20
-48.4169855186
 30
0.0
 10
43.3965961014
 20
-48.4449764149
 30
0.0
 10
43.2624403859
 20
-48.5558038258
 30
0.0
 10
43.1110509768
 20
-48.7227472196
 30
0.0
 10
43.0712478173
 20
-48.8556152283
 30
0.0
  0
SPLINE
  5
3E3
100
AcDbEntity
  8
CURVE
100
AcDbSpline
 62
250
  6
CONTINUOUS
 70
0
 71
3
 72
9
 73
5
 74
0
 42
0.0000001
 43
0.0000001
 44
0.0000000001
 40
0.0
 40
0.0
 40
0.0
 40
0.0
 40
0.1980141723
 40
1.0
 40
1.0
 40
1.0
 40
1.0
 10
43.9246310951
 20
-48.0049248698
 30
0.0
 10
43.892035783
 20
-48.0323580225
 30
0.0
 10
43.7270547748
 20
-48.1695608711
 30
0.0
 10
43.5618047618
 20
-48.3057762763
 30
0.0
 10
43.4298174039
 20
-48.4169855186
 30
0.0
  0
SPLINE
  5
3E4
100
AcDbEntity
  8
CURVE
100
AcDbSpline
 62
250
  6
CONTINUOUS
 70
0
 71
3
 72
9
 73
5
 74
0
 42
0.0000001
 43
0.0000001
 44
0.0000000001
 40
0.0
 40
0.0
 40
0.0
 40
0.0
 40
0.5586214172
 40
1.0
 40
1.0
 40
1.0
 40
1.0
 10
43.3702637322
 20
-48.8994902564
 30
0.0
 10
43.471182617
 20
-48.8028269329
 30
0.0
 10
43.6580559051
 20
-48.646547268
 30
0.0
 10
43.8427676835
 20
-48.4850669912
 30
0.0
 10
43.9246310951
 20
-48.4147146479
 30
0.0
  0
SPLINE
  5
3E5
100
AcDbEntity
  8
CURVE
100
AcDbSpline
 62
250
  6
CONTINUOUS
 70
0
 71
3
 72
9
 73
5
 74
0
 42
0.0000001
 43
0.0000001
 44
0.0000000001
 40
0.0
 40
0.0
 40
0.0
 40
0.0
 40
0.3559141631
 40
1.0
 40
1.0
 40
1.0
 40
1.0
 10
43.209178179
 20
-49.2239080702
 30
0.0
 10
43.209178179
 20
-49.1867827713
 30
0.0
 10
43.2293151407
 20
-49.0691410484
 30
0.0
 10
43.3139203432
 20
-48.9534326974
 30
0.0
 10
43.3702637322
 20
-48.8994902564
 30
0.0
  0
ELLIPSE
  5
3E6
100
AcDbEntity
  8
0
100
AcDbEllipse
 62
7
  6
CONTINUOUS
 10
18.294971831
 20
-26.4011284745
 30
0.0
 11
0.1998333781
 21
-0.0157785196
 31
0.0
 40
0.5172961965
 41
0.8262203412
 42
2.3446567905
  0
ELLIPSE
  5
3E7
100
AcDbEntity
  8
0
100
AcDbEllipse
 62
7
  6
CONTINUOUS
 10
-13.5248333224
 20
-8.0287717747
 30
0.0
 11
0.1998333781
 21
-0.0157785196
 31
0.0
 40
0.5172961965
 41
0.8262203412
 42
2.3446567905
  0
ELLIPSE
  5
3E8
100
AcDbEntity
  8
0
100
AcDbEllipse
 62
7
  6
CONTINUOUS
 10
2.3814605042
 20
-17.2698175746
 30
0.0
 11
0.2999972416
 21
-0.0022477848
 31
0.0
 40
0.5723275643
 41
0.7896864073
 42
2.3081228565
  0
ENDSEC
  0
SECTION
  2
OBJECTS
  0
DICTIONARY
  5
C
100
AcDbDictionary
280
0
281
1
  3
ACAD_GROUP
350
D
  3
ACAD_MLINESTYLE
350
17
  3
ACAD_LAYOUT
350
1A
  3
ACAD_PLOTSETTINGS
350
19
  3
ACAD_PLOTSTYLENAME
350
E
  0
DICTIONARY
  5
D
102
{ACAD_REACTORS
330
C
102
}
100
AcDbDictionary
280
0
281
1
  0
ACDBDICTIONARYWDFLT
  5
E
102
{ACAD_REACTORS
330
C
102
}
100
AcDbDictionary
281
1
  3
Normal
350
F
100
AcDbDictionaryWithDefault
340
F
  0
DICTIONARY
  5
17
102
{ACAD_REACTORS
330
C
102
}
100
AcDbDictionary
280
0
281
1
  3
Standard
350
18
  0
DICTIONARY
  5
19
102
{ACAD_REACTORS
330
C
102
}
100
AcDbDictionary
281
1
  0
DICTIONARY
  5
1A
102
{ACAD_REACTORS
330
C
102
}
100
AcDbDictionary
281
1
  3
Model
350
3E9
  3
Layout1
350
3EA
  0
ACDBPLACEHOLDER
  5
F
102
{ACAD_REACTORS
330
E
102
}
  0
MLINESTYLE
  5
18
102
{ACAD_REACTORS
330
17
102
}
100
AcDbMlineStyle
  2
STANDARD
 70
0
  3

 62
256
 51
90.0
 52
90.0
 71
2
 49
0.5
 62
256
  6
BYLAYER
 49
-0.5
 62
256
  6
BYLAYER
  0
LAYOUT
  5
3E9
102
{ACAD_REACTORS
330
1A
102
}
100
AcDbPlotSettings
  1

  2
none_device
  4
ISO_A4_(297.00_x_210.00_MM)
  6

 40
0.0
 41
0.0
 42
0.0
 43
0.0
 44
297.0
 45
210.0
 46
0.0
 47
0.0
 48
0.0
 49
0.0
140
0.0
141
0.0
142
1.0
143
1.0
 70
1024
 72
1
 73
0
 74
0
  7

 75
0
147
1.0
148
0.0
149
0.0
100
AcDbLayout
  1
Model
 70
0
 71
0
 10
0.0
 20
0.0
 11
297.0
 21
210.0
 12
0.0
 22
0.0
 32
0.0
 14
0.0
 24
0.0
 34
0.0
 15
0.0
 25
0.0
 35
0.0
146
0.0
 13
0.0
 23
0.0
 33
0.0
 16
1.0
 26
0.0
 36
0.0
 17
0.0
 27
1.0
 37
0.0
 76
0
330
21E
345
0
346
0
  0
LAYOUT
  5
3EA
102
{ACAD_REACTORS
330
1A
102
}
100
AcDbPlotSettings
  1

  2
none_device
  4
ISO_A4_(297.00_x_210.00_MM)
  6

 40
0.0
 41
0.0
 42
0.0
 43
0.0
 44
297.0
 45
210.0
 46
0.0
 47
0.0
 48
0.0
 49
0.0
140
0.0
141
0.0
142
1.0
143
1.0
 70
0
 72
1
 73
0
 74
0
  7

 75
0
147
1.0
148
0.0
149
0.0
100
AcDbLayout
  1
Layout1
 70
0
 71
1
 10
0.0
 20
0.0
 11
297.0
 21
210.0
 12
0.0
 22
0.0
 32
0.0
 14
0.0
 24
0.0
 34
0.0
 15
0.0
 25
0.0
 35
0.0
146
0.0
 13
0.0
 23
0.0
 33
0.0
 16
1.0
 26
0.0
 36
0.0
 17
0.0
 27
1.0
 37
0.0
 76
0
330
21F
345
0
346
0
  0
ENDSEC
  0
EOF
