  0
SECTION
  2
HEADER
  9
$ACADVER
  1
AC1024
  9
$DWGCODEPAGE
  3
ANSI_1252
  9
$EXTMAX
 10
297.0
 20
210.0
 30
0.0
  9
$EXTMIN
 10
0.0
 20
0.0
 30
0.0
  9
$LIMMIN
 10
0.0
 20
0.0
  9
$LIMMAX
 10
297.0
 20
210.0
  9
$VIEWCTR
 10
148.5
 20
105.0
  9
$VIEWSIZE
 40
210.0
  9
$CLAYER
  8
0
  9
$LTSCALE
 40
16.335
  9
$CELTYPE
  6
BYLAYER
  9
$DIMSCALE
 40
1.0
  9
$DIMASZ
 40
3.0
  9
$DIMEXO
 40
0.5
  9
$DIMDLI
 40
11.286
  9
$DIMEXE
 40
1.5
  9
$DIMCEN
 40
2.673
  9
$DIMLFAC
 40
1.0
  9
$DIMBLK
  1
_FILLED
  9
$DIMALT
 70
0
  9
$DIMALTF
 40
0.0393700787
  9
$DIMTXT
 40
3.0
  9
$DIMTOL
 70
1
  9
$DIMLIM
 70
0
  9
$DIMTFAC
 40
1.0
  9
$DIMTP
 40
0.01
  9
$DIMTM
 40
0.01
  9
$DIMGAP
 40
0.625
  9
$DIMDSEP
 70
44
  9
$AUNITS
 70
0
  9
$PDMODE
 70
3
  9
$PDSIZE
 40
3.0
  9
$HANDSEED
  5
361
  9
$TILEMODE
 70
1
  9
$MEASUREMENT
 70
1
  9
$INSUNITS
 70
4
  0
ENDSEC
  0
SECTION
  2
CLASSES
  0
CLASS
  1
ACDBDICTIONARYWDFLT
  2
AcDbDictionaryWithDefault
  3
AutoCAD 2000
 90
0
 91
1
280
0
281
0
  0
CLASS
  1
ACDBPLACEHOLDER
  2
AcDbPlaceHolder
  3
AutoCAD 2000
 90
0
 91
1
280
0
281
0
  0
CLASS
  1
LAYOUT
  2
AcDbLayout
  3
AutoCAD 2000
 90
0
 91
0
280
0
281
0
  0
ENDSEC
  0
SECTION
  2
TABLES
  0
TABLE
  2
VPORT
  5
8
100
AcDbSymbolTable
 70
2
  0
VPORT
  5
1F4
100
AcDbSymbolTableRecord
100
AcDbViewportTableRecord
  2
*ACTIVE
 70
0
 10
0.0
 20
0.0
 11
1.0
 21
1.0
 12
148.5
 22
105.0
 13
0.0
 23
0.0
 14
1.0
 24
1.0
 15
0.0
 25
0.0
 16
0.0
 26
0.0
 36
1.0
 17
0.0
 27
0.0
 37
0.0
 40
210.0
 41
1.4142857143
 42
50.0
 43
0.0
 44
0.0
 50
0.0
 51
0.0
 71
0
 72
100
 73
1
 74
1
 75
0
 76
0
 77
0
 78
0
  0
ENDTAB
  0
TABLE
  2
LTYPE
  5
5
100
AcDbSymbolTable
 70
6
  0
LTYPE
  5
14
100
AcDbSymbolTableRecord
100
AcDbLinetypeTableRecord
  2
BYBLOCK
 70
0
  3

 72
65
 73
0
 40
0.0
  0
LTYPE
  5
15
100
AcDbSymbolTableRecord
100
AcDbLinetypeTableRecord
  2
BYLAYER
 70
0
  3

 72
65
 73
0
 40
0.0
  0
LTYPE
  5
16
100
AcDbSymbolTableRecord
100
AcDbLinetypeTableRecord
  2
CONTINUOUS
 70
64
  3
Solid line
 72
65
 73
0
 40
0.0
  0
LTYPE
  5
1F5
100
AcDbSymbolTableRecord
100
AcDbLinetypeTableRecord
  2
CENTER
 70
64
  3
____ _ ____ _ ____ _ ____ _ ____ _ ____ _ ____
 72
65
 73
4
 40
0.6
 49
0.375
 74
0
 49
-0.075
 74
0
 49
0.075
 74
0
 49
-0.075
 74
0
  0
LTYPE
  5
1F6
100
AcDbSymbolTableRecord
100
AcDbLinetypeTableRecord
  2
HIDDEN
 70
64
  3
- - - - - - - - - - - - - - - - - - - -
 72
65
 73
2
 40
0.2
 49
0.1
 74
0
 49
-0.1
 74
0
  0
LTYPE
  5
1F7
100
AcDbSymbolTableRecord
100
AcDbLinetypeTableRecord
  2
PHANTOM
 70
64
  3
_____ _ _ _____ _ _ _____ _ _ _____
 72
65
 73
6
 40
0.8
 49
0.45
 74
0
 49
-0.05
 74
0
 49
0.1
 74
0
 49
-0.05
 74
0
 49
0.1
 74
0
 49
-0.05
 74
0
  0
LTYPE
  5
1F8
100
AcDbSymbolTableRecord
100
AcDbLinetypeTableRecord
  2
DOT
 70
64
  3
. . . . . . . . . . . . . . . . . . . .
 72
65
 73
2
 40
0.2
 49
0.1
 74
0
 49
-0.1
 74
0
  0
LTYPE
  5
1F9
100
AcDbSymbolTableRecord
100
AcDbLinetypeTableRecord
  2
DASHED
 70
64
  3
- - - - - - - - - - - - - - - - - - - -
 72
65
 73
2
 40
0.2
 49
0.1
 74
0
 49
-0.1
 74
0
  0
ENDTAB
  0
TABLE
  2
LAYER
  5
2
100
AcDbSymbolTable
 70
36
  0
LAYER
  5
10
100
AcDbSymbolTableRecord
100
AcDbLayerTableRecord
  2
0
 70
0
 62
7
  6
CONTINUOUS
370
-3
390
F
  0
LAYER
  5
1FA
100
AcDbSymbolTableRecord
100
AcDbLayerTableRecord
  2
DEFAULT_1
 70
0
 62
7
  6
CENTER
370
-3
390
F
  0
LAYER
  5
1FB
100
AcDbSymbolTableRecord
100
AcDbLayerTableRecord
  2
DEFAULT_2
 70
0
 62
7
  6
HIDDEN
370
-3
390
F
  0
LAYER
  5
1FC
100
AcDbSymbolTableRecord
100
AcDbLayerTableRecord
  2
DEFAULT_3
 70
0
 62
7
  6
PHANTOM
370
-3
390
F
  0
LAYER
  5
1FD
100
AcDbSymbolTableRecord
100
AcDbLayerTableRecord
  2
ASSI
 70
0
 62
7
  6
CONTINUOUS
370
-3
390
F
  0
LAYER
  5
1FE
100
AcDbSymbolTableRecord
100
AcDbLayerTableRecord
  2
COORDINATE
 70
0
 62
7
  6
CONTINUOUS
370
-3
390
F
  0
LAYER
  5
1FF
100
AcDbSymbolTableRecord
100
AcDbLayerTableRecord
  2
COORD_ORIGINE
 70
0
 62
7
  6
CONTINUOUS
370
-3
390
F
  0
LAYER
  5
200
100
AcDbSymbolTableRecord
100
AcDbLayerTableRecord
  2
COPY_PUBLISH
 70
0
 62
7
  6
CONTINUOUS
370
-3
390
F
  0
LAYER
  5
201
100
AcDbSymbolTableRecord
100
AcDbLayerTableRecord
  2
COSMETIC
 70
0
 62
7
  6
CONTINUOUS
370
-3
390
F
  0
LAYER
  5
202
100
AcDbSymbolTableRecord
100
AcDbLayerTableRecord
  2
COSMETICI
 70
0
 62
7
  6
CONTINUOUS
370
-3
390
F
  0
LAYER
  5
203
100
AcDbSymbolTableRecord
100
AcDbLayerTableRecord
  2
CURVA_TASSELLO
 70
0
 62
7
  6
CONTINUOUS
370
-3
390
F
  0
LAYER
  5
204
100
AcDbSymbolTableRecord
100
AcDbLayerTableRecord
  2
CURVE
 70
0
 62
7
  6
CONTINUOUS
370
-3
390
F
  0
LAYER
  5
205
100
AcDbSymbolTableRecord
100
AcDbLayerTableRecord
  2
DRAFT
 70
0
 62
7
  6
CONTINUOUS
370
-3
390
F
  0
LAYER
  5
206
100
AcDbSymbolTableRecord
100
AcDbLayerTableRecord
  2
IMPORT_IGES
 70
0
 62
7
  6
CONTINUOUS
370
-3
390
F
  0
LAYER
  5
207
100
AcDbSymbolTableRecord
100
AcDbLayerTableRecord
  2
INTFCLR_2
 70
0
 62
7
  6
CONTINUOUS
370
-3
390
F
  0
LAYER
  5
208
100
AcDbSymbolTableRecord
100
AcDbLayerTableRecord
  2
INTF_1
 70
0
 62
7
  6
CONTINUOUS
370
-3
390
F
  0
LAYER
  5
209
100
AcDbSymbolTableRecord
100
AcDbLayerTableRecord
  2
INTF_21
 70
0
 62
7
  6
CONTINUOUS
370
-3
390
F
  0
LAYER
  5
20A
100
AcDbSymbolTableRecord
100
AcDbLayerTableRecord
  2
INTF_7
 70
0
 62
7
  6
CONTINUOUS
370
-3
390
F
  0
LAYER
  5
20B
100
AcDbSymbolTableRecord
100
AcDbLayerTableRecord
  2
INTF_9
 70
0
 62
7
  6
CONTINUOUS
370
-3
390
F
  0
LAYER
  5
20C
100
AcDbSymbolTableRecord
100
AcDbLayerTableRecord
  2
NOTE
 70
0
 62
7
  6
CONTINUOUS
370
-3
390
F
  0
LAYER
  5
20D
100
AcDbSymbolTableRecord
100
AcDbLayerTableRecord
  2
PIANI
 70
0
 62
7
  6
CONTINUOUS
370
-3
390
F
  0
LAYER
  5
20E
100
AcDbSymbolTableRecord
100
AcDbLayerTableRecord
  2
PIANI_ORIGINE
 70
0
 62
7
  6
CONTINUOUS
370
-3
390
F
  0
LAYER
  5
20F
100
AcDbSymbolTableRecord
100
AcDbLayerTableRecord
  2
PIANI_RIFERIMENTO
 70
0
 62
7
  6
CONTINUOUS
370
-3
390
F
  0
LAYER
  5
210
100
AcDbSymbolTableRecord
100
AcDbLayerTableRecord
  2
PUNTI
 70
0
 62
7
  6
CONTINUOUS
370
-3
390
F
  0
LAYER
  5
211
100
AcDbSymbolTableRecord
100
AcDbLayerTableRecord
  2
RACCORDO
 70
0
 62
7
  6
CONTINUOUS
370
-3
390
F
  0
LAYER
  5
212
100
AcDbSymbolTableRecord
100
AcDbLayerTableRecord
  2
RGB__255__255__255__
 70
0
 62
7
  6
CONTINUOUS
370
-3
390
F
  0
LAYER
  5
213
100
AcDbSymbolTableRecord
100
AcDbLayerTableRecord
  2
RGB____0____0____0__
 70
0
 62
7
  6
CONTINUOUS
370
-3
390
F
  0
LAYER
  5
214
100
AcDbSymbolTableRecord
100
AcDbLayerTableRecord
  2
SIMBOLI
 70
0
 62
7
  6
CONTINUOUS
370
-3
390
F
  0
LAYER
  5
215
100
AcDbSymbolTableRecord
100
AcDbLayerTableRecord
  2
SMUSSO
 70
0
 62
7
  6
CONTINUOUS
370
-3
390
F
  0
LAYER
  5
216
100
AcDbSymbolTableRecord
100
AcDbLayerTableRecord
  2
SUPERFICI
 70
0
 62
7
  6
CONTINUOUS
370
-3
390
F
  0
LAYER
  5
217
100
AcDbSymbolTableRecord
100
AcDbLayerTableRecord
  2
TRASH
 70
0
 62
7
  6
CONTINUOUS
370
-3
390
F
  0
LAYER
  5
218
100
AcDbSymbolTableRecord
100
AcDbLayerTableRecord
  2
XSEC_DATUMS
 70
0
 62
7
  6
CONTINUOUS
370
-3
390
F
  0
ENDTAB
  0
TABLE
  2
STYLE
  5
3
100
AcDbSymbolTable
 70
1
  0
STYLE
  5
11
100
AcDbSymbolTableRecord
100
AcDbTextStyleTableRecord
  2
STANDARD
 70
0
 40
0.0
 41
0.8
 50
0.0
 71
0
 42
0.2
  3
txt
  4

  0
STYLE
  5
219
100
AcDbSymbolTableRecord
100
AcDbTextStyleTableRecord
  2
TEXTSTYLE_1
 70
0
 40
0.0
 41
0.8
 50
0.0
 71
0
 42
0.2
  3
gdt
  4

  0
ENDTAB
  0
TABLE
  2
VIEW
  5
6
100
AcDbSymbolTable
 70
0
  0
ENDTAB
  0
TABLE
  2
UCS
  5
7
100
AcDbSymbolTable
 70
0
  0
ENDTAB
  0
TABLE
  2
APPID
  5
9
100
AcDbSymbolTable
 70
1
  0
APPID
  5
21A
100
AcDbSymbolTableRecord
100
AcDbRegAppTableRecord
  2
ACAD
 70
0
  0
ENDTAB
  0
TABLE
  2
BLOCK_RECORD
  5
1
100
AcDbSymbolTable
 70
0
  0
BLOCK_RECORD
  5
21B
100
AcDbSymbolTableRecord
100
AcDbBlockTableRecord
  2
*Model_Space
  0
BLOCK_RECORD
  5
21C
100
AcDbSymbolTableRecord
100
AcDbBlockTableRecord
  2
*Paper_Space
  0
BLOCK_RECORD
  5
21D
100
AcDbSymbolTableRecord
100
AcDbBlockTableRecord
  2
_FILLED
  0
ENDTAB
  0
TABLE
  2
DIMSTYLE
  5
A
100
AcDbSymbolTable
 70
1
100
AcDbDimStyleTable
 71
0
  0
DIMSTYLE
105
21E
100
AcDbSymbolTableRecord
100
AcDbDimStyleTableRecord
  2
STANDARD
 70
0
  3

  4

 40
1.0
 41
3.0
 42
0.5
 43
0.38
 44
1.5
 45
0.0
 46
0.0
 47
0.01
 48
0.01
140
3.0
141
0.09
142
0.0
143
25.4
144
1.0
145
0.0
146
1.0
147
0.625
 71
1.0
 72
0.0
 73
0
 74
0
 75
0
 76
0
 77
1
 78
8
 79
2
170
0
171
1
172
0
173
0
174
0
175
0
176
0
177
0
178
0
270
2
179
2
271
2
272
2
273
2
274
2
275
0
280
0
281
0
282
0
283
1
284
8
285
0
286
0
287
3
288
0
340
11
278
44
341
21D
342
21D
343
21D
344
21D
  0
ENDTAB
  0
ENDSEC
  0
SECTION
  2
BLOCKS
  0
BLOCK
  5
20
100
AcDbEntity
  8
0
100
AcDbBlockBegin
  2
*Model_Space
 70
0
 10
0.0
 20
0.0
 30
0.0
  3
*Model_Space
  1

  0
ENDBLK
  5
21
100
AcDbEntity
  8
0
100
AcDbBlockEnd
  0
BLOCK
  5
1C
100
AcDbEntity
  8
0
100
AcDbBlockBegin
  2
*Paper_Space
 70
0
 10
0.0
 20
0.0
 30
0.0
  3
*Paper_Space
  1

  0
ENDBLK
  5
1D
100
AcDbEntity
  8
0
100
AcDbBlockEnd
  0
BLOCK
  5
21F
100
AcDbEntity
  8
0
100
AcDbBlockBegin
  2
_FILLED
 70
64
 10
0.0
 20
0.0
  3
_FILLED
  1

  0
SOLID
  5
220
100
AcDbEntity
  8
0
  6
BYBLOCK
 62
0
100
AcDbTrace
 10
0.0
 20
0.0
 11
-1.0
 21
0.3166666667
 12
-1.0
 22
-0.3166666667
 13
-1.0
 23
-0.3166666667
  0
ENDBLK
  5
221
100
AcDbEntity
  8
0
  6
BYBLOCK
 62
0
100
AcDbBlockEnd
  0
ENDSEC
  0
SECTION
  2
ENTITIES
  0
LINE
  5
222
100
AcDbEntity
  8
0
100
AcDbLine
 62
7
  6
CONTINUOUS
 10
105.9455440922
 20
157.415466682
 11
109.7333578793
 21
159.9190335733
  0
LINE
  5
223
100
AcDbEntity
  8
0
100
AcDbLine
 62
7
  6
CONTINUOUS
 10
106.6530813615
 20
157.8239108759
 11
110.4408951486
 21
160.3274777672
  0
LINE
  5
224
100
AcDbEntity
  8
0
100
AcDbLine
 62
7
  6
CONTINUOUS
 10
106.6323177473
 20
157.8110715249
 11
106.6530813615
 21
157.8239108759
  0
LINE
  5
225
100
AcDbEntity
  8
0
100
AcDbLine
 62
7
  6
CONTINUOUS
 10
109.7333578793
 20
159.9190335733
 11
110.4408951486
 21
160.3274777672
  0
LINE
  5
226
100
AcDbEntity
  8
0
100
AcDbLine
 62
7
  6
CONTINUOUS
 10
106.6323177473
 20
157.8110715249
 11
105.9459193997
 21
157.4148303205
  0
LINE
  5
227
100
AcDbEntity
  8
0
100
AcDbLine
 62
7
  6
CONTINUOUS
 10
106.2496284475
 20
156.3958430865
 11
105.9706525133
 21
156.2347970109
  0
LINE
  5
228
100
AcDbEntity
  8
0
100
AcDbLine
 62
7
  6
CONTINUOUS
 10
106.2496284475
 20
156.3958430865
 11
106.6323177473
 21
157.8110715249
  0
LINE
  5
229
100
AcDbEntity
  8
0
100
AcDbLine
 62
7
  6
CONTINUOUS
 10
105.9706525133
 20
85.4031634116
 11
105.9459193997
 21
85.8593989891
  0
LINE
  5
22A
100
AcDbEntity
  8
0
100
AcDbLine
 62
7
  6
CONTINUOUS
 10
190.4999917166
 20
36.5969823571
 11
191.9169508475
 21
36.2208029012
  0
LINE
  5
22B
100
AcDbEntity
  8
0
100
AcDbLine
 62
7
  6
CONTINUOUS
 10
105.9706525133
 20
156.2347970109
 11
105.9459193997
 21
157.4148303205
  0
LINE
  5
22C
100
AcDbEntity
  8
0
100
AcDbLine
 62
7
  6
CONTINUOUS
 10
105.9459193997
 20
85.8593989891
 11
105.9455440922
 21
85.8835918498
  0
LINE
  5
22D
100
AcDbEntity
  8
0
100
AcDbLine
 62
7
  6
CONTINUOUS
 10
105.9455440922
 20
157.415466682
 11
105.9455440922
 21
85.8835918498
  0
LINE
  5
22E
100
AcDbEntity
  8
0
100
AcDbLine
 62
7
  6
CONTINUOUS
 10
105.9706525133
 20
156.2347970109
 11
105.9706525133
 21
85.4031634116
  0
LINE
  5
22F
100
AcDbEntity
  8
0
100
AcDbLine
 62
7
  6
CONTINUOUS
 10
105.9706525133
 20
85.4031634116
 11
106.2496284475
 21
84.9199629201
  0
LINE
  5
230
100
AcDbEntity
  8
0
100
AcDbLine
 62
7
  6
CONTINUOUS
 10
106.2496284475
 20
84.9199629201
 11
106.6323177473
 21
84.670522178
  0
LWPOLYLINE
  5
231
100
AcDbEntity
  8
0
100
AcDbPolyline
 62
7
  6
CONTINUOUS
 90
7
 70
0
 10
127.2900992322
 20
123.2697316021
 10
127.2792793284
 20
123.2413276327
 10
127.2631599541
 20
123.189274814
 10
127.2505517174
 20
123.1341125412
 10
127.2415081045
 20
123.0760787753
 10
127.2360668936
 20
123.0154214533
 10
127.2342507137
 20
122.9524007281
  0
LINE
  5
232
100
AcDbEntity
  8
0
100
AcDbLine
 62
250
  6
CONTINUOUS
 10
127.473602466
 20
123.4681653054
 11
127.2342507137
 21
122.9524007281
  0
LWPOLYLINE
  5
233
100
AcDbEntity
  8
0
100
AcDbPolyline
 62
7
  6
CONTINUOUS
 90
3
 70
0
 10
127.321758743
 20
123.3352172323
 10
127.2988401797
 20
123.2900446696
 10
127.2900992322
 20
123.2697316021
  0
LWPOLYLINE
  5
234
100
AcDbEntity
  8
0
100
AcDbPolyline
 62
7
  6
CONTINUOUS
 90
4
 70
0
 10
127.4096027577
 20
123.4476072298
 10
127.3772606877
 20
123.4141688983
 10
127.3479368821
 20
123.3766518326
 10
127.321758743
 20
123.3352172323
  0
LWPOLYLINE
  5
235
100
AcDbEntity
  8
0
100
AcDbPolyline
 62
7
  6
CONTINUOUS
 90
3
 70
0
 10
127.2681814329
 20
123.3659523403
 10
127.3034038589
 20
123.3951709776
 10
127.3413285027
 20
123.4200300428
  0
LINE
  5
236
100
AcDbEntity
  8
0
100
AcDbLine
 62
250
  6
CONTINUOUS
 10
127.2342507137
 20
122.9524007281
 11
127.0928293575
 21
122.8707458095
  0
LWPOLYLINE
  5
237
100
AcDbEntity
  8
0
100
AcDbPolyline
 62
7
  6
CONTINUOUS
 90
13
 70
0
 10
127.3413285027
 20
123.4200300428
 10
127.3818801085
 20
123.440473396
 10
127.4247979514
 20
123.4563632183
 10
127.4699299503
 20
123.467648768
 10
127.5170850198
 20
123.4742811044
 10
127.5660598816
 20
123.4762305279
 10
127.6166421549
 20
123.473488188
 10
127.6686153273
 20
123.4660658114
 10
127.7217566592
 20
123.453995197
 10
127.7758350258
 20
123.4373292726
 10
127.8306174892
 20
123.4161408028
 10
127.8858705194
 20
123.3905210761
 10
127.9413574949
 20
123.3605806296
  0
LWPOLYLINE
  5
238
100
AcDbEntity
  8
0
100
AcDbPolyline
 62
7
  6
CONTINUOUS
 90
11
 70
0
 10
169.7529530597
 20
69.783690743
 10
169.7078210608
 20
69.7724051934
 10
169.6606659912
 20
69.7657728569
 10
169.6116911295
 20
69.7638234335
 10
169.5611088562
 20
69.7665657734
 10
169.5091356838
 20
69.7739881499
 10
169.4559943519
 20
69.7860587644
 10
169.4019159853
 20
69.8027246887
 10
169.3471335219
 20
69.8239131585
 10
169.2918804917
 20
69.8495328853
 10
169.2363935162
 20
69.8794733317
  0
LINE
  5
239
100
AcDbEntity
  8
0
100
AcDbLine
 62
7
  6
CONTINUOUS
 10
106.6530813615
 20
84.6581013524
 11
191.2309149301
 21
35.8239202591
  0
LINE
  5
23A
100
AcDbEntity
  8
0
100
AcDbLine
 62
7
  6
CONTINUOUS
 10
106.2496284475
 20
84.9199629201
 11
190.2210157824
 21
36.4359362815
  0
LINE
  5
23B
100
AcDbEntity
  8
0
100
AcDbLine
 62
7
  6
CONTINUOUS
 10
106.6530813615
 20
84.6581013524
 11
106.6323177473
 21
84.670522178
  0
LINE
  5
23C
100
AcDbEntity
  8
0
100
AcDbLine
 62
7
  6
CONTINUOUS
 10
190.2210157824
 20
36.4359362815
 11
191.2305524999
 21
35.8245616968
  0
LWPOLYLINE
  5
23D
100
AcDbEntity
  8
0
100
AcDbPolyline
 62
7
  6
CONTINUOUS
 90
28
 70
0
 10
126.3857225763
 20
122.8707458095
 10
126.3878120275
 20
122.9506822388
 10
126.3938980871
 20
123.0275003786
 10
126.4039807552
 20
123.1012002287
 10
126.4181208716
 20
123.1720102539
 10
126.4362575964
 20
123.2397019896
 10
126.4582084102
 20
123.3035900419
 10
126.4840121652
 20
123.3636355524
 10
126.5136300092
 20
123.4198773796
 10
126.5467628667
 20
123.4717467058
 10
126.5834463377
 20
123.5191989402
 10
126.6236448221
 20
123.5622786737
 10
126.6669524448
 20
123.6005508617
 10
126.7134006471
 20
123.6339667513
 10
126.7629579878
 20
123.6625750954
 10
126.8151242673
 20
123.6860871093
 10
126.8699260377
 20
123.7044511812
 10
126.927336747
 20
123.7177189228
 10
126.9867765396
 20
123.7257563851
 10
127.0482661597
 20
123.7285104294
 10
127.1117848631
 20
123.7260341943
 10
127.1766905616
 20
123.7183531463
 10
127.2429974987
 20
123.7054142278
 10
127.310691431
 20
123.6872704964
 10
127.3790875395
 20
123.6641065911
 10
127.4479575514
 20
123.6359840584
 10
127.5175297397
 20
123.6028413518
 10
127.5878041043
 20
123.5646784714
  0
LWPOLYLINE
  5
23E
100
AcDbEntity
  8
0
100
AcDbPolyline
 62
7
  6
CONTINUOUS
 90
7
 70
0
 10
127.2900992322
 20
106.5320909278
 10
127.2792793284
 20
106.5036869584
 10
127.2631599541
 20
106.4516341398
 10
127.2505517174
 20
106.396471867
 10
127.2415081045
 20
106.3384381011
 10
127.2360668936
 20
106.2777807791
 10
127.2342507137
 20
106.2147600539
  0
LINE
  5
23F
100
AcDbEntity
  8
0
100
AcDbLine
 62
250
  6
CONTINUOUS
 10
127.5928809026
 20
112.7844894667
 11
127.2342507137
 21
112.0116990191
  0
LINE
  5
240
100
AcDbEntity
  8
0
100
AcDbLine
 62
250
  6
CONTINUOUS
 10
127.473602466
 20
106.7305246312
 11
127.2342507137
 21
106.2147600539
  0
LWPOLYLINE
  5
241
100
AcDbEntity
  8
0
100
AcDbPolyline
 62
7
  6
CONTINUOUS
 90
3
 70
0
 10
127.321758743
 20
106.597576558
 10
127.2988401797
 20
106.5524039953
 10
127.2900992322
 20
106.5320909278
  0
LINE
  5
242
100
AcDbEntity
  8
0
100
AcDbLine
 62
250
  6
CONTINUOUS
 10
127.5878041043
 20
109.8479778212
 11
127.9413574949
 21
110.4603502563
  0
LINE
  5
243
100
AcDbEntity
  8
0
100
AcDbLine
 62
250
  6
CONTINUOUS
 10
128.9855012301
 20
115.7174737314
 11
127.5928809026
 21
114.9133894471
  0
LINE
  5
244
100
AcDbEntity
  8
0
100
AcDbLine
 62
250
  6
CONTINUOUS
 10
129.1976009557
 20
115.3501062307
 11
127.5928809026
 21
114.4235578026
  0
LINE
  5
245
100
AcDbEntity
  8
0
100
AcDbLine
 62
7
  6
CONTINUOUS
 10
128.4205291148
 20
115.9766806599
 11
127.5928809026
 21
115.5315982351
  0
LINE
  5
246
100
AcDbEntity
  8
0
100
AcDbLine
 62
250
  6
CONTINUOUS
 10
128.5663191245
 20
115.9595042256
 11
127.5928809026
 21
115.4360206515
  0
LWPOLYLINE
  5
247
100
AcDbEntity
  8
0
100
AcDbPolyline
 62
250
  6
CONTINUOUS
 90
10
 70
0
 10
128.4205291148
 20
115.9766806599
 10
128.4315188423
 20
115.9817599341
 10
128.4461375657
 20
115.986257243
 10
128.4616424103
 20
115.9886716021
 10
128.4779153952
 20
115.9889846525
 10
128.4948327383
 20
115.9871940249
 10
128.5122657585
 20
115.9833133435
 10
128.5300818391
 20
115.9773721282
 10
128.5481454349
 20
115.9694155787
 10
128.5663191245
 20
115.9595042256
  0
LINE
  5
248
100
AcDbEntity
  8
0
100
AcDbLine
 62
250
  6
CONTINUOUS
 10
169.944277687
 20
69.9105670697
 11
169.3778148724
 21
69.9611282504
  0
LWPOLYLINE
  5
249
100
AcDbEntity
  8
0
100
AcDbPolyline
 62
7
  6
CONTINUOUS
 90
6
 70
0
 10
169.6806438879
 20
69.8507985975
 10
169.7025302287
 20
69.8482206904
 10
169.7531125065
 20
69.845478352
 10
169.8020873674
 20
69.8474277774
 10
169.8492424386
 20
69.8540601162
 10
169.8943744455
 20
69.8653456708
  0
LWPOLYLINE
  5
24A
100
AcDbEntity
  8
0
100
AcDbPolyline
 62
7
  6
CONTINUOUS
 90
25
 70
0
 10
127.2342507137
 20
95.2740583449
 10
127.2360668586
 20
95.2089409784
 10
127.2415079912
 20
95.142000704
 10
127.2505515229
 20
95.0735237827
 10
127.2631597416
 20
95.0038016314
 10
127.2792791864
 20
94.9331340897
 10
127.2988401179
 20
94.861828315
 10
127.3217586899
 20
94.790189917
 10
127.3479367933
 20
94.7185255317
 10
127.3772605666
 20
94.6471461207
 10
127.4096026428
 20
94.5763599374
 10
127.4448250827
 20
94.5064672715
 10
127.4827788096
 20
94.4377633819
 10
127.5233013191
 20
94.3705424279
 10
127.5662191284
 20
94.3050921872
 10
127.6113511038
 20
94.2416893477
 10
127.6585062022
 20
94.1806034616
 10
127.7074811094
 20
94.1220990264
 10
127.7580633457
 20
94.0664302523
 10
127.8100362674
 20
94.0138355409
 10
127.8631772491
 20
93.9645401535
 10
127.9172554454
 20
93.918757812
 10
127.9720380236
 20
93.8766847098
 10
128.0272913661
 20
93.8384993555
 10
128.0827788511
 20
93.8043645007
  0
LWPOLYLINE
  5
24B
100
AcDbEntity
  8
0
100
AcDbPolyline
 62
7
  6
CONTINUOUS
 90
25
 70
0
 10
127.2342507137
 20
112.0116990191
 10
127.2360668586
 20
111.9465816526
 10
127.2415079912
 20
111.8796413783
 10
127.2505515229
 20
111.8111644569
 10
127.2631597416
 20
111.7414423056
 10
127.2792791864
 20
111.670774764
 10
127.2988401179
 20
111.5994689892
 10
127.3217586899
 20
111.5278305912
 10
127.3479367933
 20
111.456166206
 10
127.3772605666
 20
111.3847867949
 10
127.4096026428
 20
111.3140006116
 10
127.4448250827
 20
111.2441079457
 10
127.4827788096
 20
111.1754040561
 10
127.5233013191
 20
111.1081831021
 10
127.5662191284
 20
111.0427328614
 10
127.6113511038
 20
110.9793300219
 10
127.6585062022
 20
110.9182441359
 10
127.7074811094
 20
110.8597397007
 10
127.7580633457
 20
110.8040709266
 10
127.8100362674
 20
110.7514762151
 10
127.8631772491
 20
110.7021808277
 10
127.9172554454
 20
110.6563984863
 10
127.9720380236
 20
110.614325384
 10
128.0272913661
 20
110.5761400297
 10
128.0827788511
 20
110.542005175
  0
LWPOLYLINE
  5
24C
100
AcDbEntity
  8
0
100
AcDbPolyline
 62
7
  6
CONTINUOUS
 90
28
 70
0
 10
127.5928809026
 20
96.0468487925
 10
127.5952073955
 20
95.9551585862
 10
127.6019838277
 20
95.8618017812
 10
127.6132101991
 20
95.7667783775
 10
127.6289542638
 20
95.6697557637
 10
127.6491482677
 20
95.5710665511
 10
127.6735889485
 20
95.4717085741
 10
127.7023195274
 20
95.3716752237
 10
127.7352967832
 20
95.2709731089
 10
127.7721877902
 20
95.1706198897
 10
127.8130322452
 20
95.0706192938
 10
127.8577904513
 20
94.9709675935
 10
127.9060103919
 20
94.8726712668
 10
127.9577270495
 20
94.7757442566
 10
128.0129054417
 20
94.6801726198
 10
128.0709886041
 20
94.5869210052
 10
128.1320060244
 20
94.4960128158
 10
128.1959282149
 20
94.4074246485
 10
128.2621097484
 20
94.3220509421
 10
128.3305738484
 20
94.2399240301
 10
128.4012972914
 20
94.1610115791
 10
128.4735649796
 20
94.0861110272
 10
128.5473927354
 20
94.0152632119
 10
128.6227647365
 20
93.9484272959
 10
128.6989184187
 20
93.8862782052
 10
128.7755995941
 20
93.8290409153
 10
128.8530624508
 20
93.7764904509
 10
128.9313069886
 20
93.7286268118
  0
LWPOLYLINE
  5
24D
100
AcDbEntity
  8
0
100
AcDbPolyline
 62
7
  6
CONTINUOUS
 90
28
 70
0
 10
127.5928809026
 20
112.7844894667
 10
127.5952073955
 20
112.6927992605
 10
127.6019838277
 20
112.5994424555
 10
127.6132101991
 20
112.5044190517
 10
127.6289542638
 20
112.4073964379
 10
127.6491482677
 20
112.3087072254
 10
127.6735889485
 20
112.2093492483
 10
127.7023195274
 20
112.109315898
 10
127.7352967832
 20
112.0086137831
 10
127.7721877902
 20
111.9082605639
 10
127.8130322452
 20
111.808259968
 10
127.8577904513
 20
111.7086082678
 10
127.9060103919
 20
111.6103119411
 10
127.9577270495
 20
111.5133849308
 10
128.0129054417
 20
111.4178132941
 10
128.0709886041
 20
111.3245616794
 10
128.1320060244
 20
111.2336534901
 10
128.1959282149
 20
111.1450653228
 10
128.2621097484
 20
111.0596916164
 10
128.3305738484
 20
110.9775647044
 10
128.4012972914
 20
110.8986522533
 10
128.4735649796
 20
110.8237517014
 10
128.5473927354
 20
110.7529038862
 10
128.6227647365
 20
110.6860679701
 10
128.6989184187
 20
110.6239188794
 10
128.7755995941
 20
110.5666815896
 10
128.8530624508
 20
110.5141311251
 10
128.9313069886
 20
110.4662674861
  0
LINE
  5
24E
100
AcDbEntity
  8
0
100
AcDbLine
 62
7
  6
CONTINUOUS
 10
126.3857225763
 20
95.1924034262
 11
126.3857225763
 21
106.1331051352
  0
LINE
  5
24F
100
AcDbEntity
  8
0
100
AcDbLine
 62
7
  6
CONTINUOUS
 10
126.3857225763
 20
111.9300441004
 11
126.3857225763
 21
122.8707458095
  0
LINE
  5
250
100
AcDbEntity
  8
0
100
AcDbLine
 62
7
  6
CONTINUOUS
 10
127.0928293575
 20
95.1924034262
 11
127.0928293575
 21
106.1331051352
  0
LINE
  5
251
100
AcDbEntity
  8
0
100
AcDbLine
 62
7
  6
CONTINUOUS
 10
127.0928293575
 20
111.9300441004
 11
127.0928293575
 21
122.8707458095
  0
LINE
  5
252
100
AcDbEntity
  8
0
100
AcDbLine
 62
7
  6
CONTINUOUS
 10
127.2342507137
 20
122.9524007281
 11
127.2342507137
 21
112.0116990191
  0
LINE
  5
253
100
AcDbEntity
  8
0
100
AcDbLine
 62
7
  6
CONTINUOUS
 10
127.2342507137
 20
106.2147600539
 11
127.2342507137
 21
95.2740583449
  0
LINE
  5
254
100
AcDbEntity
  8
0
100
AcDbLine
 62
7
  6
CONTINUOUS
 10
127.5928809026
 20
123.4747764146
 11
127.5928809026
 21
112.7844894667
  0
LINE
  5
255
100
AcDbEntity
  8
0
100
AcDbLine
 62
7
  6
CONTINUOUS
 10
127.5928809026
 20
106.7371357403
 11
127.5928809026
 21
96.0468487925
  0
LINE
  5
256
100
AcDbEntity
  8
0
100
AcDbLine
 62
250
  6
CONTINUOUS
 10
129.1976009557
 20
115.3501062307
 11
129.1976009557
 21
111.0695052341
  0
LINE
  5
257
100
AcDbEntity
  8
0
100
AcDbLine
 62
7
  6
CONTINUOUS
 10
129.2817990156
 20
115.4704323418
 11
129.2817990156
 21
111.1898313452
  0
LWPOLYLINE
  5
258
100
AcDbEntity
  8
0
100
AcDbPolyline
 62
250
  6
CONTINUOUS
 90
10
 70
0
 10
129.1976009557
 20
111.0695052341
 10
129.1970969609
 20
111.0488117431
 10
129.1949550521
 20
111.0291910815
 10
129.191191524
 20
111.0107925167
 10
129.1858350071
 20
110.993756015
 10
129.1789262523
 20
110.9782111888
 10
129.1705178259
 20
110.9642763074
 10
129.1606737094
 20
110.9520573898
 10
129.1494687888
 20
110.9416473752
 10
129.1395886892
 20
110.9346795886
  0
LWPOLYLINE
  5
259
100
AcDbEntity
  8
0
100
AcDbPolyline
 62
7
  6
CONTINUOUS
 90
28
 70
0
 10
126.3857225763
 20
106.1331051352
 10
126.3878120275
 20
106.2130415645
 10
126.3938980871
 20
106.2898597043
 10
126.4039807552
 20
106.3635595545
 10
126.4181208716
 20
106.4343695797
 10
126.4362575964
 20
106.5020613153
 10
126.4582084102
 20
106.5659493677
 10
126.4840121652
 20
106.6259948781
 10
126.5136300092
 20
106.6822367053
 10
126.5467628667
 20
106.7341060316
 10
126.5834463377
 20
106.7815582659
 10
126.6236448221
 20
106.8246379994
 10
126.6669524448
 20
106.8629101875
 10
126.7134006471
 20
106.896326077
 10
126.7629579878
 20
106.9249344211
 10
126.8151242673
 20
106.9484464351
 10
126.8699260377
 20
106.9668105069
 10
126.927336747
 20
106.9800782486
 10
126.9867765396
 20
106.9881157108
 10
127.0482661597
 20
106.9908697551
 10
127.1117848631
 20
106.98839352
 10
127.1766905616
 20
106.980712472
 10
127.2429974987
 20
106.9677735535
 10
127.310691431
 20
106.9496298221
 10
127.3790875395
 20
106.9264659168
 10
127.4479575514
 20
106.8983433841
 10
127.5175297397
 20
106.8652006775
 10
127.5878041043
 20
106.8270377971
  0
LWPOLYLINE
  5
25A
100
AcDbEntity
  8
0
100
AcDbPolyline
 62
7
  6
CONTINUOUS
 90
11
 70
0
 10
127.0928293575
 20
122.8707458095
 10
127.0946455348
 20
122.9337664904
 10
127.100086741
 20
122.9944237968
 10
127.1091303516
 20
123.0524575728
 10
127.1217385973
 20
123.1076198932
 10
127.1378579939
 20
123.1596727755
 10
127.1574188667
 20
123.2083898465
 10
127.1803374339
 20
123.2535623968
 10
127.2065155637
 20
123.2949969677
 10
127.2358393605
 20
123.332514013
 10
127.2681814329
 20
123.3659523403
  0
LWPOLYLINE
  5
25B
100
AcDbEntity
  8
0
100
AcDbPolyline
 62
7
  6
CONTINUOUS
 90
11
 70
0
 10
127.0928293575
 20
106.1331051352
 10
127.0946455348
 20
106.1961258162
 10
127.100086741
 20
106.2567831226
 10
127.1091303516
 20
106.3148168985
 10
127.1217385973
 20
106.369979219
 10
127.1378579939
 20
106.4220321013
 10
127.1574188667
 20
106.4707491722
 10
127.1803374339
 20
106.5159217226
 10
127.2065155637
 20
106.5573562935
 10
127.2358393605
 20
106.5948733388
 10
127.2681814329
 20
106.6283116661
  0
LWPOLYLINE
  5
25C
100
AcDbEntity
  8
0
100
AcDbPolyline
 62
250
  6
CONTINUOUS
 90
10
 70
0
 10
129.2817990156
 20
115.4704323418
 10
129.2808651307
 20
115.4567754648
 10
129.2777098431
 20
115.4419303174
 10
129.2723482906
 20
115.4272975222
 10
129.2648122297
 20
115.4129728001
 10
129.2551619325
 20
115.3990771652
 10
129.2435024781
 20
115.3857484794
 10
129.2299486811
 20
115.3730920351
 10
129.2146060098
 20
115.3611841278
 10
129.1976009557
 20
115.3501062307
  0
LWPOLYLINE
  5
25D
100
AcDbEntity
  8
0
100
AcDbPolyline
 62
250
  6
CONTINUOUS
 90
10
 70
0
 10
129.281799015
 20
111.1898200656
 10
129.2808651307
 20
111.1761744682
 10
129.2777098431
 20
111.1613293208
 10
129.2723482906
 20
111.1466965256
 10
129.2648122298
 20
111.1323718035
 10
129.2551619326
 20
111.1184761686
 10
129.2435024781
 20
111.1051474828
 10
129.2299486812
 20
111.0924910385
 10
129.2146060098
 20
111.0805831312
 10
129.1976009557
 20
111.0695052341
  0
LINE
  5
25E
100
AcDbEntity
  8
0
100
AcDbLine
 62
250
  6
CONTINUOUS
 10
127.5928809026
 20
96.0468487925
 11
127.2342507137
 21
95.2740583449
  0
LWPOLYLINE
  5
25F
100
AcDbEntity
  8
0
100
AcDbPolyline
 62
7
  6
CONTINUOUS
 90
4
 70
0
 10
127.4096027577
 20
106.7099665555
 10
127.3772606877
 20
106.676528224
 10
127.3479368821
 20
106.6390111584
 10
127.321758743
 20
106.597576558
  0
LWPOLYLINE
  5
260
100
AcDbEntity
  8
0
100
AcDbPolyline
 62
7
  6
CONTINUOUS
 90
3
 70
0
 10
127.2681814329
 20
106.6283116661
 10
127.3034038589
 20
106.6575303034
 10
127.3413285027
 20
106.6823893686
  0
LINE
  5
261
100
AcDbEntity
  8
0
100
AcDbLine
 62
250
  6
CONTINUOUS
 10
129.1976009557
 20
111.0695052341
 11
128.604195361
 21
110.7025343131
  0
LINE
  5
262
100
AcDbEntity
  8
0
100
AcDbLine
 62
7
  6
CONTINUOUS
 10
129.1395886892
 20
110.9346795886
 11
128.6722588307
 21
110.645675794
  0
LINE
  5
263
100
AcDbEntity
  8
0
100
AcDbLine
 62
250
  6
CONTINUOUS
 10
127.2342507137
 20
112.0116990191
 11
127.0928293575
 21
111.9300441004
  0
LINE
  5
264
100
AcDbEntity
  8
0
100
AcDbLine
 62
250
  6
CONTINUOUS
 10
128.0827788511
 20
110.542005175
 11
127.9413574949
 21
110.4603502563
  0
LINE
  5
265
100
AcDbEntity
  8
0
100
AcDbLine
 62
250
  6
CONTINUOUS
 10
158.2055277297
 20
76.8200467264
 11
158.9126345109
 21
76.8200467264
  0
LINE
  5
266
100
AcDbEntity
  8
0
100
AcDbLine
 62
250
  6
CONTINUOUS
 10
160.751112142
 20
75.3562701121
 11
159.9025840045
 21
75.432007801
  0
LINE
  5
267
100
AcDbEntity
  8
0
100
AcDbLine
 62
250
  6
CONTINUOUS
 10
127.5878041043
 20
93.110337147
 11
127.9413574949
 21
93.722709582
  0
LINE
  5
268
100
AcDbEntity
  8
0
100
AcDbLine
 62
250
  6
CONTINUOUS
 10
137.0630349722
 20
104.3770982707
 11
137.4165883628
 21
104.9894707057
  0
LWPOLYLINE
  5
269
100
AcDbEntity
  8
0
100
AcDbPolyline
 62
7
  6
CONTINUOUS
 90
4
 70
0
 10
143.3195053344
 20
114.2614288799
 10
143.2871632644
 20
114.2279905484
 10
143.2578394588
 20
114.1904734827
 10
143.2316613197
 20
114.1490388824
  0
LWPOLYLINE
  5
26A
100
AcDbEntity
  8
0
100
AcDbPolyline
 62
7
  6
CONTINUOUS
 90
3
 70
0
 10
143.1780840096
 20
114.1797739904
 10
143.2133064356
 20
114.2089926277
 10
143.2512310794
 20
114.233851693
  0
LINE
  5
26B
100
AcDbEntity
  8
0
100
AcDbLine
 62
250
  6
CONTINUOUS
 10
127.2342507137
 20
106.2147600539
 11
127.0928293575
 21
106.1331051352
  0
LINE
  5
26C
100
AcDbEntity
  8
0
100
AcDbLine
 62
250
  6
CONTINUOUS
 10
143.1441532904
 20
113.7662223783
 11
143.0027319342
 21
113.6845674596
  0
LWPOLYLINE
  5
26D
100
AcDbEntity
  8
0
100
AcDbPolyline
 62
7
  6
CONTINUOUS
 90
13
 70
0
 10
127.3413285027
 20
106.6823893686
 10
127.3818801085
 20
106.7028327217
 10
127.4247979514
 20
106.7187225441
 10
127.4699299503
 20
106.7300080937
 10
127.5170850198
 20
106.7366404302
 10
127.5660598816
 20
106.7385898536
 10
127.6166421549
 20
106.7358475137
 10
127.6686153273
 20
106.7284251372
 10
127.7217566592
 20
106.7163545227
 10
127.7758350258
 20
106.6996885983
 10
127.8306174892
 20
106.6785001286
 10
127.8858705194
 20
106.6528804018
 10
127.9413574949
 20
106.6229399554
  0
LWPOLYLINE
  5
26E
100
AcDbEntity
  8
0
100
AcDbPolyline
 62
7
  6
CONTINUOUS
 90
13
 70
0
 10
143.2512310794
 20
114.233851693
 10
143.2917826852
 20
114.2542950461
 10
143.3347005281
 20
114.2701848685
 10
143.379832527
 20
114.2814704181
 10
143.4269875965
 20
114.2881027546
 10
143.4759624583
 20
114.290052178
 10
143.5265447316
 20
114.2873098381
 10
143.578517904
 20
114.2798874616
 10
143.6316592359
 20
114.2678168471
 10
143.6857376025
 20
114.2511509227
 10
143.7405200659
 20
114.229962453
 10
143.7957730961
 20
114.2043427262
 10
143.8512600716
 20
114.1744022798
  0
LWPOLYLINE
  5
26F
100
AcDbEntity
  8
0
100
AcDbPolyline
 62
7
  6
CONTINUOUS
 90
11
 70
0
 10
153.843050483
 20
78.9698690929
 10
153.7979184841
 20
78.9585835432
 10
153.7507634145
 20
78.9519512068
 10
153.7017885528
 20
78.9500017833
 10
153.6512062795
 20
78.9527441233
 10
153.5992331071
 20
78.9601664998
 10
153.5460917752
 20
78.9722371142
 10
153.4920134086
 20
78.9889030386
 10
153.4372309452
 20
79.0100915084
 10
153.381977915
 20
79.0357112352
 10
153.3264909395
 20
79.0656516816
  0
LWPOLYLINE
  5
270
100
AcDbEntity
  8
0
100
AcDbPolyline
 62
7
  6
CONTINUOUS
 90
11
 70
0
 10
169.7529530597
 20
86.5213314172
 10
169.7078210608
 20
86.5100458676
 10
169.6606659912
 20
86.5034135312
 10
169.6116911295
 20
86.5014641077
 10
169.5611088562
 20
86.5042064476
 10
169.5091356838
 20
86.5116288241
 10
169.4559943519
 20
86.5236994386
 10
169.4019159853
 20
86.540365363
 10
169.3471335219
 20
86.5615538327
 10
169.2918804917
 20
86.5871735595
 10
169.2363935162
 20
86.617114006
  0
LINE
  5
271
100
AcDbEntity
  8
0
100
AcDbLine
 62
250
  6
CONTINUOUS
 10
154.0343751103
 20
79.0967454196
 11
153.4679122957
 21
79.1473066002
  0
LWPOLYLINE
  5
272
100
AcDbEntity
  8
0
100
AcDbPolyline
 62
7
  6
CONTINUOUS
 90
6
 70
0
 10
153.7707413112
 20
79.0369769473
 10
153.792627652
 20
79.0343990403
 10
153.8432099298
 20
79.0316567018
 10
153.8921847907
 20
79.0336061272
 10
153.9393398619
 20
79.0402384661
 10
153.9844718688
 20
79.0515240207
  0
LWPOLYLINE
  5
273
100
AcDbEntity
  8
0
100
AcDbPolyline
 62
7
  6
CONTINUOUS
 90
7
 70
0
 10
169.3778148724
 20
69.9611282504
 10
169.4333018227
 20
69.9311878166
 10
169.4885548392
 20
69.9055680937
 10
169.5433373004
 20
69.8843796217
 10
169.5974156813
 20
69.8677136902
 10
169.6505570378
 20
69.855643069
 10
169.6806438879
 20
69.8507985975
  0
LWPOLYLINE
  5
274
100
AcDbEntity
  8
0
100
AcDbPolyline
 62
7
  6
CONTINUOUS
 90
7
 70
0
 10
153.4679122957
 20
79.1473066002
 10
153.523399246
 20
79.1173661665
 10
153.5786522625
 20
79.0917464436
 10
153.6334347237
 20
79.0705579716
 10
153.6875131046
 20
79.0538920401
 10
153.7406544611
 20
79.0418214188
 10
153.7707413112
 20
79.0369769473
  0
LWPOLYLINE
  5
275
100
AcDbEntity
  8
0
100
AcDbPolyline
 62
7
  6
CONTINUOUS
 90
7
 70
0
 10
137.558009719
 20
88.3334849501
 10
137.6134966693
 20
88.3035445164
 10
137.6687496858
 20
88.2779247935
 10
137.723532147
 20
88.2567363215
 10
137.7776105279
 20
88.24007039
 10
137.8307518845
 20
88.2279997687
 10
137.8608387345
 20
88.2231552972
  0
LINE
  5
276
100
AcDbEntity
  8
0
100
AcDbLine
 62
7
  6
CONTINUOUS
 10
168.8828401256
 20
69.2671008967
 11
159.4076092577
 21
74.7379804472
  0
LINE
  5
277
100
AcDbEntity
  8
0
100
AcDbLine
 62
7
  6
CONTINUOUS
 10
152.9729375489
 20
78.4532792465
 11
143.497706681
 21
83.9241587971
  0
LINE
  5
278
100
AcDbEntity
  8
0
100
AcDbLine
 62
7
  6
CONTINUOUS
 10
137.0630349722
 20
87.6394575964
 11
127.5878041043
 21
93.110337147
  0
LINE
  5
279
100
AcDbEntity
  8
0
100
AcDbLine
 62
7
  6
CONTINUOUS
 10
169.2363935162
 20
69.8794733317
 11
159.7611626483
 21
75.3503528823
  0
LINE
  5
27A
100
AcDbEntity
  8
0
100
AcDbLine
 62
7
  6
CONTINUOUS
 10
153.3264909395
 20
79.0656516816
 11
143.8512600716
 21
84.5365312322
  0
LINE
  5
27B
100
AcDbEntity
  8
0
100
AcDbLine
 62
7
  6
CONTINUOUS
 10
137.4165883628
 20
88.2518300315
 11
127.9413574949
 21
93.722709582
  0
LINE
  5
27C
100
AcDbEntity
  8
0
100
AcDbLine
 62
7
  6
CONTINUOUS
 10
128.0827788511
 20
93.8043645007
 11
137.558009719
 21
88.3334849501
  0
LINE
  5
27D
100
AcDbEntity
  8
0
100
AcDbLine
 62
7
  6
CONTINUOUS
 10
143.9926814278
 20
84.6181861508
 11
153.4679122957
 21
79.1473066002
  0
LINE
  5
27E
100
AcDbEntity
  8
0
100
AcDbLine
 62
7
  6
CONTINUOUS
 10
159.9025840045
 20
75.432007801
 11
169.3778148724
 21
69.9611282504
  0
LINE
  5
27F
100
AcDbEntity
  8
0
100
AcDbLine
 62
7
  6
CONTINUOUS
 10
128.9313069886
 20
93.7286268118
 11
138.189804353
 21
88.3828864698
  0
LINE
  5
280
100
AcDbEntity
  8
0
100
AcDbLine
 62
7
  6
CONTINUOUS
 10
144.8412095653
 20
84.5424484619
 11
154.0997069297
 21
79.1967081199
  0
LINE
  5
281
100
AcDbEntity
  8
0
100
AcDbLine
 62
7
  6
CONTINUOUS
 10
160.751112142
 20
75.3562701121
 11
170.0096095064
 21
70.01052977
  0
LWPOLYLINE
  5
282
100
AcDbEntity
  8
0
100
AcDbPolyline
 62
7
  6
CONTINUOUS
 90
28
 70
0
 10
127.5878041043
 20
93.110337147
 10
127.517530069
 20
93.1533251069
 10
127.4479581413
 20
93.200522416
 10
127.3790883212
 20
93.2519290741
 10
127.3106923234
 20
93.30774714
 10
127.2429984333
 20
93.367774555
 10
127.1766915067
 20
93.4314051434
 10
127.1117857696
 20
93.4986755524
 10
127.048266996
 20
93.5695491349
 10
126.9867773647
 20
93.6433097732
 10
126.9273376922
 20
93.7199865542
 10
126.869927162
 20
93.7995503911
 10
126.8151255029
 20
93.8811979064
 10
126.7629592156
 20
93.9649501033
 10
126.7134017995
 20
94.0507859787
 10
126.6669534815
 20
94.1378391458
 10
126.623645683
 20
94.2261221211
 10
126.5834469825
 20
94.3156223882
 10
126.5467633431
 20
94.4054360112
 10
126.5136304125
 20
94.4955663601
 10
126.4840125429
 20
94.586010065
 10
126.4582087542
 20
94.6758530798
 10
126.4362578745
 20
94.765089432
 10
126.4181210758
 20
94.853725094
 10
126.403980893
 20
94.9408639374
 10
126.3938981714
 20
95.0262072524
 10
126.3878120658
 20
95.1100537487
 10
126.3857225763
 20
95.1924034262
  0
LWPOLYLINE
  5
283
100
AcDbEntity
  8
0
100
AcDbPolyline
 62
7
  6
CONTINUOUS
 90
28
 70
0
 10
143.497706681
 20
83.9241587971
 10
143.4274326457
 20
83.967146757
 10
143.357860718
 20
84.0143440661
 10
143.2889908979
 20
84.0657507243
 10
143.2205949001
 20
84.1215687901
 10
143.15290101
 20
84.1815962051
 10
143.0865940834
 20
84.2452267935
 10
143.0216883463
 20
84.3124972026
 10
142.9581695727
 20
84.383370785
 10
142.8966799414
 20
84.4571314233
 10
142.8372402689
 20
84.5338082043
 10
142.7798297387
 20
84.6133720412
 10
142.7250280796
 20
84.6950195565
 10
142.6728617923
 20
84.7787717534
 10
142.6233043762
 20
84.8646076288
 10
142.5768560582
 20
84.9516607959
 10
142.5335482597
 20
85.0399437712
 10
142.4933495592
 20
85.1294440383
 10
142.4566659198
 20
85.2192576613
 10
142.4235329892
 20
85.3093880103
 10
142.3939151196
 20
85.3998317151
 10
142.3681113309
 20
85.4896747299
 10
142.3461604512
 20
85.5789110821
 10
142.3280236525
 20
85.6675467442
 10
142.3138834697
 20
85.7546855875
 10
142.3038007481
 20
85.8400289025
 10
142.2977146425
 20
85.9238753988
 10
142.295625153
 20
86.0062250763
  0
LWPOLYLINE
  5
284
100
AcDbEntity
  8
0
100
AcDbPolyline
 62
7
  6
CONTINUOUS
 90
28
 70
0
 10
159.4076092577
 20
74.7379804472
 10
159.3373352224
 20
74.7809684072
 10
159.2677632947
 20
74.8281657162
 10
159.1988934746
 20
74.8795723744
 10
159.1304974768
 20
74.9353904403
 10
159.0628035867
 20
74.9954178553
 10
158.9964966601
 20
75.0590484437
 10
158.931590923
 20
75.1263188527
 10
158.8680721494
 20
75.1971924351
 10
158.8065825181
 20
75.2709530735
 10
158.7471428456
 20
75.3476298544
 10
158.6897323154
 20
75.4271936913
 10
158.6349306563
 20
75.5088412067
 10
158.582764369
 20
75.5925934036
 10
158.5332069529
 20
75.6784292789
 10
158.4867586349
 20
75.7654824461
 10
158.4434508364
 20
75.8537654214
 10
158.4032521359
 20
75.9432656885
 10
158.3665684965
 20
76.0330793114
 10
158.3334355659
 20
76.1232096604
 10
158.3038176963
 20
76.2136533653
 10
158.2780139076
 20
76.30349638
 10
158.2560630279
 20
76.3927327322
 10
158.2379262292
 20
76.4813683943
 10
158.2237860464
 20
76.5685072376
 10
158.2137033248
 20
76.6538505526
 10
158.2076172192
 20
76.7376970489
 10
158.2055277297
 20
76.8200467264
  0
LWPOLYLINE
  5
285
100
AcDbEntity
  8
0
100
AcDbPolyline
 62
7
  6
CONTINUOUS
 90
25
 70
0
 10
127.9413574949
 20
93.722709582
 10
127.8858700495
 20
93.756844411
 10
127.8306167228
 20
93.7950297506
 10
127.775834137
 20
93.8371028547
 10
127.721755895
 20
93.8828852329
 10
127.668614847
 20
93.9321806844
 10
127.6166418851
 20
93.9847754439
 10
127.5660596575
 20
94.0404442175
 10
127.5170847805
 20
94.0989486244
 10
127.469929704
 20
94.1600344876
 10
127.4247977311
 20
94.2234373286
 10
127.3818799186
 20
94.2888875796
 10
127.3413574101
 20
94.3561085381
 10
127.3034036924
 20
94.4248124174
 10
127.2681812639
 20
94.494705066
 10
127.2358391959
 20
94.5654912352
 10
127.2065154255
 20
94.6368706428
 10
127.1803373234
 20
94.7085350282
 10
127.157418755
 20
94.7801734189
 10
127.1378578309
 20
94.8514791682
 10
127.1217383925
 20
94.9221466776
 10
127.1091301749
 20
94.9918688117
 10
127.1000866401
 20
95.0603457374
 10
127.094645504
 20
95.1272860296
 10
127.0928293575
 20
95.1924034262
  0
LWPOLYLINE
  5
286
100
AcDbEntity
  8
0
100
AcDbPolyline
 62
7
  6
CONTINUOUS
 90
25
 70
0
 10
143.8512600716
 20
84.5365312322
 10
143.7957726262
 20
84.5706660611
 10
143.7405192995
 20
84.6088514008
 10
143.6857367137
 20
84.6509245048
 10
143.6316584717
 20
84.696706883
 10
143.5785174237
 20
84.7460023345
 10
143.5265444618
 20
84.798597094
 10
143.4759622342
 20
84.8542658676
 10
143.4269873572
 20
84.9127702746
 10
143.3798322807
 20
84.9738561378
 10
143.3347003078
 20
85.0372589787
 10
143.2917824953
 20
85.1027092297
 10
143.2512599868
 20
85.1699301882
 10
143.2133062691
 20
85.2386340675
 10
143.1780838406
 20
85.3085267161
 10
143.1457417726
 20
85.3793128853
 10
143.1164180022
 20
85.4506922929
 10
143.0902399001
 20
85.5223566783
 10
143.0673213317
 20
85.5939950691
 10
143.0477604076
 20
85.6653008183
 10
143.0316409692
 20
85.7359683277
 10
143.0190327516
 20
85.8056904618
 10
143.0099892168
 20
85.8741673876
 10
143.0045480807
 20
85.9411076797
 10
143.0027319342
 20
86.0062250763
  0
LWPOLYLINE
  5
287
100
AcDbEntity
  8
0
100
AcDbPolyline
 62
7
  6
CONTINUOUS
 90
25
 70
0
 10
159.7611626483
 20
75.3503528823
 10
159.7056752029
 20
75.3844877112
 10
159.6504218762
 20
75.4226730509
 10
159.5956392904
 20
75.464746155
 10
159.5415610484
 20
75.5105285332
 10
159.4884200004
 20
75.5598239846
 10
159.4364470385
 20
75.6124187441
 10
159.3858648109
 20
75.6680875177
 10
159.3368899339
 20
75.7265919247
 10
159.2897348574
 20
75.7876777879
 10
159.2446028845
 20
75.8510806288
 10
159.201685072
 20
75.9165308799
 10
159.1611625635
 20
75.9837518383
 10
159.1232088458
 20
76.0524557176
 10
159.0879864173
 20
76.1223483662
 10
159.0556443493
 20
76.1931345355
 10
159.0263205789
 20
76.264513943
 10
159.0001424768
 20
76.3361783284
 10
158.9772239084
 20
76.4078167192
 10
158.9576629843
 20
76.4791224684
 10
158.9415435459
 20
76.5497899778
 10
158.9289353283
 20
76.6195121119
 10
158.9198917935
 20
76.6879890377
 10
158.9144506574
 20
76.7549293299
 10
158.9126345109
 20
76.8200467264
  0
LINE
  5
288
100
AcDbEntity
  8
0
100
AcDbLine
 62
7
  6
CONTINUOUS
 10
138.2651165002
 20
116.0117326416
 11
138.2651165002
 21
105.0710309325
  0
LINE
  5
289
100
AcDbEntity
  8
0
100
AcDbLine
 62
7
  6
CONTINUOUS
 10
138.2651165002
 20
99.2740919673
 11
138.2651165002
 21
88.3333902583
  0
LWPOLYLINE
  5
28A
100
AcDbEntity
  8
0
100
AcDbPolyline
 62
7
  6
CONTINUOUS
 90
28
 70
0
 10
138.2651165002
 20
105.0710309325
 10
138.263027049
 20
104.9910945032
 10
138.2569409894
 20
104.9142763635
 10
138.2468583213
 20
104.8405765133
 10
138.232718205
 20
104.7697664881
 10
138.2145814802
 20
104.7020747524
 10
138.1926306663
 20
104.6381867001
 10
138.1668269113
 20
104.5781411896
 10
138.1372090673
 20
104.5218993625
 10
138.1040762098
 20
104.4700300362
 10
138.0673927389
 20
104.4225778018
 10
138.0271942544
 20
104.3794980684
 10
137.9838866317
 20
104.3412258803
 10
137.9374384294
 20
104.3078099908
 10
137.8878810887
 20
104.2792016466
 10
137.8357148092
 20
104.2556896327
 10
137.7809130388
 20
104.2373255608
 10
137.7235023295
 20
104.2240578192
 10
137.6640625369
 20
104.2160203569
 10
137.6025729168
 20
104.2132663126
 10
137.5390542134
 20
104.2157425477
 10
137.4741485149
 20
104.2234235957
 10
137.4078415778
 20
104.2363625142
 10
137.3401476456
 20
104.2545062457
 10
137.271751537
 20
104.2776701509
 10
137.2028815251
 20
104.3057926837
 10
137.1333093368
 20
104.3389353902
 10
137.0630349722
 20
104.3770982707
  0
LWPOLYLINE
  5
28B
100
AcDbEntity
  8
0
100
AcDbPolyline
 62
7
  6
CONTINUOUS
 90
28
 70
0
 10
138.2651165002
 20
88.3333902583
 10
138.263027049
 20
88.253453829
 10
138.2569409894
 20
88.1766356892
 10
138.2468583213
 20
88.102935839
 10
138.232718205
 20
88.0321258138
 10
138.2145814802
 20
87.9644340782
 10
138.1926306663
 20
87.9005460258
 10
138.1668269113
 20
87.8405005154
 10
138.1372090673
 20
87.7842586882
 10
138.1040762098
 20
87.7323893619
 10
138.0673927389
 20
87.6849371276
 10
138.0271942544
 20
87.6418573941
 10
137.9838866317
 20
87.603585206
 10
137.9374384294
 20
87.5701693165
 10
137.8878810887
 20
87.5415609724
 10
137.8357148092
 20
87.5180489584
 10
137.7809130388
 20
87.4996848866
 10
137.7235023295
 20
87.4864171449
 10
137.6640625369
 20
87.4783796827
 10
137.6025729168
 20
87.4756256384
 10
137.5390542134
 20
87.4781018735
 10
137.4741485149
 20
87.4857829215
 10
137.4078415778
 20
87.49872184
 10
137.3401476456
 20
87.5168655714
 10
137.271751537
 20
87.5400294767
 10
137.2028815251
 20
87.5681520094
 10
137.1333093368
 20
87.601294716
 10
137.0630349722
 20
87.6394575964
  0
LWPOLYLINE
  5
28C
100
AcDbEntity
  8
0
100
AcDbPolyline
 62
7
  6
CONTINUOUS
 90
7
 70
0
 10
138.2651165002
 20
105.4793055259
 10
138.2633003229
 20
105.4162848449
 10
138.2578591167
 20
105.3556275385
 10
138.2488155061
 20
105.2975937626
 10
138.2362072604
 20
105.2424314421
 10
138.2200878638
 20
105.1903785598
 10
138.200526991
 20
105.1416614889
  0
LWPOLYLINE
  5
28D
100
AcDbEntity
  8
0
100
AcDbPolyline
 62
7
  6
CONTINUOUS
 90
7
 70
0
 10
138.2651165002
 20
88.7416648516
 10
138.2633003229
 20
88.6786441706
 10
138.2578591167
 20
88.6179868642
 10
138.2488155061
 20
88.5599530883
 10
138.2362072604
 20
88.5047907679
 10
138.2200878638
 20
88.4527378856
 10
138.200526991
 20
88.4040208146
  0
LWPOLYLINE
  5
28E
100
AcDbEntity
  8
0
100
AcDbPolyline
 62
7
  6
CONTINUOUS
 90
7
 70
0
 10
143.2000018089
 20
114.0835532522
 10
143.1891819051
 20
114.0551492828
 10
143.1730625308
 20
114.0030964642
 10
143.1604542941
 20
113.9479341914
 10
143.1514106812
 20
113.8899004255
 10
143.1459694703
 20
113.8292431034
 10
143.1441532904
 20
113.7662223783
  0
LINE
  5
28F
100
AcDbEntity
  8
0
100
AcDbLine
 62
250
  6
CONTINUOUS
 10
143.3835050427
 20
114.2819869556
 11
143.1441532904
 21
113.7662223783
  0
LWPOLYLINE
  5
290
100
AcDbEntity
  8
0
100
AcDbPolyline
 62
7
  6
CONTINUOUS
 90
7
 70
0
 10
138.200526991
 20
105.1416614889
 10
138.1776084238
 20
105.0964889385
 10
138.151430294
 20
105.0550543676
 10
138.1221064972
 20
105.0175373223
 10
138.0897644248
 20
104.984098995
 10
138.0545419988
 20
104.9548803577
 10
138.016617355
 20
104.9300212925
  0
LWPOLYLINE
  5
291
100
AcDbEntity
  8
0
100
AcDbPolyline
 62
7
  6
CONTINUOUS
 90
3
 70
0
 10
143.2316613197
 20
114.1490388824
 10
143.2087427564
 20
114.1038663197
 10
143.2000018089
 20
114.0835532522
  0
LINE
  5
292
100
AcDbEntity
  8
0
100
AcDbLine
 62
250
  6
CONTINUOUS
 10
137.558009719
 20
105.0711256244
 11
137.4165883628
 21
104.9894707057
  0
LWPOLYLINE
  5
293
100
AcDbEntity
  8
0
100
AcDbPolyline
 62
7
  6
CONTINUOUS
 90
3
 70
0
 10
138.016617355
 20
104.9300212925
 10
137.9760657492
 20
104.9095779393
 10
137.9331479063
 20
104.893688117
  0
LINE
  5
294
100
AcDbEntity
  8
0
100
AcDbLine
 62
250
  6
CONTINUOUS
 10
142.295625153
 20
86.0062250763
 11
143.0027319342
 21
86.0062250763
  0
LINE
  5
295
100
AcDbEntity
  8
0
100
AcDbLine
 62
250
  6
CONTINUOUS
 10
158.2055277297
 20
87.7607484355
 11
158.9126345109
 21
87.7607484355
  0
LINE
  5
296
100
AcDbEntity
  8
0
100
AcDbLine
 62
250
  6
CONTINUOUS
 10
144.8412095653
 20
84.5424484619
 11
143.9926814278
 21
84.6181861508
  0
LINE
  5
297
100
AcDbEntity
  8
0
100
AcDbLine
 62
250
  6
CONTINUOUS
 10
138.1244725336
 20
88.2829237695
 11
137.558009719
 21
88.3334849501
  0
LINE
  5
298
100
AcDbEntity
  8
0
100
AcDbLine
 62
250
  6
CONTINUOUS
 10
169.944277687
 20
86.648207744
 11
169.3778148724
 21
86.6987689246
  0
LWPOLYLINE
  5
299
100
AcDbEntity
  8
0
100
AcDbPolyline
 62
7
  6
CONTINUOUS
 90
6
 70
0
 10
137.8608387345
 20
88.2231552972
 10
137.8827250753
 20
88.2205773902
 10
137.9333073531
 20
88.2178350517
 10
137.982282214
 20
88.2197844771
 10
138.0294372852
 20
88.226416816
 10
138.0745692921
 20
88.2377023705
  0
LINE
  5
29A
100
AcDbEntity
  8
0
100
AcDbLine
 62
7
  6
CONTINUOUS
 10
137.589552672
 20
90.1122527515
 11
138.2651165002
 21
89.7221906639
  0
LINE
  5
29B
100
AcDbEntity
  8
0
100
AcDbLine
 62
7
  6
CONTINUOUS
 10
169.4093578254
 20
71.7398960518
 11
170.0849216536
 21
71.3498339642
  0
LINE
  5
29C
100
AcDbEntity
  8
0
100
AcDbLine
 62
7
  6
CONTINUOUS
 10
153.5665571767
 20
80.9262262481
 11
154.1750190769
 21
80.5749079728
  0
LWPOLYLINE
  5
29D
100
AcDbEntity
  8
0
100
AcDbPolyline
 62
7
  6
CONTINUOUS
 90
25
 70
0
 10
143.1441532904
 20
86.087879995
 10
143.1459694353
 20
86.0227626285
 10
143.1514105679
 20
85.9558223542
 10
143.1604540996
 20
85.8873454328
 10
143.1730623183
 20
85.8176232815
 10
143.1891817631
 20
85.7469557399
 10
143.2087426946
 20
85.6756499651
 10
143.2316612666
 20
85.6040115671
 10
143.25783937
 20
85.5323471818
 10
143.2871631433
 20
85.4609677708
 10
143.3195052195
 20
85.3901815875
 10
143.3547276594
 20
85.3202889216
 10
143.3926813863
 20
85.251585032
 10
143.4332038958
 20
85.184364078
 10
143.4761217051
 20
85.1189138373
 10
143.5212536805
 20
85.0555109978
 10
143.5684087789
 20
84.9944251117
 10
143.6173836861
 20
84.9359206766
 10
143.6679659224
 20
84.8802519025
 10
143.7199388441
 20
84.827657191
 10
143.7730798258
 20
84.7783618036
 10
143.8271580221
 20
84.7325794621
 10
143.8819406003
 20
84.6905063599
 10
143.9371939428
 20
84.6523210056
 10
143.9926814278
 20
84.6181861508
  0
LWPOLYLINE
  5
29E
100
AcDbEntity
  8
0
100
AcDbPolyline
 62
7
  6
CONTINUOUS
 90
25
 70
0
 10
143.1441532904
 20
102.8255206692
 10
143.1459694353
 20
102.7604033027
 10
143.1514105679
 20
102.6934630284
 10
143.1604540996
 20
102.624986107
 10
143.1730623183
 20
102.5552639557
 10
143.1891817631
 20
102.4845964141
 10
143.2087426946
 20
102.4132906394
 10
143.2316612666
 20
102.3416522413
 10
143.25783937
 20
102.2699878561
 10
143.2871631433
 20
102.198608445
 10
143.3195052195
 20
102.1278222617
 10
143.3547276594
 20
102.0579295959
 10
143.3926813863
 20
101.9892257063
 10
143.4332038958
 20
101.9220047523
 10
143.4761217051
 20
101.8565545116
 10
143.5212536805
 20
101.793151672
 10
143.5684087789
 20
101.732065786
 10
143.6173836861
 20
101.6735613508
 10
143.6679659224
 20
101.6178925767
 10
143.7199388441
 20
101.5652978652
 10
143.7730798258
 20
101.5160024779
 10
143.8271580221
 20
101.4702201364
 10
143.8819406003
 20
101.4281470341
 10
143.9371939428
 20
101.3899616799
 10
143.9926814278
 20
101.3558268251
  0
LWPOLYLINE
  5
29F
100
AcDbEntity
  8
0
100
AcDbPolyline
 62
7
  6
CONTINUOUS
 90
28
 70
0
 10
143.5027834793
 20
86.8606704426
 10
143.5051099722
 20
86.7689802363
 10
143.5118864044
 20
86.6756234313
 10
143.5231127758
 20
86.5806000276
 10
143.5388568405
 20
86.4835774138
 10
143.5590508444
 20
86.3848882013
 10
143.5834915252
 20
86.2855302242
 10
143.6122221041
 20
86.1854968739
 10
143.6451993599
 20
86.084794759
 10
143.6820903669
 20
85.9844415398
 10
143.7229348219
 20
85.8844409439
 10
143.767693028
 20
85.7847892437
 10
143.8159129686
 20
85.6864929169
 10
143.8676296262
 20
85.5895659067
 10
143.9228080184
 20
85.49399427
 10
143.9808911808
 20
85.4007426553
 10
144.0419086011
 20
85.3098344659
 10
144.1058307916
 20
85.2212462986
 10
144.1720123251
 20
85.1358725922
 10
144.2404764251
 20
85.0537456803
 10
144.3111998681
 20
84.9748332292
 10
144.3834675563
 20
84.8999326773
 10
144.4572953121
 20
84.829084862
 10
144.5326673131
 20
84.762248946
 10
144.6088209954
 20
84.7000998553
 10
144.6855021708
 20
84.6428625655
 10
144.7629650275
 20
84.590312101
 10
144.8412095653
 20
84.5424484619
  0
LWPOLYLINE
  5
2A0
100
AcDbEntity
  8
0
100
AcDbPolyline
 62
7
  6
CONTINUOUS
 90
28
 70
0
 10
143.5027834793
 20
103.5983111169
 10
143.5051099722
 20
103.5066209106
 10
143.5118864044
 20
103.4132641056
 10
143.5231127758
 20
103.3182407019
 10
143.5388568405
 20
103.2212180881
 10
143.5590508444
 20
103.1225288755
 10
143.5834915252
 20
103.0231708984
 10
143.6122221041
 20
102.9231375481
 10
143.6451993599
 20
102.8224354332
 10
143.6820903669
 20
102.7220822141
 10
143.7229348219
 20
102.6220816181
 10
143.767693028
 20
102.5224299179
 10
143.8159129686
 20
102.4241335912
 10
143.8676296262
 20
102.327206581
 10
143.9228080184
 20
102.2316349442
 10
143.9808911808
 20
102.1383833295
 10
144.0419086011
 20
102.0474751402
 10
144.1058307916
 20
101.9588869729
 10
144.1720123251
 20
101.8735132665
 10
144.2404764251
 20
101.7913863545
 10
144.3111998681
 20
101.7124739034
 10
144.3834675563
 20
101.6375733516
 10
144.4572953121
 20
101.5667255363
 10
144.5326673131
 20
101.4998896202
 10
144.6088209954
 20
101.4377405296
 10
144.6855021708
 20
101.3805032397
 10
144.7629650275
 20
101.3279527752
 10
144.8412095653
 20
101.2800891362
  0
LINE
  5
2A1
100
AcDbEntity
  8
0
100
AcDbLine
 62
7
  6
CONTINUOUS
 10
142.295625153
 20
86.0062250763
 11
142.295625153
 21
96.9469267853
  0
LINE
  5
2A2
100
AcDbEntity
  8
0
100
AcDbLine
 62
7
  6
CONTINUOUS
 10
142.295625153
 20
102.7438657506
 11
142.295625153
 21
113.6845674596
  0
LINE
  5
2A3
100
AcDbEntity
  8
0
100
AcDbLine
 62
7
  6
CONTINUOUS
 10
143.0027319342
 20
86.0062250763
 11
143.0027319342
 21
96.9469267853
  0
LINE
  5
2A4
100
AcDbEntity
  8
0
100
AcDbLine
 62
7
  6
CONTINUOUS
 10
143.0027319342
 20
102.7438657506
 11
143.0027319342
 21
113.6845674596
  0
LINE
  5
2A5
100
AcDbEntity
  8
0
100
AcDbLine
 62
7
  6
CONTINUOUS
 10
143.1441532904
 20
113.7662223783
 11
143.1441532904
 21
102.8255206692
  0
LINE
  5
2A6
100
AcDbEntity
  8
0
100
AcDbLine
 62
7
  6
CONTINUOUS
 10
143.1441532904
 20
97.028581704
 11
143.1441532904
 21
86.087879995
  0
LINE
  5
2A7
100
AcDbEntity
  8
0
100
AcDbLine
 62
7
  6
CONTINUOUS
 10
143.5027834793
 20
114.2885980647
 11
143.5027834793
 21
103.5983111169
  0
LINE
  5
2A8
100
AcDbEntity
  8
0
100
AcDbLine
 62
7
  6
CONTINUOUS
 10
143.5027834793
 20
97.5509573904
 11
143.5027834793
 21
86.8606704426
  0
LWPOLYLINE
  5
2A9
100
AcDbEntity
  8
0
100
AcDbPolyline
 62
7
  6
CONTINUOUS
 90
28
 70
0
 10
142.295625153
 20
113.6845674596
 10
142.2977146042
 20
113.7645038889
 10
142.3038006638
 20
113.8413220287
 10
142.3138833319
 20
113.9150218789
 10
142.3280234483
 20
113.9858319041
 10
142.3461601731
 20
114.0535236397
 10
142.3681109869
 20
114.1174116921
 10
142.3939147419
 20
114.1774572025
 10
142.4235325859
 20
114.2336990297
 10
142.4566654434
 20
114.285568356
 10
142.4933489143
 20
114.3330205903
 10
142.5335473988
 20
114.3761003238
 10
142.5768550215
 20
114.4143725119
 10
142.6233032238
 20
114.4477884014
 10
142.6728605645
 20
114.4763967455
 10
142.725026844
 20
114.4999087594
 10
142.7798286144
 20
114.5182728313
 10
142.8372393237
 20
114.531540573
 10
142.8966791163
 20
114.5395780352
 10
142.9581687364
 20
114.5423320795
 10
143.0216874398
 20
114.5398558444
 10
143.0865931383
 20
114.5321747964
 10
143.1529000754
 20
114.5192358779
 10
143.2205940077
 20
114.5010921465
 10
143.2889901162
 20
114.4779282412
 10
143.3578601281
 20
114.4498057085
 10
143.4274323164
 20
114.4166630019
 10
143.497706681
 20
114.3785001215
  0
LWPOLYLINE
  5
2AA
100
AcDbEntity
  8
0
100
AcDbPolyline
 62
7
  6
CONTINUOUS
 90
28
 70
0
 10
142.295625153
 20
96.9469267853
 10
142.2977146042
 20
97.0268632147
 10
142.3038006638
 20
97.1036813544
 10
142.3138833319
 20
97.1773812046
 10
142.3280234483
 20
97.2481912298
 10
142.3461601731
 20
97.3158829654
 10
142.3681109869
 20
97.3797710178
 10
142.3939147419
 20
97.4398165283
 10
142.4235325859
 20
97.4960583554
 10
142.4566654434
 20
97.5479276817
 10
142.4933489143
 20
97.5953799161
 10
142.5335473988
 20
97.6384596495
 10
142.5768550215
 20
97.6767318376
 10
142.6233032238
 20
97.7101477271
 10
142.6728605645
 20
97.7387560713
 10
142.725026844
 20
97.7622680852
 10
142.7798286144
 20
97.780632157
 10
142.8372393237
 20
97.7938998987
 10
142.8966791163
 20
97.801937361
 10
142.9581687364
 20
97.8046914053
 10
143.0216874398
 20
97.8022151702
 10
143.0865931383
 20
97.7945341221
 10
143.1529000754
 20
97.7815952036
 10
143.2205940077
 20
97.7634514722
 10
143.2889901162
 20
97.740287567
 10
143.3578601281
 20
97.7121650342
 10
143.4274323164
 20
97.6790223277
 10
143.497706681
 20
97.6408594472
  0
LWPOLYLINE
  5
2AB
100
AcDbEntity
  8
0
100
AcDbPolyline
 62
7
  6
CONTINUOUS
 90
11
 70
0
 10
143.0027319342
 20
113.6845674596
 10
143.0045481115
 20
113.7475881406
 10
143.0099893177
 20
113.808245447
 10
143.0190329283
 20
113.8662792229
 10
143.031641174
 20
113.9214415433
 10
143.0477605706
 20
113.9734944256
 10
143.0673214434
 20
114.0222114966
 10
143.0902400106
 20
114.067384047
 10
143.1164181404
 20
114.1088186179
 10
143.1457419372
 20
114.1463356632
 10
143.1780840096
 20
114.1797739904
  0
LWPOLYLINE
  5
2AC
100
AcDbEntity
  8
0
100
AcDbPolyline
 62
7
  6
CONTINUOUS
 90
11
 70
0
 10
143.0027319342
 20
96.9469267853
 10
143.0045481115
 20
97.0099474663
 10
143.0099893177
 20
97.0706047727
 10
143.0190329283
 20
97.1286385486
 10
143.031641174
 20
97.1838008691
 10
143.0477605706
 20
97.2358537514
 10
143.0673214434
 20
97.2845708223
 10
143.0902400106
 20
97.3297433727
 10
143.1164181404
 20
97.3711779436
 10
143.1457419372
 20
97.4086949889
 10
143.1780840096
 20
97.4421333162
  0
LWPOLYLINE
  5
2AD
100
AcDbEntity
  8
0
100
AcDbPolyline
 62
7
  6
CONTINUOUS
 90
7
 70
0
 10
143.2000018089
 20
97.345912578
 10
143.1891819051
 20
97.3175086086
 10
143.1730625308
 20
97.2654557899
 10
143.1604542941
 20
97.2102935171
 10
143.1514106812
 20
97.1522597512
 10
143.1459694703
 20
97.0916024292
 10
143.1441532904
 20
97.028581704
  0
LINE
  5
2AE
100
AcDbEntity
  8
0
100
AcDbLine
 62
250
  6
CONTINUOUS
 10
143.5027834793
 20
103.5983111169
 11
143.1441532904
 21
102.8255206692
  0
LINE
  5
2AF
100
AcDbEntity
  8
0
100
AcDbLine
 62
250
  6
CONTINUOUS
 10
143.3835050427
 20
97.5443462813
 11
143.1441532904
 21
97.028581704
  0
LWPOLYLINE
  5
2B0
100
AcDbEntity
  8
0
100
AcDbPolyline
 62
7
  6
CONTINUOUS
 90
7
 70
0
 10
138.200526991
 20
88.4040208146
 10
138.1776084238
 20
88.3588482643
 10
138.151430294
 20
88.3174136933
 10
138.1221064972
 20
88.2798966481
 10
138.0897644248
 20
88.2464583208
 10
138.0545419988
 20
88.2172396835
 10
138.016617355
 20
88.1923806182
  0
LWPOLYLINE
  5
2B1
100
AcDbEntity
  8
0
100
AcDbPolyline
 62
7
  6
CONTINUOUS
 90
3
 70
0
 10
143.2316613197
 20
97.4113982081
 10
143.2087427564
 20
97.3662256454
 10
143.2000018089
 20
97.345912578
  0
LINE
  5
2B2
100
AcDbEntity
  8
0
100
AcDbLine
 62
250
  6
CONTINUOUS
 10
143.497706681
 20
100.6617994714
 11
143.8512600716
 21
101.2741719064
  0
LINE
  5
2B3
100
AcDbEntity
  8
0
100
AcDbLine
 62
250
  6
CONTINUOUS
 10
137.0630349722
 20
87.6394575964
 11
137.4165883628
 21
88.2518300315
  0
LWPOLYLINE
  5
2B4
100
AcDbEntity
  8
0
100
AcDbPolyline
 62
7
  6
CONTINUOUS
 90
4
 70
0
 10
143.3195053344
 20
97.5237882057
 10
143.2871632644
 20
97.4903498741
 10
143.2578394588
 20
97.4528328085
 10
143.2316613197
 20
97.4113982081
  0
LWPOLYLINE
  5
2B5
100
AcDbEntity
  8
0
100
AcDbPolyline
 62
7
  6
CONTINUOUS
 90
3
 70
0
 10
143.1780840096
 20
97.4421333162
 10
143.2133064356
 20
97.4713519535
 10
143.2512310794
 20
97.4962110187
  0
LINE
  5
2B6
100
AcDbEntity
  8
0
100
AcDbLine
 62
250
  6
CONTINUOUS
 10
127.2342507137
 20
95.2740583449
 11
127.0928293575
 21
95.1924034262
  0
LINE
  5
2B7
100
AcDbEntity
  8
0
100
AcDbLine
 62
250
  6
CONTINUOUS
 10
143.1441532904
 20
102.8255206692
 11
143.0027319342
 21
102.7438657506
  0
LINE
  5
2B8
100
AcDbEntity
  8
0
100
AcDbLine
 62
250
  6
CONTINUOUS
 10
128.0827788511
 20
93.8043645007
 11
127.9413574949
 21
93.722709582
  0
LINE
  5
2B9
100
AcDbEntity
  8
0
100
AcDbLine
 62
250
  6
CONTINUOUS
 10
143.9926814278
 20
101.3558268251
 11
143.8512600716
 21
101.2741719064
  0
LWPOLYLINE
  5
2BA
100
AcDbEntity
  8
0
100
AcDbPolyline
 62
7
  6
CONTINUOUS
 90
11
 70
0
 10
137.9331479063
 20
88.1560474427
 10
137.8880159074
 20
88.1447618931
 10
137.8408608379
 20
88.1381295567
 10
137.7918859761
 20
88.1361801332
 10
137.7413037028
 20
88.1389224731
 10
137.6893305304
 20
88.1463448496
 10
137.6361891985
 20
88.1584154641
 10
137.5821108319
 20
88.1750813885
 10
137.5273283685
 20
88.1962698582
 10
137.4720753383
 20
88.221889585
 10
137.4165883628
 20
88.2518300315
  0
LINE
  5
2BB
100
AcDbEntity
  8
0
100
AcDbLine
 62
250
  6
CONTINUOUS
 10
158.2055277297
 20
93.5576874007
 11
158.9126345109
 21
93.5576874007
  0
LINE
  5
2BC
100
AcDbEntity
  8
0
100
AcDbLine
 62
250
  6
CONTINUOUS
 10
128.9313069886
 20
93.7286268118
 11
128.0827788511
 21
93.8043645007
  0
LINE
  5
2BD
100
AcDbEntity
  8
0
100
AcDbLine
 62
250
  6
CONTINUOUS
 10
160.751112142
 20
92.0939107863
 11
159.9025840045
 21
92.1696484752
  0
LWPOLYLINE
  5
2BE
100
AcDbEntity
  8
0
100
AcDbPolyline
 62
7
  6
CONTINUOUS
 90
6
 70
0
 10
169.6806438879
 20
86.5884392717
 10
169.7025302287
 20
86.5858613647
 10
169.7531125065
 20
86.5831190262
 10
169.8020873674
 20
86.5850684516
 10
169.8492424386
 20
86.5917007905
 10
169.8943744455
 20
86.602986345
  0
LWPOLYLINE
  5
2BF
100
AcDbEntity
  8
0
100
AcDbPolyline
 62
7
  6
CONTINUOUS
 90
28
 70
0
 10
137.0630349722
 20
101.3561582465
 10
137.1333090075
 20
101.3131702866
 10
137.2028809352
 20
101.2659729775
 10
137.2717507553
 20
101.2145663194
 10
137.3401467531
 20
101.1587482535
 10
137.4078406433
 20
101.0987208385
 10
137.4741475698
 20
101.0350902501
 10
137.5390533069
 20
100.9678198411
 10
137.6025720805
 20
100.8969462587
 10
137.6640617118
 20
100.8231856203
 10
137.7235013843
 20
100.7465088393
 10
137.7809119146
 20
100.6669450024
 10
137.8357135737
 20
100.5852974871
 10
137.8878798609
 20
100.5015452902
 10
137.937437277
 20
100.4157094148
 10
137.983885595
 20
100.3286562477
 10
138.0271933935
 20
100.2403732724
 10
138.067392094
 20
100.1508730053
 10
138.1040757334
 20
100.0610593823
 10
138.137208664
 20
99.9709290334
 10
138.1668265336
 20
99.8804853285
 10
138.1926303223
 20
99.7906423137
 10
138.214581202
 20
99.7014059616
 10
138.2327180008
 20
99.6127702995
 10
138.2468581835
 20
99.5256314561
 10
138.2569409051
 20
99.4402881411
 10
138.2630270107
 20
99.3564416448
 10
138.2651165002
 20
99.2740919673
  0
LINE
  5
2C0
100
AcDbEntity
  8
0
100
AcDbLine
 62
7
  6
CONTINUOUS
 10
105.9455440922
 20
157.415466682
 11
105.9459193997
 21
157.4148303205
  0
LINE
  5
2C1
100
AcDbEntity
  8
0
100
AcDbLine
 62
250
  6
CONTINUOUS
 10
143.5027834793
 20
86.8606704426
 11
143.1441532904
 21
86.087879995
  0
LINE
  5
2C2
100
AcDbEntity
  8
0
100
AcDbLine
 62
250
  6
CONTINUOUS
 10
143.497706681
 20
83.9241587971
 11
143.8512600716
 21
84.5365312322
  0
LWPOLYLINE
  5
2C3
100
AcDbEntity
  8
0
100
AcDbPolyline
 62
7
  6
CONTINUOUS
 90
3
 70
0
 10
159.0879865863
 20
104.9935956406
 10
159.1232090123
 20
105.0228142779
 10
159.1611336561
 20
105.0476733431
  0
LINE
  5
2C4
100
AcDbEntity
  8
0
100
AcDbLine
 62
250
  6
CONTINUOUS
 10
143.1441532904
 20
97.028581704
 11
143.0027319342
 21
96.9469267853
  0
LINE
  5
2C5
100
AcDbEntity
  8
0
100
AcDbLine
 62
250
  6
CONTINUOUS
 10
159.0540558671
 20
104.5800440284
 11
158.9126345109
 21
104.4983891097
  0
LWPOLYLINE
  5
2C6
100
AcDbEntity
  8
0
100
AcDbPolyline
 62
7
  6
CONTINUOUS
 90
13
 70
0
 10
143.2512310794
 20
97.4962110187
 10
143.2917826852
 20
97.5166543719
 10
143.3347005281
 20
97.5325441942
 10
143.379832527
 20
97.5438297439
 10
143.4269875965
 20
97.5504620803
 10
143.4759624583
 20
97.5524115038
 10
143.5265447316
 20
97.5496691638
 10
143.578517904
 20
97.5422467873
 10
143.6316592359
 20
97.5301761728
 10
143.6857376025
 20
97.5135102485
 10
143.7405200659
 20
97.4923217787
 10
143.7957730961
 20
97.4667020519
 10
143.8512600716
 20
97.4367616055
  0
LWPOLYLINE
  5
2C7
100
AcDbEntity
  8
0
100
AcDbPolyline
 62
7
  6
CONTINUOUS
 90
13
 70
0
 10
159.1611336561
 20
105.0476733431
 10
159.2016852619
 20
105.0681166963
 10
159.2446031048
 20
105.0840065186
 10
159.2897351037
 20
105.0952920682
 10
159.3368901732
 20
105.1019244047
 10
159.385865035
 20
105.1038738281
 10
159.4364473083
 20
105.1011314882
 10
159.4884204807
 20
105.0937091117
 10
159.5415618126
 20
105.0816384972
 10
159.5956401792
 20
105.0649725728
 10
159.6504226426
 20
105.0437841031
 10
159.7056756728
 20
105.0181643763
 10
159.7611626483
 20
104.9882239299
  0
LWPOLYLINE
  5
2C8
100
AcDbEntity
  8
0
100
AcDbPolyline
 62
7
  6
CONTINUOUS
 90
11
 70
0
 10
153.843050483
 20
95.7075097671
 10
153.7979184841
 20
95.6962242175
 10
153.7507634145
 20
95.689591881
 10
153.7017885528
 20
95.6876424576
 10
153.6512062795
 20
95.6903847975
 10
153.5992331071
 20
95.697807174
 10
153.5460917752
 20
95.7098777885
 10
153.4920134086
 20
95.7265437129
 10
153.4372309452
 20
95.7477321826
 10
153.381977915
 20
95.7733519094
 10
153.3264909395
 20
95.8032923558
  0
LINE
  5
2C9
100
AcDbEntity
  8
0
100
AcDbLine
 62
7
  6
CONTINUOUS
 10
190.4999917166
 20
107.4286159564
 11
191.9169508475
 21
107.7762342326
  0
LINE
  5
2CA
100
AcDbEntity
  8
0
100
AcDbLine
 62
250
  6
CONTINUOUS
 10
126.3857225763
 20
95.1924034262
 11
127.0928293575
 21
95.1924034262
  0
LINE
  5
2CB
100
AcDbEntity
  8
0
100
AcDbLine
 62
250
  6
CONTINUOUS
 10
142.295625153
 20
96.9469267853
 11
143.0027319342
 21
96.9469267853
  0
LINE
  5
2CC
100
AcDbEntity
  8
0
100
AcDbLine
 62
250
  6
CONTINUOUS
 10
154.0343751103
 20
95.8343860939
 11
153.4679122957
 21
95.8849472745
  0
LWPOLYLINE
  5
2CD
100
AcDbEntity
  8
0
100
AcDbPolyline
 62
7
  6
CONTINUOUS
 90
6
 70
0
 10
153.7707413112
 20
95.7746176216
 10
153.792627652
 20
95.7720397146
 10
153.8432099298
 20
95.7692973761
 10
153.8921847907
 20
95.7712468015
 10
153.9393398619
 20
95.7778791403
 10
153.9844718688
 20
95.7891646949
  0
LWPOLYLINE
  5
2CE
100
AcDbEntity
  8
0
100
AcDbPolyline
 62
7
  6
CONTINUOUS
 90
7
 70
0
 10
169.3778148724
 20
86.6987689246
 10
169.4333018227
 20
86.6688284909
 10
169.4885548392
 20
86.643208768
 10
169.5433373004
 20
86.622020296
 10
169.5974156813
 20
86.6053543645
 10
169.6505570378
 20
86.5932837432
 10
169.6806438879
 20
86.5884392717
  0
LWPOLYLINE
  5
2CF
100
AcDbEntity
  8
0
100
AcDbPolyline
 62
7
  6
CONTINUOUS
 90
7
 70
0
 10
153.4679122957
 20
95.8849472745
 10
153.523399246
 20
95.8550068407
 10
153.5786522625
 20
95.8293871179
 10
153.6334347237
 20
95.8081986459
 10
153.6875131046
 20
95.7915327144
 10
153.7406544611
 20
95.7794620931
 10
153.7707413112
 20
95.7746176216
  0
LWPOLYLINE
  5
2D0
100
AcDbEntity
  8
0
100
AcDbPolyline
 62
7
  6
CONTINUOUS
 90
7
 70
0
 10
137.558009719
 20
105.0711256244
 10
137.6134966693
 20
105.0411851906
 10
137.6687496858
 20
105.0155654677
 10
137.723532147
 20
104.9943769957
 10
137.7776105279
 20
104.9777110642
 10
137.8307518845
 20
104.965640443
 10
137.8608387345
 20
104.9607959715
  0
LINE
  5
2D1
100
AcDbEntity
  8
0
100
AcDbLine
 62
7
  6
CONTINUOUS
 10
127.5878041043
 20
106.8270377971
 11
137.0630349722
 21
101.3561582465
  0
LINE
  5
2D2
100
AcDbEntity
  8
0
100
AcDbLine
 62
7
  6
CONTINUOUS
 10
143.497706681
 20
97.6408594472
 11
152.9729375489
 21
92.1699798966
  0
LINE
  5
2D3
100
AcDbEntity
  8
0
100
AcDbLine
 62
7
  6
CONTINUOUS
 10
159.4076092577
 20
88.4546810974
 11
168.8828401256
 21
82.9838015468
  0
LINE
  5
2D4
100
AcDbEntity
  8
0
100
AcDbLine
 62
7
  6
CONTINUOUS
 10
168.8828401256
 20
86.0047415709
 11
159.4076092577
 21
91.4756211215
  0
LINE
  5
2D5
100
AcDbEntity
  8
0
100
AcDbLine
 62
7
  6
CONTINUOUS
 10
152.9729375489
 20
95.1909199208
 11
143.497706681
 21
100.6617994714
  0
LINE
  5
2D6
100
AcDbEntity
  8
0
100
AcDbLine
 62
7
  6
CONTINUOUS
 10
137.0630349722
 20
104.3770982707
 11
127.5878041043
 21
109.8479778212
  0
LINE
  5
2D7
100
AcDbEntity
  8
0
100
AcDbLine
 62
7
  6
CONTINUOUS
 10
169.2363935162
 20
86.617114006
 11
159.7611626483
 21
92.0879935566
  0
LINE
  5
2D8
100
AcDbEntity
  8
0
100
AcDbLine
 62
7
  6
CONTINUOUS
 10
153.3264909395
 20
95.8032923558
 11
143.8512600716
 21
101.2741719064
  0
LINE
  5
2D9
100
AcDbEntity
  8
0
100
AcDbLine
 62
7
  6
CONTINUOUS
 10
137.4165883628
 20
104.9894707057
 11
127.9413574949
 21
110.4603502563
  0
LINE
  5
2DA
100
AcDbEntity
  8
0
100
AcDbLine
 62
7
  6
CONTINUOUS
 10
128.0827788511
 20
110.542005175
 11
137.558009719
 21
105.0711256244
  0
LINE
  5
2DB
100
AcDbEntity
  8
0
100
AcDbLine
 62
7
  6
CONTINUOUS
 10
143.9926814278
 20
101.3558268251
 11
153.4679122957
 21
95.8849472745
  0
LINE
  5
2DC
100
AcDbEntity
  8
0
100
AcDbLine
 62
7
  6
CONTINUOUS
 10
159.9025840045
 20
92.1696484752
 11
169.3778148724
 21
86.6987689246
  0
LINE
  5
2DD
100
AcDbEntity
  8
0
100
AcDbLine
 62
7
  6
CONTINUOUS
 10
128.9313069886
 20
110.4662674861
 11
138.189804353
 21
105.120527144
  0
LINE
  5
2DE
100
AcDbEntity
  8
0
100
AcDbLine
 62
7
  6
CONTINUOUS
 10
144.8412095653
 20
101.2800891362
 11
154.0997069297
 21
95.9343487942
  0
LINE
  5
2DF
100
AcDbEntity
  8
0
100
AcDbLine
 62
7
  6
CONTINUOUS
 10
160.751112142
 20
92.0939107863
 11
170.0096095064
 21
86.7481704443
  0
LWPOLYLINE
  5
2E0
100
AcDbEntity
  8
0
100
AcDbPolyline
 62
7
  6
CONTINUOUS
 90
28
 70
0
 10
152.9729375489
 20
92.1699798966
 10
153.0432115842
 20
92.1269919367
 10
153.1127835119
 20
92.0797946277
 10
153.181653332
 20
92.0283879695
 10
153.2500493298
 20
91.9725699036
 10
153.31774322
 20
91.9125424886
 10
153.3840501465
 20
91.8489119002
 10
153.4489558836
 20
91.7816414912
 10
153.5124746572
 20
91.7107679088
 10
153.5739642885
 20
91.6370072704
 10
153.633403961
 20
91.5603304895
 10
153.6908144912
 20
91.4807666526
 10
153.7456161504
 20
91.3991191372
 10
153.7977824376
 20
91.3153669403
 10
153.8473398537
 20
91.229531065
 10
153.8937881717
 20
91.1424778978
 10
153.9370959702
 20
91.0541949225
 10
153.9772946707
 20
90.9646946554
 10
154.0139783101
 20
90.8748810324
 10
154.0471112407
 20
90.7847506835
 10
154.0767291103
 20
90.6943069786
 10
154.102532899
 20
90.6044639639
 10
154.1244837787
 20
90.5152276117
 10
154.1426205775
 20
90.4265919496
 10
154.1567607602
 20
90.3394531063
 10
154.1668434818
 20
90.2541097912
 10
154.1729295874
 20
90.170263295
 10
154.1750190769
 20
90.0879136174
  0
LWPOLYLINE
  5
2E1
100
AcDbEntity
  8
0
100
AcDbPolyline
 62
7
  6
CONTINUOUS
 90
28
 70
0
 10
168.8828401256
 20
82.9838015468
 10
168.9531141609
 20
82.9408135868
 10
169.0226860886
 20
82.8936162778
 10
169.0915559087
 20
82.8422096196
 10
169.1599519065
 20
82.7863915537
 10
169.2276457966
 20
82.7263641387
 10
169.2939527232
 20
82.6627335504
 10
169.3588584603
 20
82.5954631413
 10
169.4223772339
 20
82.5245895589
 10
169.4838668652
 20
82.4508289206
 10
169.5433065377
 20
82.3741521396
 10
169.6007170679
 20
82.2945883027
 10
169.655518727
 20
82.2129407873
 10
169.7076850143
 20
82.1291885904
 10
169.7572424304
 20
82.0433527151
 10
169.8036907484
 20
81.9562995479
 10
169.8469985469
 20
81.8680165726
 10
169.8871972474
 20
81.7785163056
 10
169.9238808868
 20
81.6887026826
 10
169.9570138174
 20
81.5985723336
 10
169.986631687
 20
81.5081286288
 10
170.0124354757
 20
81.418285614
 10
170.0343863554
 20
81.3290492618
 10
170.0525231542
 20
81.2404135997
 10
170.0666633369
 20
81.1532747564
 10
170.0767460585
 20
81.0679314414
 10
170.0828321641
 20
80.9840849451
 10
170.0849216536
 20
80.9017352676
  0
LWPOLYLINE
  5
2E2
100
AcDbEntity
  8
0
100
AcDbPolyline
 62
7
  6
CONTINUOUS
 90
28
 70
0
 10
127.5878041043
 20
109.8479778212
 10
127.517530069
 20
109.8909657812
 10
127.4479581413
 20
109.9381630902
 10
127.3790883212
 20
109.9895697484
 10
127.3106923234
 20
110.0453878143
 10
127.2429984333
 20
110.1054152293
 10
127.1766915067
 20
110.1690458177
 10
127.1117857696
 20
110.2363162267
 10
127.048266996
 20
110.3071898091
 10
126.9867773647
 20
110.3809504475
 10
126.9273376922
 20
110.4576272284
 10
126.869927162
 20
110.5371910653
 10
126.8151255029
 20
110.6188385807
 10
126.7629592156
 20
110.7025907776
 10
126.7134017995
 20
110.7884266529
 10
126.6669534815
 20
110.8754798201
 10
126.623645683
 20
110.9637627954
 10
126.5834469825
 20
111.0532630625
 10
126.5467633431
 20
111.1430766854
 10
126.5136304125
 20
111.2332070344
 10
126.4840125429
 20
111.3236507393
 10
126.4582087542
 20
111.413493754
 10
126.4362578745
 20
111.5027301062
 10
126.4181210758
 20
111.5913657683
 10
126.403980893
 20
111.6785046116
 10
126.3938981714
 20
111.7638479266
 10
126.3878120658
 20
111.8476944229
 10
126.3857225763
 20
111.9300441004
  0
LWPOLYLINE
  5
2E3
100
AcDbEntity
  8
0
100
AcDbPolyline
 62
7
  6
CONTINUOUS
 90
28
 70
0
 10
143.497706681
 20
100.6617994714
 10
143.4274326457
 20
100.7047874313
 10
143.357860718
 20
100.7519847404
 10
143.2889908979
 20
100.8033913985
 10
143.2205949001
 20
100.8592094644
 10
143.15290101
 20
100.9192368794
 10
143.0865940834
 20
100.9828674678
 10
143.0216883463
 20
101.0501378768
 10
142.9581695727
 20
101.1210114592
 10
142.8966799414
 20
101.1947720976
 10
142.8372402689
 20
101.2714488785
 10
142.7798297387
 20
101.3510127154
 10
142.7250280796
 20
101.4326602308
 10
142.6728617923
 20
101.5164124277
 10
142.6233043762
 20
101.6022483031
 10
142.5768560582
 20
101.6893014702
 10
142.5335482597
 20
101.7775844455
 10
142.4933495592
 20
101.8670847126
 10
142.4566659198
 20
101.9568983356
 10
142.4235329892
 20
102.0470286845
 10
142.3939151196
 20
102.1374723894
 10
142.3681113309
 20
102.2273154041
 10
142.3461604512
 20
102.3165517563
 10
142.3280236525
 20
102.4051874184
 10
142.3138834697
 20
102.4923262617
 10
142.3038007481
 20
102.5776695768
 10
142.2977146425
 20
102.6615160731
 10
142.295625153
 20
102.7438657506
  0
LWPOLYLINE
  5
2E4
100
AcDbEntity
  8
0
100
AcDbPolyline
 62
7
  6
CONTINUOUS
 90
28
 70
0
 10
159.4076092577
 20
91.4756211215
 10
159.3373352224
 20
91.5186090814
 10
159.2677632947
 20
91.5658063905
 10
159.1988934746
 20
91.6172130487
 10
159.1304974768
 20
91.6730311145
 10
159.0628035867
 20
91.7330585295
 10
158.9964966601
 20
91.7966891179
 10
158.931590923
 20
91.8639595269
 10
158.8680721494
 20
91.9348331094
 10
158.8065825181
 20
92.0085937477
 10
158.7471428456
 20
92.0852705287
 10
158.6897323154
 20
92.1648343656
 10
158.6349306563
 20
92.2464818809
 10
158.582764369
 20
92.3302340778
 10
158.5332069529
 20
92.4160699532
 10
158.4867586349
 20
92.5031231203
 10
158.4434508364
 20
92.5914060956
 10
158.4032521359
 20
92.6809063627
 10
158.3665684965
 20
92.7707199857
 10
158.3334355659
 20
92.8608503347
 10
158.3038176963
 20
92.9512940395
 10
158.2780139076
 20
93.0411370543
 10
158.2560630279
 20
93.1303734065
 10
158.2379262292
 20
93.2190090685
 10
158.2237860464
 20
93.3061479119
 10
158.2137033248
 20
93.3914912269
 10
158.2076172192
 20
93.4753377232
 10
158.2055277297
 20
93.5576874007
  0
LWPOLYLINE
  5
2E5
100
AcDbEntity
  8
0
100
AcDbPolyline
 62
7
  6
CONTINUOUS
 90
25
 70
0
 10
127.9413574949
 20
110.4603502563
 10
127.8858700495
 20
110.4944850852
 10
127.8306167228
 20
110.5326704249
 10
127.775834137
 20
110.574743529
 10
127.721755895
 20
110.6205259072
 10
127.668614847
 20
110.6698213586
 10
127.6166418851
 20
110.7224161182
 10
127.5660596575
 20
110.7780848917
 10
127.5170847805
 20
110.8365892987
 10
127.469929704
 20
110.8976751619
 10
127.4247977311
 20
110.9610780028
 10
127.3818799186
 20
111.0265282539
 10
127.3413574101
 20
111.0937492123
 10
127.3034036924
 20
111.1624530916
 10
127.2681812639
 20
111.2323457402
 10
127.2358391959
 20
111.3031319095
 10
127.2065154255
 20
111.374511317
 10
127.1803373234
 20
111.4461757024
 10
127.157418755
 20
111.5178140932
 10
127.1378578309
 20
111.5891198424
 10
127.1217383925
 20
111.6597873518
 10
127.1091301749
 20
111.7295094859
 10
127.1000866401
 20
111.7979864117
 10
127.094645504
 20
111.8649267039
 10
127.0928293575
 20
111.9300441004
  0
LWPOLYLINE
  5
2E6
100
AcDbEntity
  8
0
100
AcDbPolyline
 62
7
  6
CONTINUOUS
 90
25
 70
0
 10
143.8512600716
 20
101.2741719064
 10
143.7957726262
 20
101.3083067353
 10
143.7405192995
 20
101.346492075
 10
143.6857367137
 20
101.3885651791
 10
143.6316584717
 20
101.4343475573
 10
143.5785174237
 20
101.4836430088
 10
143.5265444618
 20
101.5362377683
 10
143.4759622342
 20
101.5919065419
 10
143.4269873572
 20
101.6504109488
 10
143.3798322807
 20
101.711496812
 10
143.3347003078
 20
101.7748996529
 10
143.2917824953
 20
101.840349904
 10
143.2512599868
 20
101.9075708625
 10
143.2133062691
 20
101.9762747417
 10
143.1780838406
 20
102.0461673904
 10
143.1457417726
 20
102.1169535596
 10
143.1164180022
 20
102.1883329671
 10
143.0902399001
 20
102.2599973525
 10
143.0673213317
 20
102.3316357433
 10
143.0477604076
 20
102.4029414925
 10
143.0316409692
 20
102.4736090019
 10
143.0190327516
 20
102.5433311361
 10
143.0099892168
 20
102.6118080618
 10
143.0045480807
 20
102.678748354
 10
143.0027319342
 20
102.7438657506
  0
LWPOLYLINE
  5
2E7
100
AcDbEntity
  8
0
100
AcDbPolyline
 62
7
  6
CONTINUOUS
 90
25
 70
0
 10
159.7611626483
 20
92.0879935566
 10
159.7056752029
 20
92.1221283855
 10
159.6504218762
 20
92.1603137251
 10
159.5956392904
 20
92.2023868292
 10
159.5415610484
 20
92.2481692074
 10
159.4884200004
 20
92.2974646589
 10
159.4364470385
 20
92.3500594184
 10
159.3858648109
 20
92.405728192
 10
159.3368899339
 20
92.4642325989
 10
159.2897348574
 20
92.5253184621
 10
159.2446028845
 20
92.5887213031
 10
159.201685072
 20
92.6541715541
 10
159.1611625635
 20
92.7213925126
 10
159.1232088458
 20
92.7900963919
 10
159.0879864173
 20
92.8599890405
 10
159.0556443493
 20
92.9307752097
 10
159.0263205789
 20
93.0021546173
 10
159.0001424768
 20
93.0738190027
 10
158.9772239084
 20
93.1454573934
 10
158.9576629843
 20
93.2167631427
 10
158.9415435459
 20
93.2874306521
 10
158.9289353283
 20
93.3571527862
 10
158.9198917935
 20
93.4256297119
 10
158.9144506574
 20
93.4925700041
 10
158.9126345109
 20
93.5576874007
  0
LINE
  5
2E8
100
AcDbEntity
  8
0
100
AcDbLine
 62
7
  6
CONTINUOUS
 10
154.1750190769
 20
106.8255542917
 11
154.1750190769
 21
95.8848525827
  0
LINE
  5
2E9
100
AcDbEntity
  8
0
100
AcDbLine
 62
7
  6
CONTINUOUS
 10
154.1750190769
 20
90.0879136174
 11
154.1750190769
 21
79.1472119084
  0
LWPOLYLINE
  5
2EA
100
AcDbEntity
  8
0
100
AcDbPolyline
 62
7
  6
CONTINUOUS
 90
28
 70
0
 10
154.1750190769
 20
95.8848525827
 10
154.1729296257
 20
95.8049161533
 10
154.1668435661
 20
95.7280980136
 10
154.156760898
 20
95.6543981634
 10
154.1426207817
 20
95.5835881382
 10
154.1244840569
 20
95.5158964026
 10
154.102533243
 20
95.4520083502
 10
154.076729488
 20
95.3919628398
 10
154.047111644
 20
95.3357210126
 10
154.0139787865
 20
95.2838516863
 10
153.9772953156
 20
95.2363994519
 10
153.9370968311
 20
95.1933197185
 10
153.8937892084
 20
95.1550475304
 10
153.8473410061
 20
95.1216316409
 10
153.7977836654
 20
95.0930232968
 10
153.7456173859
 20
95.0695112828
 10
153.6908156155
 20
95.051147211
 10
153.6334049062
 20
95.0378794693
 10
153.5739651136
 20
95.0298420071
 10
153.5124754935
 20
95.0270879628
 10
153.4489567901
 20
95.0295641978
 10
153.3840510916
 20
95.0372452459
 10
153.3177441545
 20
95.0501841644
 10
153.2500502223
 20
95.0683278958
 10
153.1816541137
 20
95.091491801
 10
153.1127841018
 20
95.1196143338
 10
153.0432119135
 20
95.1527570404
 10
152.9729375489
 20
95.1909199208
  0
LWPOLYLINE
  5
2EB
100
AcDbEntity
  8
0
100
AcDbPolyline
 62
7
  6
CONTINUOUS
 90
28
 70
0
 10
154.1750190769
 20
79.1472119084
 10
154.1729296257
 20
79.0672754791
 10
154.1668435661
 20
78.9904573393
 10
154.156760898
 20
78.9167574891
 10
154.1426207817
 20
78.8459474639
 10
154.1244840569
 20
78.7782557283
 10
154.102533243
 20
78.7143676759
 10
154.076729488
 20
78.6543221655
 10
154.047111644
 20
78.5980803383
 10
154.0139787865
 20
78.546211012
 10
153.9772953156
 20
78.4987587777
 10
153.9370968311
 20
78.4556790442
 10
153.8937892084
 20
78.4174068561
 10
153.8473410061
 20
78.3839909666
 10
153.7977836654
 20
78.3553826225
 10
153.7456173859
 20
78.3318706086
 10
153.6908156155
 20
78.3135065367
 10
153.6334049062
 20
78.3002387951
 10
153.5739651136
 20
78.2922013328
 10
153.5124754935
 20
78.2894472885
 10
153.4489567901
 20
78.2919235236
 10
153.3840510916
 20
78.2996045716
 10
153.3177441545
 20
78.3125434901
 10
153.2500502223
 20
78.3306872215
 10
153.1816541137
 20
78.3538511268
 10
153.1127841018
 20
78.3819736595
 10
153.0432119135
 20
78.4151163661
 10
152.9729375489
 20
78.4532792465
  0
LWPOLYLINE
  5
2EC
100
AcDbEntity
  8
0
100
AcDbPolyline
 62
7
  6
CONTINUOUS
 90
7
 70
0
 10
154.1750190769
 20
96.293127176
 10
154.1732028996
 20
96.230106495
 10
154.1677616934
 20
96.1694491886
 10
154.1587180828
 20
96.1114154127
 10
154.1461098371
 20
96.0562530923
 10
154.1299904405
 20
96.00420021
 10
154.1104295677
 20
95.955483139
  0
LWPOLYLINE
  5
2ED
100
AcDbEntity
  8
0
100
AcDbPolyline
 62
7
  6
CONTINUOUS
 90
7
 70
0
 10
154.1750190769
 20
79.5554865017
 10
154.1732028996
 20
79.4924658208
 10
154.1677616934
 20
79.4318085144
 10
154.1587180828
 20
79.3737747384
 10
154.1461098371
 20
79.318612418
 10
154.1299904405
 20
79.2665595357
 10
154.1104295677
 20
79.2178424647
  0
LWPOLYLINE
  5
2EE
100
AcDbEntity
  8
0
100
AcDbPolyline
 62
7
  6
CONTINUOUS
 90
7
 70
0
 10
159.1099043856
 20
104.8973749023
 10
159.0990844818
 20
104.8689709329
 10
159.0829651075
 20
104.8169181143
 10
159.0703568708
 20
104.7617558415
 10
159.0613132579
 20
104.7037220756
 10
159.055872047
 20
104.6430647536
 10
159.0540558671
 20
104.5800440284
  0
LINE
  5
2EF
100
AcDbEntity
  8
0
100
AcDbLine
 62
250
  6
CONTINUOUS
 10
159.2934076194
 20
105.0958086057
 11
159.0540558671
 21
104.5800440284
  0
LWPOLYLINE
  5
2F0
100
AcDbEntity
  8
0
100
AcDbPolyline
 62
7
  6
CONTINUOUS
 90
7
 70
0
 10
154.1104295677
 20
95.955483139
 10
154.0875110005
 20
95.9103105886
 10
154.0613328707
 20
95.8688760177
 10
154.0320090739
 20
95.8313589724
 10
153.9996670015
 20
95.7979206452
 10
153.9644445755
 20
95.7687020079
 10
153.9265199317
 20
95.7438429426
  0
LWPOLYLINE
  5
2F1
100
AcDbEntity
  8
0
100
AcDbPolyline
 62
7
  6
CONTINUOUS
 90
3
 70
0
 10
159.1415638964
 20
104.9628605325
 10
159.1186453331
 20
104.9176879698
 10
159.1099043856
 20
104.8973749023
  0
LINE
  5
2F2
100
AcDbEntity
  8
0
100
AcDbLine
 62
250
  6
CONTINUOUS
 10
152.9729375489
 20
95.1909199208
 11
153.3264909395
 21
95.8032923558
  0
LWPOLYLINE
  5
2F3
100
AcDbEntity
  8
0
100
AcDbPolyline
 62
7
  6
CONTINUOUS
 90
4
 70
0
 10
159.2294079111
 20
105.07525053
 10
159.197065841
 20
105.0418121985
 10
159.1677420355
 20
105.0042951329
 10
159.1415638964
 20
104.9628605325
  0
LINE
  5
2F4
100
AcDbEntity
  8
0
100
AcDbLine
 62
250
  6
CONTINUOUS
 10
137.558009719
 20
88.3334849501
 11
137.4165883628
 21
88.2518300315
  0
LINE
  5
2F5
100
AcDbEntity
  8
0
100
AcDbLine
 62
250
  6
CONTINUOUS
 10
153.4679122957
 20
95.8849472745
 11
153.3264909395
 21
95.8032923558
  0
LWPOLYLINE
  5
2F6
100
AcDbEntity
  8
0
100
AcDbPolyline
 62
7
  6
CONTINUOUS
 90
3
 70
0
 10
138.016617355
 20
88.1923806182
 10
137.9760657492
 20
88.1719372651
 10
137.9331479063
 20
88.1560474427
  0
LWPOLYLINE
  5
2F7
100
AcDbEntity
  8
0
100
AcDbPolyline
 62
7
  6
CONTINUOUS
 90
3
 70
0
 10
153.9265199317
 20
95.7438429426
 10
153.8859683259
 20
95.7233995895
 10
153.843050483
 20
95.7075097671
  0
LINE
  5
2F8
100
AcDbEntity
  8
0
100
AcDbLine
 62
7
  6
CONTINUOUS
 10
136.0551320205
 20
89.6154195209
 11
137.3143051945
 21
90.131889125
  0
LINE
  5
2F9
100
AcDbEntity
  8
0
100
AcDbLine
 62
250
  6
CONTINUOUS
 10
142.295625153
 20
102.7438657506
 11
143.0027319342
 21
102.7438657506
  0
LINE
  5
2FA
100
AcDbEntity
  8
0
100
AcDbLine
 62
250
  6
CONTINUOUS
 10
144.8412095653
 20
101.2800891362
 11
143.9926814278
 21
101.3558268251
  0
LINE
  5
2FB
100
AcDbEntity
  8
0
100
AcDbLine
 62
250
  6
CONTINUOUS
 10
138.1244725336
 20
105.0205644437
 11
137.558009719
 21
105.0711256244
  0
LWPOLYLINE
  5
2FC
100
AcDbEntity
  8
0
100
AcDbPolyline
 62
7
  6
CONTINUOUS
 90
6
 70
0
 10
137.8608387345
 20
104.9607959715
 10
137.8827250753
 20
104.9582180644
 10
137.9333073531
 20
104.955475726
 10
137.982282214
 20
104.9574251514
 10
138.0294372852
 20
104.9640574902
 10
138.0745692921
 20
104.9753430448
  0
LINE
  5
2FD
100
AcDbEntity
  8
0
100
AcDbLine
 62
250
  6
CONTINUOUS
 10
128.5663191245
 20
115.9595042256
 11
128.9855012301
 21
115.7174737314
  0
LINE
  5
2FE
100
AcDbEntity
  8
0
100
AcDbLine
 62
7
  6
CONTINUOUS
 10
128.712624158
 20
115.9722662724
 11
129.1318062636
 21
115.7302357782
  0
LWPOLYLINE
  5
2FF
100
AcDbEntity
  8
0
100
AcDbPolyline
 62
250
  6
CONTINUOUS
 90
19
 70
0
 10
128.9855012301
 20
115.7174737314
 10
129.0042918002
 20
115.7060423818
 10
129.0229112529
 20
115.6928185906
 10
129.0412179377
 20
115.6779029598
 10
129.0590725876
 20
115.6614089584
 10
129.0763393661
 20
115.6434620707
 10
129.0928869016
 20
115.6241988446
 10
129.1085892935
 20
115.6037658509
 10
129.1233271018
 20
115.5823185207
 10
129.136988237
 20
115.5600199707
 10
129.1494687842
 20
115.5370397997
 10
129.1606737673
 20
115.5135528662
 10
129.1705179121
 20
115.4897379141
 10
129.1789263225
 20
115.4657761522
 10
129.1858350495
 20
115.4418498427
 10
129.1911915455
 20
115.4181409783
 10
129.1949550613
 20
115.3948299177
 10
129.197096963
 20
115.372094013
 10
129.1976009557
 20
115.3501062307
  0
LINE
  5
300
100
AcDbEntity
  8
0
100
AcDbLine
 62
7
  6
CONTINUOUS
 10
191.2305524999
 20
35.8245616968
 11
191.2309149301
 21
35.8239202591
  0
LWPOLYLINE
  5
301
100
AcDbEntity
  8
0
100
AcDbPolyline
 62
7
  6
CONTINUOUS
 90
25
 70
0
 10
159.0540558671
 20
76.9017016451
 10
159.055872012
 20
76.8365842786
 10
159.0613131446
 20
76.7696440043
 10
159.0703566763
 20
76.7011670829
 10
159.082964895
 20
76.6314449316
 10
159.0990843398
 20
76.56077739
 10
159.1186452713
 20
76.4894716152
 10
159.1415638433
 20
76.4178332172
 10
159.1677419467
 20
76.346168832
 10
159.19706572
 20
76.2747894209
 10
159.2294077962
 20
76.2040032376
 10
159.2646302361
 20
76.1341105717
 10
159.302583963
 20
76.0654066821
 10
159.3431064725
 20
75.9981857281
 10
159.3860242818
 20
75.9327354874
 10
159.4311562572
 20
75.8693326479
 10
159.4783113556
 20
75.8082467619
 10
159.5272862628
 20
75.7497423267
 10
159.5778684991
 20
75.6940735526
 10
159.6298414208
 20
75.6414788411
 10
159.6829824025
 20
75.5921834537
 10
159.7370605988
 20
75.5464011123
 10
159.791843177
 20
75.50432801
 10
159.8470965195
 20
75.4661426557
 10
159.9025840045
 20
75.432007801
  0
LWPOLYLINE
  5
302
100
AcDbEntity
  8
0
100
AcDbPolyline
 62
7
  6
CONTINUOUS
 90
25
 70
0
 10
159.0540558671
 20
93.6393423194
 10
159.055872012
 20
93.5742249529
 10
159.0613131446
 20
93.5072846785
 10
159.0703566763
 20
93.4388077572
 10
159.082964895
 20
93.3690856059
 10
159.0990843398
 20
93.2984180642
 10
159.1186452713
 20
93.2271122895
 10
159.1415638433
 20
93.1554738915
 10
159.1677419467
 20
93.0838095062
 10
159.19706572
 20
93.0124300952
 10
159.2294077962
 20
92.9416439119
 10
159.2646302361
 20
92.871751246
 10
159.302583963
 20
92.8030473564
 10
159.3431064725
 20
92.7358264024
 10
159.3860242818
 20
92.6703761617
 10
159.4311562572
 20
92.6069733222
 10
159.4783113556
 20
92.5458874361
 10
159.5272862628
 20
92.4873830009
 10
159.5778684991
 20
92.4317142269
 10
159.6298414208
 20
92.3791195154
 10
159.6829824025
 20
92.329824128
 10
159.7370605988
 20
92.2840417865
 10
159.791843177
 20
92.2419686843
 10
159.8470965195
 20
92.20378333
 10
159.9025840045
 20
92.1696484752
  0
LWPOLYLINE
  5
303
100
AcDbEntity
  8
0
100
AcDbPolyline
 62
7
  6
CONTINUOUS
 90
28
 70
0
 10
159.412686056
 20
77.6744920927
 10
159.4150125489
 20
77.5828018865
 10
159.4217889811
 20
77.4894450815
 10
159.4330153525
 20
77.3944216777
 10
159.4487594172
 20
77.2973990639
 10
159.4689534211
 20
77.1987098514
 10
159.4933941019
 20
77.0993518743
 10
159.5221246808
 20
76.999318524
 10
159.5551019366
 20
76.8986164091
 10
159.5919929436
 20
76.7982631899
 10
159.6328373986
 20
76.698262594
 10
159.6775956047
 20
76.5986108938
 10
159.7258155453
 20
76.5003145671
 10
159.7775322029
 20
76.4033875568
 10
159.8327105951
 20
76.3078159201
 10
159.8907937575
 20
76.2145643054
 10
159.9518111778
 20
76.1236561161
 10
160.0157333683
 20
76.0350679488
 10
160.0819149018
 20
75.9496942424
 10
160.1503790018
 20
75.8675673304
 10
160.2211024447
 20
75.7886548793
 10
160.293370133
 20
75.7137543274
 10
160.3671978888
 20
75.6429065122
 10
160.4425698898
 20
75.5760705961
 10
160.5187235721
 20
75.5139215054
 10
160.5954047475
 20
75.4566842156
 10
160.6728676042
 20
75.4041337511
 10
160.751112142
 20
75.3562701121
  0
LWPOLYLINE
  5
304
100
AcDbEntity
  8
0
100
AcDbPolyline
 62
7
  6
CONTINUOUS
 90
28
 70
0
 10
159.412686056
 20
94.412132767
 10
159.4150125489
 20
94.3204425607
 10
159.4217889811
 20
94.2270857557
 10
159.4330153525
 20
94.132062352
 10
159.4487594172
 20
94.0350397382
 10
159.4689534211
 20
93.9363505256
 10
159.4933941019
 20
93.8369925486
 10
159.5221246808
 20
93.7369591982
 10
159.5551019366
 20
93.6362570834
 10
159.5919929436
 20
93.5359038642
 10
159.6328373986
 20
93.4359032683
 10
159.6775956047
 20
93.3362515681
 10
159.7258155453
 20
93.2379552413
 10
159.7775322029
 20
93.1410282311
 10
159.8327105951
 20
93.0454565944
 10
159.8907937575
 20
92.9522049797
 10
159.9518111778
 20
92.8612967903
 10
160.0157333683
 20
92.772708623
 10
160.0819149018
 20
92.6873349166
 10
160.1503790018
 20
92.6052080046
 10
160.2211024447
 20
92.5262955536
 10
160.293370133
 20
92.4513950017
 10
160.3671978888
 20
92.3805471864
 10
160.4425698898
 20
92.3137112704
 10
160.5187235721
 20
92.2515621797
 10
160.5954047475
 20
92.1943248898
 10
160.6728676042
 20
92.1417744254
 10
160.751112142
 20
92.0939107863
  0
LINE
  5
305
100
AcDbEntity
  8
0
100
AcDbLine
 62
7
  6
CONTINUOUS
 10
158.2055277297
 20
76.8200467264
 11
158.2055277297
 21
87.7607484355
  0
LINE
  5
306
100
AcDbEntity
  8
0
100
AcDbLine
 62
7
  6
CONTINUOUS
 10
158.2055277297
 20
93.5576874007
 11
158.2055277297
 21
104.4983891097
  0
LINE
  5
307
100
AcDbEntity
  8
0
100
AcDbLine
 62
7
  6
CONTINUOUS
 10
158.9126345109
 20
76.8200467264
 11
158.9126345109
 21
87.7607484355
  0
LINE
  5
308
100
AcDbEntity
  8
0
100
AcDbLine
 62
7
  6
CONTINUOUS
 10
158.9126345109
 20
93.5576874007
 11
158.9126345109
 21
104.4983891097
  0
LINE
  5
309
100
AcDbEntity
  8
0
100
AcDbLine
 62
7
  6
CONTINUOUS
 10
159.0540558671
 20
104.5800440284
 11
159.0540558671
 21
93.6393423194
  0
LINE
  5
30A
100
AcDbEntity
  8
0
100
AcDbLine
 62
7
  6
CONTINUOUS
 10
159.0540558671
 20
87.8424033541
 11
159.0540558671
 21
76.9017016451
  0
LINE
  5
30B
100
AcDbEntity
  8
0
100
AcDbLine
 62
7
  6
CONTINUOUS
 10
159.412686056
 20
105.1024197148
 11
159.412686056
 21
94.412132767
  0
LINE
  5
30C
100
AcDbEntity
  8
0
100
AcDbLine
 62
7
  6
CONTINUOUS
 10
159.412686056
 20
88.3647790406
 11
159.412686056
 21
77.6744920927
  0
LWPOLYLINE
  5
30D
100
AcDbEntity
  8
0
100
AcDbPolyline
 62
7
  6
CONTINUOUS
 90
28
 70
0
 10
158.2055277297
 20
104.4983891097
 10
158.2076171809
 20
104.578325539
 10
158.2137032405
 20
104.6551436788
 10
158.2237859086
 20
104.728843529
 10
158.2379260249
 20
104.7996535542
 10
158.2560627498
 20
104.8673452898
 10
158.2780135636
 20
104.9312333422
 10
158.3038173186
 20
104.9912788526
 10
158.3334351626
 20
105.0475206798
 10
158.3665680201
 20
105.0993900061
 10
158.403251491
 20
105.1468422404
 10
158.4434499755
 20
105.1899219739
 10
158.4867575982
 20
105.228194162
 10
158.5332058005
 20
105.2616100515
 10
158.5827631412
 20
105.2902183956
 10
158.6349294207
 20
105.3137304096
 10
158.6897311911
 20
105.3320944814
 10
158.7471419004
 20
105.3453622231
 10
158.806581693
 20
105.3533996853
 10
158.8680713131
 20
105.3561537296
 10
158.9315900165
 20
105.3536774945
 10
158.996495715
 20
105.3459964465
 10
159.0628026521
 20
105.333057528
 10
159.1304965843
 20
105.3149137966
 10
159.1988926929
 20
105.2917498913
 10
159.2677627048
 20
105.2636273586
 10
159.3373348931
 20
105.230484652
 10
159.4076092577
 20
105.1923217716
  0
LWPOLYLINE
  5
30E
100
AcDbEntity
  8
0
100
AcDbPolyline
 62
7
  6
CONTINUOUS
 90
28
 70
0
 10
158.2055277297
 20
87.7607484355
 10
158.2076171809
 20
87.8406848648
 10
158.2137032405
 20
87.9175030046
 10
158.2237859086
 20
87.9912028547
 10
158.2379260249
 20
88.0620128799
 10
158.2560627498
 20
88.1297046156
 10
158.2780135636
 20
88.1935926679
 10
158.3038173186
 20
88.2536381784
 10
158.3334351626
 20
88.3098800056
 10
158.3665680201
 20
88.3617493318
 10
158.403251491
 20
88.4092015662
 10
158.4434499755
 20
88.4522812997
 10
158.4867575982
 20
88.4905534877
 10
158.5332058005
 20
88.5239693772
 10
158.5827631412
 20
88.5525777214
 10
158.6349294207
 20
88.5760897353
 10
158.6897311911
 20
88.5944538072
 10
158.7471419004
 20
88.6077215488
 10
158.806581693
 20
88.6157590111
 10
158.8680713131
 20
88.6185130554
 10
158.9315900165
 20
88.6160368203
 10
158.996495715
 20
88.6083557723
 10
159.0628026521
 20
88.5954168538
 10
159.1304965843
 20
88.5772731224
 10
159.1988926929
 20
88.5541092171
 10
159.2677627048
 20
88.5259866844
 10
159.3373348931
 20
88.4928439778
 10
159.4076092577
 20
88.4546810974
  0
LWPOLYLINE
  5
30F
100
AcDbEntity
  8
0
100
AcDbPolyline
 62
7
  6
CONTINUOUS
 90
11
 70
0
 10
158.9126345109
 20
104.4983891097
 10
158.9144506882
 20
104.5614097907
 10
158.9198918944
 20
104.6220670971
 10
158.928935505
 20
104.680100873
 10
158.9415437507
 20
104.7352631935
 10
158.9576631473
 20
104.7873160758
 10
158.9772240201
 20
104.8360331467
 10
159.0001425873
 20
104.8812056971
 10
159.0263207171
 20
104.922640268
 10
159.0556445139
 20
104.9601573133
 10
159.0879865863
 20
104.9935956406
  0
LWPOLYLINE
  5
310
100
AcDbEntity
  8
0
100
AcDbPolyline
 62
7
  6
CONTINUOUS
 90
11
 70
0
 10
158.9126345109
 20
87.7607484355
 10
158.9144506882
 20
87.8237691164
 10
158.9198918944
 20
87.8844264228
 10
158.928935505
 20
87.9424601988
 10
158.9415437507
 20
87.9976225192
 10
158.9576631473
 20
88.0496754015
 10
158.9772240201
 20
88.0983924725
 10
159.0001425873
 20
88.1435650228
 10
159.0263207171
 20
88.1849995937
 10
159.0556445139
 20
88.222516639
 10
159.0879865863
 20
88.2559549663
  0
LINE
  5
311
100
AcDbEntity
  8
0
100
AcDbLine
 62
250
  6
CONTINUOUS
 10
159.412686056
 20
94.412132767
 11
159.0540558671
 21
93.6393423194
  0
LINE
  5
312
100
AcDbEntity
  8
0
100
AcDbLine
 62
250
  6
CONTINUOUS
 10
159.4076092577
 20
91.4756211215
 11
159.7611626483
 21
92.0879935566
  0
LINE
  5
313
100
AcDbEntity
  8
0
100
AcDbLine
 62
250
  6
CONTINUOUS
 10
143.1441532904
 20
86.087879995
 11
143.0027319342
 21
86.0062250763
  0
LINE
  5
314
100
AcDbEntity
  8
0
100
AcDbLine
 62
250
  6
CONTINUOUS
 10
159.0540558671
 20
93.6393423194
 11
158.9126345109
 21
93.5576874007
  0
LINE
  5
315
100
AcDbEntity
  8
0
100
AcDbLine
 62
250
  6
CONTINUOUS
 10
143.9926814278
 20
84.6181861508
 11
143.8512600716
 21
84.5365312322
  0
LINE
  5
316
100
AcDbEntity
  8
0
100
AcDbLine
 62
250
  6
CONTINUOUS
 10
159.9025840045
 20
92.1696484752
 11
159.7611626483
 21
92.0879935566
  0
LINE
  5
317
100
AcDbEntity
  8
0
100
AcDbLine
 62
7
  6
CONTINUOUS
 10
191.2309149301
 20
108.9897297826
 11
195.2928479148
 21
111.3350236848
  0
LWPOLYLINE
  5
318
100
AcDbEntity
  8
0
100
AcDbPolyline
 62
7
  6
CONTINUOUS
 90
11
 70
0
 10
137.9331479063
 20
104.893688117
 10
137.8880159074
 20
104.8824025674
 10
137.8408608379
 20
104.8757702309
 10
137.7918859761
 20
104.8738208075
 10
137.7413037028
 20
104.8765631474
 10
137.6893305304
 20
104.8839855239
 10
137.6361891985
 20
104.8960561384
 10
137.5821108319
 20
104.9127220627
 10
137.5273283685
 20
104.9339105325
 10
137.4720753383
 20
104.9595302593
 10
137.4165883628
 20
104.9894707057
  0
LINE
  5
319
100
AcDbEntity
  8
0
100
AcDbLine
 62
250
  6
CONTINUOUS
 10
158.2055277297
 20
104.4983891097
 11
158.9126345109
 21
104.4983891097
  0
LINE
  5
31A
100
AcDbEntity
  8
0
100
AcDbLine
 62
250
  6
CONTINUOUS
 10
126.3857225763
 20
106.1331051352
 11
127.0928293575
 21
106.1331051352
  0
LINE
  5
31B
100
AcDbEntity
  8
0
100
AcDbLine
 62
250
  6
CONTINUOUS
 10
128.9313069886
 20
110.4662674861
 11
128.0827788511
 21
110.542005175
  0
LWPOLYLINE
  5
31C
100
AcDbEntity
  8
0
100
AcDbPolyline
 62
250
  6
CONTINUOUS
 90
10
 70
0
 10
129.1318026398
 20
115.7302378704
 10
129.1193148988
 20
115.7363359119
 10
129.104821203
 20
115.7410086837
 10
129.0894271052
 20
115.7436490293
 10
129.0732510598
 20
115.7442459017
 10
129.0564173101
 20
115.7428035135
 10
129.0390886686
 20
115.7393501848
 10
129.0214100541
 20
115.7339362225
 10
129.0035033635
 20
115.7266197978
 10
128.9855012301
 20
115.7174737314
  0
LWPOLYLINE
  5
31D
100
AcDbEntity
  8
0
100
AcDbPolyline
 62
250
  6
CONTINUOUS
 90
10
 70
0
 10
128.7126144206
 20
115.9722718939
 10
128.7003235271
 20
115.9782888076
 10
128.6858904368
 20
115.9829773874
 10
128.6705381045
 20
115.9856491303
 10
128.6543653001
 20
115.9862836869
 10
128.6375069539
 20
115.984872759
 10
128.6201349898
 20
115.9814384301
 10
128.6023979953
 20
115.9760274967
 10
128.5844147737
 20
115.9686931564
 10
128.5663191245
 20
115.9595042256
  0
LINE
  5
31E
100
AcDbEntity
  8
0
100
AcDbLine
 62
7
  6
CONTINUOUS
 10
127.5878041043
 20
123.5646784714
 11
137.0630349722
 21
118.0937989208
  0
LINE
  5
31F
100
AcDbEntity
  8
0
100
AcDbLine
 62
7
  6
CONTINUOUS
 10
143.497706681
 20
114.3785001215
 11
152.9729375489
 21
108.9076205709
  0
LINE
  5
320
100
AcDbEntity
  8
0
100
AcDbLine
 62
7
  6
CONTINUOUS
 10
159.4076092577
 20
105.1923217716
 11
168.8828401256
 21
99.721442221
  0
LWPOLYLINE
  5
321
100
AcDbEntity
  8
0
100
AcDbPolyline
 62
7
  6
CONTINUOUS
 90
28
 70
0
 10
137.0630349722
 20
118.0937989208
 10
137.1333090075
 20
118.0508109608
 10
137.2028809352
 20
118.0036136518
 10
137.2717507553
 20
117.9522069936
 10
137.3401467531
 20
117.8963889277
 10
137.4078406433
 20
117.8363615127
 10
137.4741475698
 20
117.7727309244
 10
137.5390533069
 20
117.7054605153
 10
137.6025720805
 20
117.6345869329
 10
137.6640617118
 20
117.5608262946
 10
137.7235013843
 20
117.4841495136
 10
137.7809119146
 20
117.4045856767
 10
137.8357135737
 20
117.3229381613
 10
137.8878798609
 20
117.2391859644
 10
137.937437277
 20
117.1533500891
 10
137.983885595
 20
117.0662969219
 10
138.0271933935
 20
116.9780139466
 10
138.067392094
 20
116.8885136796
 10
138.1040757334
 20
116.7987000566
 10
138.137208664
 20
116.7085697076
 10
138.1668265336
 20
116.6181260028
 10
138.1926303223
 20
116.528282988
 10
138.214581202
 20
116.4390466358
 10
138.2327180008
 20
116.3504109737
 10
138.2468581835
 20
116.2632721304
 10
138.2569409051
 20
116.1779288154
 10
138.2630270107
 20
116.0940823191
 10
138.2651165002
 20
116.0117326416
  0
LWPOLYLINE
  5
322
100
AcDbEntity
  8
0
100
AcDbPolyline
 62
7
  6
CONTINUOUS
 90
28
 70
0
 10
152.9729375489
 20
108.9076205709
 10
153.0432115842
 20
108.864632611
 10
153.1127835119
 20
108.8174353019
 10
153.181653332
 20
108.7660286437
 10
153.2500493298
 20
108.7102105779
 10
153.31774322
 20
108.6501831629
 10
153.3840501465
 20
108.5865525745
 10
153.4489558836
 20
108.5192821655
 10
153.5124746572
 20
108.448408583
 10
153.5739642885
 20
108.3746479447
 10
153.633403961
 20
108.2979711637
 10
153.6908144912
 20
108.2184073268
 10
153.7456161504
 20
108.1367598115
 10
153.7977824376
 20
108.0530076146
 10
153.8473398537
 20
107.9671717392
 10
153.8937881717
 20
107.8801185721
 10
153.9370959702
 20
107.7918355968
 10
153.9772946707
 20
107.7023353297
 10
154.0139783101
 20
107.6125217067
 10
154.0471112407
 20
107.5223913577
 10
154.0767291103
 20
107.4319476529
 10
154.102532899
 20
107.3421046381
 10
154.1244837787
 20
107.2528682859
 10
154.1426205775
 20
107.1642326238
 10
154.1567607602
 20
107.0770937805
 10
154.1668434818
 20
106.9917504655
 10
154.1729295874
 20
106.9079039692
 10
154.1750190769
 20
106.8255542917
  0
LWPOLYLINE
  5
323
100
AcDbEntity
  8
0
100
AcDbPolyline
 62
7
  6
CONTINUOUS
 90
28
 70
0
 10
168.8828401256
 20
99.721442221
 10
168.9531141609
 20
99.6784542611
 10
169.0226860886
 20
99.631256952
 10
169.0915559087
 20
99.5798502939
 10
169.1599519065
 20
99.524032228
 10
169.2276457966
 20
99.464004813
 10
169.2939527232
 20
99.4003742246
 10
169.3588584603
 20
99.3331038156
 10
169.4223772339
 20
99.2622302332
 10
169.4838668652
 20
99.1884695948
 10
169.5433065377
 20
99.1117928138
 10
169.6007170679
 20
99.032228977
 10
169.655518727
 20
98.9505814616
 10
169.7076850143
 20
98.8668292647
 10
169.7572424304
 20
98.7809933893
 10
169.8036907484
 20
98.6939402222
 10
169.8469985469
 20
98.6056572469
 10
169.8871972474
 20
98.5161569798
 10
169.9238808868
 20
98.4263433568
 10
169.9570138174
 20
98.3362130079
 10
169.986631687
 20
98.245769303
 10
170.0124354757
 20
98.1559262883
 10
170.0343863554
 20
98.0666899361
 10
170.0525231542
 20
97.978054274
 10
170.0666633369
 20
97.8909154306
 10
170.0767460585
 20
97.8055721156
 10
170.0828321641
 20
97.7217256193
 10
170.0849216536
 20
97.6393759418
  0
LWPOLYLINE
  5
324
100
AcDbEntity
  8
0
100
AcDbPolyline
 62
7
  6
CONTINUOUS
 90
7
 70
0
 10
159.1099043856
 20
88.1597342281
 10
159.0990844818
 20
88.1313302587
 10
159.0829651075
 20
88.07927744
 10
159.0703568708
 20
88.0241151672
 10
159.0613132579
 20
87.9660814013
 10
159.055872047
 20
87.9054240793
 10
159.0540558671
 20
87.8424033541
  0
LINE
  5
325
100
AcDbEntity
  8
0
100
AcDbLine
 62
250
  6
CONTINUOUS
 10
159.2934076194
 20
88.3581679314
 11
159.0540558671
 21
87.8424033541
  0
LWPOLYLINE
  5
326
100
AcDbEntity
  8
0
100
AcDbPolyline
 62
7
  6
CONTINUOUS
 90
7
 70
0
 10
154.1104295677
 20
79.2178424647
 10
154.0875110005
 20
79.1726699144
 10
154.0613328707
 20
79.1312353435
 10
154.0320090739
 20
79.0937182982
 10
153.9996670015
 20
79.0602799709
 10
153.9644445755
 20
79.0310613336
 10
153.9265199317
 20
79.0062022684
  0
LWPOLYLINE
  5
327
100
AcDbEntity
  8
0
100
AcDbPolyline
 62
7
  6
CONTINUOUS
 90
3
 70
0
 10
159.1415638964
 20
88.2252198583
 10
159.1186453331
 20
88.1800472956
 10
159.1099043856
 20
88.1597342281
  0
LINE
  5
328
100
AcDbEntity
  8
0
100
AcDbLine
 62
250
  6
CONTINUOUS
 10
152.9729375489
 20
78.4532792465
 11
153.3264909395
 21
79.0656516816
  0
LWPOLYLINE
  5
329
100
AcDbEntity
  8
0
100
AcDbPolyline
 62
7
  6
CONTINUOUS
 90
4
 70
0
 10
159.2294079111
 20
88.3376098558
 10
159.197065841
 20
88.3041715243
 10
159.1677420355
 20
88.2666544586
 10
159.1415638964
 20
88.2252198583
  0
LWPOLYLINE
  5
32A
100
AcDbEntity
  8
0
100
AcDbPolyline
 62
7
  6
CONTINUOUS
 90
3
 70
0
 10
159.0879865863
 20
88.2559549663
 10
159.1232090123
 20
88.2851736036
 10
159.1611336561
 20
88.3100326688
  0
LINE
  5
32B
100
AcDbEntity
  8
0
100
AcDbLine
 62
7
  6
CONTINUOUS
 10
191.9384521994
 20
107.7642392852
 11
196.0003851841
 21
110.1095331874
  0
LINE
  5
32C
100
AcDbEntity
  8
0
100
AcDbLine
 62
250
  6
CONTINUOUS
 10
159.0540558671
 20
87.8424033541
 11
158.9126345109
 21
87.7607484355
  0
LWPOLYLINE
  5
32D
100
AcDbEntity
  8
0
100
AcDbPolyline
 62
7
  6
CONTINUOUS
 90
13
 70
0
 10
159.1611336561
 20
88.3100326688
 10
159.2016852619
 20
88.330476022
 10
159.2446031048
 20
88.3463658443
 10
159.2897351037
 20
88.357651394
 10
159.3368901732
 20
88.3642837304
 10
159.385865035
 20
88.3662331539
 10
159.4364473083
 20
88.363490814
 10
159.4884204807
 20
88.3560684374
 10
159.5415618126
 20
88.343997823
 10
159.5956401792
 20
88.3273318986
 10
159.6504226426
 20
88.3061434288
 10
159.7056756728
 20
88.2805237021
 10
159.7611626483
 20
88.2505832556
  0
LINE
  5
32E
100
AcDbEntity
  8
0
100
AcDbLine
 62
250
  6
CONTINUOUS
 10
126.3857225763
 20
111.9300441004
 11
127.0928293575
 21
111.9300441004
  0
LINE
  5
32F
100
AcDbEntity
  8
0
100
AcDbLine
 62
250
  6
CONTINUOUS
 10
142.295625153
 20
113.6845674596
 11
143.0027319342
 21
113.6845674596
  0
LINE
  5
330
100
AcDbEntity
  8
0
100
AcDbLine
 62
7
  6
CONTINUOUS
 10
170.0849216536
 20
97.6393759418
 11
170.0849216536
 21
86.6986742328
  0
LINE
  5
331
100
AcDbEntity
  8
0
100
AcDbLine
 62
7
  6
CONTINUOUS
 10
170.0849216536
 20
80.9017352676
 11
170.0849216536
 21
69.9610335585
  0
LWPOLYLINE
  5
332
100
AcDbEntity
  8
0
100
AcDbPolyline
 62
7
  6
CONTINUOUS
 90
28
 70
0
 10
170.0849216536
 20
86.6986742328
 10
170.0828322024
 20
86.6187378035
 10
170.0767461428
 20
86.5419196637
 10
170.0666634747
 20
86.4682198135
 10
170.0525233584
 20
86.3974097883
 10
170.0343866335
 20
86.3297180527
 10
170.0124358197
 20
86.2658300003
 10
169.9866320647
 20
86.2057844899
 10
169.9570142207
 20
86.1495426627
 10
169.9238813632
 20
86.0976733364
 10
169.8871978923
 20
86.0502211021
 10
169.8469994078
 20
86.0071413686
 10
169.8036917851
 20
85.9688691805
 10
169.7572435828
 20
85.935453291
 10
169.7076862421
 20
85.9068449469
 10
169.6555199626
 20
85.883332933
 10
169.6007181922
 20
85.8649688611
 10
169.5433074829
 20
85.8517011194
 10
169.4838676903
 20
85.8436636572
 10
169.4223780702
 20
85.8409096129
 10
169.3588593668
 20
85.843385848
 10
169.2939536683
 20
85.851066896
 10
169.2276467312
 20
85.8640058145
 10
169.159952799
 20
85.8821495459
 10
169.0915566904
 20
85.9053134512
 10
169.0226866785
 20
85.9334359839
 10
168.9531144902
 20
85.9665786905
 10
168.8828401256
 20
86.0047415709
  0
LWPOLYLINE
  5
333
100
AcDbEntity
  8
0
100
AcDbPolyline
 62
7
  6
CONTINUOUS
 90
28
 70
0
 10
170.0849216536
 20
69.9610335585
 10
170.0828322024
 20
69.8810971292
 10
170.0767461428
 20
69.8042789895
 10
170.0666634747
 20
69.7305791393
 10
170.0525233584
 20
69.6597691141
 10
170.0343866335
 20
69.5920773784
 10
170.0124358197
 20
69.5281893261
 10
169.9866320647
 20
69.4681438156
 10
169.9570142207
 20
69.4119019885
 10
169.9238813632
 20
69.3600326622
 10
169.8871978923
 20
69.3125804278
 10
169.8469994078
 20
69.2695006944
 10
169.8036917851
 20
69.2312285063
 10
169.7572435828
 20
69.1978126168
 10
169.7076862421
 20
69.1692042726
 10
169.6555199626
 20
69.1456922587
 10
169.6007181922
 20
69.1273281868
 10
169.5433074829
 20
69.1140604452
 10
169.4838676903
 20
69.1060229829
 10
169.4223780702
 20
69.1032689386
 10
169.3588593668
 20
69.1057451737
 10
169.2939536683
 20
69.1134262217
 10
169.2276467312
 20
69.1263651402
 10
169.159952799
 20
69.1445088717
 10
169.0915566904
 20
69.1676727769
 10
169.0226866785
 20
69.1957953097
 10
168.9531144902
 20
69.2289380162
 10
168.8828401256
 20
69.2671008967
  0
LWPOLYLINE
  5
334
100
AcDbEntity
  8
0
100
AcDbPolyline
 62
7
  6
CONTINUOUS
 90
7
 70
0
 10
170.0849216536
 20
87.1069488261
 10
170.0831054763
 20
87.0439281452
 10
170.0776642701
 20
86.9832708387
 10
170.0686206595
 20
86.9252370628
 10
170.0560124138
 20
86.8700747424
 10
170.0398930171
 20
86.8180218601
 10
170.0203321444
 20
86.7693047891
  0
LWPOLYLINE
  5
335
100
AcDbEntity
  8
0
100
AcDbPolyline
 62
7
  6
CONTINUOUS
 90
7
 70
0
 10
170.0849216536
 20
70.3693081519
 10
170.0831054763
 20
70.3062874709
 10
170.0776642701
 20
70.2456301645
 10
170.0686206595
 20
70.1875963886
 10
170.0560124138
 20
70.1324340681
 10
170.0398930171
 20
70.0803811858
 10
170.0203321444
 20
70.0316641149
  0
LINE
  5
336
100
AcDbEntity
  8
0
100
AcDbLine
 62
250
  6
CONTINUOUS
 10
159.412686056
 20
77.6744920927
 11
159.0540558671
 21
76.9017016451
  0
LINE
  5
337
100
AcDbEntity
  8
0
100
AcDbLine
 62
250
  6
CONTINUOUS
 10
159.4076092577
 20
74.7379804472
 11
159.7611626483
 21
75.3503528823
  0
LINE
  5
338
100
AcDbEntity
  8
0
100
AcDbLine
 62
250
  6
CONTINUOUS
 10
153.4679122957
 20
79.1473066002
 11
153.3264909395
 21
79.0656516816
  0
LINE
  5
339
100
AcDbEntity
  8
0
100
AcDbLine
 62
250
  6
CONTINUOUS
 10
169.3778148724
 20
86.6987689246
 11
169.2363935162
 21
86.617114006
  0
LINE
  5
33A
100
AcDbEntity
  8
0
100
AcDbLine
 62
7
  6
CONTINUOUS
 10
152.058189611
 20
80.3754546335
 11
153.1536859605
 21
80.9344943194
  0
LWPOLYLINE
  5
33B
100
AcDbEntity
  8
0
100
AcDbPolyline
 62
7
  6
CONTINUOUS
 90
3
 70
0
 10
153.9265199317
 20
79.0062022684
 10
153.8859683259
 20
78.9857589152
 10
153.843050483
 20
78.9698690929
  0
LWPOLYLINE
  5
33C
100
AcDbEntity
  8
0
100
AcDbPolyline
 62
7
  6
CONTINUOUS
 90
3
 70
0
 10
169.8364225084
 20
86.5576645927
 10
169.7958709026
 20
86.5372212396
 10
169.7529530597
 20
86.5213314172
  0
LWPOLYLINE
  5
33D
100
AcDbEntity
  8
0
100
AcDbPolyline
 62
7
  6
CONTINUOUS
 90
7
 70
0
 10
170.0203321444
 20
86.7693047891
 10
169.9974135772
 20
86.7241322388
 10
169.9712354474
 20
86.6826976679
 10
169.9419116506
 20
86.6451806226
 10
169.9095695782
 20
86.6117422953
 10
169.8743471522
 20
86.582523658
 10
169.8364225084
 20
86.5576645927
  0
LINE
  5
33E
100
AcDbEntity
  8
0
100
AcDbLine
 62
250
  6
CONTINUOUS
 10
168.8828401256
 20
86.0047415709
 11
169.2363935162
 21
86.617114006
  0
LINE
  5
33F
100
AcDbEntity
  8
0
100
AcDbLine
 62
7
  6
CONTINUOUS
 10
190.2210157824
 20
107.9118164479
 11
191.2305524999
 21
108.9651110437
  0
LINE
  5
340
100
AcDbEntity
  8
0
100
AcDbLine
 62
250
  6
CONTINUOUS
 10
159.0540558671
 20
76.9017016451
 11
158.9126345109
 21
76.8200467264
  0
LINE
  5
341
100
AcDbEntity
  8
0
100
AcDbLine
 62
250
  6
CONTINUOUS
 10
159.9025840045
 20
75.432007801
 11
159.7611626483
 21
75.3503528823
  0
LINE
  5
342
100
AcDbEntity
  8
0
100
AcDbLine
 62
250
  6
CONTINUOUS
 10
126.3857225763
 20
122.8707458095
 11
127.0928293575
 21
122.8707458095
  0
LWPOLYLINE
  5
343
100
AcDbEntity
  8
0
100
AcDbPolyline
 62
7
  6
CONTINUOUS
 90
7
 70
0
 10
170.0203321444
 20
70.0316641149
 10
169.9974135772
 20
69.9864915645
 10
169.9712354474
 20
69.9450569936
 10
169.9419116506
 20
69.9075399483
 10
169.9095695782
 20
69.874101621
 10
169.8743471522
 20
69.8448829837
 10
169.8364225084
 20
69.8200239185
  0
LINE
  5
344
100
AcDbEntity
  8
0
100
AcDbLine
 62
250
  6
CONTINUOUS
 10
168.8828401256
 20
69.2671008967
 11
169.2363935162
 21
69.8794733317
  0
LINE
  5
345
100
AcDbEntity
  8
0
100
AcDbLine
 62
7
  6
CONTINUOUS
 10
167.8749371739
 20
71.2430628211
 11
169.1341103479
 21
71.7595324253
  0
LINE
  5
346
100
AcDbEntity
  8
0
100
AcDbLine
 62
7
  6
CONTINUOUS
 10
191.9169508475
 20
107.7762342326
 11
191.9384521994
 21
107.7642392852
  0
LINE
  5
347
100
AcDbEntity
  8
0
100
AcDbLine
 62
7
  6
CONTINUOUS
 10
190.2210157824
 20
107.9118164479
 11
106.2496284475
 21
156.3958430865
  0
LINE
  5
348
100
AcDbEntity
  8
0
100
AcDbLine
 62
7
  6
CONTINUOUS
 10
191.2309149301
 20
108.9897297826
 11
106.6530813615
 21
157.8239108759
  0
LINE
  5
349
100
AcDbEntity
  8
0
100
AcDbLine
 62
250
  6
CONTINUOUS
 10
169.3778148724
 20
69.9611282504
 11
169.2363935162
 21
69.8794733317
  0
LWPOLYLINE
  5
34A
100
AcDbEntity
  8
0
100
AcDbPolyline
 62
7
  6
CONTINUOUS
 90
3
 70
0
 10
169.8364225084
 20
69.8200239185
 10
169.7958709026
 20
69.7995805653
 10
169.7529530597
 20
69.783690743
  0
LINE
  5
34B
100
AcDbEntity
  8
0
100
AcDbLine
 62
7
  6
CONTINUOUS
 10
195.2928479148
 20
111.3350236848
 11
110.4408951486
 21
160.3274777672
  0
LINE
  5
34C
100
AcDbEntity
  8
0
100
AcDbLine
 62
7
  6
CONTINUOUS
 10
190.4999917166
 20
36.5969823571
 11
190.4999917166
 21
107.4286159564
  0
LINE
  5
34D
100
AcDbEntity
  8
0
100
AcDbLine
 62
7
  6
CONTINUOUS
 10
191.9384521994
 20
36.232364453
 11
191.9384521994
 21
107.7642392852
  0
LINE
  5
34E
100
AcDbEntity
  8
0
100
AcDbLine
 62
7
  6
CONTINUOUS
 10
191.2309149301
 20
108.9897297826
 11
191.2305524999
 21
108.9651110437
  0
LINE
  5
34F
100
AcDbEntity
  8
0
100
AcDbLine
 62
7
  6
CONTINUOUS
 10
190.4999917166
 20
107.4286159564
 11
190.2210157824
 21
107.9118164479
  0
LINE
  5
350
100
AcDbEntity
  8
0
100
AcDbLine
 62
7
  6
CONTINUOUS
 10
191.9169508475
 20
107.7762342326
 11
191.2305524999
 21
108.9651110437
  0
LINE
  5
351
100
AcDbEntity
  8
0
100
AcDbLine
 62
7
  6
CONTINUOUS
 10
196.0003851841
 20
38.2611429673
 11
196.0003851841
 21
110.1095331874
  0
LINE
  5
352
100
AcDbEntity
  8
0
100
AcDbLine
 62
7
  6
CONTINUOUS
 10
195.2928479148
 20
111.3350236848
 11
196.0003851841
 21
110.1095331874
  0
LINE
  5
353
100
AcDbEntity
  8
0
100
AcDbLine
 62
7
  6
CONTINUOUS
 10
190.2210157824
 20
36.4359362815
 11
190.4999917166
 21
36.5969823571
  0
LINE
  5
354
100
AcDbEntity
  8
0
100
AcDbLine
 62
7
  6
CONTINUOUS
 10
191.2305524999
 20
35.8245616968
 11
191.9169508475
 21
36.2208029012
  0
LINE
  5
355
100
AcDbEntity
  8
0
100
AcDbLine
 62
7
  6
CONTINUOUS
 10
196.0003851841
 20
38.2611429673
 11
195.2928479148
 21
37.8526987734
  0
LINE
  5
356
100
AcDbEntity
  8
0
100
AcDbLine
 62
7
  6
CONTINUOUS
 10
191.9384521994
 20
36.232364453
 11
191.9169508475
 21
36.2208029012
  0
LINE
  5
357
100
AcDbEntity
  8
0
100
AcDbLine
 62
7
  6
CONTINUOUS
 10
191.9384521994
 20
36.232364453
 11
196.0003851841
 21
38.2611429673
  0
LINE
  5
358
100
AcDbEntity
  8
0
100
AcDbLine
 62
7
  6
CONTINUOUS
 10
191.2309149301
 20
35.8239202591
 11
195.2928479148
 21
37.8526987734
  0
ARC
  5
359
100
AcDbEntity
  8
0
100
AcDbCircle
 62
7
  6
CONTINUOUS
 10
128.9817990156
 20
115.4704323418
 40
0.3
100
AcDbArc
 50
0.0007992921
 51
59.9992007801
  0
ARC
  5
35A
100
AcDbEntity
  8
0
100
AcDbCircle
 62
7
  6
CONTINUOUS
 10
128.56261691
 20
115.712462836
 40
0.3
100
AcDbArc
 50
60.0005489507
 51
118.2699256376
  0
ARC
  5
35B
100
AcDbEntity
  8
0
100
AcDbCircle
 62
7
  6
CONTINUOUS
 10
128.9817990156
 20
111.1898313452
 40
0.3
100
AcDbArc
 50
301.7332683128
 51
359.9978457589
  0
ELLIPSE
  5
35C
100
AcDbEntity
  8
0
100
AcDbEllipse
 62
7
  6
CONTINUOUS
 10
169.2679364692
 20
71.6745705387
 30
0.0
 11
0.1998333781
 21
-0.0157785196
 31
0.0
 40
0.5172961965
 41
0.8262203412
 42
2.3446567905
  0
ELLIPSE
  5
35D
100
AcDbEntity
  8
0
100
AcDbEllipse
 62
7
  6
CONTINUOUS
 10
137.4481313158
 20
90.0469272384
 30
0.0
 11
0.1998333781
 21
-0.0157785196
 31
0.0
 40
0.5172961965
 41
0.8262203412
 42
2.3446567905
  0
ELLIPSE
  5
35E
100
AcDbEntity
  8
0
100
AcDbEllipse
 62
7
  6
CONTINUOUS
 10
153.3544251424
 20
80.8058814386
 30
0.0
 11
0.2999972416
 21
-0.0022477848
 31
0.0
 40
0.5723275643
 41
0.7896864073
 42
2.3081228565
  0
ENDSEC
  0
SECTION
  2
OBJECTS
  0
DICTIONARY
  5
C
100
AcDbDictionary
280
0
281
1
  3
ACAD_GROUP
350
D
  3
ACAD_MLINESTYLE
350
17
  3
ACAD_LAYOUT
350
1A
  3
ACAD_PLOTSETTINGS
350
19
  3
ACAD_PLOTSTYLENAME
350
E
  0
DICTIONARY
  5
D
102
{ACAD_REACTORS
330
C
102
}
100
AcDbDictionary
280
0
281
1
  0
ACDBDICTIONARYWDFLT
  5
E
102
{ACAD_REACTORS
330
C
102
}
100
AcDbDictionary
281
1
  3
Normal
350
F
100
AcDbDictionaryWithDefault
340
F
  0
DICTIONARY
  5
17
102
{ACAD_REACTORS
330
C
102
}
100
AcDbDictionary
280
0
281
1
  3
Standard
350
18
  0
DICTIONARY
  5
19
102
{ACAD_REACTORS
330
C
102
}
100
AcDbDictionary
281
1
  0
DICTIONARY
  5
1A
102
{ACAD_REACTORS
330
C
102
}
100
AcDbDictionary
281
1
  3
Model
350
35F
  3
Layout1
350
360
  0
ACDBPLACEHOLDER
  5
F
102
{ACAD_REACTORS
330
E
102
}
  0
MLINESTYLE
  5
18
102
{ACAD_REACTORS
330
17
102
}
100
AcDbMlineStyle
  2
STANDARD
 70
0
  3

 62
256
 51
90.0
 52
90.0
 71
2
 49
0.5
 62
256
  6
BYLAYER
 49
-0.5
 62
256
  6
BYLAYER
  0
LAYOUT
  5
35F
102
{ACAD_REACTORS
330
1A
102
}
100
AcDbPlotSettings
  1

  2
none_device
  4
ISO_A4_(297.00_x_210.00_MM)
  6

 40
0.0
 41
0.0
 42
0.0
 43
0.0
 44
297.0
 45
210.0
 46
0.0
 47
0.0
 48
0.0
 49
0.0
140
0.0
141
0.0
142
1.0
143
1.0
 70
1024
 72
1
 73
0
 74
0
  7

 75
0
147
1.0
148
0.0
149
0.0
100
AcDbLayout
  1
Model
 70
0
 71
0
 10
0.0
 20
0.0
 11
297.0
 21
210.0
 12
0.0
 22
0.0
 32
0.0
 14
0.0
 24
0.0
 34
0.0
 15
0.0
 25
0.0
 35
0.0
146
0.0
 13
0.0
 23
0.0
 33
0.0
 16
1.0
 26
0.0
 36
0.0
 17
0.0
 27
1.0
 37
0.0
 76
0
330
21B
345
0
346
0
  0
LAYOUT
  5
360
102
{ACAD_REACTORS
330
1A
102
}
100
AcDbPlotSettings
  1

  2
none_device
  4
ISO_A4_(297.00_x_210.00_MM)
  6

 40
0.0
 41
0.0
 42
0.0
 43
0.0
 44
297.0
 45
210.0
 46
0.0
 47
0.0
 48
0.0
 49
0.0
140
0.0
141
0.0
142
1.0
143
1.0
 70
0
 72
1
 73
0
 74
0
  7

 75
0
147
1.0
148
0.0
149
0.0
100
AcDbLayout
  1
Layout1
 70
0
 71
1
 10
0.0
 20
0.0
 11
297.0
 21
210.0
 12
0.0
 22
0.0
 32
0.0
 14
0.0
 24
0.0
 34
0.0
 15
0.0
 25
0.0
 35
0.0
146
0.0
 13
0.0
 23
0.0
 33
0.0
 16
1.0
 26
0.0
 36
0.0
 17
0.0
 27
1.0
 37
0.0
 76
0
330
21C
345
0
346
0
  0
ENDSEC
  0
EOF
