  0
SECTION
  2
HEADER
  9
$ACADVER
  1
AC1024
  9
$DWGCODEPAGE
  3
ANSI_1252
  9
$EXTMAX
 10
297.0
 20
210.0
 30
0.0
  9
$EXTMIN
 10
0.0
 20
0.0
 30
0.0
  9
$LIMMIN
 10
0.0
 20
0.0
  9
$LIMMAX
 10
297.0
 20
210.0
  9
$VIEWCTR
 10
148.5
 20
105.0
  9
$VIEWSIZE
 40
210.0
  9
$CLAYER
  8
0
  9
$LTSCALE
 40
16.335
  9
$CELTYPE
  6
BYLAYER
  9
$DIMSCALE
 40
1.0
  9
$DIMASZ
 40
3.0
  9
$DIMEXO
 40
0.5
  9
$DIMDLI
 40
11.286
  9
$DIMEXE
 40
1.5
  9
$DIMCEN
 40
2.673
  9
$DIMLFAC
 40
1.0
  9
$DIMBLK
  1
_FILLED
  9
$DIMALT
 70
0
  9
$DIMALTF
 40
0.0393700787
  9
$DIMTXT
 40
3.0
  9
$DIMTOL
 70
1
  9
$DIMLIM
 70
0
  9
$DIMTFAC
 40
1.0
  9
$DIMTP
 40
0.01
  9
$DIMTM
 40
0.01
  9
$DIMGAP
 40
0.625
  9
$DIMDSEP
 70
44
  9
$AUNITS
 70
0
  9
$PDMODE
 70
3
  9
$PDSIZE
 40
3.0
  9
$HANDSEED
  5
477
  9
$TILEMODE
 70
1
  9
$MEASUREMENT
 70
1
  9
$INSUNITS
 70
4
  0
ENDSEC
  0
SECTION
  2
CLASSES
  0
CLASS
  1
ACDBDICTIONARYWDFLT
  2
AcDbDictionaryWithDefault
  3
AutoCAD 2000
 90
0
 91
1
280
0
281
0
  0
CLASS
  1
ACDBPLACEHOLDER
  2
AcDbPlaceHolder
  3
AutoCAD 2000
 90
0
 91
1
280
0
281
0
  0
CLASS
  1
LAYOUT
  2
AcDbLayout
  3
AutoCAD 2000
 90
0
 91
0
280
0
281
0
  0
ENDSEC
  0
SECTION
  2
TABLES
  0
TABLE
  2
VPORT
  5
8
100
AcDbSymbolTable
 70
2
  0
VPORT
  5
1F4
100
AcDbSymbolTableRecord
100
AcDbViewportTableRecord
  2
*ACTIVE
 70
0
 10
0.0
 20
0.0
 11
1.0
 21
1.0
 12
148.5
 22
105.0
 13
0.0
 23
0.0
 14
1.0
 24
1.0
 15
0.0
 25
0.0
 16
0.0
 26
0.0
 36
1.0
 17
0.0
 27
0.0
 37
0.0
 40
210.0
 41
1.4142857143
 42
50.0
 43
0.0
 44
0.0
 50
0.0
 51
0.0
 71
0
 72
100
 73
1
 74
1
 75
0
 76
0
 77
0
 78
0
  0
ENDTAB
  0
TABLE
  2
LTYPE
  5
5
100
AcDbSymbolTable
 70
6
  0
LTYPE
  5
14
100
AcDbSymbolTableRecord
100
AcDbLinetypeTableRecord
  2
BYBLOCK
 70
0
  3

 72
65
 73
0
 40
0.0
  0
LTYPE
  5
15
100
AcDbSymbolTableRecord
100
AcDbLinetypeTableRecord
  2
BYLAYER
 70
0
  3

 72
65
 73
0
 40
0.0
  0
LTYPE
  5
16
100
AcDbSymbolTableRecord
100
AcDbLinetypeTableRecord
  2
CONTINUOUS
 70
64
  3
Solid line
 72
65
 73
0
 40
0.0
  0
LTYPE
  5
1F5
100
AcDbSymbolTableRecord
100
AcDbLinetypeTableRecord
  2
CENTER
 70
64
  3
____ _ ____ _ ____ _ ____ _ ____ _ ____ _ ____
 72
65
 73
4
 40
0.6
 49
0.375
 74
0
 49
-0.075
 74
0
 49
0.075
 74
0
 49
-0.075
 74
0
  0
LTYPE
  5
1F6
100
AcDbSymbolTableRecord
100
AcDbLinetypeTableRecord
  2
HIDDEN
 70
64
  3
- - - - - - - - - - - - - - - - - - - -
 72
65
 73
2
 40
0.2
 49
0.1
 74
0
 49
-0.1
 74
0
  0
LTYPE
  5
1F7
100
AcDbSymbolTableRecord
100
AcDbLinetypeTableRecord
  2
PHANTOM
 70
64
  3
_____ _ _ _____ _ _ _____ _ _ _____
 72
65
 73
6
 40
0.8
 49
0.45
 74
0
 49
-0.05
 74
0
 49
0.1
 74
0
 49
-0.05
 74
0
 49
0.1
 74
0
 49
-0.05
 74
0
  0
LTYPE
  5
1F8
100
AcDbSymbolTableRecord
100
AcDbLinetypeTableRecord
  2
DOT
 70
64
  3
. . . . . . . . . . . . . . . . . . . .
 72
65
 73
2
 40
0.2
 49
0.1
 74
0
 49
-0.1
 74
0
  0
LTYPE
  5
1F9
100
AcDbSymbolTableRecord
100
AcDbLinetypeTableRecord
  2
DASHED
 70
64
  3
- - - - - - - - - - - - - - - - - - - -
 72
65
 73
2
 40
0.2
 49
0.1
 74
0
 49
-0.1
 74
0
  0
ENDTAB
  0
TABLE
  2
LAYER
  5
2
100
AcDbSymbolTable
 70
36
  0
LAYER
  5
10
100
AcDbSymbolTableRecord
100
AcDbLayerTableRecord
  2
0
 70
0
 62
7
  6
CONTINUOUS
370
-3
390
F
  0
LAYER
  5
1FA
100
AcDbSymbolTableRecord
100
AcDbLayerTableRecord
  2
DEFAULT_1
 70
0
 62
7
  6
CENTER
370
-3
390
F
  0
LAYER
  5
1FB
100
AcDbSymbolTableRecord
100
AcDbLayerTableRecord
  2
DEFAULT_2
 70
0
 62
7
  6
HIDDEN
370
-3
390
F
  0
LAYER
  5
1FC
100
AcDbSymbolTableRecord
100
AcDbLayerTableRecord
  2
DEFAULT_3
 70
0
 62
7
  6
PHANTOM
370
-3
390
F
  0
LAYER
  5
1FD
100
AcDbSymbolTableRecord
100
AcDbLayerTableRecord
  2
ASSI
 70
0
 62
7
  6
CONTINUOUS
370
-3
390
F
  0
LAYER
  5
1FE
100
AcDbSymbolTableRecord
100
AcDbLayerTableRecord
  2
COORDINATE
 70
0
 62
7
  6
CONTINUOUS
370
-3
390
F
  0
LAYER
  5
1FF
100
AcDbSymbolTableRecord
100
AcDbLayerTableRecord
  2
COORD_ORIGINE
 70
0
 62
7
  6
CONTINUOUS
370
-3
390
F
  0
LAYER
  5
200
100
AcDbSymbolTableRecord
100
AcDbLayerTableRecord
  2
COPY_PUBLISH
 70
0
 62
7
  6
CONTINUOUS
370
-3
390
F
  0
LAYER
  5
201
100
AcDbSymbolTableRecord
100
AcDbLayerTableRecord
  2
COSMETIC
 70
0
 62
7
  6
CONTINUOUS
370
-3
390
F
  0
LAYER
  5
202
100
AcDbSymbolTableRecord
100
AcDbLayerTableRecord
  2
COSMETICI
 70
0
 62
7
  6
CONTINUOUS
370
-3
390
F
  0
LAYER
  5
203
100
AcDbSymbolTableRecord
100
AcDbLayerTableRecord
  2
CURVA_TASSELLO
 70
0
 62
7
  6
CONTINUOUS
370
-3
390
F
  0
LAYER
  5
204
100
AcDbSymbolTableRecord
100
AcDbLayerTableRecord
  2
CURVE
 70
0
 62
7
  6
CONTINUOUS
370
-3
390
F
  0
LAYER
  5
205
100
AcDbSymbolTableRecord
100
AcDbLayerTableRecord
  2
DRAFT
 70
0
 62
7
  6
CONTINUOUS
370
-3
390
F
  0
LAYER
  5
206
100
AcDbSymbolTableRecord
100
AcDbLayerTableRecord
  2
IMPORT_IGES
 70
0
 62
7
  6
CONTINUOUS
370
-3
390
F
  0
LAYER
  5
207
100
AcDbSymbolTableRecord
100
AcDbLayerTableRecord
  2
INTFCLR_2
 70
0
 62
7
  6
CONTINUOUS
370
-3
390
F
  0
LAYER
  5
208
100
AcDbSymbolTableRecord
100
AcDbLayerTableRecord
  2
INTF_1
 70
0
 62
7
  6
CONTINUOUS
370
-3
390
F
  0
LAYER
  5
209
100
AcDbSymbolTableRecord
100
AcDbLayerTableRecord
  2
INTF_6
 70
0
 62
7
  6
CONTINUOUS
370
-3
390
F
  0
LAYER
  5
20A
100
AcDbSymbolTableRecord
100
AcDbLayerTableRecord
  2
INTF_7
 70
0
 62
7
  6
CONTINUOUS
370
-3
390
F
  0
LAYER
  5
20B
100
AcDbSymbolTableRecord
100
AcDbLayerTableRecord
  2
LINEA_CHIUSURA
 70
0
 62
7
  6
CONTINUOUS
370
-3
390
F
  0
LAYER
  5
20C
100
AcDbSymbolTableRecord
100
AcDbLayerTableRecord
  2
LIVELLO_1
 70
0
 62
7
  6
CONTINUOUS
370
-3
390
F
  0
LAYER
  5
20D
100
AcDbSymbolTableRecord
100
AcDbLayerTableRecord
  2
NOTE
 70
0
 62
7
  6
CONTINUOUS
370
-3
390
F
  0
LAYER
  5
20E
100
AcDbSymbolTableRecord
100
AcDbLayerTableRecord
  2
PIANI
 70
0
 62
7
  6
CONTINUOUS
370
-3
390
F
  0
LAYER
  5
20F
100
AcDbSymbolTableRecord
100
AcDbLayerTableRecord
  2
PIANI_ORIGINE
 70
0
 62
7
  6
CONTINUOUS
370
-3
390
F
  0
LAYER
  5
210
100
AcDbSymbolTableRecord
100
AcDbLayerTableRecord
  2
PIANI_RIFERIMENTO
 70
0
 62
7
  6
CONTINUOUS
370
-3
390
F
  0
LAYER
  5
211
100
AcDbSymbolTableRecord
100
AcDbLayerTableRecord
  2
PUNTI
 70
0
 62
7
  6
CONTINUOUS
370
-3
390
F
  0
LAYER
  5
212
100
AcDbSymbolTableRecord
100
AcDbLayerTableRecord
  2
RACCORDO
 70
0
 62
7
  6
CONTINUOUS
370
-3
390
F
  0
LAYER
  5
213
100
AcDbSymbolTableRecord
100
AcDbLayerTableRecord
  2
RGB__255__255__255__
 70
0
 62
7
  6
CONTINUOUS
370
-3
390
F
  0
LAYER
  5
214
100
AcDbSymbolTableRecord
100
AcDbLayerTableRecord
  2
RGB____0____0____0__
 70
0
 62
7
  6
CONTINUOUS
370
-3
390
F
  0
LAYER
  5
215
100
AcDbSymbolTableRecord
100
AcDbLayerTableRecord
  2
SIMBOLI
 70
0
 62
7
  6
CONTINUOUS
370
-3
390
F
  0
LAYER
  5
216
100
AcDbSymbolTableRecord
100
AcDbLayerTableRecord
  2
SMUSSO
 70
0
 62
7
  6
CONTINUOUS
370
-3
390
F
  0
LAYER
  5
217
100
AcDbSymbolTableRecord
100
AcDbLayerTableRecord
  2
SNAPLINE
 70
0
 62
7
  6
CONTINUOUS
370
-3
390
F
  0
LAYER
  5
218
100
AcDbSymbolTableRecord
100
AcDbLayerTableRecord
  2
SUPERFICI
 70
0
 62
7
  6
CONTINUOUS
370
-3
390
F
  0
LAYER
  5
219
100
AcDbSymbolTableRecord
100
AcDbLayerTableRecord
  2
TRASH
 70
0
 62
7
  6
CONTINUOUS
370
-3
390
F
  0
LAYER
  5
21A
100
AcDbSymbolTableRecord
100
AcDbLayerTableRecord
  2
WHITE
 70
0
 62
7
  6
CONTINUOUS
370
-3
390
F
  0
LAYER
  5
21B
100
AcDbSymbolTableRecord
100
AcDbLayerTableRecord
  2
XSEC_DATUMS
 70
0
 62
7
  6
CONTINUOUS
370
-3
390
F
  0
ENDTAB
  0
TABLE
  2
STYLE
  5
3
100
AcDbSymbolTable
 70
1
  0
STYLE
  5
11
100
AcDbSymbolTableRecord
100
AcDbTextStyleTableRecord
  2
STANDARD
 70
0
 40
0.0
 41
0.8
 50
0.0
 71
0
 42
0.2
  3
txt
  4

  0
STYLE
  5
21C
100
AcDbSymbolTableRecord
100
AcDbTextStyleTableRecord
  2
TEXTSTYLE_1
 70
0
 40
0.0
 41
0.8
 50
0.0
 71
0
 42
0.2
  3
gdt
  4

  0
ENDTAB
  0
TABLE
  2
VIEW
  5
6
100
AcDbSymbolTable
 70
0
  0
ENDTAB
  0
TABLE
  2
UCS
  5
7
100
AcDbSymbolTable
 70
0
  0
ENDTAB
  0
TABLE
  2
APPID
  5
9
100
AcDbSymbolTable
 70
1
  0
APPID
  5
21D
100
AcDbSymbolTableRecord
100
AcDbRegAppTableRecord
  2
ACAD
 70
0
  0
ENDTAB
  0
TABLE
  2
BLOCK_RECORD
  5
1
100
AcDbSymbolTable
 70
0
  0
BLOCK_RECORD
  5
21E
100
AcDbSymbolTableRecord
100
AcDbBlockTableRecord
  2
*Model_Space
  0
BLOCK_RECORD
  5
21F
100
AcDbSymbolTableRecord
100
AcDbBlockTableRecord
  2
*Paper_Space
  0
BLOCK_RECORD
  5
220
100
AcDbSymbolTableRecord
100
AcDbBlockTableRecord
  2
_FILLED
  0
ENDTAB
  0
TABLE
  2
DIMSTYLE
  5
A
100
AcDbSymbolTable
 70
1
100
AcDbDimStyleTable
 71
0
  0
DIMSTYLE
105
221
100
AcDbSymbolTableRecord
100
AcDbDimStyleTableRecord
  2
STANDARD
 70
0
  3

  4

 40
1.0
 41
3.0
 42
0.5
 43
0.38
 44
1.5
 45
0.0
 46
0.0
 47
0.01
 48
0.01
140
3.0
141
0.09
142
0.0
143
25.4
144
1.0
145
0.0
146
1.0
147
0.625
 71
1
 72
0
 73
0
 74
0
 75
0
 76
0
 77
1
 78
8
 79
2
170
0
171
1
172
0
173
0
174
0
175
0
176
0
177
0
178
0
270
2
179
2
271
2
272
2
273
2
274
2
275
0
280
0
281
0
282
0
283
1
284
8
285
0
286
0
287
3
288
0
340
11
278
44
341
220
342
220
343
220
344
220
  0
ENDTAB
  0
ENDSEC
  0
SECTION
  2
BLOCKS
  0
BLOCK
  5
20
100
AcDbEntity
  8
0
100
AcDbBlockBegin
  2
*Model_Space
 70
0
 10
0.0
 20
0.0
 30
0.0
  3
*Model_Space
  1

  0
ENDBLK
  5
21
100
AcDbEntity
  8
0
100
AcDbBlockEnd
  0
BLOCK
  5
1C
100
AcDbEntity
  8
0
100
AcDbBlockBegin
  2
*Paper_Space
 70
0
 10
0.0
 20
0.0
 30
0.0
  3
*Paper_Space
  1

  0
ENDBLK
  5
1D
100
AcDbEntity
  8
0
100
AcDbBlockEnd
  0
BLOCK
  5
222
100
AcDbEntity
  8
0
100
AcDbBlockBegin
  2
_FILLED
 70
64
 10
0.0
 20
0.0
  3
_FILLED
  1

  0
SOLID
  5
223
100
AcDbEntity
  8
0
  6
BYBLOCK
 62
0
100
AcDbTrace
 10
0.0
 20
0.0
 11
-1.0
 21
0.3166666667
 12
-1.0
 22
-0.3166666667
 13
-1.0
 23
-0.3166666667
  0
ENDBLK
  5
224
100
AcDbEntity
  8
0
  6
BYBLOCK
 62
0
100
AcDbBlockEnd
  0
ENDSEC
  0
SECTION
  2
ENTITIES
  0
LINE
  5
225
100
AcDbEntity
  8
0
100
AcDbLine
 62
7
  6
CONTINUOUS
 10
-52.9823718343
 20
63.9328568438
 11
-49.1945580472
 21
66.4364237351
  0
LINE
  5
226
100
AcDbEntity
  8
ASSI
100
AcDbLine
 62
7
  6
CONTINUOUS
 10
-52.9823718343
 20
63.9328568438
 11
-49.1945580472
 21
66.4364237351
  0
LINE
  5
227
100
AcDbEntity
  8
0
100
AcDbLine
 62
7
  6
CONTINUOUS
 10
-52.274834565
 20
64.3413010376
 11
-48.4870207779
 21
66.844867929
  0
LINE
  5
228
100
AcDbEntity
  8
ASSI
100
AcDbLine
 62
7
  6
CONTINUOUS
 10
-52.274834565
 20
64.3413010376
 11
-48.4870207779
 21
66.844867929
  0
LINE
  5
229
100
AcDbEntity
  8
0
100
AcDbLine
 62
7
  6
CONTINUOUS
 10
-52.2955981792
 20
64.3284616867
 11
-52.274834565
 21
64.3413010376
  0
LINE
  5
22A
100
AcDbEntity
  8
ASSI
100
AcDbLine
 62
7
  6
CONTINUOUS
 10
-52.2955981792
 20
64.3284616867
 11
-52.274834565
 21
64.3413010376
  0
LINE
  5
22B
100
AcDbEntity
  8
0
100
AcDbLine
 62
7
  6
CONTINUOUS
 10
-49.1945580472
 20
66.4364237351
 11
-48.4870207779
 21
66.844867929
  0
LINE
  5
22C
100
AcDbEntity
  8
ASSI
100
AcDbLine
 62
7
  6
CONTINUOUS
 10
-49.1945580472
 20
66.4364237351
 11
-48.4870207779
 21
66.844867929
  0
LINE
  5
22D
100
AcDbEntity
  8
0
100
AcDbLine
 62
7
  6
CONTINUOUS
 10
-52.2955981792
 20
64.3284616867
 11
-52.9819965268
 21
63.9322204822
  0
LINE
  5
22E
100
AcDbEntity
  8
ASSI
100
AcDbLine
 62
7
  6
CONTINUOUS
 10
-52.2955981792
 20
64.3284616867
 11
-52.9819965268
 21
63.9322204822
  0
LINE
  5
22F
100
AcDbEntity
  8
0
100
AcDbLine
 62
7
  6
CONTINUOUS
 10
-52.678287479
 20
62.9132332483
 11
-52.9572634132
 21
62.7521871727
  0
LINE
  5
230
100
AcDbEntity
  8
ASSI
100
AcDbLine
 62
7
  6
CONTINUOUS
 10
-52.678287479
 20
62.9132332483
 11
-52.9572634132
 21
62.7521871727
  0
LINE
  5
231
100
AcDbEntity
  8
CURVE
100
AcDbLine
 62
250
  6
CONTINUOUS
 10
51.309792016
 20
-59.9718585674
 11
50.0513911947
 21
-60.2484813673
  0
LINE
  5
232
100
AcDbEntity
  8
CURVE
100
AcDbLine
 62
250
  6
CONTINUOUS
 10
50.0513911947
 20
-59.8227443721
 11
51.8795823714
 21
-59.4944511796
  0
LINE
  5
233
100
AcDbEntity
  8
0
100
AcDbLine
 62
7
  6
CONTINUOUS
 10
-52.678287479
 20
62.9132332483
 11
-52.2955981792
 21
64.3284616867
  0
LINE
  5
234
100
AcDbEntity
  8
ASSI
100
AcDbLine
 62
7
  6
CONTINUOUS
 10
-52.678287479
 20
62.9132332483
 11
-52.2955981792
 21
64.3284616867
  0
LINE
  5
235
100
AcDbEntity
  8
CURVE
100
AcDbLine
 62
250
  6
CONTINUOUS
 10
50.5537317236
 20
-55.7637797996
 11
51.232196851
 21
-55.6106052197
  0
LINE
  5
236
100
AcDbEntity
  8
CURVE
100
AcDbLine
 62
250
  6
CONTINUOUS
 10
51.5146105455
 20
-55.5456932806
 11
51.8795823714
 21
-55.4667420689
  0
LINE
  5
237
100
AcDbEntity
  8
CURVE
100
AcDbLine
 62
250
  6
CONTINUOUS
 10
51.8795823714
 20
-55.8881476894
 11
50.0513911947
 21
-56.2323122475
  0
LINE
  5
238
100
AcDbEntity
  8
CURVE
100
AcDbLine
 62
250
  6
CONTINUOUS
 10
51.0664084744
 20
-57.4312713859
 11
50.0513911947
 21
-57.551751076
  0
LINE
  5
239
100
AcDbEntity
  8
CURVE
100
AcDbLine
 62
250
  6
CONTINUOUS
 10
50.6907844819
 20
-57.0994193229
 11
51.8795823714
 21
-56.9658909041
  0
LINE
  5
23A
100
AcDbEntity
  8
0
100
AcDbLine
 62
7
  6
CONTINUOUS
 10
-52.9572634132
 20
-8.0794464266
 11
-52.9819965268
 21
-7.6232108491
  0
LINE
  5
23B
100
AcDbEntity
  8
ASSI
100
AcDbLine
 62
7
  6
CONTINUOUS
 10
-52.9572634132
 20
-8.0794464266
 11
-52.9819965268
 21
-7.6232108491
  0
LINE
  5
23C
100
AcDbEntity
  8
0
100
AcDbLine
 62
7
  6
CONTINUOUS
 10
-52.9572634132
 20
62.7521871727
 11
-52.9819965268
 21
63.9322204822
  0
LINE
  5
23D
100
AcDbEntity
  8
ASSI
100
AcDbLine
 62
7
  6
CONTINUOUS
 10
-52.9572634132
 20
62.7521871727
 11
-52.9819965268
 21
63.9322204822
  0
LINE
  5
23E
100
AcDbEntity
  8
0
100
AcDbLine
 62
7
  6
CONTINUOUS
 10
-52.9819965268
 20
-7.6232108491
 11
-52.9823718343
 21
-7.5990179884
  0
LINE
  5
23F
100
AcDbEntity
  8
ASSI
100
AcDbLine
 62
7
  6
CONTINUOUS
 10
-52.9819965268
 20
-7.6232108491
 11
-52.9823718343
 21
-7.5990179884
  0
LINE
  5
240
100
AcDbEntity
  8
0
100
AcDbLine
 62
7
  6
CONTINUOUS
 10
-52.9823718343
 20
63.9328568438
 11
-52.9823718343
 21
-7.5990179884
  0
LINE
  5
241
100
AcDbEntity
  8
ASSI
100
AcDbLine
 62
7
  6
CONTINUOUS
 10
-52.9823718343
 20
63.9328568438
 11
-52.9823718343
 21
-7.5990179884
  0
LINE
  5
242
100
AcDbEntity
  8
0
100
AcDbLine
 62
7
  6
CONTINUOUS
 10
-52.9572634132
 20
62.7521871727
 11
-52.9572634132
 21
-8.0794464266
  0
LINE
  5
243
100
AcDbEntity
  8
ASSI
100
AcDbLine
 62
7
  6
CONTINUOUS
 10
-52.9572634132
 20
62.7521871727
 11
-52.9572634132
 21
-8.0794464266
  0
LINE
  5
244
100
AcDbEntity
  8
0
100
AcDbLine
 62
7
  6
CONTINUOUS
 10
47.4819783668
 20
-66.071805831
 11
48.8989374977
 21
-66.4479852869
  0
LINE
  5
245
100
AcDbEntity
  8
ASSI
100
AcDbLine
 62
7
  6
CONTINUOUS
 10
47.4819783668
 20
-66.071805831
 11
48.8989374977
 21
-66.4479852869
  0
LINE
  5
246
100
AcDbEntity
  8
0
100
AcDbLine
 62
7
  6
CONTINUOUS
 10
-52.9572634132
 20
-8.0794464266
 11
-52.678287479
 21
-8.5626469181
  0
LINE
  5
247
100
AcDbEntity
  8
ASSI
100
AcDbLine
 62
7
  6
CONTINUOUS
 10
-52.9572634132
 20
-8.0794464266
 11
-52.678287479
 21
-8.5626469181
  0
LINE
  5
248
100
AcDbEntity
  8
ASSI
100
AcDbLine
 62
250
  6
CONTINUOUS
 10
-30.9159639205
 20
29.7555239228
 11
-31.7643758909
 21
29.2656614842
  0
LINE
  5
249
100
AcDbEntity
  8
ASSI
100
AcDbLine
 62
250
  6
CONTINUOUS
 10
-31.2694011441
 20
16.4061875514
 11
-30.9158477535
 21
17.0185599864
  0
LINE
  5
24A
100
AcDbEntity
  8
0
100
AcDbLine
 62
250
  6
CONTINUOUS
 10
-29.9424146964
 20
22.2348638932
 11
-30.7744263973
 21
21.7544691152
  0
LINE
  5
24B
100
AcDbEntity
  8
0
100
AcDbLine
 62
250
  6
CONTINUOUS
 10
-29.7303149708
 20
21.8674963925
 11
-30.7744263973
 21
21.2646374707
  0
LINE
  5
24C
100
AcDbEntity
  8
0
100
AcDbLine
 62
7
  6
CONTINUOUS
 10
-30.5073868117
 20
22.4940708217
 11
-30.7744263973
 21
22.3504655743
  0
LINE
  5
24D
100
AcDbEntity
  8
0
100
AcDbLine
 62
250
  6
CONTINUOUS
 10
-30.361596802
 20
22.4768943874
 11
-30.7744263973
 21
22.2548879907
  0
LINE
  5
24E
100
AcDbEntity
  8
0
100
AcDbLine
 62
7
  6
CONTINUOUS
 10
-52.274834565
 20
-8.8245084858
 11
48.2129015803
 21
-66.844867929
  0
LINE
  5
24F
100
AcDbEntity
  8
ASSI
100
AcDbLine
 62
7
  6
CONTINUOUS
 10
-52.274834565
 20
-8.8245084858
 11
48.2129015803
 21
-66.844867929
  0
LINE
  5
250
100
AcDbEntity
  8
0
100
AcDbLine
 62
7
  6
CONTINUOUS
 10
-52.678287479
 20
-8.5626469181
 11
47.2030024326
 21
-66.2328519066
  0
LINE
  5
251
100
AcDbEntity
  8
ASSI
100
AcDbLine
 62
7
  6
CONTINUOUS
 10
-52.678287479
 20
-8.5626469181
 11
47.2030024326
 21
-66.2328519066
  0
LINE
  5
252
100
AcDbEntity
  8
0
100
AcDbLine
 62
7
  6
CONTINUOUS
 10
-52.274834565
 20
-8.8245084858
 11
-52.2955981792
 21
-8.8120876602
  0
LINE
  5
253
100
AcDbEntity
  8
ASSI
100
AcDbLine
 62
7
  6
CONTINUOUS
 10
-52.274834565
 20
-8.8245084858
 11
-52.2955981792
 21
-8.8120876602
  0
LINE
  5
254
100
AcDbEntity
  8
0
100
AcDbLine
 62
7
  6
CONTINUOUS
 10
-52.678287479
 20
-8.5626469181
 11
-52.2955981792
 21
-8.8120876602
  0
LINE
  5
255
100
AcDbEntity
  8
ASSI
100
AcDbLine
 62
7
  6
CONTINUOUS
 10
-52.678287479
 20
-8.5626469181
 11
-52.2955981792
 21
-8.8120876602
  0
LINE
  5
256
100
AcDbEntity
  8
0
100
AcDbLine
 62
7
  6
CONTINUOUS
 10
-32.5421933502
 20
1.709793588
 11
-32.5421933502
 21
12.650495297
  0
LINE
  5
257
100
AcDbEntity
  8
0
100
AcDbLine
 62
7
  6
CONTINUOUS
 10
-32.5421933502
 20
18.4474342622
 11
-32.5421933502
 21
29.3881359713
  0
LINE
  5
258
100
AcDbEntity
  8
ASSI
100
AcDbLine
 62
7
  6
CONTINUOUS
 10
-32.4714826721
 20
1.7506131563
 11
-32.4714826721
 21
12.52802081
  0
LINE
  5
259
100
AcDbEntity
  8
ASSI
100
AcDbLine
 62
7
  6
CONTINUOUS
 10
-32.4714826721
 20
18.4882538306
 11
-32.4714826721
 21
29.2656614842
  0
LINE
  5
25A
100
AcDbEntity
  8
ASSI
100
AcDbLine
 62
7
  6
CONTINUOUS
 10
-31.7643758909
 20
1.7506131563
 11
-31.7643758909
 21
12.52802081
  0
LINE
  5
25B
100
AcDbEntity
  8
ASSI
100
AcDbLine
 62
7
  6
CONTINUOUS
 10
-31.7643758909
 20
18.4882538306
 11
-31.7643758909
 21
29.2656614842
  0
LINE
  5
25C
100
AcDbEntity
  8
ASSI
100
AcDbLine
 62
7
  6
CONTINUOUS
 10
-30.7744263973
 20
12.9361612565
 11
-30.7744263973
 21
2.322197587
  0
LINE
  5
25D
100
AcDbEntity
  8
ASSI
100
AcDbLine
 62
7
  6
CONTINUOUS
 10
-30.7744263973
 20
19.0598382612
 11
-30.7744263973
 21
29.6738019308
  0
LINE
  5
25E
100
AcDbEntity
  8
0
100
AcDbLine
 62
250
  6
CONTINUOUS
 10
-29.7303149708
 20
21.8674963925
 11
-29.7303149708
 21
17.5868953959
  0
LINE
  5
25F
100
AcDbEntity
  8
0
100
AcDbLine
 62
7
  6
CONTINUOUS
 10
-29.6461169109
 20
21.9878225036
 11
-29.6461169109
 21
17.707221507
  0
LINE
  5
260
100
AcDbEntity
  8
0
100
AcDbLine
 62
250
  6
CONTINUOUS
 10
-29.7303149708
 20
17.5868953959
 11
-29.8220343991
 21
17.5301747256
  0
LINE
  5
261
100
AcDbEntity
  8
ASSI
100
AcDbLine
 62
250
  6
CONTINUOUS
 10
-30.7744263973
 20
19.0598382612
 11
-31.7643758909
 21
18.4882538306
  0
LINE
  5
262
100
AcDbEntity
  8
ASSI
100
AcDbLine
 62
250
  6
CONTINUOUS
 10
-29.9258982598
 20
17.5901444171
 11
-30.9158477535
 21
17.0185599864
  0
LINE
  5
263
100
AcDbEntity
  8
0
100
AcDbLine
 62
7
  6
CONTINUOUS
 10
47.2030024326
 20
-66.2328519066
 11
48.21253915
 21
-66.8442264913
  0
LINE
  5
264
100
AcDbEntity
  8
ASSI
100
AcDbLine
 62
7
  6
CONTINUOUS
 10
47.2030024326
 20
-66.2328519066
 11
48.21253915
 21
-66.8442264913
  0
LINE
  5
265
100
AcDbEntity
  8
ASSI
100
AcDbLine
 62
250
  6
CONTINUOUS
 10
-31.2694011441
 20
-0.3314531229
 11
-30.9158477535
 21
0.2809193122
  0
LINE
  5
266
100
AcDbEntity
  8
ASSI
100
AcDbLine
 62
250
  6
CONTINUOUS
 10
-21.9355916324
 20
11.0169629194
 11
-21.5820382418
 21
11.6293353545
  0
LINE
  5
267
100
AcDbEntity
  8
ASSI
100
AcDbLine
 62
250
  6
CONTINUOUS
 10
-31.7643758909
 20
12.52802081
 11
-30.9159639205
 21
13.0178832486
  0
LINE
  5
268
100
AcDbEntity
  8
ASSI
100
AcDbLine
 62
250
  6
CONTINUOUS
 10
-15.0060613438
 20
20.569345573
 11
-15.8544733142
 21
20.0794831344
  0
LINE
  5
269
100
AcDbEntity
  8
ASSI
100
AcDbLine
 62
250
  6
CONTINUOUS
 10
15.258225058
 20
-25.8079218933
 11
15.9653318392
 21
-25.8079218933
  0
LINE
  5
26A
100
AcDbEntity
  8
ASSI
100
AcDbLine
 62
7
  6
CONTINUOUS
 10
-20.7335101044
 20
22.488303235
 11
-20.7335101044
 21
11.7108955813
  0
LINE
  5
26B
100
AcDbEntity
  8
ASSI
100
AcDbLine
 62
7
  6
CONTINUOUS
 10
-20.7335101044
 20
5.7506625607
 11
-20.7335101044
 21
-5.0267450929
  0
LINE
  5
26C
100
AcDbEntity
  8
0
100
AcDbLine
 62
7
  6
CONTINUOUS
 10
-20.6627994263
 20
22.5291228033
 11
-20.6627994263
 21
11.5884210943
  0
LINE
  5
26D
100
AcDbEntity
  8
0
100
AcDbLine
 62
7
  6
CONTINUOUS
 10
-20.6627994263
 20
5.7914821291
 11
-20.6627994263
 21
-5.1492195799
  0
LINE
  5
26E
100
AcDbEntity
  8
0
100
AcDbLine
 62
7
  6
CONTINUOUS
 10
-16.6322907735
 20
-7.4763847619
 11
-16.6322907735
 21
3.4643169471
  0
LINE
  5
26F
100
AcDbEntity
  8
0
100
AcDbLine
 62
7
  6
CONTINUOUS
 10
-16.6322907735
 20
9.2612559124
 11
-16.6322907735
 21
20.2019576214
  0
LINE
  5
270
100
AcDbEntity
  8
ASSI
100
AcDbLine
 62
7
  6
CONTINUOUS
 10
-16.5615800954
 20
-7.4355651936
 11
-16.5615800954
 21
3.3418424601
  0
LINE
  5
271
100
AcDbEntity
  8
ASSI
100
AcDbLine
 62
7
  6
CONTINUOUS
 10
-16.5615800954
 20
9.3020754807
 11
-16.5615800954
 21
20.0794831344
  0
LINE
  5
272
100
AcDbEntity
  8
ASSI
100
AcDbLine
 62
250
  6
CONTINUOUS
 10
-15.3594985674
 20
7.2200092015
 11
-15.0059451768
 21
7.8323816366
  0
LINE
  5
273
100
AcDbEntity
  8
ASSI
100
AcDbLine
 62
250
  6
CONTINUOUS
 10
-20.7335101044
 20
12.1192648665
 11
-21.5820382418
 21
11.6293353545
  0
LINE
  5
274
100
AcDbEntity
  8
ASSI
100
AcDbLine
 62
250
  6
CONTINUOUS
 10
-31.7643758909
 20
1.7506131563
 11
-30.7744263973
 21
2.322197587
  0
LINE
  5
275
100
AcDbEntity
  8
ASSI
100
AcDbLine
 62
250
  6
CONTINUOUS
 10
-0.6516775187
 20
-16.6217435434
 11
0.0554292625
 21
-16.6217435434
  0
LINE
  5
276
100
AcDbEntity
  8
ASSI
100
AcDbLine
 62
7
  6
CONTINUOUS
 10
-15.8544733142
 20
-7.4355651936
 11
-15.8544733142
 21
3.3418424601
  0
LINE
  5
277
100
AcDbEntity
  8
ASSI
100
AcDbLine
 62
7
  6
CONTINUOUS
 10
-15.8544733142
 20
9.3020754807
 11
-15.8544733142
 21
20.0794831344
  0
LINE
  5
278
100
AcDbEntity
  8
ASSI
100
AcDbLine
 62
7
  6
CONTINUOUS
 10
-14.8645238206
 20
3.7499829067
 11
-14.8645238206
 21
-6.8639807629
  0
LINE
  5
279
100
AcDbEntity
  8
ASSI
100
AcDbLine
 62
7
  6
CONTINUOUS
 10
-14.8645238206
 20
9.8736599114
 11
-14.8645238206
 21
20.4876235809
  0
LINE
  5
27A
100
AcDbEntity
  8
ASSI
100
AcDbLine
 62
250
  6
CONTINUOUS
 10
-21.9355916324
 20
-5.7206777548
 11
-21.5820382418
 21
-5.1083053198
  0
LINE
  5
27B
100
AcDbEntity
  8
ASSI
100
AcDbLine
 62
250
  6
CONTINUOUS
 10
-14.8645238206
 20
9.8736599114
 11
-15.8544733142
 21
9.3020754807
  0
LINE
  5
27C
100
AcDbEntity
  8
ASSI
100
AcDbLine
 62
250
  6
CONTINUOUS
 10
-30.9158477535
 20
0.2809193122
 11
-29.9258982598
 21
0.8525037428
  0
LINE
  5
27D
100
AcDbEntity
  8
ASSI
100
AcDbLine
 62
250
  6
CONTINUOUS
 10
-14.0159956831
 20
8.4039660672
 11
-15.0059451768
 21
7.8323816366
  0
LINE
  5
27E
100
AcDbEntity
  8
ASSI
100
AcDbLine
 62
250
  6
CONTINUOUS
 10
-15.8544733142
 20
3.3418424601
 11
-15.0060613438
 21
3.8317048987
  0
LINE
  5
27F
100
AcDbEntity
  8
ASSI
100
AcDbLine
 62
250
  6
CONTINUOUS
 10
15.258225058
 20
-15.0305142396
 11
15.9653318392
 21
-15.0305142396
  0
LINE
  5
280
100
AcDbEntity
  8
0
100
AcDbLine
 62
7
  6
CONTINUOUS
 10
25.8648267758
 20
-33.4016872914
 11
16.3895959079
 21
-27.9308077409
  0
LINE
  5
281
100
AcDbEntity
  8
0
100
AcDbLine
 62
7
  6
CONTINUOUS
 10
-5.9549783776
 20
-15.0293305917
 11
-15.4302092455
 21
-9.5584510411
  0
LINE
  5
282
100
AcDbEntity
  8
0
100
AcDbLine
 62
7
  6
CONTINUOUS
 10
-21.8648809543
 20
-5.8431522418
 11
-31.3401118222
 21
-0.3722726912
  0
LINE
  5
283
100
AcDbEntity
  8
ASSI
100
AcDbLine
 62
7
  6
CONTINUOUS
 10
25.7941160977
 20
-33.2792128044
 11
16.460306586
 21
-27.8899881725
  0
LINE
  5
284
100
AcDbEntity
  8
ASSI
100
AcDbLine
 62
7
  6
CONTINUOUS
 10
9.884213521
 20
-24.0930344546
 11
0.5504040093
 21
-18.7038098226
  0
LINE
  5
285
100
AcDbEntity
  8
ASSI
100
AcDbLine
 62
7
  6
CONTINUOUS
 10
-6.0256890557
 20
-14.9068561047
 11
-15.3594985674
 21
-9.5176314728
  0
LINE
  5
286
100
AcDbEntity
  8
ASSI
100
AcDbLine
 62
7
  6
CONTINUOUS
 10
-21.9355916324
 20
-5.7206777548
 11
-31.2694011441
 21
-0.3314531229
  0
LINE
  5
287
100
AcDbEntity
  8
ASSI
100
AcDbLine
 62
7
  6
CONTINUOUS
 10
26.1476694883
 20
-32.6668403694
 11
16.8138599766
 21
-27.2776157374
  0
LINE
  5
288
100
AcDbEntity
  8
ASSI
100
AcDbLine
 62
7
  6
CONTINUOUS
 10
10.2377669116
 20
-23.4806620195
 11
0.9039573999
 21
-18.0914373876
  0
LINE
  5
289
100
AcDbEntity
  8
ASSI
100
AcDbLine
 62
7
  6
CONTINUOUS
 10
-5.6721356651
 20
-14.2944836696
 11
-15.0059451768
 21
-8.9052590377
  0
LINE
  5
28A
100
AcDbEntity
  8
ASSI
100
AcDbLine
 62
7
  6
CONTINUOUS
 10
-21.5820382418
 20
-5.1083053198
 11
-30.9158477535
 21
0.2809193122
  0
LINE
  5
28B
100
AcDbEntity
  8
ASSI
100
AcDbLine
 62
7
  6
CONTINUOUS
 10
-29.9258982598
 20
0.8525037428
 11
-20.7335101044
 21
-4.4550659704
  0
LINE
  5
28C
100
AcDbEntity
  8
ASSI
100
AcDbLine
 62
7
  6
CONTINUOUS
 10
-14.0159956831
 20
-8.333674607
 11
-4.8236075277
 21
-13.6412443203
  0
LINE
  5
28D
100
AcDbEntity
  8
ASSI
100
AcDbLine
 62
7
  6
CONTINUOUS
 10
1.8939068936
 20
-17.5198529569
 11
11.086295049
 21
-22.8274226702
  0
LINE
  5
28E
100
AcDbEntity
  8
ASSI
100
AcDbLine
 62
7
  6
CONTINUOUS
 10
17.8038094703
 20
-26.7060313068
 11
26.9961976257
 21
-32.01360102
  0
LINE
  5
28F
100
AcDbEntity
  8
0
100
AcDbLine
 62
7
  6
CONTINUOUS
 10
-21.3383632545
 20
-3.3703570867
 11
-20.7335101044
 21
-3.7195917149
  0
LINE
  5
290
100
AcDbEntity
  8
0
100
AcDbLine
 62
7
  6
CONTINUOUS
 10
26.3913444756
 20
-30.9288921363
 11
26.9961976257
 21
-31.2781267646
  0
LINE
  5
291
100
AcDbEntity
  8
0
100
AcDbLine
 62
7
  6
CONTINUOUS
 10
-5.3613587498
 20
-12.5563835901
 11
-4.8236075277
 21
-12.8668744061
  0
LINE
  5
292
100
AcDbEntity
  8
0
100
AcDbLine
 62
7
  6
CONTINUOUS
 10
10.5485438269
 20
-21.74256194
 11
11.086295049
 21
-22.053052756
  0
LINE
  5
293
100
AcDbEntity
  8
0
100
AcDbLine
 62
7
  6
CONTINUOUS
 10
-52.9823718343
 20
63.9328568438
 11
-52.9819965268
 21
63.9322204822
  0
LINE
  5
294
100
AcDbEntity
  8
ASSI
100
AcDbLine
 62
7
  6
CONTINUOUS
 10
-52.9823718343
 20
63.9328568438
 11
-52.9819965268
 21
63.9322204822
  0
LINE
  5
295
100
AcDbEntity
  8
ASSI
100
AcDbLine
 62
250
  6
CONTINUOUS
 10
-15.3594985674
 20
-9.5176314728
 11
-15.0059451768
 21
-8.9052590377
  0
LINE
  5
296
100
AcDbEntity
  8
ASSI
100
AcDbLine
 62
250
  6
CONTINUOUS
 10
-6.0256890557
 20
1.8307845696
 11
-5.6721356651
 21
2.4431570046
  0
LINE
  5
297
100
AcDbEntity
  8
ASSI
100
AcDbLine
 62
250
  6
CONTINUOUS
 10
0.9038412329
 20
11.3831672231
 11
0.0554292625
 21
10.8933047845
  0
LINE
  5
298
100
AcDbEntity
  8
ASSI
100
AcDbLine
 62
250
  6
CONTINUOUS
 10
-21.5820382418
 20
-5.1083053198
 11
-20.7335101044
 21
-4.6183758078
  0
LINE
  5
299
100
AcDbEntity
  8
ASSI
100
AcDbLine
 62
250
  6
CONTINUOUS
 10
-4.8236075277
 20
2.9330865166
 11
-5.6721356651
 21
2.4431570046
  0
LINE
  5
29A
100
AcDbEntity
  8
0
100
AcDbLine
 62
7
  6
CONTINUOUS
 10
-22.2173110949
 20
-3.5983378749
 11
-21.613610732
 21
-3.3507207132
  0
LINE
  5
29B
100
AcDbEntity
  8
0
100
AcDbLine
 62
7
  6
CONTINUOUS
 10
47.4819783668
 20
4.7598277683
 11
48.8989374977
 21
5.1074460445
  0
LINE
  5
29C
100
AcDbEntity
  8
ASSI
100
AcDbLine
 62
7
  6
CONTINUOUS
 10
47.4819783668
 20
4.7598277683
 11
48.8989374977
 21
5.1074460445
  0
LINE
  5
29D
100
AcDbEntity
  8
ASSI
100
AcDbLine
 62
250
  6
CONTINUOUS
 10
15.258225058
 20
-9.070281219
 11
15.9653318392
 21
-9.070281219
  0
LINE
  5
29E
100
AcDbEntity
  8
ASSI
100
AcDbLine
 62
250
  6
CONTINUOUS
 10
-16.5615800954
 20
-7.4355651936
 11
-15.8544733142
 21
-7.4355651936
  0
LINE
  5
29F
100
AcDbEntity
  8
ASSI
100
AcDbLine
 62
250
  6
CONTINUOUS
 10
-0.6516775187
 20
-5.8443358898
 11
0.0554292625
 21
-5.8443358898
  0
LINE
  5
2A0
100
AcDbEntity
  8
ASSI
100
AcDbLine
 62
7
  6
CONTINUOUS
 10
-4.8236075277
 20
13.3021248851
 11
-4.8236075277
 21
2.5247172315
  0
LINE
  5
2A1
100
AcDbEntity
  8
ASSI
100
AcDbLine
 62
7
  6
CONTINUOUS
 10
-4.8236075277
 20
-3.4355157891
 11
-4.8236075277
 21
-14.2129234428
  0
LINE
  5
2A2
100
AcDbEntity
  8
0
100
AcDbLine
 62
7
  6
CONTINUOUS
 10
-4.7528968496
 20
13.3429444535
 11
-4.7528968496
 21
2.4022427444
  0
LINE
  5
2A3
100
AcDbEntity
  8
0
100
AcDbLine
 62
7
  6
CONTINUOUS
 10
-4.7528968496
 20
-3.3946962208
 11
-4.7528968496
 21
-14.3353979298
  0
LINE
  5
2A4
100
AcDbEntity
  8
0
100
AcDbLine
 62
7
  6
CONTINUOUS
 10
-0.7223881968
 20
-16.6625631118
 11
-0.7223881968
 21
-5.7218614028
  0
LINE
  5
2A5
100
AcDbEntity
  8
0
100
AcDbLine
 62
7
  6
CONTINUOUS
 10
-0.7223881968
 20
0.0750775625
 11
-0.7223881968
 21
11.0157792715
  0
LINE
  5
2A6
100
AcDbEntity
  8
ASSI
100
AcDbLine
 62
7
  6
CONTINUOUS
 10
-0.6516775187
 20
-16.6217435434
 11
-0.6516775187
 21
-5.8443358898
  0
LINE
  5
2A7
100
AcDbEntity
  8
ASSI
100
AcDbLine
 62
7
  6
CONTINUOUS
 10
-0.6516775187
 20
0.1158971308
 11
-0.6516775187
 21
10.8933047845
  0
LINE
  5
2A8
100
AcDbEntity
  8
ASSI
100
AcDbLine
 62
7
  6
CONTINUOUS
 10
0.0554292625
 20
-16.6217435434
 11
0.0554292625
 21
-5.8443358898
  0
LINE
  5
2A9
100
AcDbEntity
  8
ASSI
100
AcDbLine
 62
7
  6
CONTINUOUS
 10
0.0554292625
 20
0.1158971308
 11
0.0554292625
 21
10.8933047845
  0
LINE
  5
2AA
100
AcDbEntity
  8
ASSI
100
AcDbLine
 62
250
  6
CONTINUOUS
 10
-15.8544733142
 20
-7.4355651936
 11
-14.8645238206
 21
-6.8639807629
  0
LINE
  5
2AB
100
AcDbEntity
  8
ASSI
100
AcDbLine
 62
250
  6
CONTINUOUS
 10
1.0453787561
 20
0.6874815615
 11
0.0554292625
 21
0.1158971308
  0
LINE
  5
2AC
100
AcDbEntity
  8
ASSI
100
AcDbLine
 62
250
  6
CONTINUOUS
 10
-15.0059451768
 20
-8.9052590377
 11
-14.0159956831
 21
-8.333674607
  0
LINE
  5
2AD
100
AcDbEntity
  8
ASSI
100
AcDbLine
 62
250
  6
CONTINUOUS
 10
-0.6516775187
 20
0.1158971308
 11
0.0554292625
 21
0.1158971308
  0
LINE
  5
2AE
100
AcDbEntity
  8
ASSI
100
AcDbLine
 62
7
  6
CONTINUOUS
 10
-31.2694011441
 20
13.2219534719
 11
-21.9355916324
 21
7.83272884
  0
LINE
  5
2AF
100
AcDbEntity
  8
ASSI
100
AcDbLine
 62
7
  6
CONTINUOUS
 10
-15.3594985674
 20
4.035775122
 11
-6.0256890557
 21
-1.3534495099
  0
LINE
  5
2B0
100
AcDbEntity
  8
ASSI
100
AcDbLine
 62
7
  6
CONTINUOUS
 10
0.5504040093
 20
-5.1504032279
 11
9.884213521
 21
-10.5396278598
  0
LINE
  5
2B1
100
AcDbEntity
  8
ASSI
100
AcDbLine
 62
7
  6
CONTINUOUS
 10
16.460306586
 20
-14.3365815777
 11
25.7941160977
 21
-19.7258062097
  0
LINE
  5
2B2
100
AcDbEntity
  8
0
100
AcDbLine
 62
7
  6
CONTINUOUS
 10
-31.3401118222
 20
13.3444279589
 11
-21.8648809543
 21
7.8735484083
  0
LINE
  5
2B3
100
AcDbEntity
  8
0
100
AcDbLine
 62
7
  6
CONTINUOUS
 10
-15.4302092455
 20
4.158249609
 11
-5.9549783776
 21
-1.3126299416
  0
LINE
  5
2B4
100
AcDbEntity
  8
0
100
AcDbLine
 62
7
  6
CONTINUOUS
 10
0.4796933312
 20
-5.0279287409
 11
9.9549241991
 21
-10.4988082915
  0
LINE
  5
2B5
100
AcDbEntity
  8
0
100
AcDbLine
 62
7
  6
CONTINUOUS
 10
16.3895959079
 20
-14.2141070907
 11
25.8648267758
 21
-19.6849866413
  0
LINE
  5
2B6
100
AcDbEntity
  8
0
100
AcDbLine
 62
7
  6
CONTINUOUS
 10
25.8648267758
 20
-16.6640466172
 11
16.3895959079
 21
-11.1931670666
  0
LINE
  5
2B7
100
AcDbEntity
  8
0
100
AcDbLine
 62
7
  6
CONTINUOUS
 10
9.9549241991
 20
-7.4778682673
 11
0.4796933312
 21
-2.0069887167
  0
LINE
  5
2B8
100
AcDbEntity
  8
0
100
AcDbLine
 62
7
  6
CONTINUOUS
 10
-5.9549783776
 20
1.7083100826
 11
-15.4302092455
 21
7.1791896331
  0
LINE
  5
2B9
100
AcDbEntity
  8
0
100
AcDbLine
 62
7
  6
CONTINUOUS
 10
-21.8648809543
 20
10.8944884324
 11
-31.3401118222
 21
16.365367983
  0
LINE
  5
2BA
100
AcDbEntity
  8
ASSI
100
AcDbLine
 62
7
  6
CONTINUOUS
 10
25.7941160977
 20
-16.5415721302
 11
16.460306586
 21
-11.1523474983
  0
LINE
  5
2BB
100
AcDbEntity
  8
ASSI
100
AcDbLine
 62
7
  6
CONTINUOUS
 10
9.884213521
 20
-7.3553937803
 11
0.5504040093
 21
-1.9661691484
  0
LINE
  5
2BC
100
AcDbEntity
  8
ASSI
100
AcDbLine
 62
7
  6
CONTINUOUS
 10
-6.0256890557
 20
1.8307845696
 11
-15.3594985674
 21
7.2200092015
  0
LINE
  5
2BD
100
AcDbEntity
  8
ASSI
100
AcDbLine
 62
7
  6
CONTINUOUS
 10
-21.9355916324
 20
11.0169629194
 11
-31.2694011441
 21
16.4061875514
  0
LINE
  5
2BE
100
AcDbEntity
  8
ASSI
100
AcDbLine
 62
7
  6
CONTINUOUS
 10
26.1476694883
 20
-15.9291996951
 11
16.8138599766
 21
-10.5399750632
  0
LINE
  5
2BF
100
AcDbEntity
  8
ASSI
100
AcDbLine
 62
7
  6
CONTINUOUS
 10
10.2377669116
 20
-6.7430213452
 11
0.9039573999
 21
-1.3537967133
  0
LINE
  5
2C0
100
AcDbEntity
  8
ASSI
100
AcDbLine
 62
7
  6
CONTINUOUS
 10
-5.6721356651
 20
2.4431570046
 11
-15.0059451768
 21
7.8323816366
  0
LINE
  5
2C1
100
AcDbEntity
  8
ASSI
100
AcDbLine
 62
7
  6
CONTINUOUS
 10
-21.5820382418
 20
11.6293353545
 11
-30.9158477535
 21
17.0185599864
  0
LINE
  5
2C2
100
AcDbEntity
  8
ASSI
100
AcDbLine
 62
7
  6
CONTINUOUS
 10
26.9961976257
 20
-15.2759603458
 11
17.8038094703
 21
-9.9683906325
  0
LINE
  5
2C3
100
AcDbEntity
  8
ASSI
100
AcDbLine
 62
7
  6
CONTINUOUS
 10
11.086295049
 20
-6.0897819959
 11
1.8939068936
 21
-0.7822122827
  0
LINE
  5
2C4
100
AcDbEntity
  8
ASSI
100
AcDbLine
 62
7
  6
CONTINUOUS
 10
-4.8236075277
 20
3.096396354
 11
-14.0159956831
 21
8.4039660672
  0
LINE
  5
2C5
100
AcDbEntity
  8
ASSI
100
AcDbLine
 62
7
  6
CONTINUOUS
 10
-20.7335101044
 20
12.2825747038
 11
-29.9258982598
 21
17.5901444171
  0
LINE
  5
2C6
100
AcDbEntity
  8
ASSI
100
AcDbLine
 62
7
  6
CONTINUOUS
 10
1.0453787561
 20
-5.4361954432
 11
1.0453787561
 21
-16.0501591128
  0
LINE
  5
2C7
100
AcDbEntity
  8
ASSI
100
AcDbLine
 62
7
  6
CONTINUOUS
 10
1.0453787561
 20
0.6874815615
 11
1.0453787561
 21
11.3014452311
  0
LINE
  5
2C8
100
AcDbEntity
  8
ASSI
100
AcDbLine
 62
250
  6
CONTINUOUS
 10
0.5504040093
 20
-1.9661691484
 11
0.9039573999
 21
-1.3537967133
  0
LINE
  5
2C9
100
AcDbEntity
  8
ASSI
100
AcDbLine
 62
250
  6
CONTINUOUS
 10
-6.0256890557
 20
-14.9068561047
 11
-5.6721356651
 21
-14.2944836696
  0
LINE
  5
2CA
100
AcDbEntity
  8
ASSI
100
AcDbLine
 62
250
  6
CONTINUOUS
 10
1.8939068936
 20
-0.7822122827
 11
0.9039573999
 21
-1.3537967133
  0
LINE
  5
2CB
100
AcDbEntity
  8
ASSI
100
AcDbLine
 62
250
  6
CONTINUOUS
 10
0.0554292625
 20
-5.8443358898
 11
0.9038412329
 21
-5.3544734512
  0
LINE
  5
2CC
100
AcDbEntity
  8
ASSI
100
AcDbLine
 62
250
  6
CONTINUOUS
 10
15.258225058
 20
1.7071264346
 11
15.9653318392
 21
1.7071264346
  0
LINE
  5
2CD
100
AcDbEntity
  8
ASSI
100
AcDbLine
 62
250
  6
CONTINUOUS
 10
-32.4714826721
 20
1.7506131563
 11
-31.7643758909
 21
1.7506131563
  0
LINE
  5
2CE
100
AcDbEntity
  8
ASSI
100
AcDbLine
 62
250
  6
CONTINUOUS
 10
-16.5615800954
 20
3.3418424601
 11
-15.8544733142
 21
3.3418424601
  0
LINE
  5
2CF
100
AcDbEntity
  8
0
100
AcDbLine
 62
250
  6
CONTINUOUS
 10
-30.361596802
 20
22.4768943874
 11
-29.9424146964
 21
22.2348638932
  0
LINE
  5
2D0
100
AcDbEntity
  8
0
100
AcDbLine
 62
7
  6
CONTINUOUS
 10
-30.2152917685
 20
22.4896564341
 11
-29.7961096629
 21
22.24762594
  0
LINE
  5
2D1
100
AcDbEntity
  8
ASSI
100
AcDbLine
 62
7
  6
CONTINUOUS
 10
11.086295049
 20
4.1159465353
 11
11.086295049
 21
-6.6614611184
  0
LINE
  5
2D2
100
AcDbEntity
  8
ASSI
100
AcDbLine
 62
7
  6
CONTINUOUS
 10
11.086295049
 20
-12.621694139
 11
11.086295049
 21
-23.3991017927
  0
LINE
  5
2D3
100
AcDbEntity
  8
0
100
AcDbLine
 62
7
  6
CONTINUOUS
 10
11.1570057271
 20
4.1567661036
 11
11.1570057271
 21
-6.7839356054
  0
LINE
  5
2D4
100
AcDbEntity
  8
0
100
AcDbLine
 62
7
  6
CONTINUOUS
 10
11.1570057271
 20
-12.5808745707
 11
11.1570057271
 21
-23.5215762797
  0
LINE
  5
2D5
100
AcDbEntity
  8
ASSI
100
AcDbLine
 62
250
  6
CONTINUOUS
 10
0.5504040093
 20
-18.7038098226
 11
0.9039573999
 21
-18.0914373876
  0
LINE
  5
2D6
100
AcDbEntity
  8
ASSI
100
AcDbLine
 62
250
  6
CONTINUOUS
 10
16.8137438096
 20
2.1969888732
 11
15.9653318392
 21
1.7071264346
  0
LINE
  5
2D7
100
AcDbEntity
  8
ASSI
100
AcDbLine
 62
250
  6
CONTINUOUS
 10
-5.6721356651
 20
-14.2944836696
 11
-4.8236075277
 21
-13.8045541576
  0
LINE
  5
2D8
100
AcDbEntity
  8
ASSI
100
AcDbLine
 62
250
  6
CONTINUOUS
 10
11.086295049
 20
-6.2530918333
 11
10.2377669116
 21
-6.7430213452
  0
LINE
  5
2D9
100
AcDbEntity
  8
0
100
AcDbLine
 62
7
  6
CONTINUOUS
 10
-6.2729629806
 20
-12.8044046465
 11
-5.774243428
 21
-12.549904463
  0
LINE
  5
2DA
100
AcDbEntity
  8
ASSI
100
AcDbLine
 62
250
  6
CONTINUOUS
 10
-16.5615800954
 20
9.3020754807
 11
-15.8544733142
 21
9.3020754807
  0
LINE
  5
2DB
100
AcDbEntity
  8
ASSI
100
AcDbLine
 62
250
  6
CONTINUOUS
 10
-0.6516775187
 20
10.8933047845
 11
0.0554292625
 21
10.8933047845
  0
LINE
  5
2DC
100
AcDbEntity
  8
ASSI
100
AcDbLine
 62
7
  6
CONTINUOUS
 10
-31.2694011441
 20
29.9595941461
 11
-21.9355916324
 21
24.5703695142
  0
LINE
  5
2DD
100
AcDbEntity
  8
ASSI
100
AcDbLine
 62
7
  6
CONTINUOUS
 10
-15.3594985674
 20
20.7734157963
 11
-6.0256890557
 21
15.3841911643
  0
LINE
  5
2DE
100
AcDbEntity
  8
ASSI
100
AcDbLine
 62
7
  6
CONTINUOUS
 10
0.5504040093
 20
11.5872374464
 11
9.884213521
 21
6.1980128145
  0
LINE
  5
2DF
100
AcDbEntity
  8
ASSI
100
AcDbLine
 62
7
  6
CONTINUOUS
 10
16.460306586
 20
2.4010590965
 11
25.7941160977
 21
-2.9881655354
  0
LINE
  5
2E0
100
AcDbEntity
  8
0
100
AcDbLine
 62
7
  6
CONTINUOUS
 10
-31.3401118222
 20
30.0820686331
 11
-21.8648809543
 21
24.6111890825
  0
LINE
  5
2E1
100
AcDbEntity
  8
0
100
AcDbLine
 62
7
  6
CONTINUOUS
 10
-15.4302092455
 20
20.8958902833
 11
-5.9549783776
 21
15.4250107327
  0
LINE
  5
2E2
100
AcDbEntity
  8
0
100
AcDbLine
 62
7
  6
CONTINUOUS
 10
0.4796933312
 20
11.7097119334
 11
9.9549241991
 21
6.2388323828
  0
LINE
  5
2E3
100
AcDbEntity
  8
0
100
AcDbLine
 62
7
  6
CONTINUOUS
 10
16.3895959079
 20
2.5235335835
 11
25.8648267758
 21
-2.9473459671
  0
LINE
  5
2E4
100
AcDbEntity
  8
0
100
AcDbLine
 62
7
  6
CONTINUOUS
 10
48.21253915
 20
-66.8442264913
 11
48.2129015803
 21
-66.844867929
  0
LINE
  5
2E5
100
AcDbEntity
  8
ASSI
100
AcDbLine
 62
7
  6
CONTINUOUS
 10
48.21253915
 20
-66.8442264913
 11
48.2129015803
 21
-66.844867929
  0
LINE
  5
2E6
100
AcDbEntity
  8
0
100
AcDbLine
 62
7
  6
CONTINUOUS
 10
15.1875143799
 20
-25.8487414616
 11
15.1875143799
 21
-14.9080397526
  0
LINE
  5
2E7
100
AcDbEntity
  8
0
100
AcDbLine
 62
7
  6
CONTINUOUS
 10
15.1875143799
 20
-9.1111007874
 11
15.1875143799
 21
1.8296009216
  0
LINE
  5
2E8
100
AcDbEntity
  8
ASSI
100
AcDbLine
 62
7
  6
CONTINUOUS
 10
15.258225058
 20
-25.8079218933
 11
15.258225058
 21
-15.0305142396
  0
LINE
  5
2E9
100
AcDbEntity
  8
ASSI
100
AcDbLine
 62
7
  6
CONTINUOUS
 10
15.258225058
 20
-9.070281219
 11
15.258225058
 21
1.7071264346
  0
LINE
  5
2EA
100
AcDbEntity
  8
ASSI
100
AcDbLine
 62
7
  6
CONTINUOUS
 10
15.9653318392
 20
-25.8079218933
 11
15.9653318392
 21
-15.0305142396
  0
LINE
  5
2EB
100
AcDbEntity
  8
ASSI
100
AcDbLine
 62
7
  6
CONTINUOUS
 10
15.9653318392
 20
-9.070281219
 11
15.9653318392
 21
1.7071264346
  0
LINE
  5
2EC
100
AcDbEntity
  8
ASSI
100
AcDbLine
 62
7
  6
CONTINUOUS
 10
16.9552813328
 20
-14.6223737931
 11
16.9552813328
 21
-25.2363374626
  0
LINE
  5
2ED
100
AcDbEntity
  8
ASSI
100
AcDbLine
 62
7
  6
CONTINUOUS
 10
16.9552813328
 20
-8.4986967884
 11
16.9552813328
 21
2.1152668812
  0
LINE
  5
2EE
100
AcDbEntity
  8
ASSI
100
AcDbLine
 62
250
  6
CONTINUOUS
 10
9.884213521
 20
-7.3553937803
 11
10.2377669116
 21
-6.7430213452
  0
LINE
  5
2EF
100
AcDbEntity
  8
ASSI
100
AcDbLine
 62
250
  6
CONTINUOUS
 10
0.0554292625
 20
-16.6217435434
 11
1.0453787561
 21
-16.0501591128
  0
LINE
  5
2F0
100
AcDbEntity
  8
ASSI
100
AcDbLine
 62
250
  6
CONTINUOUS
 10
16.9552813328
 20
-8.4986967884
 11
15.9653318392
 21
-9.070281219
  0
LINE
  5
2F1
100
AcDbEntity
  8
ASSI
100
AcDbLine
 62
250
  6
CONTINUOUS
 10
0.9039573999
 20
-18.0914373876
 11
1.8939068936
 21
-17.5198529569
  0
LINE
  5
2F2
100
AcDbEntity
  8
ASSI
100
AcDbLine
 62
250
  6
CONTINUOUS
 10
17.8038094703
 20
-9.9683906325
 11
16.8138599766
 21
-10.5399750632
  0
LINE
  5
2F3
100
AcDbEntity
  8
ASSI
100
AcDbLine
 62
250
  6
CONTINUOUS
 10
-32.4714826721
 20
12.52802081
 11
-31.7643758909
 21
12.52802081
  0
LINE
  5
2F4
100
AcDbEntity
  8
ASSI
100
AcDbLine
 62
250
  6
CONTINUOUS
 10
16.460306586
 20
-11.1523474983
 11
16.8138599766
 21
-10.5399750632
  0
LINE
  5
2F5
100
AcDbEntity
  8
ASSI
100
AcDbLine
 62
250
  6
CONTINUOUS
 10
9.884213521
 20
-24.0930344546
 11
10.2377669116
 21
-23.4806620195
  0
LINE
  5
2F6
100
AcDbEntity
  8
0
100
AcDbLine
 62
7
  6
CONTINUOUS
 10
48.2129015803
 20
6.3209415945
 11
52.274834565
 21
8.6662354967
  0
LINE
  5
2F7
100
AcDbEntity
  8
ASSI
100
AcDbLine
 62
7
  6
CONTINUOUS
 10
48.2129015803
 20
6.3209415945
 11
52.274834565
 21
8.6662354967
  0
LINE
  5
2F8
100
AcDbEntity
  8
0
100
AcDbLine
 62
7
  6
CONTINUOUS
 10
48.9204388496
 20
5.0954510971
 11
52.9823718343
 21
7.4407449993
  0
LINE
  5
2F9
100
AcDbEntity
  8
ASSI
100
AcDbLine
 62
7
  6
CONTINUOUS
 10
48.9204388496
 20
5.0954510971
 11
52.9823718343
 21
7.4407449993
  0
LINE
  5
2FA
100
AcDbEntity
  8
ASSI
100
AcDbLine
 62
250
  6
CONTINUOUS
 10
15.9653318392
 20
-15.0305142396
 11
16.8137438096
 21
-14.540651801
  0
LINE
  5
2FB
100
AcDbEntity
  8
ASSI
100
AcDbLine
 62
250
  6
CONTINUOUS
 10
-32.4714826721
 20
18.4882538306
 11
-31.7643758909
 21
18.4882538306
  0
LINE
  5
2FC
100
AcDbEntity
  8
ASSI
100
AcDbLine
 62
250
  6
CONTINUOUS
 10
-16.5615800954
 20
20.0794831344
 11
-15.8544733142
 21
20.0794831344
  0
LINE
  5
2FD
100
AcDbEntity
  8
ASSI
100
AcDbLine
 62
7
  6
CONTINUOUS
 10
26.9961976257
 20
-5.0702318146
 11
26.9961976257
 21
-15.8476394683
  0
LINE
  5
2FE
100
AcDbEntity
  8
ASSI
100
AcDbLine
 62
7
  6
CONTINUOUS
 10
26.9961976257
 20
-21.8078724889
 11
26.9961976257
 21
-32.5852801425
  0
LINE
  5
2FF
100
AcDbEntity
  8
0
100
AcDbLine
 62
7
  6
CONTINUOUS
 10
27.0669083038
 20
-5.0294122463
 11
27.0669083038
 21
-15.9701139553
  0
LINE
  5
300
100
AcDbEntity
  8
0
100
AcDbLine
 62
7
  6
CONTINUOUS
 10
27.0669083038
 20
-21.7670529205
 11
27.0669083038
 21
-32.7077546296
  0
LINE
  5
301
100
AcDbEntity
  8
ASSI
100
AcDbLine
 62
250
  6
CONTINUOUS
 10
16.460306586
 20
-27.8899881725
 11
16.8138599766
 21
-27.2776157374
  0
LINE
  5
302
100
AcDbEntity
  8
ASSI
100
AcDbLine
 62
250
  6
CONTINUOUS
 10
10.2377669116
 20
-23.4806620195
 11
11.086295049
 21
-22.9907325075
  0
LINE
  5
303
100
AcDbEntity
  8
ASSI
100
AcDbLine
 62
250
  6
CONTINUOUS
 10
26.9961976257
 20
-15.4392701831
 11
26.1476694883
 21
-15.9291996951
  0
LINE
  5
304
100
AcDbEntity
  8
0
100
AcDbLine
 62
7
  6
CONTINUOUS
 10
9.6369395961
 20
-21.9905829964
 11
10.1356591487
 21
-21.7360828128
  0
LINE
  5
305
100
AcDbEntity
  8
0
100
AcDbLine
 62
7
  6
CONTINUOUS
 10
48.8989374977
 20
5.1074460445
 11
48.9204388496
 21
5.0954510971
  0
LINE
  5
306
100
AcDbEntity
  8
ASSI
100
AcDbLine
 62
7
  6
CONTINUOUS
 10
48.8989374977
 20
5.1074460445
 11
48.9204388496
 21
5.0954510971
  0
LINE
  5
307
100
AcDbEntity
  8
0
100
AcDbLine
 62
7
  6
CONTINUOUS
 10
47.2030024326
 20
5.2430282598
 11
-52.678287479
 21
62.9132332483
  0
LINE
  5
308
100
AcDbEntity
  8
ASSI
100
AcDbLine
 62
7
  6
CONTINUOUS
 10
47.2030024326
 20
5.2430282598
 11
-52.678287479
 21
62.9132332483
  0
LINE
  5
309
100
AcDbEntity
  8
ASSI
100
AcDbLine
 62
250
  6
CONTINUOUS
 10
25.7941160977
 20
-16.5415721302
 11
26.1476694883
 21
-15.9291996951
  0
LINE
  5
30A
100
AcDbEntity
  8
0
100
AcDbLine
 62
7
  6
CONTINUOUS
 10
47.2030024326
 20
5.2430282598
 11
48.21253915
 21
6.2963228556
  0
LINE
  5
30B
100
AcDbEntity
  8
ASSI
100
AcDbLine
 62
7
  6
CONTINUOUS
 10
47.2030024326
 20
5.2430282598
 11
48.21253915
 21
6.2963228556
  0
LINE
  5
30C
100
AcDbEntity
  8
ASSI
100
AcDbLine
 62
250
  6
CONTINUOUS
 10
15.9653318392
 20
-25.8079218933
 11
16.9552813328
 21
-25.2363374626
  0
LINE
  5
30D
100
AcDbEntity
  8
ASSI
100
AcDbLine
 62
250
  6
CONTINUOUS
 10
16.8138599766
 20
-27.2776157374
 11
17.8038094703
 21
-26.7060313068
  0
LINE
  5
30E
100
AcDbEntity
  8
ASSI
100
AcDbLine
 62
250
  6
CONTINUOUS
 10
-32.4714826721
 20
29.2656614842
 11
-31.7643758909
 21
29.2656614842
  0
LINE
  5
30F
100
AcDbEntity
  8
0
100
AcDbLine
 62
7
  6
CONTINUOUS
 10
48.2129015803
 20
6.3209415945
 11
-52.274834565
 21
64.3413010376
  0
LINE
  5
310
100
AcDbEntity
  8
ASSI
100
AcDbLine
 62
7
  6
CONTINUOUS
 10
48.2129015803
 20
6.3209415945
 11
-52.274834565
 21
64.3413010376
  0
LINE
  5
311
100
AcDbEntity
  8
0
100
AcDbLine
 62
7
  6
CONTINUOUS
 10
52.274834565
 20
8.6662354967
 11
-48.4870207779
 21
66.844867929
  0
LINE
  5
312
100
AcDbEntity
  8
ASSI
100
AcDbLine
 62
7
  6
CONTINUOUS
 10
52.274834565
 20
8.6662354967
 11
-48.4870207779
 21
66.844867929
  0
LINE
  5
313
100
AcDbEntity
  8
ASSI
100
AcDbLine
 62
250
  6
CONTINUOUS
 10
25.7941160977
 20
-33.2792128044
 11
26.1476694883
 21
-32.6668403694
  0
LINE
  5
314
100
AcDbEntity
  8
0
100
AcDbLine
 62
7
  6
CONTINUOUS
 10
25.5123966352
 20
-31.1568729245
 11
26.1160969981
 21
-30.9092557628
  0
LINE
  5
315
100
AcDbEntity
  8
ASSI
100
AcDbLine
 62
250
  6
CONTINUOUS
 10
26.1476694883
 20
-32.6668403694
 11
26.9961976257
 21
-32.1769108574
  0
LINE
  5
316
100
AcDbEntity
  8
0
100
AcDbLine
 62
7
  6
CONTINUOUS
 10
47.4819783668
 20
4.7598277683
 11
47.2030024326
 21
5.2430282598
  0
LINE
  5
317
100
AcDbEntity
  8
ASSI
100
AcDbLine
 62
7
  6
CONTINUOUS
 10
47.4819783668
 20
4.7598277683
 11
47.2030024326
 21
5.2430282598
  0
LINE
  5
318
100
AcDbEntity
  8
0
100
AcDbLine
 62
7
  6
CONTINUOUS
 10
48.8989374977
 20
5.1074460445
 11
48.21253915
 21
6.2963228556
  0
LINE
  5
319
100
AcDbEntity
  8
ASSI
100
AcDbLine
 62
7
  6
CONTINUOUS
 10
48.8989374977
 20
5.1074460445
 11
48.21253915
 21
6.2963228556
  0
LINE
  5
31A
100
AcDbEntity
  8
0
100
AcDbLine
 62
7
  6
CONTINUOUS
 10
47.4819783668
 20
-66.071805831
 11
47.4819783668
 21
4.7598277683
  0
LINE
  5
31B
100
AcDbEntity
  8
ASSI
100
AcDbLine
 62
7
  6
CONTINUOUS
 10
47.4819783668
 20
-66.071805831
 11
47.4819783668
 21
4.7598277683
  0
LINE
  5
31C
100
AcDbEntity
  8
0
100
AcDbLine
 62
7
  6
CONTINUOUS
 10
48.9204388496
 20
-66.4364237351
 11
48.9204388496
 21
5.0954510971
  0
LINE
  5
31D
100
AcDbEntity
  8
ASSI
100
AcDbLine
 62
7
  6
CONTINUOUS
 10
48.9204388496
 20
-66.4364237351
 11
48.9204388496
 21
5.0954510971
  0
LINE
  5
31E
100
AcDbEntity
  8
CURVE
100
AcDbLine
 62
250
  6
CONTINUOUS
 10
50.051282223
 20
-59.2386740818
 11
50.051282223
 21
-59.664702557
  0
LINE
  5
31F
100
AcDbEntity
  8
CURVE
100
AcDbLine
 62
250
  6
CONTINUOUS
 10
50.0513911947
 20
-61.5012521318
 11
50.0513911947
 21
-61.0384539178
  0
LINE
  5
320
100
AcDbEntity
  8
CURVE
100
AcDbLine
 62
250
  6
CONTINUOUS
 10
50.0513911947
 20
-60.2484813673
 11
50.0513911947
 21
-59.8227443721
  0
LINE
  5
321
100
AcDbEntity
  8
CURVE
100
AcDbLine
 62
250
  6
CONTINUOUS
 10
50.0513911947
 20
-58.8249842186
 11
50.0513911947
 21
-58.3993084586
  0
LINE
  5
322
100
AcDbEntity
  8
CURVE
100
AcDbLine
 62
250
  6
CONTINUOUS
 10
50.0513911947
 20
-57.551751076
 11
50.0513911947
 21
-57.1302376815
  0
LINE
  5
323
100
AcDbEntity
  8
CURVE
100
AcDbLine
 62
250
  6
CONTINUOUS
 10
50.0513911947
 20
-56.2323122475
 11
50.0513911947
 21
-55.820180913
  0
LINE
  5
324
100
AcDbEntity
  8
CURVE
100
AcDbLine
 62
250
  6
CONTINUOUS
 10
50.8647159796
 20
-53.9772899144
 11
50.8647159796
 21
-54.2207609056
  0
LINE
  5
325
100
AcDbEntity
  8
CURVE
100
AcDbLine
 62
250
  6
CONTINUOUS
 10
51.1641294674
 20
-54.04542348
 11
51.1641294674
 21
-53.8169972452
  0
LINE
  5
326
100
AcDbEntity
  8
CURVE
100
AcDbLine
 62
250
  6
CONTINUOUS
 10
51.232196851
 20
-55.6106052197
 11
51.232196851
 21
-55.2027129988
  0
LINE
  5
327
100
AcDbEntity
  8
CURVE
100
AcDbLine
 62
250
  6
CONTINUOUS
 10
51.5146105455
 20
-54.9655135842
 11
51.5146105455
 21
-55.5456932806
  0
LINE
  5
328
100
AcDbEntity
  8
CURVE
100
AcDbLine
 62
250
  6
CONTINUOUS
 10
51.8795823714
 20
-58.6803045772
 11
51.8795823714
 21
-58.2542761021
  0
LINE
  5
329
100
AcDbEntity
  8
CURVE
100
AcDbLine
 62
250
  6
CONTINUOUS
 10
51.8795823834
 20
-54.0845216818
 11
51.8795823834
 21
-53.6602075154
  0
LINE
  5
32A
100
AcDbEntity
  8
CURVE
100
AcDbLine
 62
250
  6
CONTINUOUS
 10
51.8795823834
 20
-53.0078038228
 11
51.8795823834
 21
-52.5980140448
  0
LINE
  5
32B
100
AcDbEntity
  8
CURVE
100
AcDbLine
 62
250
  6
CONTINUOUS
 10
51.8795823714
 20
-54.2096244167
 11
51.8795823714
 21
-54.6586406125
  0
LINE
  5
32C
100
AcDbEntity
  8
CURVE
100
AcDbLine
 62
250
  6
CONTINUOUS
 10
51.8795823714
 20
-55.4667420689
 11
51.8795823714
 21
-55.8881476894
  0
LINE
  5
32D
100
AcDbEntity
  8
CURVE
100
AcDbLine
 62
250
  6
CONTINUOUS
 10
51.8795823714
 20
-55.955045998
 11
51.8795823714
 21
-56.3718148837
  0
LINE
  5
32E
100
AcDbEntity
  8
CURVE
100
AcDbLine
 62
250
  6
CONTINUOUS
 10
51.8795823714
 20
-56.9658909041
 11
51.8795823714
 21
-57.0256418319
  0
LINE
  5
32F
100
AcDbEntity
  8
CURVE
100
AcDbLine
 62
250
  6
CONTINUOUS
 10
51.8795823714
 20
-57.6173615192
 11
51.8795823714
 21
-58.0249320507
  0
LINE
  5
330
100
AcDbEntity
  8
CURVE
100
AcDbLine
 62
250
  6
CONTINUOUS
 10
51.8795823714
 20
-59.4944511796
 11
51.8795823714
 21
-59.869888707
  0
LINE
  5
331
100
AcDbEntity
  8
0
100
AcDbLine
 62
7
  6
CONTINUOUS
 10
48.2129015803
 20
6.3209415945
 11
48.21253915
 21
6.2963228556
  0
LINE
  5
332
100
AcDbEntity
  8
ASSI
100
AcDbLine
 62
7
  6
CONTINUOUS
 10
48.2129015803
 20
6.3209415945
 11
48.21253915
 21
6.2963228556
  0
LINE
  5
333
100
AcDbEntity
  8
0
100
AcDbLine
 62
7
  6
CONTINUOUS
 10
52.274834565
 20
8.6662354967
 11
52.9823718343
 21
7.4407449993
  0
LINE
  5
334
100
AcDbEntity
  8
ASSI
100
AcDbLine
 62
7
  6
CONTINUOUS
 10
52.274834565
 20
8.6662354967
 11
52.9823718343
 21
7.4407449993
  0
LINE
  5
335
100
AcDbEntity
  8
0
100
AcDbLine
 62
7
  6
CONTINUOUS
 10
52.9823718343
 20
-64.4076452208
 11
52.9823718343
 21
7.4407449993
  0
LINE
  5
336
100
AcDbEntity
  8
ASSI
100
AcDbLine
 62
7
  6
CONTINUOUS
 10
52.9823718343
 20
-64.4076452208
 11
52.9823718343
 21
7.4407449993
  0
LINE
  5
337
100
AcDbEntity
  8
CURVE
100
AcDbLine
 62
7
  6
CONTINUOUS
 10
50.1294439022
 20
-53.8942146583
 11
50.6561413431
 21
-53.3675172174
  0
LINE
  5
338
100
AcDbEntity
  8
CURVE
100
AcDbLine
 62
7
  6
CONTINUOUS
 10
50.0537499232
 20
-54.1799193513
 11
50.8832058949
 21
-53.3504633797
  0
LINE
  5
339
100
AcDbEntity
  8
CURVE
100
AcDbLine
 62
7
  6
CONTINUOUS
 10
50.0331300449
 20
-54.4105499437
 11
50.3709426416
 21
-54.072737347
  0
LINE
  5
33A
100
AcDbEntity
  8
CURVE
100
AcDbLine
 62
7
  6
CONTINUOUS
 10
50.6827971767
 20
-53.7608828119
 11
51.008659517
 21
-53.4350204716
  0
LINE
  5
33B
100
AcDbEntity
  8
CURVE
100
AcDbLine
 62
7
  6
CONTINUOUS
 10
51.0449823543
 20
-53.3986976343
 11
51.6779585948
 21
-52.7657213938
  0
LINE
  5
33C
100
AcDbEntity
  8
CURVE
100
AcDbLine
 62
7
  6
CONTINUOUS
 10
50.0320778784
 20
-54.6216128242
 11
50.3457785459
 21
-54.3079121567
  0
LINE
  5
33D
100
AcDbEntity
  8
CURVE
100
AcDbLine
 62
7
  6
CONTINUOUS
 10
50.8338078233
 20
-53.8198828793
 11
51.8795823834
 21
-52.7741083192
  0
LINE
  5
33E
100
AcDbEntity
  8
CURVE
100
AcDbLine
 62
7
  6
CONTINUOUS
 10
50.04436147
 20
-54.8193399466
 11
50.3842430798
 21
-54.4794583368
  0
LINE
  5
33F
100
AcDbEntity
  8
CURVE
100
AcDbLine
 62
7
  6
CONTINUOUS
 10
50.8647159796
 20
-53.998985437
 11
51.2009544264
 21
-53.6627469902
  0
LINE
  5
340
100
AcDbEntity
  8
CURVE
100
AcDbLine
 62
7
  6
CONTINUOUS
 10
51.7056169467
 20
-53.1580844699
 11
51.8795823834
 21
-52.9841190332
  0
LINE
  5
341
100
AcDbEntity
  8
CURVE
100
AcDbLine
 62
7
  6
CONTINUOUS
 10
50.0661587535
 20
-55.0075533772
 11
50.8392278326
 21
-54.234484298
  0
LINE
  5
342
100
AcDbEntity
  8
CURVE
100
AcDbLine
 62
7
  6
CONTINUOUS
 10
50.8647159796
 20
-54.2089961511
 11
51.1641294674
 21
-53.9095826633
  0
LINE
  5
343
100
AcDbEntity
  8
CURVE
100
AcDbLine
 62
7
  6
CONTINUOUS
 10
50.4055476755
 20
-54.8781751691
 11
51.3248173282
 21
-53.9589055164
  0
LINE
  5
344
100
AcDbEntity
  8
CURVE
100
AcDbLine
 62
7
  6
CONTINUOUS
 10
50.8605324283
 20
-54.6332011303
 11
51.779802081
 21
-53.7139314776
  0
LINE
  5
345
100
AcDbEntity
  8
CURVE
100
AcDbLine
 62
250
  6
CONTINUOUS
 10
51.0261991056
 20
-53.4487044033
 11
51.0153960915
 21
-53.4545209894
  0
LINE
  5
346
100
AcDbEntity
  8
CURVE
100
AcDbLine
 62
250
  6
CONTINUOUS
 10
51.8795823834
 20
-53.6602075154
 11
51.1641294674
 21
-54.04542348
  0
LINE
  5
347
100
AcDbEntity
  8
CURVE
100
AcDbLine
 62
250
  6
CONTINUOUS
 10
50.8647159796
 20
-54.2207609056
 11
50.3628419429
 21
-54.490981191
  0
LINE
  5
348
100
AcDbEntity
  8
CURVE
100
AcDbLine
 62
250
  6
CONTINUOUS
 10
50.0727508531
 20
-55.0573604741
 11
51.8795823834
 21
-54.0845216818
  0
LINE
  5
349
100
AcDbEntity
  8
CURVE
100
AcDbLine
 62
250
  6
CONTINUOUS
 10
50.6858083513
 20
-58.168179337
 11
51.8795823714
 21
-57.6173615192
  0
LINE
  5
34A
100
AcDbEntity
  8
CURVE
100
AcDbLine
 62
250
  6
CONTINUOUS
 10
51.8795823714
 20
-58.0249320507
 11
50.0513911947
 21
-58.8249842186
  0
LINE
  5
34B
100
AcDbEntity
  8
CURVE
100
AcDbLine
 62
7
  6
CONTINUOUS
 10
51.3155171811
 20
-54.3882270915
 11
51.8795823834
 21
-53.8241618892
  0
LINE
  5
34C
100
AcDbEntity
  8
CURVE
100
AcDbLine
 62
7
  6
CONTINUOUS
 10
50.0513911947
 20
-55.862363792
 11
50.4057389808
 21
-55.5080160059
  0
LINE
  5
34D
100
AcDbEntity
  8
CURVE
100
AcDbLine
 62
7
  6
CONTINUOUS
 10
51.770501934
 20
-54.1432530527
 11
51.8795823834
 21
-54.0341726032
  0
LINE
  5
34E
100
AcDbEntity
  8
CURVE
100
AcDbLine
 62
7
  6
CONTINUOUS
 10
50.0513911947
 20
-56.072374506
 11
51.8795823714
 21
-54.2441833293
  0
LINE
  5
34F
100
AcDbEntity
  8
CURVE
100
AcDbLine
 62
7
  6
CONTINUOUS
 10
50.1130767233
 20
-56.2206996914
 11
50.574739453
 21
-55.7590369617
  0
LINE
  5
350
100
AcDbEntity
  8
CURVE
100
AcDbLine
 62
7
  6
CONTINUOUS
 10
50.6477293299
 20
-55.6860470848
 11
51.8795823714
 21
-54.4541940433
  0
LINE
  5
351
100
AcDbEntity
  8
CURVE
100
AcDbLine
 62
7
  6
CONTINUOUS
 10
50.3717915803
 20
-56.1719955484
 11
50.8459892338
 21
-55.6977978949
  0
LINE
  5
352
100
AcDbEntity
  8
CURVE
100
AcDbLine
 62
7
  6
CONTINUOUS
 10
51.232196851
 20
-55.3115902778
 11
51.5146105455
 21
-55.0291765832
  0
LINE
  5
353
100
AcDbEntity
  8
CURVE
100
AcDbLine
 62
7
  6
CONTINUOUS
 10
50.6305064373
 20
-56.1232914054
 11
51.1172390145
 21
-55.6365588282
  0
LINE
  5
354
100
AcDbEntity
  8
CURVE
100
AcDbLine
 62
7
  6
CONTINUOUS
 10
51.232196851
 20
-55.5216009918
 11
51.5146105455
 21
-55.2391872972
  0
LINE
  5
355
100
AcDbEntity
  8
CURVE
100
AcDbLine
 62
7
  6
CONTINUOUS
 10
50.8892212943
 20
-56.0745872625
 11
51.5146105455
 21
-55.4491980112
  0
LINE
  5
356
100
AcDbEntity
  8
CURVE
100
AcDbLine
 62
7
  6
CONTINUOUS
 10
51.1479361513
 20
-56.0258831195
 11
51.659460032
 21
-55.5143592387
  0
LINE
  5
357
100
AcDbEntity
  8
CURVE
100
AcDbLine
 62
7
  6
CONTINUOUS
 10
50.0513911947
 20
-57.33243879
 11
50.6174900761
 21
-56.7663399087
  0
LINE
  5
358
100
AcDbEntity
  8
CURVE
100
AcDbLine
 62
7
  6
CONTINUOUS
 10
51.4066510082
 20
-55.9771789765
 11
51.8795823714
 21
-55.5042476134
  0
LINE
  5
359
100
AcDbEntity
  8
CURVE
100
AcDbLine
 62
7
  6
CONTINUOUS
 10
50.0513911947
 20
-57.5424495041
 11
51.2054533722
 21
-56.3883873266
  0
LINE
  5
35A
100
AcDbEntity
  8
CURVE
100
AcDbLine
 62
7
  6
CONTINUOUS
 10
51.6653658652
 20
-55.9284748335
 11
51.8795823714
 21
-55.7142583274
  0
LINE
  5
35B
100
AcDbEntity
  8
CURVE
100
AcDbLine
 62
7
  6
CONTINUOUS
 10
50.2791325996
 20
-57.5247188132
 11
50.7061589886
 21
-57.0976924242
  0
LINE
  5
35C
100
AcDbEntity
  8
CURVE
100
AcDbLine
 62
7
  6
CONTINUOUS
 10
50.7259633153
 20
-57.0778880975
 11
51.7934166683
 21
-56.0104347444
  0
LINE
  5
35D
100
AcDbEntity
  8
CURVE
100
AcDbLine
 62
7
  6
CONTINUOUS
 10
50.5174283472
 20
-57.4964337796
 11
50.9427433877
 21
-57.0711187391
  0
LINE
  5
35E
100
AcDbEntity
  8
CURVE
100
AcDbLine
 62
7
  6
CONTINUOUS
 10
51.2672986128
 20
-56.746563514
 11
51.8795823714
 21
-56.1342797554
  0
LINE
  5
35F
100
AcDbEntity
  8
CURVE
100
AcDbLine
 62
7
  6
CONTINUOUS
 10
50.7557240947
 20
-57.4681487461
 11
51.1793277868
 21
-57.0445450541
  0
LINE
  5
360
100
AcDbEntity
  8
CURVE
100
AcDbLine
 62
7
  6
CONTINUOUS
 10
51.8086339103
 20
-56.4152389306
 11
51.8795823714
 21
-56.3442904694
  0
LINE
  5
361
100
AcDbEntity
  8
CURVE
100
AcDbLine
 62
7
  6
CONTINUOUS
 10
50.9940198423
 20
-57.4398637125
 11
51.4159121858
 21
-57.017971369
  0
LINE
  5
362
100
AcDbEntity
  8
CURVE
100
AcDbLine
 62
7
  6
CONTINUOUS
 10
50.0513911947
 20
-58.5925030741
 11
51.6524965849
 21
-56.9913976839
  0
LINE
  5
363
100
AcDbEntity
  8
CURVE
100
AcDbLine
 62
7
  6
CONTINUOUS
 10
50.0513911947
 20
-58.8025137881
 11
51.8795823714
 21
-56.9743226115
  0
LINE
  5
364
100
AcDbEntity
  8
CURVE
100
AcDbLine
 62
7
  6
CONTINUOUS
 10
50.3848670076
 20
-58.6790486893
 11
51.0755807834
 21
-57.9883349135
  0
LINE
  5
365
100
AcDbEntity
  8
CURVE
100
AcDbLine
 62
7
  6
CONTINUOUS
 10
50.758298743
 20
-58.5156276678
 11
51.4655067744
 21
-57.8084196365
  0
LINE
  5
366
100
AcDbEntity
  8
CURVE
100
AcDbLine
 62
7
  6
CONTINUOUS
 10
50.051282223
 20
-59.4326549019
 11
50.4715384746
 21
-59.0123986503
  0
LINE
  5
367
100
AcDbEntity
  8
CURVE
100
AcDbLine
 62
7
  6
CONTINUOUS
 10
51.1317304785
 20
-58.3522066464
 11
51.8554327654
 21
-57.6285043594
  0
LINE
  5
368
100
AcDbEntity
  8
CURVE
100
AcDbLine
 62
7
  6
CONTINUOUS
 10
50.051282223
 20
-59.6426656159
 11
50.9265232274
 21
-58.7674246115
  0
LINE
  5
369
100
AcDbEntity
  8
CURVE
100
AcDbLine
 62
7
  6
CONTINUOUS
 10
51.5051622139
 20
-58.188785625
 11
51.8795823714
 21
-57.8143654675
  0
LINE
  5
36A
100
AcDbEntity
  8
CURVE
100
AcDbLine
 62
7
  6
CONTINUOUS
 10
50.0513911947
 20
-59.8525673582
 11
50.087741747
 21
-59.8162168059
  0
LINE
  5
36B
100
AcDbEntity
  8
CURVE
100
AcDbLine
 62
7
  6
CONTINUOUS
 10
50.4585243059
 20
-59.445434247
 11
51.3815079802
 21
-58.5224505727
  0
LINE
  5
36C
100
AcDbEntity
  8
CURVE
100
AcDbLine
 62
7
  6
CONTINUOUS
 10
51.8785939494
 20
-58.0253646035
 11
51.8795823714
 21
-58.0243761815
  0
LINE
  5
36D
100
AcDbEntity
  8
CURVE
100
AcDbLine
 62
7
  6
CONTINUOUS
 10
50.0513911947
 20
-60.0625780722
 11
50.343718979
 21
-59.7702502879
  0
LINE
  5
36E
100
AcDbEntity
  8
CURVE
100
AcDbLine
 62
7
  6
CONTINUOUS
 10
50.9135090587
 20
-59.2004602082
 11
51.836492733
 21
-58.2774765339
  0
LINE
  5
36F
100
AcDbEntity
  8
CURVE
100
AcDbLine
 62
7
  6
CONTINUOUS
 10
50.0822910469
 20
-60.241688934
 11
50.5996962111
 21
-59.7242837698
  0
LINE
  5
370
100
AcDbEntity
  8
CURVE
100
AcDbLine
 62
7
  6
CONTINUOUS
 10
51.3684938116
 20
-58.9554861694
 11
51.8795823714
 21
-58.4443976095
  0
LINE
  5
371
100
AcDbEntity
  8
CURVE
100
AcDbLine
 62
7
  6
CONTINUOUS
 10
50.3514737432
 20
-60.1825169517
 11
50.8556734432
 21
-59.6783172518
  0
LINE
  5
372
100
AcDbEntity
  8
CURVE
100
AcDbLine
 62
7
  6
CONTINUOUS
 10
51.8234785644
 20
-58.7105121306
 11
51.8795823714
 21
-58.6544083236
  0
LINE
  5
373
100
AcDbEntity
  8
CURVE
100
AcDbLine
 62
7
  6
CONTINUOUS
 10
50.6206564396
 20
-60.1233449694
 11
51.1116506752
 21
-59.6323507337
  0
LINE
  5
374
100
AcDbEntity
  8
CURVE
100
AcDbLine
 62
7
  6
CONTINUOUS
 10
50.8898391359
 20
-60.064172987
 11
51.3676279073
 21
-59.5863842157
  0
LINE
  5
375
100
AcDbEntity
  8
CURVE
100
AcDbLine
 62
7
  6
CONTINUOUS
 10
50.0513911947
 20
-61.1126316423
 11
50.5380577586
 21
-60.6259650784
  0
LINE
  5
376
100
AcDbEntity
  8
CURVE
100
AcDbLine
 62
7
  6
CONTINUOUS
 10
51.1590218323
 20
-60.0050010047
 11
51.6236051393
 21
-59.5404176977
  0
LINE
  5
377
100
AcDbEntity
  8
CURVE
100
AcDbLine
 62
7
  6
CONTINUOUS
 10
50.0513911947
 20
-61.3226423563
 11
51.8795823714
 21
-59.4944511796
  0
LINE
  5
378
100
AcDbEntity
  8
CURVE
100
AcDbLine
 62
7
  6
CONTINUOUS
 10
50.3430518886
 20
-61.2409923764
 11
51.8795823714
 21
-59.7044618936
  0
LINE
  5
379
100
AcDbEntity
  8
CURVE
100
AcDbLine
 62
250
  6
CONTINUOUS
 10
51.8795823714
 20
-57.0256418319
 11
50.6858083513
 21
-58.168179337
  0
LINE
  5
37A
100
AcDbEntity
  8
CURVE
100
AcDbLine
 62
250
  6
CONTINUOUS
 10
50.0513911947
 20
-58.3993084586
 11
51.0664084744
 21
-57.4312713859
  0
LINE
  5
37B
100
AcDbEntity
  8
CURVE
100
AcDbLine
 62
250
  6
CONTINUOUS
 10
51.8795823714
 20
-59.869888707
 11
50.0513911947
 21
-61.5012521318
  0
LINE
  5
37C
100
AcDbEntity
  8
CURVE
100
AcDbLine
 62
250
  6
CONTINUOUS
 10
50.0513911947
 20
-55.820180913
 11
51.8795823714
 21
-54.2096244167
  0
LINE
  5
37D
100
AcDbEntity
  8
CURVE
100
AcDbLine
 62
250
  6
CONTINUOUS
 10
50.0513911947
 20
-61.0384539178
 11
51.309792016
 21
-59.9718585674
  0
LINE
  5
37E
100
AcDbEntity
  8
CURVE
100
AcDbLine
 62
250
  6
CONTINUOUS
 10
51.8795823714
 20
-54.6586406125
 11
51.5146105455
 21
-54.9655135842
  0
LINE
  5
37F
100
AcDbEntity
  8
CURVE
100
AcDbLine
 62
250
  6
CONTINUOUS
 10
51.232196851
 20
-55.2027129988
 11
50.5537317236
 21
-55.7637797996
  0
LINE
  5
380
100
AcDbEntity
  8
CURVE
100
AcDbLine
 62
250
  6
CONTINUOUS
 10
50.0513911947
 20
-57.1302376815
 11
51.8795823714
 21
-55.955045998
  0
LINE
  5
381
100
AcDbEntity
  8
CURVE
100
AcDbLine
 62
250
  6
CONTINUOUS
 10
51.8795823714
 20
-56.3718148837
 11
50.6907844819
 21
-57.0994193229
  0
LINE
  5
382
100
AcDbEntity
  8
0
100
AcDbLine
 62
7
  6
CONTINUOUS
 10
47.2030024326
 20
-66.2328519066
 11
47.4819783668
 21
-66.071805831
  0
LINE
  5
383
100
AcDbEntity
  8
ASSI
100
AcDbLine
 62
7
  6
CONTINUOUS
 10
47.2030024326
 20
-66.2328519066
 11
47.4819783668
 21
-66.071805831
  0
LINE
  5
384
100
AcDbEntity
  8
0
100
AcDbLine
 62
7
  6
CONTINUOUS
 10
48.21253915
 20
-66.8442264913
 11
48.8989374977
 21
-66.4479852869
  0
LINE
  5
385
100
AcDbEntity
  8
ASSI
100
AcDbLine
 62
7
  6
CONTINUOUS
 10
48.21253915
 20
-66.8442264913
 11
48.8989374977
 21
-66.4479852869
  0
LINE
  5
386
100
AcDbEntity
  8
0
100
AcDbLine
 62
7
  6
CONTINUOUS
 10
52.9823718343
 20
-64.4076452208
 11
52.274834565
 21
-64.8160894147
  0
LINE
  5
387
100
AcDbEntity
  8
ASSI
100
AcDbLine
 62
7
  6
CONTINUOUS
 10
52.9823718343
 20
-64.4076452208
 11
52.274834565
 21
-64.8160894147
  0
LINE
  5
388
100
AcDbEntity
  8
CURVE
100
AcDbLine
 62
250
  6
CONTINUOUS
 10
51.8795823714
 20
-58.2542761021
 11
50.051282223
 21
-59.2386740818
  0
LINE
  5
389
100
AcDbEntity
  8
CURVE
100
AcDbLine
 62
250
  6
CONTINUOUS
 10
50.051282223
 20
-59.664702557
 11
51.8795823714
 21
-58.6803045772
  0
LINE
  5
38A
100
AcDbEntity
  8
0
100
AcDbLine
 62
7
  6
CONTINUOUS
 10
48.9204388496
 20
-66.4364237351
 11
48.8989374977
 21
-66.4479852869
  0
LINE
  5
38B
100
AcDbEntity
  8
ASSI
100
AcDbLine
 62
7
  6
CONTINUOUS
 10
48.9204388496
 20
-66.4364237351
 11
48.8989374977
 21
-66.4479852869
  0
LINE
  5
38C
100
AcDbEntity
  8
0
100
AcDbLine
 62
7
  6
CONTINUOUS
 10
48.9204388496
 20
-66.4364237351
 11
52.9823718343
 21
-64.4076452208
  0
LINE
  5
38D
100
AcDbEntity
  8
ASSI
100
AcDbLine
 62
7
  6
CONTINUOUS
 10
48.9204388496
 20
-66.4364237351
 11
52.9823718343
 21
-64.4076452208
  0
LINE
  5
38E
100
AcDbEntity
  8
0
100
AcDbLine
 62
7
  6
CONTINUOUS
 10
48.2129015803
 20
-66.844867929
 11
52.274834565
 21
-64.8160894147
  0
LINE
  5
38F
100
AcDbEntity
  8
ASSI
100
AcDbLine
 62
7
  6
CONTINUOUS
 10
48.2129015803
 20
-66.844867929
 11
52.274834565
 21
-64.8160894147
  0
ARC
  5
390
100
AcDbEntity
  8
ASSI
100
AcDbCircle
 62
7
  6
CONTINUOUS
 10
-6.8814873971
 20
-2.8316549975
 40
1.7080849805
100
AcDbArc
 50
57.1684396161
 51
58.6326338112
  0
ARC
  5
391
100
AcDbEntity
  8
ASSI
100
AcDbCircle
 62
7
  6
CONTINUOUS
 10
-6.8415534069
 20
-2.766185554
 40
1.6313974898
100
AcDbArc
 50
58.6333066273
 51
59.9932837998
  0
ARC
  5
392
100
AcDbEntity
  8
ASSI
100
AcDbCircle
 62
7
  6
CONTINUOUS
 10
-6.1058657029
 20
-14.2327786058
 40
1.2814242215
100
AcDbArc
 50
350.5406135362
 51
353.8669086575
  0
ARC
  5
393
100
AcDbEntity
  8
ASSI
100
AcDbCircle
 62
7
  6
CONTINUOUS
 10
-22.0157682796
 20
-5.046600256
 40
1.2814242215
100
AcDbArc
 50
350.5406135362
 51
353.8669086575
  0
ARC
  5
394
100
AcDbEntity
  8
ASSI
100
AcDbCircle
 62
7
  6
CONTINUOUS
 10
-22.7913899739
 20
6.3545233523
 40
1.7080849805
100
AcDbArc
 50
57.1684396161
 51
58.6326338112
  0
ARC
  5
395
100
AcDbEntity
  8
ASSI
100
AcDbCircle
 62
7
  6
CONTINUOUS
 10
-6.8814872075
 20
13.9059859775
 40
1.708084625
100
AcDbArc
 50
57.1684526841
 51
58.6326329143
  0
ARC
  5
396
100
AcDbEntity
  8
ASSI
100
AcDbCircle
 62
7
  6
CONTINUOUS
 10
-22.7913897841
 20
23.0921643274
 40
1.7080846249
100
AcDbArc
 50
57.1684526841
 51
58.6326329144
  0
ARC
  5
397
100
AcDbEntity
  8
ASSI
100
AcDbCircle
 62
7
  6
CONTINUOUS
 10
-6.841553416
 20
13.971455099
 40
1.6313975127
100
AcDbArc
 50
58.6333056133
 51
59.9932838956
  0
ARC
  5
398
100
AcDbEntity
  8
ASSI
100
AcDbCircle
 62
7
  6
CONTINUOUS
 10
-22.7514559927
 20
23.1576334489
 40
1.6313975128
100
AcDbArc
 50
58.6333056133
 51
59.9932838956
  0
ARC
  5
399
100
AcDbEntity
  8
ASSI
100
AcDbCircle
 62
7
  6
CONTINUOUS
 10
-22.7514559836
 20
6.4199927959
 40
1.6313974898
100
AcDbArc
 50
58.6333066273
 51
59.9932837998
  0
ARC
  5
39A
100
AcDbEntity
  8
ASSI
100
AcDbCircle
 62
7
  6
CONTINUOUS
 10
-16.1203940049
 20
2.719595874
 40
1.5202926296
100
AcDbArc
 50
59.9673946282
 51
62.982177882
  0
ARC
  5
39B
100
AcDbEntity
  8
ASSI
100
AcDbCircle
 62
7
  6
CONTINUOUS
 10
-32.0302965816
 20
11.9057742239
 40
1.5202926296
100
AcDbArc
 50
59.9673946282
 51
62.982177882
  0
ARC
  5
39C
100
AcDbEntity
  8
ASSI
100
AcDbCircle
 62
7
  6
CONTINUOUS
 10
-32.0302964144
 20
28.6434151975
 40
1.5202922867
100
AcDbArc
 50
59.967394439
 51
62.9821923456
  0
ARC
  5
39D
100
AcDbEntity
  8
ASSI
100
AcDbCircle
 62
7
  6
CONTINUOUS
 10
-16.1203938377
 20
19.4572368476
 40
1.5202922867
100
AcDbArc
 50
59.967394439
 51
62.9821923456
  0
ARC
  5
39E
100
AcDbEntity
  8
ASSI
100
AcDbCircle
 62
7
  6
CONTINUOUS
 10
-16.0619629677
 20
2.8355478455
 40
1.3904518549
100
AcDbArc
 50
62.9566691165
 51
66.1320996115
  0
ARC
  5
39F
100
AcDbEntity
  8
ASSI
100
AcDbCircle
 62
7
  6
CONTINUOUS
 10
-31.9718655444
 20
12.0217261954
 40
1.3904518548
100
AcDbArc
 50
62.9566691165
 51
66.1320996115
  0
ARC
  5
3A0
100
AcDbEntity
  8
ASSI
100
AcDbCircle
 62
7
  6
CONTINUOUS
 10
-31.9718651753
 20
28.7593676468
 40
1.3904509944
100
AcDbArc
 50
62.9566833809
 51
66.1321272141
  0
ARC
  5
3A1
100
AcDbEntity
  8
ASSI
100
AcDbCircle
 62
7
  6
CONTINUOUS
 10
-16.0619625986
 20
19.5731892969
 40
1.3904509944
100
AcDbArc
 50
62.9566833809
 51
66.1321272141
  0
ARC
  5
3A2
100
AcDbEntity
  8
ASSI
100
AcDbCircle
 62
7
  6
CONTINUOUS
 10
-6.1058668934
 20
2.5048622256
 40
1.2814254224
100
AcDbArc
 50
350.5406526648
 51
353.8669362737
  0
ARC
  5
3A3
100
AcDbEntity
  8
ASSI
100
AcDbCircle
 62
7
  6
CONTINUOUS
 10
-22.0157694701
 20
11.6910405755
 40
1.2814254224
100
AcDbArc
 50
350.5406526648
 51
353.8669362737
  0
ARC
  5
3A4
100
AcDbEntity
  8
ASSI
100
AcDbCircle
 62
7
  6
CONTINUOUS
 10
-16.0097665646
 20
2.9551368028
 40
1.2599700268
100
AcDbArc
 50
66.102241873
 51
69.4853663035
  0
ARC
  5
3A5
100
AcDbEntity
  8
ASSI
100
AcDbCircle
 62
7
  6
CONTINUOUS
 10
-31.9196691413
 20
12.1413151527
 40
1.2599700268
100
AcDbArc
 50
66.102241873
 51
69.4853663035
  0
ARC
  5
3A6
100
AcDbEntity
  8
ASSI
100
AcDbCircle
 62
7
  6
CONTINUOUS
 10
-31.9196686725
 20
28.8789569936
 40
1.2599687695
100
AcDbArc
 50
66.1022692844
 51
69.4854056296
  0
ARC
  5
3A7
100
AcDbEntity
  8
ASSI
100
AcDbCircle
 62
7
  6
CONTINUOUS
 10
-16.0097660958
 20
19.6927786437
 40
1.2599687695
100
AcDbArc
 50
66.1022692844
 51
69.4854056296
  0
ARC
  5
3A8
100
AcDbEntity
  8
ASSI
100
AcDbCircle
 62
7
  6
CONTINUOUS
 10
-15.4050188176
 20
3.5432485987
 40
0.401748954
100
AcDbArc
 50
120.0133191696
 51
126.4838426819
  0
ARC
  5
3A9
100
AcDbEntity
  8
ASSI
100
AcDbCircle
 62
7
  6
CONTINUOUS
 10
-31.3149213943
 20
12.7294269486
 40
0.401748954
100
AcDbArc
 50
120.0133191696
 51
126.483842682
  0
ARC
  5
3AA
100
AcDbEntity
  8
ASSI
100
AcDbCircle
 62
7
  6
CONTINUOUS
 10
-31.3149214047
 20
29.4670676378
 40
0.4017489359
100
AcDbArc
 50
120.0133189515
 51
126.4838132268
  0
ARC
  5
3AB
100
AcDbEntity
  8
ASSI
100
AcDbCircle
 62
7
  6
CONTINUOUS
 10
-15.405018828
 20
20.2808892879
 40
0.4017489359
100
AcDbArc
 50
120.0133189515
 51
126.4838132269
  0
ARC
  5
3AC
100
AcDbEntity
  8
0
100
AcDbCircle
 62
7
  6
CONTINUOUS
 10
-29.9461169109
 20
21.9878225036
 40
0.3
100
AcDbArc
 50
0.0007993011
 51
59.9992007504
  0
ARC
  5
3AD
100
AcDbEntity
  8
0
100
AcDbCircle
 62
7
  6
CONTINUOUS
 10
-30.3652990165
 20
22.2298529978
 40
0.3
100
AcDbArc
 50
60.0005489507
 51
118.2699256376
  0
ARC
  5
3AE
100
AcDbEntity
  8
0
100
AcDbCircle
 62
7
  6
CONTINUOUS
 10
-29.9461169109
 20
17.707221507
 40
0.3
100
AcDbArc
 50
312.271154542
 51
359.9978457589
  0
ARC
  5
3AF
100
AcDbEntity
  8
ASSI
100
AcDbCircle
 62
7
  6
CONTINUOUS
 10
24.9383177562
 20
-21.2040116973
 40
1.7080849805
100
AcDbArc
 50
57.1684396161
 51
58.6326338112
  0
ARC
  5
3B0
100
AcDbEntity
  8
ASSI
100
AcDbCircle
 62
7
  6
CONTINUOUS
 10
9.0284151796
 20
-12.0178333474
 40
1.7080849805
100
AcDbArc
 50
57.1684396161
 51
58.6326338112
  0
ARC
  5
3B1
100
AcDbEntity
  8
ASSI
100
AcDbCircle
 62
7
  6
CONTINUOUS
 10
24.938317946
 20
-4.4663707222
 40
1.7080846249
100
AcDbArc
 50
57.1684526841
 51
58.6326329144
  0
ARC
  5
3B2
100
AcDbEntity
  8
ASSI
100
AcDbCircle
 62
7
  6
CONTINUOUS
 10
24.9782517374
 20
-4.4009016007
 40
1.6313975127
100
AcDbArc
 50
58.6333056133
 51
59.9932838956
  0
ARC
  5
3B3
100
AcDbEntity
  8
ASSI
100
AcDbCircle
 62
7
  6
CONTINUOUS
 10
24.9782517465
 20
-21.1385422538
 40
1.6313974898
100
AcDbArc
 50
58.6333066273
 51
59.9932837998
  0
ARC
  5
3B4
100
AcDbEntity
  8
ASSI
100
AcDbCircle
 62
7
  6
CONTINUOUS
 10
9.0683491698
 20
-11.9523639039
 40
1.6313974898
100
AcDbArc
 50
58.6333066273
 51
59.9932837998
  0
ARC
  5
3B5
100
AcDbEntity
  8
ASSI
100
AcDbCircle
 62
7
  6
CONTINUOUS
 10
-0.2104914282
 20
-6.4665824758
 40
1.5202926296
100
AcDbArc
 50
59.9673946282
 51
62.982177882
  0
ARC
  5
3B6
100
AcDbEntity
  8
ASSI
100
AcDbCircle
 62
7
  6
CONTINUOUS
 10
15.6994111485
 20
-15.6527608257
 40
1.5202926296
100
AcDbArc
 50
59.9673946282
 51
62.982177882
  0
ARC
  5
3B7
100
AcDbEntity
  8
ASSI
100
AcDbCircle
 62
7
  6
CONTINUOUS
 10
-0.152060391
 20
-6.3506305044
 40
1.3904518548
100
AcDbArc
 50
62.9566691165
 51
66.1320996115
  0
ARC
  5
3B8
100
AcDbEntity
  8
ASSI
100
AcDbCircle
 62
7
  6
CONTINUOUS
 10
15.7578421857
 20
-15.5368088543
 40
1.3904518548
100
AcDbArc
 50
62.9566691165
 51
66.1320996115
  0
ARC
  5
3B9
100
AcDbEntity
  8
ASSI
100
AcDbCircle
 62
7
  6
CONTINUOUS
 10
25.71393826
 20
-15.8674944741
 40
1.2814254224
100
AcDbArc
 50
350.5406526648
 51
353.8669362737
  0
ARC
  5
3BA
100
AcDbEntity
  8
ASSI
100
AcDbCircle
 62
7
  6
CONTINUOUS
 10
9.8040356833
 20
-6.6813161243
 40
1.2814254224
100
AcDbArc
 50
350.5406526648
 51
353.8669362737
  0
ARC
  5
3BB
100
AcDbEntity
  8
ASSI
100
AcDbCircle
 62
7
  6
CONTINUOUS
 10
9.8040368738
 20
-23.4189569557
 40
1.2814242215
100
AcDbArc
 50
350.5406135362
 51
353.8669086575
  0
ARC
  5
3BC
100
AcDbEntity
  8
ASSI
100
AcDbCircle
 62
7
  6
CONTINUOUS
 10
25.7139394505
 20
-32.6051353056
 40
1.2814242215
100
AcDbArc
 50
350.5406135362
 51
353.8669086575
  0
ARC
  5
3BD
100
AcDbEntity
  8
ASSI
100
AcDbCircle
 62
7
  6
CONTINUOUS
 10
-0.0998639879
 20
-6.2310415471
 40
1.2599700268
100
AcDbArc
 50
66.102241873
 51
69.4853663035
  0
ARC
  5
3BE
100
AcDbEntity
  8
ASSI
100
AcDbCircle
 62
7
  6
CONTINUOUS
 10
15.8100385888
 20
-15.4172198969
 40
1.2599700268
100
AcDbArc
 50
66.102241873
 51
69.4853663035
  0
ARC
  5
3BF
100
AcDbEntity
  8
ASSI
100
AcDbCircle
 62
7
  6
CONTINUOUS
 10
16.4147863358
 20
-14.829108101
 40
0.401748954
100
AcDbArc
 50
120.0133191695
 51
126.483842682
  0
ARC
  5
3C0
100
AcDbEntity
  8
ASSI
100
AcDbCircle
 62
7
  6
CONTINUOUS
 10
0.5048837591
 20
-5.6429297511
 40
0.401748954
100
AcDbArc
 50
120.0133191695
 51
126.483842682
  0
ARC
  5
3C1
100
AcDbEntity
  8
ASSI
100
AcDbCircle
 62
7
  6
CONTINUOUS
 10
9.0284153693
 20
4.7198076277
 40
1.708084625
100
AcDbArc
 50
57.1684526841
 51
58.6326329143
  0
ARC
  5
3C2
100
AcDbEntity
  8
ASSI
100
AcDbCircle
 62
7
  6
CONTINUOUS
 10
9.0683491607
 20
4.7852767492
 40
1.6313975127
100
AcDbArc
 50
58.6333056133
 51
59.9932838956
  0
ARC
  5
3C3
100
AcDbEntity
  8
ASSI
100
AcDbCircle
 62
7
  6
CONTINUOUS
 10
15.6994113157
 20
1.0848801479
 40
1.5202922868
100
AcDbArc
 50
59.9673944391
 51
62.9821923456
  0
ARC
  5
3C4
100
AcDbEntity
  8
ASSI
100
AcDbCircle
 62
7
  6
CONTINUOUS
 10
-0.210491261
 20
10.2710584977
 40
1.5202922868
100
AcDbArc
 50
59.967394439
 51
62.9821923456
  0
ARC
  5
3C5
100
AcDbEntity
  8
ASSI
100
AcDbCircle
 62
7
  6
CONTINUOUS
 10
15.7578425548
 20
1.2008325972
 40
1.3904509944
100
AcDbArc
 50
62.9566833809
 51
66.1321272141
  0
ARC
  5
3C6
100
AcDbEntity
  8
ASSI
100
AcDbCircle
 62
7
  6
CONTINUOUS
 10
-0.1520600219
 20
10.3870109471
 40
1.3904509944
100
AcDbArc
 50
62.9566833809
 51
66.1321272141
  0
ARC
  5
3C7
100
AcDbEntity
  8
ASSI
100
AcDbCircle
 62
7
  6
CONTINUOUS
 10
15.8100390576
 20
1.320421944
 40
1.2599687696
100
AcDbArc
 50
66.1022692845
 51
69.4854056296
  0
ARC
  5
3C8
100
AcDbEntity
  8
ASSI
100
AcDbCircle
 62
7
  6
CONTINUOUS
 10
-0.0998635191
 20
10.5066002939
 40
1.2599687695
100
AcDbArc
 50
66.1022692844
 51
69.4854056296
  0
ARC
  5
3C9
100
AcDbEntity
  8
ASSI
100
AcDbCircle
 62
7
  6
CONTINUOUS
 10
16.4147863254
 20
1.9085325882
 40
0.4017489359
100
AcDbArc
 50
120.0133189515
 51
126.4838132268
  0
ARC
  5
3CA
100
AcDbEntity
  8
ASSI
100
AcDbCircle
 62
7
  6
CONTINUOUS
 10
0.5048837487
 20
11.0947109381
 40
0.4017489359
100
AcDbArc
 50
120.0133189515
 51
126.4838132268
  0
SPLINE
  5
3CB
100
AcDbEntity
  8
0
100
AcDbSpline
 62
7
  6
CONTINUOUS
 70
0
 71
3
 72
11
 73
7
 74
0
 42
0.0000001
 43
0.0000001
 44
0.0000000001
 40
0.0
 40
0.0
 40
0.0
 40
0.0
 40
0.2357767577
 40
0.4972955567
 40
0.7602859458
 40
1.0
 40
1.0
 40
1.0
 40
1.0
 10
-5.3613722117
 20
-12.5581725343
 30
0.0
 10
-5.3904123882
 20
-12.5414051003
 30
0.0
 10
-5.4577645676
 20
-12.5165623429
 30
0.0
 10
-5.5657843852
 20
-12.5029148834
 30
0.0
 10
-5.6748188575
 20
-12.5123460224
 30
0.0
 10
-5.7438757485
 20
-12.5344076172
 30
0.0
 10
-5.774243428
 20
-12.549904463
 30
0.0
  0
SPLINE
  5
3CC
100
AcDbEntity
  8
0
100
AcDbSpline
 62
7
  6
CONTINUOUS
 70
0
 71
3
 72
11
 73
7
 74
0
 42
0.0000001
 43
0.0000001
 44
0.0000000001
 40
0.0
 40
0.0
 40
0.0
 40
0.0
 40
0.2357767577
 40
0.4972955567
 40
0.7602859458
 40
1.0
 40
1.0
 40
1.0
 40
1.0
 10
10.548530365
 20
-21.7443508841
 30
0.0
 10
10.5194901885
 20
-21.7275834502
 30
0.0
 10
10.4521380091
 20
-21.7027406928
 30
0.0
 10
10.3441181915
 20
-21.6890932332
 30
0.0
 10
10.2350837192
 20
-21.6985243723
 30
0.0
 10
10.1660268282
 20
-21.7205859671
 30
0.0
 10
10.1356591487
 20
-21.7360828128
 30
0.0
  0
SPLINE
  5
3CD
100
AcDbEntity
  8
0
100
AcDbSpline
 62
250
  6
CONTINUOUS
 70
0
 71
3
 72
11
 73
7
 74
0
 42
0.0000001
 43
0.0000001
 44
0.0000000001
 40
0.0
 40
0.0
 40
0.0
 40
0.0
 40
0.2187603581
 40
0.4523095269
 40
0.7113215761
 40
1.0
 40
1.0
 40
1.0
 40
1.0
 10
-29.6461169571
 20
21.9878225036
 30
0.0
 10
-29.6461177752
 20
21.9766526376
 30
0.0
 10
-29.650138186
 20
21.9534079482
 30
0.0
 10
-29.6673875707
 20
21.9208988972
 30
0.0
 10
-29.6947246122
 20
21.8913716352
 30
0.0
 10
-29.7176639429
 20
21.8750604702
 30
0.0
 10
-29.7303149708
 20
21.8674963925
 30
0.0
  0
SPLINE
  5
3CE
100
AcDbEntity
  8
0
100
AcDbSpline
 62
250
  6
CONTINUOUS
 70
0
 71
3
 72
11
 73
7
 74
0
 42
0.0000001
 43
0.0000001
 44
0.0000000001
 40
0.0
 40
0.0
 40
0.0
 40
0.0
 40
0.2187556894
 40
0.4523030936
 40
0.7113134247
 40
1.0
 40
1.0
 40
1.0
 40
1.0
 10
-29.7961133074
 20
22.2476279966
 30
0.0
 10
-29.8057868326
 20
22.253211928
 30
0.0
 10
-29.8279275125
 20
22.2613510884
 30
0.0
 10
-29.864705049
 20
22.262664747
 30
0.0
 10
-29.9039440448
 20
22.2537510659
 30
0.0
 10
-29.9295387115
 20
22.2420388136
 30
0.0
 10
-29.9424146964
 20
22.2348638932
 30
0.0
  0
SPLINE
  5
3CF
100
AcDbEntity
  8
0
100
AcDbSpline
 62
250
  6
CONTINUOUS
 70
0
 71
3
 72
11
 73
7
 74
0
 42
0.0000001
 43
0.0000001
 44
0.0000000001
 40
0.0
 40
0.0
 40
0.0
 40
0.0
 40
0.2187504078
 40
0.4522967227
 40
0.7113126141
 40
1.0
 40
1.0
 40
1.0
 40
1.0
 10
-30.2153015291
 20
22.4896620155
 30
0.0
 10
-30.2249747949
 20
22.495244841
 30
0.0
 10
-30.2471144309
 20
22.5033825027
 30
0.0
 10
-30.2838902843
 20
22.5046947207
 30
0.0
 10
-30.3231275358
 20
22.495780755
 30
0.0
 10
-30.3487213664
 20
22.4840690017
 30
0.0
 10
-30.361596802
 20
22.4768943874
 30
0.0
  0
SPLINE
  5
3D0
100
AcDbEntity
  8
0
100
AcDbSpline
 62
250
  6
CONTINUOUS
 70
0
 71
3
 72
11
 73
7
 74
0
 42
0.0000001
 43
0.0000001
 44
0.0000000001
 40
0.0
 40
0.0
 40
0.0
 40
0.0
 40
0.2187601249
 40
0.4523110155
 40
0.711323703
 40
1.0
 40
1.0
 40
1.0
 40
1.0
 10
-29.6461169586
 20
17.7072102274
 30
0.0
 10
-29.6461190432
 20
17.6960411869
 30
0.0
 10
-29.6501414424
 20
17.6727986161
 30
0.0
 10
-29.667391483
 20
17.6402929645
 30
0.0
 10
-29.6947272877
 20
17.6107686425
 30
0.0
 10
-29.7176649574
 20
17.5944588671
 30
0.0
 10
-29.7303149708
 20
17.5868953959
 30
0.0
  0
SPLINE
  5
3D1
100
AcDbEntity
  8
0
100
AcDbSpline
 62
250
  6
CONTINUOUS
 70
0
 71
3
 72
11
 73
7
 74
0
 42
0.0000001
 43
0.0000001
 44
0.0000000001
 40
0.0
 40
0.0
 40
0.0
 40
0.0
 40
0.2187326889
 40
0.4522634147
 40
0.7112958554
 40
1.0
 40
1.0
 40
1.0
 40
1.0
 10
-30.5073866863
 20
22.4940705883
 30
0.0
 10
-30.4975535044
 20
22.4993564738
 30
0.0
 10
-30.4751889552
 20
22.506821953
 30
0.0
 10
-30.4384034124
 20
22.5070223952
 30
0.0
 10
-30.3994669285
 20
22.4969281893
 30
0.0
 10
-30.3742457971
 20
22.4844526416
 30
0.0
 10
-30.361596802
 20
22.4768943874
 30
0.0
  0
SPLINE
  5
3D2
100
AcDbEntity
  8
0
100
AcDbSpline
 62
250
  6
CONTINUOUS
 70
0
 71
3
 72
11
 73
7
 74
0
 42
0.0000001
 43
0.0000001
 44
0.0000000001
 40
0.0
 40
0.0
 40
0.0
 40
0.0
 40
0.2377546637
 40
0.5000059648
 40
0.7622540093
 40
1.0
 40
1.0
 40
1.0
 40
1.0
 10
-29.9424146964
 20
22.2348638932
 30
0.0
 10
-29.9119121066
 20
22.2178456385
 30
0.0
 10
-29.8541783978
 20
22.1704184674
 30
0.0
 10
-29.7871703423
 20
22.0795799441
 30
0.0
 10
-29.7420062464
 20
21.9761312463
 30
0.0
 10
-29.729800963
 20
21.9024202493
 30
0.0
 10
-29.7303149708
 20
21.8674963925
 30
0.0
  0
SPLINE
  5
3D3
100
AcDbEntity
  8
0
100
AcDbSpline
 62
250
  6
CONTINUOUS
 70
0
 71
3
 72
9
 73
5
 74
0
 42
0.0000001
 43
0.0000001
 44
0.0000000001
 40
0.0
 40
0.0
 40
0.0
 40
0.0
 40
0.2764406469
 40
1.0
 40
1.0
 40
1.0
 40
1.0
 10
-29.7303149708
 20
17.5868953959
 30
0.0
 10
-29.7301766494
 20
17.5776626625
 30
0.0
 10
-29.7313309429
 20
17.5443568192
 30
0.0
 10
-29.7399854334
 20
17.510611202
 30
0.0
 10
-29.7522136007
 20
17.4897643175
 30
0.0
  0
SPLINE
  5
3D4
100
AcDbEntity
  8
0
100
AcDbSpline
 62
7
  6
CONTINUOUS
 70
0
 71
3
 72
13
 73
9
 74
0
 42
0.0000001
 43
0.0000001
 44
0.0000000001
 40
0.0
 40
0.0
 40
0.0
 40
0.0
 40
0.1142615865
 40
0.2375404667
 40
0.5000060664
 40
0.7624683449
 40
0.8857433485
 40
1.0
 40
1.0
 40
1.0
 40
1.0
 10
25.8648267758
 20
-19.6849866413
 30
0.0
 10
25.9471207623
 20
-19.732502158
 30
0.0
 10
26.1096825142
 20
-19.8464430332
 30
0.0
 10
26.4139873049
 20
-20.1313046785
 30
0.0
 10
26.7354664523
 20
-20.5703819886
 30
0.0
 10
26.9549786046
 20
-21.0683267899
 30
0.0
 10
27.0495178886
 20
-21.4742843785
 30
0.0
 10
27.0669083038
 20
-21.6720305835
 30
0.0
 10
27.0669083038
 20
-21.7670529205
 30
0.0
  0
SPLINE
  5
3D5
100
AcDbEntity
  8
0
100
AcDbSpline
 62
7
  6
CONTINUOUS
 70
0
 71
3
 72
13
 73
9
 74
0
 42
0.0000001
 43
0.0000001
 44
0.0000000001
 40
0.0
 40
0.0
 40
0.0
 40
0.0
 40
0.1142615865
 40
0.2375404667
 40
0.5000060664
 40
0.7624683449
 40
0.8857433485
 40
1.0
 40
1.0
 40
1.0
 40
1.0
 10
9.9549241991
 20
-10.4988082915
 30
0.0
 10
10.0372181856
 20
-10.5463238081
 30
0.0
 10
10.1997799375
 20
-10.6602646833
 30
0.0
 10
10.5040847282
 20
-10.9451263286
 30
0.0
 10
10.8255638756
 20
-11.3842036388
 30
0.0
 10
11.0450760279
 20
-11.88214844
 30
0.0
 10
11.1396153119
 20
-12.2881060286
 30
0.0
 10
11.1570057271
 20
-12.4858522337
 30
0.0
 10
11.1570057271
 20
-12.5808745707
 30
0.0
  0
SPLINE
  5
3D6
100
AcDbEntity
  8
0
100
AcDbSpline
 62
7
  6
CONTINUOUS
 70
0
 71
3
 72
13
 73
9
 74
0
 42
0.0000001
 43
0.0000001
 44
0.0000000001
 40
0.0
 40
0.0
 40
0.0
 40
0.0
 40
0.1142615865
 40
0.2375404667
 40
0.5000060664
 40
0.7624683449
 40
0.8857433485
 40
1.0
 40
1.0
 40
1.0
 40
1.0
 10
-5.9549783776
 20
-1.3126299416
 30
0.0
 10
-5.8726843911
 20
-1.3601454582
 30
0.0
 10
-5.7101226392
 20
-1.4740863334
 30
0.0
 10
-5.4058178485
 20
-1.7589479787
 30
0.0
 10
-5.0843387011
 20
-2.1980252889
 30
0.0
 10
-4.8648265488
 20
-2.6959700901
 30
0.0
 10
-4.7702872648
 20
-3.1019276788
 30
0.0
 10
-4.7528968496
 20
-3.2996738838
 30
0.0
 10
-4.7528968496
 20
-3.3946962208
 30
0.0
  0
SPLINE
  5
3D7
100
AcDbEntity
  8
0
100
AcDbSpline
 62
7
  6
CONTINUOUS
 70
0
 71
3
 72
13
 73
9
 74
0
 42
0.0000001
 43
0.0000001
 44
0.0000000001
 40
0.0
 40
0.0
 40
0.0
 40
0.0
 40
0.1142615865
 40
0.2375404667
 40
0.5000060664
 40
0.7624683449
 40
0.8857433485
 40
1.0
 40
1.0
 40
1.0
 40
1.0
 10
-21.8648809543
 20
7.8735484083
 30
0.0
 10
-21.7825869678
 20
7.8260328916
 30
0.0
 10
-21.6200252159
 20
7.7120920165
 30
0.0
 10
-21.3157204252
 20
7.4272303711
 30
0.0
 10
-20.9942412778
 20
6.988153061
 30
0.0
 10
-20.7747291255
 20
6.4902082598
 30
0.0
 10
-20.6801898415
 20
6.0842506711
 30
0.0
 10
-20.6627994263
 20
5.8865044661
 30
0.0
 10
-20.6627994263
 20
5.7914821291
 30
0.0
  0
SPLINE
  5
3D8
100
AcDbEntity
  8
0
100
AcDbSpline
 62
7
  6
CONTINUOUS
 70
0
 71
3
 72
13
 73
9
 74
0
 42
0.0000001
 43
0.0000001
 44
0.0000000001
 40
0.0
 40
0.0
 40
0.0
 40
0.0
 40
0.1142615855
 40
0.2375404653
 40
0.5000060639
 40
0.7624683436
 40
0.8857433475
 40
1.0
 40
1.0
 40
1.0
 40
1.0
 10
25.8648267758
 20
-2.9473459671
 30
0.0
 10
25.9471207616
 20
-2.9948614832
 30
0.0
 10
26.1096825125
 20
-3.1088023578
 30
0.0
 10
26.4139873021
 20
-3.3936640013
 30
0.0
 10
26.7354664501
 20
-3.8327413107
 30
0.0
 10
26.9549786034
 20
-4.3306861117
 30
0.0
 10
27.0495178884
 20
-4.7366437023
 30
0.0
 10
27.0669083036
 20
-4.9343899084
 30
0.0
 10
27.0669083038
 20
-5.0294122463
 30
0.0
  0
SPLINE
  5
3D9
100
AcDbEntity
  8
0
100
AcDbSpline
 62
7
  6
CONTINUOUS
 70
0
 71
3
 72
13
 73
9
 74
0
 42
0.0000001
 43
0.0000001
 44
0.0000000001
 40
0.0
 40
0.0
 40
0.0
 40
0.0
 40
0.1142615855
 40
0.2375404653
 40
0.5000060639
 40
0.7624683436
 40
0.8857433475
 40
1.0
 40
1.0
 40
1.0
 40
1.0
 10
9.9549241991
 20
6.2388323828
 30
0.0
 10
10.0372181849
 20
6.1913168667
 30
0.0
 10
10.1997799359
 20
6.0773759921
 30
0.0
 10
10.5040847254
 20
5.7925143486
 30
0.0
 10
10.8255638734
 20
5.3534370392
 30
0.0
 10
11.0450760267
 20
4.8554922382
 30
0.0
 10
11.1396153117
 20
4.4495346476
 30
0.0
 10
11.1570057269
 20
4.2517884414
 30
0.0
 10
11.1570057271
 20
4.1567661036
 30
0.0
  0
SPLINE
  5
3DA
100
AcDbEntity
  8
0
100
AcDbSpline
 62
7
  6
CONTINUOUS
 70
0
 71
3
 72
13
 73
9
 74
0
 42
0.0000001
 43
0.0000001
 44
0.0000000001
 40
0.0
 40
0.0
 40
0.0
 40
0.0
 40
0.1142615855
 40
0.2375404653
 40
0.5000060639
 40
0.7624683436
 40
0.8857433475
 40
1.0
 40
1.0
 40
1.0
 40
1.0
 10
-5.9549783776
 20
15.4250107327
 30
0.0
 10
-5.8726843917
 20
15.3774952166
 30
0.0
 10
-5.7101226408
 20
15.263554342
 30
0.0
 10
-5.4058178513
 20
14.9786926985
 30
0.0
 10
-5.0843387033
 20
14.5396153891
 30
0.0
 10
-4.86482655
 20
14.041670588
 30
0.0
 10
-4.770287265
 20
13.6357129975
 30
0.0
 10
-4.7528968498
 20
13.4379667913
 30
0.0
 10
-4.7528968496
 20
13.3429444535
 30
0.0
  0
SPLINE
  5
3DB
100
AcDbEntity
  8
0
100
AcDbSpline
 62
7
  6
CONTINUOUS
 70
0
 71
3
 72
13
 73
9
 74
0
 42
0.0000001
 43
0.0000001
 44
0.0000000001
 40
0.0
 40
0.0
 40
0.0
 40
0.0
 40
0.1142615855
 40
0.2375404653
 40
0.5000060639
 40
0.7624683436
 40
0.8857433475
 40
1.0
 40
1.0
 40
1.0
 40
1.0
 10
-21.8648809543
 20
24.6111890825
 30
0.0
 10
-21.7825869684
 20
24.5636735665
 30
0.0
 10
-21.6200252175
 20
24.4497326918
 30
0.0
 10
-21.315720428
 20
24.1648710484
 30
0.0
 10
-20.9942412799
 20
23.725793739
 30
0.0
 10
-20.7747291266
 20
23.2278489379
 30
0.0
 10
-20.6801898417
 20
22.8218913473
 30
0.0
 10
-20.6627994265
 20
22.6241451412
 30
0.0
 10
-20.6627994263
 20
22.5291228033
 30
0.0
  0
SPLINE
  5
3DC
100
AcDbEntity
  8
0
100
AcDbSpline
 62
7
  6
CONTINUOUS
 70
0
 71
3
 72
15
 73
11
 74
0
 42
0.0000001
 43
0.0000001
 44
0.0000000001
 40
0.0
 40
0.0
 40
0.0
 40
0.0
 40
0.1449018469
 40
0.2745170393
 40
0.3911053272
 40
0.4999889023
 40
0.6088744922
 40
0.7254681378
 40
0.8550905417
 40
1.0
 40
1.0
 40
1.0
 40
1.0
 10
-20.6627994263
 20
11.5884210943
 30
0.0
 10
-20.6627994263
 20
11.5022575745
 30
0.0
 10
-20.6758198834
 20
11.3384490417
 30
0.0
 10
-20.7421946778
 20
11.1134429918
 30
0.0
 10
-20.8539656552
 20
10.9307335185
 30
0.0
 10
-21.0091151232
 20
10.8002541775
 30
0.0
 10
-21.1996989405
 20
10.7311512919
 30
0.0
 10
-21.4138241089
 20
10.7257283149
 30
0.0
 10
-21.6418805361
 20
10.7807651762
 30
0.0
 10
-21.7902584395
 20
10.8514023278
 30
0.0
 10
-21.8648809543
 20
10.8944884324
 30
0.0
  0
SPLINE
  5
3DD
100
AcDbEntity
  8
0
100
AcDbSpline
 62
7
  6
CONTINUOUS
 70
0
 71
3
 72
15
 73
11
 74
0
 42
0.0000001
 43
0.0000001
 44
0.0000000001
 40
0.0
 40
0.0
 40
0.0
 40
0.0
 40
0.1449018481
 40
0.2745170406
 40
0.3911053286
 40
0.4999889043
 40
0.6088744936
 40
0.7254681391
 40
0.8550905429
 40
1.0
 40
1.0
 40
1.0
 40
1.0
 10
-16.6322907735
 20
3.4643169471
 30
0.0
 10
-16.6322907733
 20
3.5504804677
 30
0.0
 10
-16.6192703162
 20
3.7142890013
 30
0.0
 10
-16.5528955212
 20
3.9392950519
 30
0.0
 10
-16.4411245428
 20
4.1220045251
 30
0.0
 10
-16.285975074
 20
4.2524838655
 30
0.0
 10
-16.0953912565
 20
4.3215867501
 30
0.0
 10
-15.8812660886
 20
4.3270097261
 30
0.0
 10
-15.6532096624
 20
4.2719728646
 30
0.0
 10
-15.5048317596
 20
4.2013357134
 30
0.0
 10
-15.4302092455
 20
4.158249609
 30
0.0
  0
SPLINE
  5
3DE
100
AcDbEntity
  8
0
100
AcDbSpline
 62
7
  6
CONTINUOUS
 70
0
 71
3
 72
13
 73
9
 74
0
 42
0.0000001
 43
0.0000001
 44
0.0000000001
 40
0.0
 40
0.0
 40
0.0
 40
0.0
 40
0.1142615865
 40
0.2375404667
 40
0.5000060664
 40
0.7624683449
 40
0.8857433485
 40
1.0
 40
1.0
 40
1.0
 40
1.0
 10
-15.4302092455
 20
-9.5584510411
 30
0.0
 10
-15.512503232
 20
-9.5109355244
 30
0.0
 10
-15.6750649839
 20
-9.3969946493
 30
0.0
 10
-15.9793697746
 20
-9.1121330039
 30
0.0
 10
-16.300848922
 20
-8.6730556938
 30
0.0
 10
-16.5203610743
 20
-8.1751108926
 30
0.0
 10
-16.6149003583
 20
-7.7691533039
 30
0.0
 10
-16.6322907735
 20
-7.5714070989
 30
0.0
 10
-16.6322907735
 20
-7.4763847619
 30
0.0
  0
SPLINE
  5
3DF
100
AcDbEntity
  8
0
100
AcDbSpline
 62
7
  6
CONTINUOUS
 70
0
 71
3
 72
15
 73
11
 74
0
 42
0.0000001
 43
0.0000001
 44
0.0000000001
 40
0.0
 40
0.0
 40
0.0
 40
0.0
 40
0.1449018481
 40
0.2745170406
 40
0.3911053286
 40
0.4999889043
 40
0.6088744936
 40
0.7254681391
 40
0.8550905429
 40
1.0
 40
1.0
 40
1.0
 40
1.0
 10
-4.7528968496
 20
-14.3353979298
 30
0.0
 10
-4.7528968498
 20
-14.4215614504
 30
0.0
 10
-4.7659173069
 20
-14.585369984
 30
0.0
 10
-4.8322921019
 20
-14.8103760346
 30
0.0
 10
-4.9440630804
 20
-14.9930855078
 30
0.0
 10
-5.0992125491
 20
-15.1235648481
 30
0.0
 10
-5.2897963666
 20
-15.1926677328
 30
0.0
 10
-5.5039215345
 20
-15.1980907087
 30
0.0
 10
-5.7319779607
 20
-15.1430538472
 30
0.0
 10
-5.8803558635
 20
-15.0724166961
 30
0.0
 10
-5.9549783776
 20
-15.0293305917
 30
0.0
  0
SPLINE
  5
3E0
100
AcDbEntity
  8
0
100
AcDbSpline
 62
7
  6
CONTINUOUS
 70
0
 71
3
 72
15
 73
11
 74
0
 42
0.0000001
 43
0.0000001
 44
0.0000000001
 40
0.0
 40
0.0
 40
0.0
 40
0.0
 40
0.1449018481
 40
0.2745170406
 40
0.3911053286
 40
0.4999889043
 40
0.6088744936
 40
0.7254681391
 40
0.8550905429
 40
1.0
 40
1.0
 40
1.0
 40
1.0
 10
15.1875143799
 20
-14.9080397526
 30
0.0
 10
15.1875143801
 20
-14.821876232
 30
0.0
 10
15.2005348372
 20
-14.6580676985
 30
0.0
 10
15.2669096321
 20
-14.4330616478
 30
0.0
 10
15.3786806106
 20
-14.2503521746
 30
0.0
 10
15.5338300794
 20
-14.1198728343
 30
0.0
 10
15.7244138969
 20
-14.0507699497
 30
0.0
 10
15.9385390648
 20
-14.0453469737
 30
0.0
 10
16.166595491
 20
-14.1003838352
 30
0.0
 10
16.3149733938
 20
-14.1710209864
 30
0.0
 10
16.3895959079
 20
-14.2141070907
 30
0.0
  0
SPLINE
  5
3E1
100
AcDbEntity
  8
0
100
AcDbSpline
 62
7
  6
CONTINUOUS
 70
0
 71
3
 72
15
 73
11
 74
0
 42
0.0000001
 43
0.0000001
 44
0.0000000001
 40
0.0
 40
0.0
 40
0.0
 40
0.0
 40
0.1449018481
 40
0.2745170406
 40
0.3911053286
 40
0.4999889043
 40
0.6088744936
 40
0.7254681391
 40
0.8550905429
 40
1.0
 40
1.0
 40
1.0
 40
1.0
 10
-32.5421933502
 20
12.650495297
 30
0.0
 10
-32.54219335
 20
12.7366588176
 30
0.0
 10
-32.5291728929
 20
12.9004673511
 30
0.0
 10
-32.4627980979
 20
13.1254734018
 30
0.0
 10
-32.3510271194
 20
13.308182875
 30
0.0
 10
-32.1958776507
 20
13.4386622153
 30
0.0
 10
-32.0052938332
 20
13.5077651
 30
0.0
 10
-31.7911686653
 20
13.5131880759
 30
0.0
 10
-31.5631122391
 20
13.4581512144
 30
0.0
 10
-31.4147343363
 20
13.3875140633
 30
0.0
 10
-31.3401118222
 20
13.3444279589
 30
0.0
  0
SPLINE
  5
3E2
100
AcDbEntity
  8
0
100
AcDbSpline
 62
7
  6
CONTINUOUS
 70
0
 71
3
 72
13
 73
9
 74
0
 42
0.0000001
 43
0.0000001
 44
0.0000000001
 40
0.0
 40
0.0
 40
0.0
 40
0.0
 40
0.1142615865
 40
0.2375404667
 40
0.5000060664
 40
0.7624683449
 40
0.8857433485
 40
1.0
 40
1.0
 40
1.0
 40
1.0
 10
-31.3401118222
 20
-0.3722726912
 30
0.0
 10
-31.4224058087
 20
-0.3247571746
 30
0.0
 10
-31.5849675606
 20
-0.2108162994
 30
0.0
 10
-31.8892723513
 20
0.0740453459
 30
0.0
 10
-32.2107514987
 20
0.5131226561
 30
0.0
 10
-32.430263651
 20
1.0110674573
 30
0.0
 10
-32.524802935
 20
1.417025046
 30
0.0
 10
-32.5421933502
 20
1.614771251
 30
0.0
 10
-32.5421933502
 20
1.709793588
 30
0.0
  0
SPLINE
  5
3E3
100
AcDbEntity
  8
0
100
AcDbSpline
 62
7
  6
CONTINUOUS
 70
0
 71
3
 72
15
 73
11
 74
0
 42
0.0000001
 43
0.0000001
 44
0.0000000001
 40
0.0
 40
0.0
 40
0.0
 40
0.0
 40
0.1449018481
 40
0.2745170406
 40
0.3911053286
 40
0.4999889043
 40
0.6088744936
 40
0.7254681391
 40
0.8550905429
 40
1.0
 40
1.0
 40
1.0
 40
1.0
 10
-20.6627994263
 20
-5.1492195799
 30
0.0
 10
-20.6627994265
 20
-5.2353831005
 30
0.0
 10
-20.6758198836
 20
-5.3991916341
 30
0.0
 10
-20.7421946786
 20
-5.6241976847
 30
0.0
 10
-20.8539656571
 20
-5.8069071579
 30
0.0
 10
-21.0091151258
 20
-5.9373864983
 30
0.0
 10
-21.1996989433
 20
-6.0064893829
 30
0.0
 10
-21.4138241112
 20
-6.0119123589
 30
0.0
 10
-21.6418805374
 20
-5.9568754974
 30
0.0
 10
-21.7902584402
 20
-5.8862383462
 30
0.0
 10
-21.8648809543
 20
-5.8431522418
 30
0.0
  0
SPLINE
  5
3E4
100
AcDbEntity
  8
0
100
AcDbSpline
 62
7
  6
CONTINUOUS
 70
0
 71
3
 72
13
 73
9
 74
0
 42
0.0000001
 43
0.0000001
 44
0.0000000001
 40
0.0
 40
0.0
 40
0.0
 40
0.0
 40
0.1142615865
 40
0.2375404667
 40
0.5000060664
 40
0.7624683449
 40
0.8857433485
 40
1.0
 40
1.0
 40
1.0
 40
1.0
 10
16.3895959079
 20
-27.9308077409
 30
0.0
 10
16.3073019214
 20
-27.8832922242
 30
0.0
 10
16.1447401695
 20
-27.769351349
 30
0.0
 10
15.8404353788
 20
-27.4844897037
 30
0.0
 10
15.5189562314
 20
-27.0454123935
 30
0.0
 10
15.299444079
 20
-26.5474675923
 30
0.0
 10
15.2049047951
 20
-26.1415100037
 30
0.0
 10
15.1875143799
 20
-25.9437637986
 30
0.0
 10
15.1875143799
 20
-25.8487414616
 30
0.0
  0
SPLINE
  5
3E5
100
AcDbEntity
  8
0
100
AcDbSpline
 62
7
  6
CONTINUOUS
 70
0
 71
3
 72
15
 73
11
 74
0
 42
0.0000001
 43
0.0000001
 44
0.0000000001
 40
0.0
 40
0.0
 40
0.0
 40
0.0
 40
0.1449018469
 40
0.2745170393
 40
0.3911053272
 40
0.4999889023
 40
0.6088744922
 40
0.7254681378
 40
0.8550905417
 40
1.0
 40
1.0
 40
1.0
 40
1.0
 10
15.1875143799
 20
1.8296009216
 30
0.0
 10
15.1875143799
 20
1.9157644415
 30
0.0
 10
15.200534837
 20
2.0795729743
 30
0.0
 10
15.2669096314
 20
2.3045790242
 30
0.0
 10
15.3786806088
 20
2.4872884975
 30
0.0
 10
15.5338300768
 20
2.6177678385
 30
0.0
 10
15.7244138941
 20
2.686870724
 30
0.0
 10
15.9385390625
 20
2.692293701
 30
0.0
 10
16.1665954897
 20
2.6372568397
 30
0.0
 10
16.3149733931
 20
2.5666196881
 30
0.0
 10
16.3895959079
 20
2.5235335835
 30
0.0
  0
SPLINE
  5
3E6
100
AcDbEntity
  8
0
100
AcDbSpline
 62
7
  6
CONTINUOUS
 70
0
 71
3
 72
13
 73
9
 74
0
 42
0.0000001
 43
0.0000001
 44
0.0000000001
 40
0.0
 40
0.0
 40
0.0
 40
0.0
 40
0.1142615855
 40
0.2375404653
 40
0.5000060639
 40
0.7624683436
 40
0.8857433475
 40
1.0
 40
1.0
 40
1.0
 40
1.0
 10
16.3895959079
 20
-11.1931670666
 30
0.0
 10
16.307301922
 20
-11.1456515505
 30
0.0
 10
16.1447401711
 20
-11.0317106759
 30
0.0
 10
15.8404353816
 20
-10.7468490324
 30
0.0
 10
15.5189562335
 20
-10.307771723
 30
0.0
 10
15.2994440802
 20
-9.809826922
 30
0.0
 10
15.2049047953
 20
-9.4038693314
 30
0.0
 10
15.1875143801
 20
-9.2061231252
 30
0.0
 10
15.1875143799
 20
-9.1111007874
 30
0.0
  0
SPLINE
  5
3E7
100
AcDbEntity
  8
0
100
AcDbSpline
 62
7
  6
CONTINUOUS
 70
0
 71
3
 72
15
 73
11
 74
0
 42
0.0000001
 43
0.0000001
 44
0.0000000001
 40
0.0
 40
0.0
 40
0.0
 40
0.0
 40
0.1449018469
 40
0.2745170393
 40
0.3911053272
 40
0.4999889023
 40
0.6088744922
 40
0.7254681378
 40
0.8550905417
 40
1.0
 40
1.0
 40
1.0
 40
1.0
 10
27.0669083038
 20
-15.9701139553
 30
0.0
 10
27.0669083038
 20
-16.0562774752
 30
0.0
 10
27.0538878466
 20
-16.220086008
 30
0.0
 10
26.9875130523
 20
-16.4450920579
 30
0.0
 10
26.8757420749
 20
-16.6278015312
 30
0.0
 10
26.7205926068
 20
-16.7582808722
 30
0.0
 10
26.5300087896
 20
-16.8273837577
 30
0.0
 10
26.3158836212
 20
-16.8328067347
 30
0.0
 10
26.087827194
 20
-16.7777698734
 30
0.0
 10
25.9394492906
 20
-16.7071327218
 30
0.0
 10
25.8648267758
 20
-16.6640466172
 30
0.0
  0
SPLINE
  5
3E8
100
AcDbEntity
  8
0
100
AcDbSpline
 62
7
  6
CONTINUOUS
 70
0
 71
3
 72
15
 73
11
 74
0
 42
0.0000001
 43
0.0000001
 44
0.0000000001
 40
0.0
 40
0.0
 40
0.0
 40
0.0
 40
0.1449018481
 40
0.2745170406
 40
0.3911053286
 40
0.4999889043
 40
0.6088744936
 40
0.7254681391
 40
0.8550905429
 40
1.0
 40
1.0
 40
1.0
 40
1.0
 10
27.0669083038
 20
-32.7077546296
 30
0.0
 10
27.0669083036
 20
-32.7939181501
 30
0.0
 10
27.0538878465
 20
-32.9577266837
 30
0.0
 10
26.9875130515
 20
-33.1827327344
 30
0.0
 10
26.875742073
 20
-33.3654422076
 30
0.0
 10
26.7205926043
 20
-33.4959215479
 30
0.0
 10
26.5300087868
 20
-33.5650244325
 30
0.0
 10
26.3158836189
 20
-33.5704474085
 30
0.0
 10
26.0878271927
 20
-33.515410547
 30
0.0
 10
25.9394492899
 20
-33.4447733958
 30
0.0
 10
25.8648267758
 20
-33.4016872914
 30
0.0
  0
SPLINE
  5
3E9
100
AcDbEntity
  8
0
100
AcDbSpline
 62
7
  6
CONTINUOUS
 70
0
 71
3
 72
15
 73
11
 74
0
 42
0.0000001
 43
0.0000001
 44
0.0000000001
 40
0.0
 40
0.0
 40
0.0
 40
0.0
 40
0.1449018469
 40
0.2745170393
 40
0.3911053272
 40
0.4999889023
 40
0.6088744922
 40
0.7254681378
 40
0.8550905417
 40
1.0
 40
1.0
 40
1.0
 40
1.0
 10
-0.7223881968
 20
11.0157792715
 30
0.0
 10
-0.7223881968
 20
11.1019427914
 30
0.0
 10
-0.7093677397
 20
11.2657513242
 30
0.0
 10
-0.6429929453
 20
11.4907573741
 30
0.0
 10
-0.5312219679
 20
11.6734668474
 30
0.0
 10
-0.3760724999
 20
11.8039461884
 30
0.0
 10
-0.1854886826
 20
11.8730490739
 30
0.0
 10
0.0286364858
 20
11.8784720509
 30
0.0
 10
0.256692913
 20
11.8234351896
 30
0.0
 10
0.4050708164
 20
11.752798038
 30
0.0
 10
0.4796933312
 20
11.7097119334
 30
0.0
  0
SPLINE
  5
3EA
100
AcDbEntity
  8
0
100
AcDbSpline
 62
7
  6
CONTINUOUS
 70
0
 71
3
 72
13
 73
9
 74
0
 42
0.0000001
 43
0.0000001
 44
0.0000000001
 40
0.0
 40
0.0
 40
0.0
 40
0.0
 40
0.1142615855
 40
0.2375404653
 40
0.5000060639
 40
0.7624683436
 40
0.8857433475
 40
1.0
 40
1.0
 40
1.0
 40
1.0
 10
0.4796933312
 20
-2.0069887167
 30
0.0
 10
0.3973993453
 20
-1.9594732006
 30
0.0
 10
0.2348375944
 20
-1.845532326
 30
0.0
 10
-0.0694671951
 20
-1.5606706825
 30
0.0
 10
-0.3909463432
 20
-1.1215933731
 30
0.0
 10
-0.6104584965
 20
-0.6236485721
 30
0.0
 10
-0.7049977814
 20
-0.2176909815
 30
0.0
 10
-0.7223881966
 20
-0.0199447754
 30
0.0
 10
-0.7223881968
 20
0.0750775625
 30
0.0
  0
SPLINE
  5
3EB
100
AcDbEntity
  8
0
100
AcDbSpline
 62
7
  6
CONTINUOUS
 70
0
 71
3
 72
15
 73
11
 74
0
 42
0.0000001
 43
0.0000001
 44
0.0000000001
 40
0.0
 40
0.0
 40
0.0
 40
0.0
 40
0.1449018469
 40
0.2745170393
 40
0.3911053272
 40
0.4999889023
 40
0.6088744922
 40
0.7254681378
 40
0.8550905417
 40
1.0
 40
1.0
 40
1.0
 40
1.0
 10
11.1570057271
 20
-6.7839356054
 30
0.0
 10
11.1570057271
 20
-6.8700991253
 30
0.0
 10
11.1439852699
 20
-7.0339076581
 30
0.0
 10
11.0776104756
 20
-7.258913708
 30
0.0
 10
10.9658394982
 20
-7.4416231813
 30
0.0
 10
10.8106900302
 20
-7.5721025223
 30
0.0
 10
10.6201062129
 20
-7.6412054078
 30
0.0
 10
10.4059810445
 20
-7.6466283848
 30
0.0
 10
10.1779246173
 20
-7.5915915235
 30
0.0
 10
10.0295467139
 20
-7.5209543719
 30
0.0
 10
9.9549241991
 20
-7.4778682673
 30
0.0
  0
SPLINE
  5
3EC
100
AcDbEntity
  8
0
100
AcDbSpline
 62
7
  6
CONTINUOUS
 70
0
 71
3
 72
15
 73
11
 74
0
 42
0.0000001
 43
0.0000001
 44
0.0000000001
 40
0.0
 40
0.0
 40
0.0
 40
0.0
 40
0.1449018481
 40
0.2745170406
 40
0.3911053286
 40
0.4999889043
 40
0.6088744936
 40
0.7254681391
 40
0.8550905429
 40
1.0
 40
1.0
 40
1.0
 40
1.0
 10
-0.7223881968
 20
-5.7218614028
 30
0.0
 10
-0.7223881966
 20
-5.6356978822
 30
0.0
 10
-0.7093677395
 20
-5.4718893486
 30
0.0
 10
-0.6429929446
 20
-5.2468832979
 30
0.0
 10
-0.5312219661
 20
-5.0641738248
 30
0.0
 10
-0.3760724973
 20
-4.9336944844
 30
0.0
 10
-0.1854886798
 20
-4.8645915998
 30
0.0
 10
0.0286364881
 20
-4.8591686238
 30
0.0
 10
0.2566929143
 20
-4.9142054853
 30
0.0
 10
0.4050708171
 20
-4.9848426365
 30
0.0
 10
0.4796933312
 20
-5.0279287409
 30
0.0
  0
SPLINE
  5
3ED
100
AcDbEntity
  8
0
100
AcDbSpline
 62
7
  6
CONTINUOUS
 70
0
 71
3
 72
15
 73
11
 74
0
 42
0.0000001
 43
0.0000001
 44
0.0000000001
 40
0.0
 40
0.0
 40
0.0
 40
0.0
 40
0.1449018469
 40
0.2745170393
 40
0.3911053272
 40
0.4999889023
 40
0.6088744922
 40
0.7254681378
 40
0.8550905417
 40
1.0
 40
1.0
 40
1.0
 40
1.0
 10
-16.6322907735
 20
20.2019576214
 30
0.0
 10
-16.6322907735
 20
20.2881211412
 30
0.0
 10
-16.6192703164
 20
20.451929674
 30
0.0
 10
-16.552895522
 20
20.6769357239
 30
0.0
 10
-16.4411245446
 20
20.8596451972
 30
0.0
 10
-16.2859750766
 20
20.9901245382
 30
0.0
 10
-16.0953912593
 20
21.0592274238
 30
0.0
 10
-15.8812660909
 20
21.0646504008
 30
0.0
 10
-15.6532096637
 20
21.0096135395
 30
0.0
 10
-15.5048317603
 20
20.9389763879
 30
0.0
 10
-15.4302092455
 20
20.8958902833
 30
0.0
  0
SPLINE
  5
3EE
100
AcDbEntity
  8
0
100
AcDbSpline
 62
7
  6
CONTINUOUS
 70
0
 71
3
 72
13
 73
9
 74
0
 42
0.0000001
 43
0.0000001
 44
0.0000000001
 40
0.0
 40
0.0
 40
0.0
 40
0.0
 40
0.1142615855
 40
0.2375404653
 40
0.5000060639
 40
0.7624683436
 40
0.8857433475
 40
1.0
 40
1.0
 40
1.0
 40
1.0
 10
-15.4302092455
 20
7.1791896331
 30
0.0
 10
-15.5125032314
 20
7.2267051492
 30
0.0
 10
-15.6750649823
 20
7.3406460239
 30
0.0
 10
-15.9793697718
 20
7.6255076673
 30
0.0
 10
-16.3008489199
 20
8.0645849767
 30
0.0
 10
-16.5203610732
 20
8.5625297778
 30
0.0
 10
-16.6149003581
 20
8.9684873684
 30
0.0
 10
-16.6322907733
 20
9.1662335745
 30
0.0
 10
-16.6322907735
 20
9.2612559124
 30
0.0
  0
SPLINE
  5
3EF
100
AcDbEntity
  8
0
100
AcDbSpline
 62
7
  6
CONTINUOUS
 70
0
 71
3
 72
15
 73
11
 74
0
 42
0.0000001
 43
0.0000001
 44
0.0000000001
 40
0.0
 40
0.0
 40
0.0
 40
0.0
 40
0.1449018469
 40
0.2745170393
 40
0.3911053272
 40
0.4999889023
 40
0.6088744922
 40
0.7254681378
 40
0.8550905417
 40
1.0
 40
1.0
 40
1.0
 40
1.0
 10
-4.7528968496
 20
2.4022427444
 30
0.0
 10
-4.7528968496
 20
2.3160792246
 30
0.0
 10
-4.7659173067
 20
2.1522706918
 30
0.0
 10
-4.8322921011
 20
1.9272646419
 30
0.0
 10
-4.9440630785
 20
1.7445551686
 30
0.0
 10
-5.0992125465
 20
1.6140758276
 30
0.0
 10
-5.2897963638
 20
1.544972942
 30
0.0
 10
-5.5039215322
 20
1.539549965
 30
0.0
 10
-5.7319779594
 20
1.5945868264
 30
0.0
 10
-5.8803558628
 20
1.6652239779
 30
0.0
 10
-5.9549783776
 20
1.7083100826
 30
0.0
  0
SPLINE
  5
3F0
100
AcDbEntity
  8
0
100
AcDbSpline
 62
7
  6
CONTINUOUS
 70
0
 71
3
 72
15
 73
11
 74
0
 42
0.0000001
 43
0.0000001
 44
0.0000000001
 40
0.0
 40
0.0
 40
0.0
 40
0.0
 40
0.1449018469
 40
0.2745170393
 40
0.3911053272
 40
0.4999889023
 40
0.6088744922
 40
0.7254681378
 40
0.8550905417
 40
1.0
 40
1.0
 40
1.0
 40
1.0
 10
-32.5421933502
 20
29.3881359713
 30
0.0
 10
-32.5421933502
 20
29.4742994911
 30
0.0
 10
-32.5291728931
 20
29.6381080239
 30
0.0
 10
-32.4627980987
 20
29.8631140738
 30
0.0
 10
-32.3510271213
 20
30.0458235471
 30
0.0
 10
-32.1958776533
 20
30.1763028881
 30
0.0
 10
-32.005293836
 20
30.2454057737
 30
0.0
 10
-31.7911686676
 20
30.2508287507
 30
0.0
 10
-31.5631122404
 20
30.1957918893
 30
0.0
 10
-31.414734337
 20
30.1251547377
 30
0.0
 10
-31.3401118222
 20
30.0820686331
 30
0.0
  0
SPLINE
  5
3F1
100
AcDbEntity
  8
0
100
AcDbSpline
 62
7
  6
CONTINUOUS
 70
0
 71
3
 72
13
 73
9
 74
0
 42
0.0000001
 43
0.0000001
 44
0.0000000001
 40
0.0
 40
0.0
 40
0.0
 40
0.0
 40
0.1142615855
 40
0.2375404653
 40
0.5000060639
 40
0.7624683436
 40
0.8857433475
 40
1.0
 40
1.0
 40
1.0
 40
1.0
 10
-31.3401118222
 20
16.365367983
 30
0.0
 10
-31.4224058081
 20
16.4128834991
 30
0.0
 10
-31.584967559
 20
16.5268243737
 30
0.0
 10
-31.8892723485
 20
16.8116860172
 30
0.0
 10
-32.2107514965
 20
17.2507633266
 30
0.0
 10
-32.4302636499
 20
17.7487081277
 30
0.0
 10
-32.5248029348
 20
18.1546657182
 30
0.0
 10
-32.54219335
 20
18.3524119244
 30
0.0
 10
-32.5421933502
 20
18.4474342622
 30
0.0
  0
SPLINE
  5
3F2
100
AcDbEntity
  8
ASSI
100
AcDbSpline
 62
7
  6
CONTINUOUS
 70
0
 71
3
 72
9
 73
5
 74
0
 42
0.0000001
 43
0.0000001
 44
0.0000000001
 40
0.0
 40
0.0
 40
0.0
 40
0.0
 40
0.2412670945
 40
1.0
 40
1.0
 40
1.0
 40
1.0
 10
25.8643921366
 20
-19.7687624009
 30
0.0
 10
25.8877464037
 20
-19.7838281321
 30
0.0
 10
25.9830520732
 20
-19.8485747883
 30
0.0
 10
26.0723875765
 20
-19.9219598297
 30
0.0
 10
26.1366864233
 20
-19.9811579501
 30
0.0
  0
SPLINE
  5
3F3
100
AcDbEntity
  8
ASSI
100
AcDbSpline
 62
7
  6
CONTINUOUS
 70
0
 71
3
 72
11
 73
7
 74
0
 42
0.0000001
 43
0.0000001
 44
0.0000000001
 40
0.0
 40
0.0
 40
0.0
 40
0.0
 40
0.2527052385
 40
0.5150882723
 40
0.7694942965
 40
1.0
 40
1.0
 40
1.0
 40
1.0
 10
26.1366864233
 20
-19.9811579501
 30
0.0
 10
26.2647914772
 20
-20.0991006317
 30
0.0
 10
26.4995253711
 20
-20.3690153966
 30
0.0
 10
26.7699795575
 20
-20.8282836901
 30
0.0
 10
26.9477190902
 20
-21.3145474293
 30
0.0
 10
26.9961976256
 20
-21.6490390571
 30
0.0
 10
26.9961976257
 20
-21.8078724889
 30
0.0
  0
SPLINE
  5
3F4
100
AcDbEntity
  8
ASSI
100
AcDbSpline
 62
7
  6
CONTINUOUS
 70
0
 71
3
 72
9
 73
5
 74
0
 42
0.0000001
 43
0.0000001
 44
0.0000000001
 40
0.0
 40
0.0
 40
0.0
 40
0.0
 40
0.2412670945
 40
1.0
 40
1.0
 40
1.0
 40
1.0
 10
9.9544895599
 20
-10.5825840511
 30
0.0
 10
9.977843827
 20
-10.5976497822
 30
0.0
 10
10.0731494965
 20
-10.6623964384
 30
0.0
 10
10.1624849998
 20
-10.7357814798
 30
0.0
 10
10.2267838466
 20
-10.7949796002
 30
0.0
  0
SPLINE
  5
3F5
100
AcDbEntity
  8
ASSI
100
AcDbSpline
 62
7
  6
CONTINUOUS
 70
0
 71
3
 72
11
 73
7
 74
0
 42
0.0000001
 43
0.0000001
 44
0.0000000001
 40
0.0
 40
0.0
 40
0.0
 40
0.0
 40
0.2527052385
 40
0.5150882723
 40
0.7694942965
 40
1.0
 40
1.0
 40
1.0
 40
1.0
 10
10.2267838466
 20
-10.7949796002
 30
0.0
 10
10.3548889005
 20
-10.9129222818
 30
0.0
 10
10.5896227944
 20
-11.1828370468
 30
0.0
 10
10.8600769808
 20
-11.6421053403
 30
0.0
 10
11.0378165135
 20
-12.1283690794
 30
0.0
 10
11.0862950489
 20
-12.4628607072
 30
0.0
 10
11.086295049
 20
-12.621694139
 30
0.0
  0
SPLINE
  5
3F6
100
AcDbEntity
  8
ASSI
100
AcDbSpline
 62
7
  6
CONTINUOUS
 70
0
 71
3
 72
9
 73
5
 74
0
 42
0.0000001
 43
0.0000001
 44
0.0000000001
 40
0.0
 40
0.0
 40
0.0
 40
0.0
 40
0.2412670945
 40
1.0
 40
1.0
 40
1.0
 40
1.0
 10
-5.9554130168
 20
-1.3964057012
 30
0.0
 10
-5.9320587497
 20
-1.4114714324
 30
0.0
 10
-5.8367530802
 20
-1.4762180885
 30
0.0
 10
-5.7474175769
 20
-1.5496031299
 30
0.0
 10
-5.6831187301
 20
-1.6088012504
 30
0.0
  0
SPLINE
  5
3F7
100
AcDbEntity
  8
ASSI
100
AcDbSpline
 62
7
  6
CONTINUOUS
 70
0
 71
3
 72
11
 73
7
 74
0
 42
0.0000001
 43
0.0000001
 44
0.0000000001
 40
0.0
 40
0.0
 40
0.0
 40
0.0
 40
0.2527052385
 40
0.5150882723
 40
0.7694942965
 40
1.0
 40
1.0
 40
1.0
 40
1.0
 10
-5.6831187301
 20
-1.6088012504
 30
0.0
 10
-5.5550136762
 20
-1.7267439319
 30
0.0
 10
-5.3202797823
 20
-1.9966586969
 30
0.0
 10
-5.0498255959
 20
-2.4559269904
 30
0.0
 10
-4.8720860632
 20
-2.9421907295
 30
0.0
 10
-4.8236075278
 20
-3.2766823574
 30
0.0
 10
-4.8236075277
 20
-3.4355157891
 30
0.0
  0
SPLINE
  5
3F8
100
AcDbEntity
  8
ASSI
100
AcDbSpline
 62
7
  6
CONTINUOUS
 70
0
 71
3
 72
9
 73
5
 74
0
 42
0.0000001
 43
0.0000001
 44
0.0000000001
 40
0.0
 40
0.0
 40
0.0
 40
0.0
 40
0.2412670945
 40
1.0
 40
1.0
 40
1.0
 40
1.0
 10
-21.8653155935
 20
7.7897726487
 30
0.0
 10
-21.8419613264
 20
7.7747069175
 30
0.0
 10
-21.7466556569
 20
7.7099602613
 30
0.0
 10
-21.6573201536
 20
7.63657522
 30
0.0
 10
-21.5930213068
 20
7.5773770995
 30
0.0
  0
SPLINE
  5
3F9
100
AcDbEntity
  8
ASSI
100
AcDbSpline
 62
7
  6
CONTINUOUS
 70
0
 71
3
 72
11
 73
7
 74
0
 42
0.0000001
 43
0.0000001
 44
0.0000000001
 40
0.0
 40
0.0
 40
0.0
 40
0.0
 40
0.2527052385
 40
0.5150882723
 40
0.7694942965
 40
1.0
 40
1.0
 40
1.0
 40
1.0
 10
-21.5930213068
 20
7.5773770995
 30
0.0
 10
-21.4649162529
 20
7.4594344179
 30
0.0
 10
-21.2301823589
 20
7.189519653
 30
0.0
 10
-20.9597281726
 20
6.7302513595
 30
0.0
 10
-20.7819886399
 20
6.2439876204
 30
0.0
 10
-20.7335101045
 20
5.9094959925
 30
0.0
 10
-20.7335101044
 20
5.7506625607
 30
0.0
  0
SPLINE
  5
3FA
100
AcDbEntity
  8
ASSI
100
AcDbSpline
 62
7
  6
CONTINUOUS
 70
0
 71
3
 72
9
 73
5
 74
0
 42
0.0000001
 43
0.0000001
 44
0.0000000001
 40
0.0
 40
0.0
 40
0.0
 40
0.0
 40
0.24126708
 40
1.0
 40
1.0
 40
1.0
 40
1.0
 10
25.8643918062
 20
-3.0311215134
 30
0.0
 10
25.8877461076
 20
-3.0461872592
 30
0.0
 10
25.9830519207
 20
-3.1109339873
 30
0.0
 10
26.072387551
 20
-3.1843191276
 30
0.0
 10
26.1366864856
 20
-3.2435173333
 30
0.0
  0
SPLINE
  5
3FB
100
AcDbEntity
  8
ASSI
100
AcDbSpline
 62
7
  6
CONTINUOUS
 70
0
 71
3
 72
11
 73
7
 74
0
 42
0.0000001
 43
0.0000001
 44
0.0000000001
 40
0.0
 40
0.0
 40
0.0
 40
0.0
 40
0.2527052401
 40
0.515088273
 40
0.7694942961
 40
1.0
 40
1.0
 40
1.0
 40
1.0
 10
26.1366864856
 20
-3.2435173333
 30
0.0
 10
26.2647915308
 20
-3.3614600154
 30
0.0
 10
26.499525408
 20
-3.6313747759
 30
0.0
 10
26.7699795744
 20
-4.0906430553
 30
0.0
 10
26.9477190943
 20
-4.5769067753
 30
0.0
 10
26.9961976254
 20
-4.9113983891
 30
0.0
 10
26.9961976257
 20
-5.0702318146
 30
0.0
  0
SPLINE
  5
3FC
100
AcDbEntity
  8
ASSI
100
AcDbSpline
 62
7
  6
CONTINUOUS
 70
0
 71
3
 72
9
 73
5
 74
0
 42
0.0000001
 43
0.0000001
 44
0.0000000001
 40
0.0
 40
0.0
 40
0.0
 40
0.0
 40
0.24126708
 40
1.0
 40
1.0
 40
1.0
 40
1.0
 10
9.9544892295
 20
6.1550568365
 30
0.0
 10
9.9778435309
 20
6.1399910907
 30
0.0
 10
10.073149344
 20
6.0752443626
 30
0.0
 10
10.1624849743
 20
6.0018592223
 30
0.0
 10
10.2267839089
 20
5.9426610166
 30
0.0
  0
SPLINE
  5
3FD
100
AcDbEntity
  8
ASSI
100
AcDbSpline
 62
7
  6
CONTINUOUS
 70
0
 71
3
 72
11
 73
7
 74
0
 42
0.0000001
 43
0.0000001
 44
0.0000000001
 40
0.0
 40
0.0
 40
0.0
 40
0.0
 40
0.2527052401
 40
0.515088273
 40
0.7694942961
 40
1.0
 40
1.0
 40
1.0
 40
1.0
 10
10.2267839089
 20
5.9426610166
 30
0.0
 10
10.3548889541
 20
5.8247183344
 30
0.0
 10
10.5896228313
 20
5.554803574
 30
0.0
 10
10.8600769977
 20
5.0955352946
 30
0.0
 10
11.0378165176
 20
4.6092715746
 30
0.0
 10
11.0862950487
 20
4.2747799608
 30
0.0
 10
11.086295049
 20
4.1159465353
 30
0.0
  0
SPLINE
  5
3FE
100
AcDbEntity
  8
ASSI
100
AcDbSpline
 62
7
  6
CONTINUOUS
 70
0
 71
3
 72
9
 73
5
 74
0
 42
0.0000001
 43
0.0000001
 44
0.0000000001
 40
0.0
 40
0.0
 40
0.0
 40
0.0
 40
0.24126708
 40
1.0
 40
1.0
 40
1.0
 40
1.0
 10
-5.9554133472
 20
15.3412351864
 30
0.0
 10
-5.9320590458
 20
15.3261694406
 30
0.0
 10
-5.8367532327
 20
15.2614227125
 30
0.0
 10
-5.7474176024
 20
15.1880375722
 30
0.0
 10
-5.6831186678
 20
15.1288393665
 30
0.0
  0
SPLINE
  5
3FF
100
AcDbEntity
  8
ASSI
100
AcDbSpline
 62
7
  6
CONTINUOUS
 70
0
 71
3
 72
11
 73
7
 74
0
 42
0.0000001
 43
0.0000001
 44
0.0000000001
 40
0.0
 40
0.0
 40
0.0
 40
0.0
 40
0.2527052401
 40
0.515088273
 40
0.7694942961
 40
1.0
 40
1.0
 40
1.0
 40
1.0
 10
-5.6831186678
 20
15.1288393665
 30
0.0
 10
-5.5550136226
 20
15.0108966843
 30
0.0
 10
-5.3202797454
 20
14.7409819238
 30
0.0
 10
-5.0498255789
 20
14.2817136445
 30
0.0
 10
-4.8720860591
 20
13.7954499244
 30
0.0
 10
-4.823607528
 20
13.4609583107
 30
0.0
 10
-4.8236075277
 20
13.3021248851
 30
0.0
  0
SPLINE
  5
400
100
AcDbEntity
  8
ASSI
100
AcDbSpline
 62
7
  6
CONTINUOUS
 70
0
 71
3
 72
9
 73
5
 74
0
 42
0.0000001
 43
0.0000001
 44
0.0000000001
 40
0.0
 40
0.0
 40
0.0
 40
0.0
 40
0.24126708
 40
1.0
 40
1.0
 40
1.0
 40
1.0
 10
-21.8653159239
 20
24.5274135362
 30
0.0
 10
-21.8419616225
 20
24.5123477904
 30
0.0
 10
-21.7466558094
 20
24.4476010624
 30
0.0
 10
-21.6573201791
 20
24.374215922
 30
0.0
 10
-21.5930212445
 20
24.3150177163
 30
0.0
  0
SPLINE
  5
401
100
AcDbEntity
  8
ASSI
100
AcDbSpline
 62
7
  6
CONTINUOUS
 70
0
 71
3
 72
11
 73
7
 74
0
 42
0.0000001
 43
0.0000001
 44
0.0000000001
 40
0.0
 40
0.0
 40
0.0
 40
0.0
 40
0.2527052401
 40
0.515088273
 40
0.7694942961
 40
1.0
 40
1.0
 40
1.0
 40
1.0
 10
-21.5930212445
 20
24.3150177163
 30
0.0
 10
-21.4649161993
 20
24.1970750342
 30
0.0
 10
-21.2301823221
 20
23.9271602737
 30
0.0
 10
-20.9597281556
 20
23.4678919943
 30
0.0
 10
-20.7819886358
 20
22.9816282743
 30
0.0
 10
-20.7335101047
 20
22.6471366606
 30
0.0
 10
-20.7335101044
 20
22.488303235
 30
0.0
  0
SPLINE
  5
402
100
AcDbEntity
  8
ASSI
100
AcDbSpline
 62
7
  6
CONTINUOUS
 70
0
 71
3
 72
11
 73
7
 74
0
 42
0.0000001
 43
0.0000001
 44
0.0000000001
 40
0.0
 40
0.0
 40
0.0
 40
0.0
 40
0.2288397312
 40
0.4671387279
 40
0.7225205219
 40
1.0
 40
1.0
 40
1.0
 40
1.0
 10
-31.5158767457
 20
29.8149457176
 30
0.0
 10
-31.4862901354
 20
29.8320286656
 30
0.0
 10
-31.4210688135
 20
29.8591372562
 30
0.0
 10
-31.3134021546
 20
29.8749017208
 30
0.0
 10
-31.1978117487
 20
29.8664041664
 30
0.0
 10
-31.1204966616
 20
29.8458545047
 30
0.0
 10
-31.0813702226
 20
29.8322449474
 30
0.0
  0
SPLINE
  5
403
100
AcDbEntity
  8
ASSI
100
AcDbSpline
 62
7
  6
CONTINUOUS
 70
0
 71
3
 72
9
 73
5
 74
0
 42
0.0000001
 43
0.0000001
 44
0.0000000001
 40
0.0
 40
0.0
 40
0.0
 40
0.0
 40
0.2402814091
 40
1.0
 40
1.0
 40
1.0
 40
1.0
 10
-31.0813702226
 20
29.8322449474
 30
0.0
 10
-31.0675564368
 20
29.8274400248
 30
0.0
 10
-31.010605131
 20
29.8059047505
 30
0.0
 10
-30.9558947265
 20
29.7786189246
 30
0.0
 10
-30.9158477535
 20
29.7554963044
 30
0.0
  0
SPLINE
  5
404
100
AcDbEntity
  8
ASSI
100
AcDbSpline
 62
7
  6
CONTINUOUS
 70
0
 71
3
 72
11
 73
7
 74
0
 42
0.0000001
 43
0.0000001
 44
0.0000000001
 40
0.0
 40
0.0
 40
0.0
 40
0.0
 40
0.2288397312
 40
0.4671387279
 40
0.7225205219
 40
1.0
 40
1.0
 40
1.0
 40
1.0
 10
-15.605974169
 20
20.6287673677
 30
0.0
 10
-15.5763875587
 20
20.6458503157
 30
0.0
 10
-15.5111662368
 20
20.6729589063
 30
0.0
 10
-15.4034995779
 20
20.6887233709
 30
0.0
 10
-15.287909172
 20
20.6802258165
 30
0.0
 10
-15.210594085
 20
20.6596761549
 30
0.0
 10
-15.1714676459
 20
20.6460665975
 30
0.0
  0
SPLINE
  5
405
100
AcDbEntity
  8
ASSI
100
AcDbSpline
 62
7
  6
CONTINUOUS
 70
0
 71
3
 72
9
 73
5
 74
0
 42
0.0000001
 43
0.0000001
 44
0.0000000001
 40
0.0
 40
0.0
 40
0.0
 40
0.0
 40
0.2402814091
 40
1.0
 40
1.0
 40
1.0
 40
1.0
 10
-15.1714676459
 20
20.6460665975
 30
0.0
 10
-15.1576538601
 20
20.6412616749
 30
0.0
 10
-15.1007025543
 20
20.6197264006
 30
0.0
 10
-15.0459921498
 20
20.5924405747
 30
0.0
 10
-15.0059451768
 20
20.5693179545
 30
0.0
  0
SPLINE
  5
406
100
AcDbEntity
  8
ASSI
100
AcDbSpline
 62
7
  6
CONTINUOUS
 70
0
 71
3
 72
11
 73
7
 74
0
 42
0.0000001
 43
0.0000001
 44
0.0000000001
 40
0.0
 40
0.0
 40
0.0
 40
0.0
 40
0.2288397312
 40
0.4671387279
 40
0.7225205219
 40
1.0
 40
1.0
 40
1.0
 40
1.0
 10
0.3039284077
 20
11.4425890179
 30
0.0
 10
0.333515018
 20
11.4596719659
 30
0.0
 10
0.3987363399
 20
11.4867805564
 30
0.0
 10
0.5064029988
 20
11.502545021
 30
0.0
 10
0.6219934047
 20
11.4940474666
 30
0.0
 10
0.6993084917
 20
11.473497805
 30
0.0
 10
0.7384349308
 20
11.4598882476
 30
0.0
  0
SPLINE
  5
407
100
AcDbEntity
  8
ASSI
100
AcDbSpline
 62
7
  6
CONTINUOUS
 70
0
 71
3
 72
9
 73
5
 74
0
 42
0.0000001
 43
0.0000001
 44
0.0000000001
 40
0.0
 40
0.0
 40
0.0
 40
0.0
 40
0.2402814091
 40
1.0
 40
1.0
 40
1.0
 40
1.0
 10
0.7384349308
 20
11.4598882476
 30
0.0
 10
0.7522487166
 20
11.455083325
 30
0.0
 10
0.8092000224
 20
11.4335480508
 30
0.0
 10
0.8639104269
 20
11.4062622248
 30
0.0
 10
0.9039573999
 20
11.3831396046
 30
0.0
  0
SPLINE
  5
408
100
AcDbEntity
  8
ASSI
100
AcDbSpline
 62
7
  6
CONTINUOUS
 70
0
 71
3
 72
11
 73
7
 74
0
 42
0.0000001
 43
0.0000001
 44
0.0000000001
 40
0.0
 40
0.0
 40
0.0
 40
0.0
 40
0.2288397312
 40
0.4671387279
 40
0.7225205219
 40
1.0
 40
1.0
 40
1.0
 40
1.0
 10
16.2138309844
 20
2.256410668
 30
0.0
 10
16.2434175947
 20
2.273493616
 30
0.0
 10
16.3086389166
 20
2.3006022065
 30
0.0
 10
16.4163055755
 20
2.3163666712
 30
0.0
 10
16.5318959814
 20
2.3078691168
 30
0.0
 10
16.6092110684
 20
2.2873194551
 30
0.0
 10
16.6483375075
 20
2.2737098977
 30
0.0
  0
SPLINE
  5
409
100
AcDbEntity
  8
ASSI
100
AcDbSpline
 62
7
  6
CONTINUOUS
 70
0
 71
3
 72
9
 73
5
 74
0
 42
0.0000001
 43
0.0000001
 44
0.0000000001
 40
0.0
 40
0.0
 40
0.0
 40
0.0
 40
0.2402814091
 40
1.0
 40
1.0
 40
1.0
 40
1.0
 10
16.6483375075
 20
2.2737098977
 30
0.0
 10
16.6621512933
 20
2.2689049751
 30
0.0
 10
16.7191025991
 20
2.2473697009
 30
0.0
 10
16.7738130036
 20
2.220083875
 30
0.0
 10
16.8138599766
 20
2.1969612548
 30
0.0
  0
SPLINE
  5
40A
100
AcDbEntity
  8
ASSI
100
AcDbSpline
 62
7
  6
CONTINUOUS
 70
0
 71
3
 72
11
 73
7
 74
0
 42
0.0000001
 43
0.0000001
 44
0.0000000001
 40
0.0
 40
0.0
 40
0.0
 40
0.0
 40
0.228839792
 40
0.4671388204
 40
0.722520595
 40
1.0
 40
1.0
 40
1.0
 40
1.0
 10
-31.5158767457
 20
13.0773050434
 30
0.0
 10
-31.4862901894
 20
13.0943879602
 30
0.0
 10
-31.4210690006
 20
13.1214965142
 30
0.0
 10
-31.3134025692
 20
13.1372610181
 30
0.0
 10
-31.1978124078
 20
13.1287635924
 30
0.0
 10
-31.1204974737
 20
13.1082140629
 30
0.0
 10
-31.0813711113
 20
13.0946045821
 30
0.0
  0
SPLINE
  5
40B
100
AcDbEntity
  8
ASSI
100
AcDbSpline
 62
7
  6
CONTINUOUS
 70
0
 71
3
 72
9
 73
5
 74
0
 42
0.0000001
 43
0.0000001
 44
0.0000000001
 40
0.0
 40
0.0
 40
0.0
 40
0.0
 40
0.240281353
 40
1.0
 40
1.0
 40
1.0
 40
1.0
 10
-31.0813711113
 20
13.0946045821
 30
0.0
 10
-31.0675572522
 20
13.0897996517
 30
0.0
 10
-31.0106056327
 20
13.0682643212
 30
0.0
 10
-30.9558949353
 20
13.040978371
 30
0.0
 10
-30.9158477535
 20
13.0178556301
 30
0.0
  0
SPLINE
  5
40C
100
AcDbEntity
  8
ASSI
100
AcDbSpline
 62
7
  6
CONTINUOUS
 70
0
 71
3
 72
11
 73
7
 74
0
 42
0.0000001
 43
0.0000001
 44
0.0000000001
 40
0.0
 40
0.0
 40
0.0
 40
0.0
 40
0.228839792
 40
0.4671388204
 40
0.722520595
 40
1.0
 40
1.0
 40
1.0
 40
1.0
 10
-15.605974169
 20
3.8911266935
 30
0.0
 10
-15.5763876127
 20
3.9082096103
 30
0.0
 10
-15.5111664239
 20
3.9353181644
 30
0.0
 10
-15.4034999925
 20
3.9510826682
 30
0.0
 10
-15.2879098311
 20
3.9425852425
 30
0.0
 10
-15.210594897
 20
3.922035713
 30
0.0
 10
-15.1714685346
 20
3.9084262323
 30
0.0
  0
SPLINE
  5
40D
100
AcDbEntity
  8
ASSI
100
AcDbSpline
 62
7
  6
CONTINUOUS
 70
0
 71
3
 72
9
 73
5
 74
0
 42
0.0000001
 43
0.0000001
 44
0.0000000001
 40
0.0
 40
0.0
 40
0.0
 40
0.0
 40
0.240281353
 40
1.0
 40
1.0
 40
1.0
 40
1.0
 10
-15.1714685346
 20
3.9084262323
 30
0.0
 10
-15.1576546755
 20
3.9036213018
 30
0.0
 10
-15.100703056
 20
3.8820859713
 30
0.0
 10
-15.0459923586
 20
3.8548000211
 30
0.0
 10
-15.0059451768
 20
3.8316772803
 30
0.0
  0
SPLINE
  5
40E
100
AcDbEntity
  8
ASSI
100
AcDbSpline
 62
7
  6
CONTINUOUS
 70
0
 71
3
 72
11
 73
7
 74
0
 42
0.0000001
 43
0.0000001
 44
0.0000000001
 40
0.0
 40
0.0
 40
0.0
 40
0.0
 40
0.228839792
 40
0.4671388204
 40
0.722520595
 40
1.0
 40
1.0
 40
1.0
 40
1.0
 10
0.3039284077
 20
-5.2950516564
 30
0.0
 10
0.333514964
 20
-5.2779687396
 30
0.0
 10
0.3987361527
 20
-5.2508601855
 30
0.0
 10
0.5064025842
 20
-5.2350956817
 30
0.0
 10
0.6219927456
 20
-5.2435931073
 30
0.0
 10
0.6993076797
 20
-5.2641426368
 30
0.0
 10
0.738434042
 20
-5.2777521176
 30
0.0
  0
SPLINE
  5
40F
100
AcDbEntity
  8
ASSI
100
AcDbSpline
 62
7
  6
CONTINUOUS
 70
0
 71
3
 72
9
 73
5
 74
0
 42
0.0000001
 43
0.0000001
 44
0.0000000001
 40
0.0
 40
0.0
 40
0.0
 40
0.0
 40
0.240281353
 40
1.0
 40
1.0
 40
1.0
 40
1.0
 10
0.738434042
 20
-5.2777521176
 30
0.0
 10
0.7522479012
 20
-5.2825570481
 30
0.0
 10
0.8091995207
 20
-5.3040923785
 30
0.0
 10
0.8639102181
 20
-5.3313783287
 30
0.0
 10
0.9039573999
 20
-5.3545010696
 30
0.0
  0
SPLINE
  5
410
100
AcDbEntity
  8
ASSI
100
AcDbSpline
 62
7
  6
CONTINUOUS
 70
0
 71
3
 72
11
 73
7
 74
0
 42
0.0000001
 43
0.0000001
 44
0.0000000001
 40
0.0
 40
0.0
 40
0.0
 40
0.0
 40
0.228839792
 40
0.4671388204
 40
0.722520595
 40
1.0
 40
1.0
 40
1.0
 40
1.0
 10
16.2138309844
 20
-14.4812300063
 30
0.0
 10
16.2434175407
 20
-14.4641470894
 30
0.0
 10
16.3086387294
 20
-14.4370385354
 30
0.0
 10
16.4163051609
 20
-14.4212740316
 30
0.0
 10
16.5318953223
 20
-14.4297714572
 30
0.0
 10
16.6092102564
 20
-14.4503209867
 30
0.0
 10
16.6483366187
 20
-14.4639304675
 30
0.0
  0
SPLINE
  5
411
100
AcDbEntity
  8
ASSI
100
AcDbSpline
 62
7
  6
CONTINUOUS
 70
0
 71
3
 72
9
 73
5
 74
0
 42
0.0000001
 43
0.0000001
 44
0.0000000001
 40
0.0
 40
0.0
 40
0.0
 40
0.0
 40
0.240281353
 40
1.0
 40
1.0
 40
1.0
 40
1.0
 10
16.6483366187
 20
-14.4639304675
 30
0.0
 10
16.6621504779
 20
-14.4687353979
 30
0.0
 10
16.7191020974
 20
-14.4902707284
 30
0.0
 10
16.7738127948
 20
-14.5175566786
 30
0.0
 10
16.8138599766
 20
-14.5406794195
 30
0.0
  0
SPLINE
  5
412
100
AcDbEntity
  8
ASSI
100
AcDbSpline
 62
7
  6
CONTINUOUS
 70
0
 71
3
 72
9
 73
5
 74
0
 42
0.0000001
 43
0.0000001
 44
0.0000000001
 40
0.0
 40
0.0
 40
0.0
 40
0.0
 40
0.2715340105
 40
1.0
 40
1.0
 40
1.0
 40
1.0
 10
26.9961976257
 20
-32.1770055492
 30
0.0
 10
26.9961976256
 20
-32.2082429251
 30
0.0
 10
26.9914600191
 20
-32.3230622029
 30
0.0
 10
26.9661572843
 20
-32.4382994454
 30
0.0
 10
26.9316082282
 20
-32.5146493392
 30
0.0
  0
SPLINE
  5
413
100
AcDbEntity
  8
ASSI
100
AcDbSpline
 62
7
  6
CONTINUOUS
 70
0
 71
3
 72
9
 73
5
 74
0
 42
0.0000001
 43
0.0000001
 44
0.0000000001
 40
0.0
 40
0.0
 40
0.0
 40
0.0
 40
0.5170807976
 40
1.0
 40
1.0
 40
1.0
 40
1.0
 10
26.9316082282
 20
-32.5146493392
 30
0.0
 10
26.9114357107
 20
-32.5592285475
 30
0.0
 10
26.8613146577
 20
-32.6412541646
 30
0.0
 10
26.7872736824
 20
-32.7034395435
 30
0.0
 10
26.7476984804
 20
-32.7262897826
 30
0.0
  0
SPLINE
  5
414
100
AcDbEntity
  8
ASSI
100
AcDbSpline
 62
7
  6
CONTINUOUS
 70
0
 71
3
 72
11
 73
7
 74
0
 42
0.0000001
 43
0.0000001
 44
0.0000000001
 40
0.0
 40
0.0
 40
0.0
 40
0.0
 40
0.2372134916
 40
0.4999938932
 40
0.7627776188
 40
1.0
 40
1.0
 40
1.0
 40
1.0
 10
16.9552813328
 20
-25.2363374626
 30
0.0
 10
16.9552813328
 20
-25.3754250288
 30
0.0
 10
17.0074515966
 20
-25.668780147
 30
0.0
 10
17.1893020766
 20
-26.0810106169
 30
0.0
 10
17.4553825601
 20
-26.4446167966
 30
0.0
 10
17.6833535309
 20
-26.6364815571
 30
0.0
 10
17.8038094703
 20
-26.7060313068
 30
0.0
  0
SPLINE
  5
415
100
AcDbEntity
  8
ASSI
100
AcDbSpline
 62
7
  6
CONTINUOUS
 70
0
 71
3
 72
11
 73
7
 74
0
 42
0.0000001
 43
0.0000001
 44
0.0000000001
 40
0.0
 40
0.0
 40
0.0
 40
0.0
 40
0.2372134916
 40
0.4999938932
 40
0.7627776188
 40
1.0
 40
1.0
 40
1.0
 40
1.0
 10
-30.7744263973
 20
19.0598382612
 30
0.0
 10
-30.7744263973
 20
18.9207506951
 30
0.0
 10
-30.7222561334
 20
18.6273955769
 30
0.0
 10
-30.5404056535
 20
18.215165107
 30
0.0
 10
-30.2743251699
 20
17.8515589273
 30
0.0
 10
-30.0463541992
 20
17.6596941668
 30
0.0
 10
-29.9258982598
 20
17.5901444171
 30
0.0
  0
SPLINE
  5
416
100
AcDbEntity
  8
ASSI
100
AcDbSpline
 62
7
  6
CONTINUOUS
 70
0
 71
3
 72
9
 73
5
 74
0
 42
0.0000001
 43
0.0000001
 44
0.0000000001
 40
0.0
 40
0.0
 40
0.0
 40
0.0
 40
0.2715340337
 40
1.0
 40
1.0
 40
1.0
 40
1.0
 10
-20.7335101044
 20
12.1191701747
 30
0.0
 10
-20.7335101044
 20
12.0879327719
 30
0.0
 10
-20.7382477192
 20
11.9731134057
 30
0.0
 10
-20.7635504963
 20
11.8578760722
 30
0.0
 10
-20.7980996136
 20
11.7815261377
 30
0.0
  0
SPLINE
  5
417
100
AcDbEntity
  8
ASSI
100
AcDbSpline
 62
7
  6
CONTINUOUS
 70
0
 71
3
 72
9
 73
5
 74
0
 42
0.0000001
 43
0.0000001
 44
0.0000000001
 40
0.0
 40
0.0
 40
0.0
 40
0.0
 40
0.5170807714
 40
1.0
 40
1.0
 40
1.0
 40
1.0
 10
-20.7980996136
 20
11.7815261377
 30
0.0
 10
-20.8182721318
 20
11.7369469832
 30
0.0
 10
-20.8683931701
 20
11.6549214659
 30
0.0
 10
-20.9424340829
 20
11.59273616
 30
0.0
 10
-20.9820092497
 20
11.5698859413
 30
0.0
  0
SPLINE
  5
418
100
AcDbEntity
  8
ASSI
100
AcDbSpline
 62
7
  6
CONTINUOUS
 70
0
 71
3
 72
9
 73
5
 74
0
 42
0.0000001
 43
0.0000001
 44
0.0000000001
 40
0.0
 40
0.0
 40
0.0
 40
0.0
 40
0.2715340105
 40
1.0
 40
1.0
 40
1.0
 40
1.0
 10
11.086295049
 20
-22.9908271993
 30
0.0
 10
11.0862950489
 20
-23.0220645752
 30
0.0
 10
11.0815574424
 20
-23.1368838531
 30
0.0
 10
11.0562547076
 20
-23.2521210955
 30
0.0
 10
11.0217056515
 20
-23.3284709894
 30
0.0
  0
SPLINE
  5
419
100
AcDbEntity
  8
ASSI
100
AcDbSpline
 62
7
  6
CONTINUOUS
 70
0
 71
3
 72
9
 73
5
 74
0
 42
0.0000001
 43
0.0000001
 44
0.0000000001
 40
0.0
 40
0.0
 40
0.0
 40
0.0
 40
0.5170807976
 40
1.0
 40
1.0
 40
1.0
 40
1.0
 10
11.0217056515
 20
-23.3284709894
 30
0.0
 10
11.001533134
 20
-23.3730501976
 30
0.0
 10
10.951412081
 20
-23.4550758147
 30
0.0
 10
10.8773711057
 20
-23.5172611936
 30
0.0
 10
10.8377959037
 20
-23.5401114327
 30
0.0
  0
SPLINE
  5
41A
100
AcDbEntity
  8
ASSI
100
AcDbSpline
 62
7
  6
CONTINUOUS
 70
0
 71
3
 72
11
 73
7
 74
0
 42
0.0000001
 43
0.0000001
 44
0.0000000001
 40
0.0
 40
0.0
 40
0.0
 40
0.0
 40
0.2372134916
 40
0.4999938932
 40
0.7627776188
 40
1.0
 40
1.0
 40
1.0
 40
1.0
 10
1.0453787561
 20
-16.0501591128
 30
0.0
 10
1.0453787561
 20
-16.1892466789
 30
0.0
 10
1.09754902
 20
-16.4826017971
 30
0.0
 10
1.2793994999
 20
-16.894832267
 30
0.0
 10
1.5454799834
 20
-17.2584384467
 30
0.0
 10
1.7734509542
 20
-17.4503032072
 30
0.0
 10
1.8939068936
 20
-17.5198529569
 30
0.0
  0
SPLINE
  5
41B
100
AcDbEntity
  8
ASSI
100
AcDbSpline
 62
7
  6
CONTINUOUS
 70
0
 71
3
 72
9
 73
5
 74
0
 42
0.0000001
 43
0.0000001
 44
0.0000000001
 40
0.0
 40
0.0
 40
0.0
 40
0.0
 40
0.2715340105
 40
1.0
 40
1.0
 40
1.0
 40
1.0
 10
-4.8236075277
 20
-13.8046488495
 30
0.0
 10
-4.8236075278
 20
-13.8358862253
 30
0.0
 10
-4.8283451343
 20
-13.9507055032
 30
0.0
 10
-4.8536478691
 20
-14.0659427456
 30
0.0
 10
-4.8881969252
 20
-14.1422926395
 30
0.0
  0
SPLINE
  5
41C
100
AcDbEntity
  8
ASSI
100
AcDbSpline
 62
7
  6
CONTINUOUS
 70
0
 71
3
 72
9
 73
5
 74
0
 42
0.0000001
 43
0.0000001
 44
0.0000000001
 40
0.0
 40
0.0
 40
0.0
 40
0.0
 40
0.5170807976
 40
1.0
 40
1.0
 40
1.0
 40
1.0
 10
-4.8881969252
 20
-14.1422926395
 30
0.0
 10
-4.9083694427
 20
-14.1868718478
 30
0.0
 10
-4.9584904957
 20
-14.2688974648
 30
0.0
 10
-5.032531471
 20
-14.3310828437
 30
0.0
 10
-5.072106673
 20
-14.3539330828
 30
0.0
  0
SPLINE
  5
41D
100
AcDbEntity
  8
ASSI
100
AcDbSpline
 62
7
  6
CONTINUOUS
 70
0
 71
3
 72
11
 73
7
 74
0
 42
0.0000001
 43
0.0000001
 44
0.0000000001
 40
0.0
 40
0.0
 40
0.0
 40
0.0
 40
0.2372134916
 40
0.4999938932
 40
0.7627776188
 40
1.0
 40
1.0
 40
1.0
 40
1.0
 10
-14.8645238206
 20
-6.8639807629
 30
0.0
 10
-14.8645238206
 20
-7.003068329
 30
0.0
 10
-14.8123535567
 20
-7.2964234472
 30
0.0
 10
-14.6305030768
 20
-7.7086539172
 30
0.0
 10
-14.3644225933
 20
-8.0722600968
 30
0.0
 10
-14.1364516225
 20
-8.2641248573
 30
0.0
 10
-14.0159956831
 20
-8.333674607
 30
0.0
  0
SPLINE
  5
41E
100
AcDbEntity
  8
ASSI
100
AcDbSpline
 62
7
  6
CONTINUOUS
 70
0
 71
3
 72
11
 73
7
 74
0
 42
0.0000001
 43
0.0000001
 44
0.0000000001
 40
0.0
 40
0.0
 40
0.0
 40
0.0
 40
0.2372134916
 40
0.4999938932
 40
0.7627776188
 40
1.0
 40
1.0
 40
1.0
 40
1.0
 10
-14.8645238206
 20
9.8736599114
 30
0.0
 10
-14.8645238206
 20
9.7345723452
 30
0.0
 10
-14.8123535567
 20
9.441217227
 30
0.0
 10
-14.6305030768
 20
9.0289867571
 30
0.0
 10
-14.3644225933
 20
8.6653805774
 30
0.0
 10
-14.1364516225
 20
8.4735158169
 30
0.0
 10
-14.0159956831
 20
8.4039660672
 30
0.0
  0
SPLINE
  5
41F
100
AcDbEntity
  8
ASSI
100
AcDbSpline
 62
7
  6
CONTINUOUS
 70
0
 71
3
 72
9
 73
5
 74
0
 42
0.0000001
 43
0.0000001
 44
0.0000000001
 40
0.0
 40
0.0
 40
0.0
 40
0.0
 40
0.2715340337
 40
1.0
 40
1.0
 40
1.0
 40
1.0
 10
-4.8236075277
 20
2.9329918248
 30
0.0
 10
-4.8236075277
 20
2.9017544221
 30
0.0
 10
-4.8283451425
 20
2.7869350559
 30
0.0
 10
-4.8536479196
 20
2.6716977223
 30
0.0
 10
-4.8881970369
 20
2.5953477878
 30
0.0
  0
SPLINE
  5
420
100
AcDbEntity
  8
ASSI
100
AcDbSpline
 62
7
  6
CONTINUOUS
 70
0
 71
3
 72
9
 73
5
 74
0
 42
0.0000001
 43
0.0000001
 44
0.0000000001
 40
0.0
 40
0.0
 40
0.0
 40
0.0
 40
0.5170807714
 40
1.0
 40
1.0
 40
1.0
 40
1.0
 10
-4.8881970369
 20
2.5953477878
 30
0.0
 10
-4.9083695551
 20
2.5507686333
 30
0.0
 10
-4.9584905934
 20
2.468743116
 30
0.0
 10
-5.0325315062
 20
2.4065578101
 30
0.0
 10
-5.072106673
 20
2.3837075914
 30
0.0
  0
SPLINE
  5
421
100
AcDbEntity
  8
ASSI
100
AcDbSpline
 62
7
  6
CONTINUOUS
 70
0
 71
3
 72
9
 73
5
 74
0
 42
0.0000001
 43
0.0000001
 44
0.0000000001
 40
0.0
 40
0.0
 40
0.0
 40
0.0
 40
0.2715340105
 40
1.0
 40
1.0
 40
1.0
 40
1.0
 10
-20.7335101044
 20
-4.6184704996
 30
0.0
 10
-20.7335101045
 20
-4.6497078754
 30
0.0
 10
-20.738247711
 20
-4.7645271533
 30
0.0
 10
-20.7635504458
 20
-4.8797643958
 30
0.0
 10
-20.7980995019
 20
-4.9561142896
 30
0.0
  0
SPLINE
  5
422
100
AcDbEntity
  8
ASSI
100
AcDbSpline
 62
7
  6
CONTINUOUS
 70
0
 71
3
 72
9
 73
5
 74
0
 42
0.0000001
 43
0.0000001
 44
0.0000000001
 40
0.0
 40
0.0
 40
0.0
 40
0.0
 40
0.5170807976
 40
1.0
 40
1.0
 40
1.0
 40
1.0
 10
-20.7980995019
 20
-4.9561142896
 30
0.0
 10
-20.8182720194
 20
-5.0006934979
 30
0.0
 10
-20.8683930724
 20
-5.0827191149
 30
0.0
 10
-20.9424340477
 20
-5.1449044939
 30
0.0
 10
-20.9820092497
 20
-5.167754733
 30
0.0
  0
SPLINE
  5
423
100
AcDbEntity
  8
ASSI
100
AcDbSpline
 62
7
  6
CONTINUOUS
 70
0
 71
3
 72
11
 73
7
 74
0
 42
0.0000001
 43
0.0000001
 44
0.0000000001
 40
0.0
 40
0.0
 40
0.0
 40
0.0
 40
0.2372134916
 40
0.4999938932
 40
0.7627776188
 40
1.0
 40
1.0
 40
1.0
 40
1.0
 10
-30.7744263973
 20
2.322197587
 30
0.0
 10
-30.7744263973
 20
2.1831100209
 30
0.0
 10
-30.7222561334
 20
1.8897549026
 30
0.0
 10
-30.5404056535
 20
1.4775244327
 30
0.0
 10
-30.2743251699
 20
1.1139182531
 30
0.0
 10
-30.0463541992
 20
0.9220534926
 30
0.0
 10
-29.9258982598
 20
0.8525037428
 30
0.0
  0
SPLINE
  5
424
100
AcDbEntity
  8
ASSI
100
AcDbSpline
 62
7
  6
CONTINUOUS
 70
0
 71
3
 72
9
 73
5
 74
0
 42
0.0000001
 43
0.0000001
 44
0.0000000001
 40
0.0
 40
0.0
 40
0.0
 40
0.0
 40
0.2715340337
 40
1.0
 40
1.0
 40
1.0
 40
1.0
 10
26.9961976257
 20
-15.439364875
 30
0.0
 10
26.9961976257
 20
-15.4706022777
 30
0.0
 10
26.9914600109
 20
-15.5854216439
 30
0.0
 10
26.9661572338
 20
-15.7006589775
 30
0.0
 10
26.9316081164
 20
-15.777008912
 30
0.0
  0
SPLINE
  5
425
100
AcDbEntity
  8
ASSI
100
AcDbSpline
 62
7
  6
CONTINUOUS
 70
0
 71
3
 72
9
 73
5
 74
0
 42
0.0000001
 43
0.0000001
 44
0.0000000001
 40
0.0
 40
0.0
 40
0.0
 40
0.0
 40
0.5170807714
 40
1.0
 40
1.0
 40
1.0
 40
1.0
 10
26.9316081164
 20
-15.777008912
 30
0.0
 10
26.9114355983
 20
-15.8215880665
 30
0.0
 10
26.86131456
 20
-15.9036135837
 30
0.0
 10
26.7872736472
 20
-15.9657988896
 30
0.0
 10
26.7476984804
 20
-15.9886491083
 30
0.0
  0
SPLINE
  5
426
100
AcDbEntity
  8
ASSI
100
AcDbSpline
 62
7
  6
CONTINUOUS
 70
0
 71
3
 72
11
 73
7
 74
0
 42
0.0000001
 43
0.0000001
 44
0.0000000001
 40
0.0
 40
0.0
 40
0.0
 40
0.0
 40
0.2372134916
 40
0.4999938932
 40
0.7627776188
 40
1.0
 40
1.0
 40
1.0
 40
1.0
 10
16.9552813328
 20
-8.4986967884
 30
0.0
 10
16.9552813328
 20
-8.6377843545
 30
0.0
 10
17.0074515966
 20
-8.9311394727
 30
0.0
 10
17.1893020766
 20
-9.3433699427
 30
0.0
 10
17.4553825601
 20
-9.7069761223
 30
0.0
 10
17.6833535309
 20
-9.8988408828
 30
0.0
 10
17.8038094703
 20
-9.9683906325
 30
0.0
  0
SPLINE
  5
427
100
AcDbEntity
  8
ASSI
100
AcDbSpline
 62
7
  6
CONTINUOUS
 70
0
 71
3
 72
11
 73
7
 74
0
 42
0.0000001
 43
0.0000001
 44
0.0000000001
 40
0.0
 40
0.0
 40
0.0
 40
0.0
 40
0.2372134916
 40
0.4999938932
 40
0.7627776188
 40
1.0
 40
1.0
 40
1.0
 40
1.0
 10
1.0453787561
 20
0.6874815615
 30
0.0
 10
1.0453787561
 20
0.5483939954
 30
0.0
 10
1.09754902
 20
0.2550388771
 30
0.0
 10
1.2793994999
 20
-0.1571915928
 30
0.0
 10
1.5454799834
 20
-0.5207977724
 30
0.0
 10
1.7734509542
 20
-0.7126625329
 30
0.0
 10
1.8939068936
 20
-0.7822122827
 30
0.0
  0
SPLINE
  5
428
100
AcDbEntity
  8
ASSI
100
AcDbSpline
 62
7
  6
CONTINUOUS
 70
0
 71
3
 72
9
 73
5
 74
0
 42
0.0000001
 43
0.0000001
 44
0.0000000001
 40
0.0
 40
0.0
 40
0.0
 40
0.0
 40
0.2715340337
 40
1.0
 40
1.0
 40
1.0
 40
1.0
 10
11.086295049
 20
-6.2531865251
 30
0.0
 10
11.086295049
 20
-6.2844239278
 30
0.0
 10
11.0815574342
 20
-6.399243294
 30
0.0
 10
11.0562546571
 20
-6.5144806276
 30
0.0
 10
11.0217055397
 20
-6.5908305621
 30
0.0
  0
SPLINE
  5
429
100
AcDbEntity
  8
ASSI
100
AcDbSpline
 62
7
  6
CONTINUOUS
 70
0
 71
3
 72
9
 73
5
 74
0
 42
0.0000001
 43
0.0000001
 44
0.0000000001
 40
0.0
 40
0.0
 40
0.0
 40
0.0
 40
0.5170807714
 40
1.0
 40
1.0
 40
1.0
 40
1.0
 10
11.0217055397
 20
-6.5908305621
 30
0.0
 10
11.0015330216
 20
-6.6354097166
 30
0.0
 10
10.9514119833
 20
-6.7174352339
 30
0.0
 10
10.8773710705
 20
-6.7796205397
 30
0.0
 10
10.8377959037
 20
-6.8024707585
 30
0.0
  0
SPLINE
  5
42A
100
AcDbEntity
  8
ASSI
100
AcDbSpline
 62
7
  6
CONTINUOUS
 70
0
 71
3
 72
13
 73
9
 74
0
 42
0.0000001
 43
0.0000001
 44
0.0000000001
 40
0.0
 40
0.0
 40
0.0
 40
0.0
 40
0.1142615855
 40
0.2375404653
 40
0.5000060639
 40
0.7624683436
 40
0.8857433475
 40
1.0
 40
1.0
 40
1.0
 40
1.0
 10
-15.3594985674
 20
7.2200092015
 30
0.0
 10
-15.4417925532
 20
7.2675247176
 30
0.0
 10
-15.6043543041
 20
7.3814655922
 30
0.0
 10
-15.9086590937
 20
7.6663272357
 30
0.0
 10
-16.2301382417
 20
8.1054045451
 30
0.0
 10
-16.449650395
 20
8.6033493461
 30
0.0
 10
-16.54418968
 20
9.0093069367
 30
0.0
 10
-16.5615800952
 20
9.2070531428
 30
0.0
 10
-16.5615800954
 20
9.3020754807
 30
0.0
  0
SPLINE
  5
42B
100
AcDbEntity
  8
ASSI
100
AcDbSpline
 62
7
  6
CONTINUOUS
 70
0
 71
3
 72
9
 73
5
 74
0
 42
0.0000001
 43
0.0000001
 44
0.0000000001
 40
0.0
 40
0.0
 40
0.0
 40
0.0
 40
0.2556065575
 40
1.0
 40
1.0
 40
1.0
 40
1.0
 10
-4.8236075277
 20
2.5247172315
 30
0.0
 10
-4.8236075277
 20
2.5113392905
 30
0.0
 10
-4.8242663438
 20
2.459004644
 30
0.0
 10
-4.8276039699
 20
2.4066935587
 30
0.0
 10
-4.8317757649
 20
2.3679574794
 30
0.0
  0
SPLINE
  5
42C
100
AcDbEntity
  8
ASSI
100
AcDbSpline
 62
7
  6
CONTINUOUS
 70
0
 71
3
 72
15
 73
11
 74
0
 42
0.0000001
 43
0.0000001
 44
0.0000000001
 40
0.0
 40
0.0
 40
0.0
 40
0.0
 40
0.1348515915
 40
0.2571603084
 40
0.3705368459
 40
0.4806428405
 40
0.5940220991
 40
0.7163355574
 40
0.8511929327
 40
1.0
 40
1.0
 40
1.0
 40
1.0
 10
-4.8418657066
 20
2.2942628122
 30
0.0
 10
-4.8533965521
 20
2.225377022
 30
0.0
 10
-4.8867950446
 20
2.0953801071
 30
0.0
 10
-4.9751121219
 20
1.9228979938
 30
0.0
 10
-5.0978778198
 20
1.7890513169
 30
0.0
 10
-5.2513988679
 20
1.7004271983
 30
0.0
 10
-5.4286884799
 20
1.6610375432
 30
0.0
 10
-5.6222868434
 20
1.6708249635
 30
0.0
 10
-5.8261202899
 20
1.727690344
 30
0.0
 10
-5.958943635
 20
1.7922466003
 30
0.0
 10
-6.0256890557
 20
1.8307845696
 30
0.0
  0
SPLINE
  5
42D
100
AcDbEntity
  8
ASSI
100
AcDbSpline
 62
7
  6
CONTINUOUS
 70
0
 71
3
 72
15
 73
11
 74
0
 42
0.0000001
 43
0.0000001
 44
0.0000000001
 40
0.0
 40
0.0
 40
0.0
 40
0.0
 40
0.1488004662
 40
0.2836513623
 40
0.4059596111
 40
0.5193362141
 40
0.6294430627
 40
0.7428240144
 40
0.8651398379
 40
1.0
 40
1.0
 40
1.0
 40
1.0
 10
-0.6516775187
 20
-5.8443358898
 30
0.0
 10
-0.6516775185
 20
-5.7672676917
 30
0.0
 10
-0.6411686835
 20
-5.6199693116
 30
0.0
 10
-0.5884903472
 20
-5.415025073
 30
0.0
 10
-0.5001574251
 20
-5.2424849674
 30
0.0
 10
-0.3773892629
 20
-5.1086589246
 30
0.0
 10
-0.2238676246
 20
-5.0200358271
 30
0.0
 10
-0.0465613784
 20
-4.9806586232
 30
0.0
 10
0.1469788513
 20
-4.9904307689
 30
0.0
 10
0.276263413
 20
-5.0265141914
 30
0.0
 10
0.3416882262
 20
-5.0509754004
 30
0.0
  0
SPLINE
  5
42E
100
AcDbEntity
  8
ASSI
100
AcDbSpline
 62
7
  6
CONTINUOUS
 70
0
 71
3
 72
15
 73
11
 74
0
 42
0.0000001
 43
0.0000001
 44
0.0000000001
 40
0.0
 40
0.0
 40
0.0
 40
0.0
 40
0.1488004778
 40
0.2836513917
 40
0.4059596616
 40
0.5193362816
 40
0.6294431371
 40
0.7428240803
 40
0.8651398772
 40
1.0
 40
1.0
 40
1.0
 40
1.0
 10
-32.4714826721
 20
29.2656614842
 30
0.0
 10
-32.4714826721
 20
29.3427296472
 30
0.0
 10
-32.4609738462
 20
29.4900279633
 30
0.0
 10
-32.4082955591
 20
29.6949721233
 30
0.0
 10
-32.3199627206
 20
29.8675121853
 30
0.0
 10
-32.1971946742
 20
30.0013382299
 30
0.0
 10
-32.0436731725
 20
30.0899613855
 30
0.0
 10
-31.8663670664
 20
30.1293387011
 30
0.0
 10
-31.672826971
 20
30.1195667109
 30
0.0
 10
-31.5435424849
 20
30.0834834096
 30
0.0
 10
-31.4781177089
 20
30.0590222659
 30
0.0
  0
SPLINE
  5
42F
100
AcDbEntity
  8
ASSI
100
AcDbSpline
 62
7
  6
CONTINUOUS
 70
0
 71
3
 72
13
 73
9
 74
0
 42
0.0000001
 43
0.0000001
 44
0.0000000001
 40
0.0
 40
0.0
 40
0.0
 40
0.0
 40
0.1142615855
 40
0.2375404653
 40
0.5000060639
 40
0.7624683436
 40
0.8857433475
 40
1.0
 40
1.0
 40
1.0
 40
1.0
 10
-31.2694011441
 20
16.4061875514
 30
0.0
 10
-31.3516951299
 20
16.4537030674
 30
0.0
 10
-31.5142568808
 20
16.5676439421
 30
0.0
 10
-31.8185616704
 20
16.8525055856
 30
0.0
 10
-32.1400408184
 20
17.2915828949
 30
0.0
 10
-32.3595529717
 20
17.789527696
 30
0.0
 10
-32.4540922567
 20
18.1954852866
 30
0.0
 10
-32.4714826719
 20
18.3932314927
 30
0.0
 10
-32.4714826721
 20
18.4882538306
 30
0.0
  0
SPLINE
  5
430
100
AcDbEntity
  8
ASSI
100
AcDbSpline
 62
7
  6
CONTINUOUS
 70
0
 71
3
 72
9
 73
5
 74
0
 42
0.0000001
 43
0.0000001
 44
0.0000000001
 40
0.0
 40
0.0
 40
0.0
 40
0.0
 40
0.2556065575
 40
1.0
 40
1.0
 40
1.0
 40
1.0
 10
-20.7335101044
 20
11.7108955813
 30
0.0
 10
-20.7335101044
 20
11.6975176404
 30
0.0
 10
-20.7341689205
 20
11.6451829939
 30
0.0
 10
-20.7375065466
 20
11.5928719086
 30
0.0
 10
-20.7416783416
 20
11.5541358293
 30
0.0
  0
SPLINE
  5
431
100
AcDbEntity
  8
ASSI
100
AcDbSpline
 62
7
  6
CONTINUOUS
 70
0
 71
3
 72
15
 73
11
 74
0
 42
0.0000001
 43
0.0000001
 44
0.0000000001
 40
0.0
 40
0.0
 40
0.0
 40
0.0
 40
0.1348515915
 40
0.2571603084
 40
0.3705368459
 40
0.4806428405
 40
0.5940220991
 40
0.7163355574
 40
0.8511929327
 40
1.0
 40
1.0
 40
1.0
 40
1.0
 10
-20.7517682833
 20
11.4804411621
 30
0.0
 10
-20.7632991288
 20
11.4115553719
 30
0.0
 10
-20.7966976213
 20
11.281558457
 30
0.0
 10
-20.8850146986
 20
11.1090763437
 30
0.0
 10
-21.0077803965
 20
10.9752296668
 30
0.0
 10
-21.1613014446
 20
10.8866055481
 30
0.0
 10
-21.3385910566
 20
10.8472158931
 30
0.0
 10
-21.5321894201
 20
10.8570033134
 30
0.0
 10
-21.7360228666
 20
10.9138686939
 30
0.0
 10
-21.8688462117
 20
10.9784249502
 30
0.0
 10
-21.9355916324
 20
11.0169629194
 30
0.0
  0
SPLINE
  5
432
100
AcDbEntity
  8
ASSI
100
AcDbSpline
 62
7
  6
CONTINUOUS
 70
0
 71
3
 72
13
 73
9
 74
0
 42
0.0000001
 43
0.0000001
 44
0.0000000001
 40
0.0
 40
0.0
 40
0.0
 40
0.0
 40
0.1142615865
 40
0.2375404667
 40
0.5000060664
 40
0.7624683449
 40
0.8857433485
 40
1.0
 40
1.0
 40
1.0
 40
1.0
 10
0.5504040093
 20
-18.7038098226
 30
0.0
 10
0.4681100228
 20
-18.656294306
 30
0.0
 10
0.3055482709
 20
-18.5423534308
 30
0.0
 10
0.0012434802
 20
-18.2574917855
 30
0.0
 10
-0.3202356672
 20
-17.8184144753
 30
0.0
 10
-0.5397478195
 20
-17.3204696741
 30
0.0
 10
-0.6342871034
 20
-16.9145120854
 30
0.0
 10
-0.6516775187
 20
-16.7167658804
 30
0.0
 10
-0.6516775187
 20
-16.6217435434
 30
0.0
  0
SPLINE
  5
433
100
AcDbEntity
  8
ASSI
100
AcDbSpline
 62
7
  6
CONTINUOUS
 70
0
 71
3
 72
15
 73
11
 74
0
 42
0.0000001
 43
0.0000001
 44
0.0000000001
 40
0.0
 40
0.0
 40
0.0
 40
0.0
 40
0.1488004778
 40
0.2836513917
 40
0.4059596616
 40
0.5193362816
 40
0.6294431371
 40
0.7428240803
 40
0.8651398772
 40
1.0
 40
1.0
 40
1.0
 40
1.0
 10
-16.5615800954
 20
20.0794831344
 30
0.0
 10
-16.5615800954
 20
20.1565512973
 30
0.0
 10
-16.5510712695
 20
20.3038496135
 30
0.0
 10
-16.4983929824
 20
20.5087937735
 30
0.0
 10
-16.4100601439
 20
20.6813338354
 30
0.0
 10
-16.2872920975
 20
20.81515988
 30
0.0
 10
-16.1337705958
 20
20.9037830356
 30
0.0
 10
-15.9564644897
 20
20.9431603513
 30
0.0
 10
-15.7629243943
 20
20.9333883611
 30
0.0
 10
-15.6336399082
 20
20.8973050598
 30
0.0
 10
-15.5682151322
 20
20.872843916
 30
0.0
  0
SPLINE
  5
434
100
AcDbEntity
  8
ASSI
100
AcDbSpline
 62
7
  6
CONTINUOUS
 70
0
 71
3
 72
9
 73
5
 74
0
 42
0.0000001
 43
0.0000001
 44
0.0000000001
 40
0.0
 40
0.0
 40
0.0
 40
0.0
 40
0.2556065818
 40
1.0
 40
1.0
 40
1.0
 40
1.0
 10
11.086295049
 20
-23.3991017927
 30
0.0
 10
11.086295049
 20
-23.41247979
 30
0.0
 10
11.0856362273
 20
-23.4648146518
 30
0.0
 10
11.0822985731
 20
-23.5171259522
 30
0.0
 10
11.0781267423
 20
-23.5558621877
 30
0.0
  0
SPLINE
  5
435
100
AcDbEntity
  8
ASSI
100
AcDbSpline
 62
7
  6
CONTINUOUS
 70
0
 71
3
 72
15
 73
11
 74
0
 42
0.0000001
 43
0.0000001
 44
0.0000000001
 40
0.0
 40
0.0
 40
0.0
 40
0.0
 40
0.1348515522
 40
0.2571602425
 40
0.3705367715
 40
0.4806427731
 40
0.5940220486
 40
0.716335528
 40
0.8511929212
 40
1.0
 40
1.0
 40
1.0
 40
1.0
 10
11.0680367323
 20
-23.629557035
 30
0.0
 10
11.0565058489
 20
-23.6984427604
 30
0.0
 10
11.0231072893
 20
-23.8284395491
 30
0.0
 10
10.9347901445
 20
-24.0009214685
 30
0.0
 10
10.8120244197
 20
-24.1347679681
 30
0.0
 10
10.6585033898
 20
-24.2233919394
 30
0.0
 10
10.481213834
 20
-24.2627814933
 30
0.0
 10
10.2876155502
 20
-24.2529940224
 30
0.0
 10
10.0837821964
 20
-24.1961286386
 30
0.0
 10
9.9509589112
 20
-24.1315724063
 30
0.0
 10
9.884213521
 20
-24.0930344546
 30
0.0
  0
SPLINE
  5
436
100
AcDbEntity
  8
ASSI
100
AcDbSpline
 62
7
  6
CONTINUOUS
 70
0
 71
3
 72
15
 73
11
 74
0
 42
0.0000001
 43
0.0000001
 44
0.0000000001
 40
0.0
 40
0.0
 40
0.0
 40
0.0
 40
0.1488004662
 40
0.2836513623
 40
0.4059596111
 40
0.5193362141
 40
0.6294430627
 40
0.7428240144
 40
0.8651398379
 40
1.0
 40
1.0
 40
1.0
 40
1.0
 10
-16.5615800954
 20
3.3418424601
 30
0.0
 10
-16.5615800952
 20
3.4189106582
 30
0.0
 10
-16.5510712602
 20
3.5662090382
 30
0.0
 10
-16.4983929239
 20
3.7711532768
 30
0.0
 10
-16.4100600018
 20
3.9436933825
 30
0.0
 10
-16.2872918396
 20
4.0775194253
 30
0.0
 10
-16.1337702012
 20
4.1661425228
 30
0.0
 10
-15.9564639551
 20
4.2055197266
 30
0.0
 10
-15.7629237254
 20
4.195747581
 30
0.0
 10
-15.6336391637
 20
4.1596641585
 30
0.0
 10
-15.5682143505
 20
4.1352029495
 30
0.0
  0
SPLINE
  5
437
100
AcDbEntity
  8
ASSI
100
AcDbSpline
 62
7
  6
CONTINUOUS
 70
0
 71
3
 72
13
 73
9
 74
0
 42
0.0000001
 43
0.0000001
 44
0.0000000001
 40
0.0
 40
0.0
 40
0.0
 40
0.0
 40
0.1142615865
 40
0.2375404667
 40
0.5000060664
 40
0.7624683449
 40
0.8857433485
 40
1.0
 40
1.0
 40
1.0
 40
1.0
 10
-15.3594985674
 20
-9.5176314728
 30
0.0
 10
-15.4417925539
 20
-9.4701159561
 30
0.0
 10
-15.6043543058
 20
-9.3561750809
 30
0.0
 10
-15.9086590965
 20
-9.0713134356
 30
0.0
 10
-16.2301382439
 20
-8.6322361254
 30
0.0
 10
-16.4496503962
 20
-8.1342913242
 30
0.0
 10
-16.5441896801
 20
-7.7283337356
 30
0.0
 10
-16.5615800954
 20
-7.5305875305
 30
0.0
 10
-16.5615800954
 20
-7.4355651936
 30
0.0
  0
SPLINE
  5
438
100
AcDbEntity
  8
ASSI
100
AcDbSpline
 62
7
  6
CONTINUOUS
 70
0
 71
3
 72
9
 73
5
 74
0
 42
0.0000001
 43
0.0000001
 44
0.0000000001
 40
0.0
 40
0.0
 40
0.0
 40
0.0
 40
0.2556065818
 40
1.0
 40
1.0
 40
1.0
 40
1.0
 10
-4.8236075277
 20
-14.2129234428
 30
0.0
 10
-4.8236075277
 20
-14.2263014401
 30
0.0
 10
-4.8242663494
 20
-14.278636302
 30
0.0
 10
-4.8276040036
 20
-14.3309476024
 30
0.0
 10
-4.8317758344
 20
-14.3696838378
 30
0.0
  0
SPLINE
  5
439
100
AcDbEntity
  8
ASSI
100
AcDbSpline
 62
7
  6
CONTINUOUS
 70
0
 71
3
 72
15
 73
11
 74
0
 42
0.0000001
 43
0.0000001
 44
0.0000000001
 40
0.0
 40
0.0
 40
0.0
 40
0.0
 40
0.1348515522
 40
0.2571602425
 40
0.3705367715
 40
0.4806427731
 40
0.5940220486
 40
0.716335528
 40
0.8511929212
 40
1.0
 40
1.0
 40
1.0
 40
1.0
 10
-4.8418658444
 20
-14.4433786851
 30
0.0
 10
-4.8533967278
 20
-14.5122644105
 30
0.0
 10
-4.8867952874
 20
-14.6422611992
 30
0.0
 10
-4.9751124322
 20
-14.8147431186
 30
0.0
 10
-5.097878157
 20
-14.9485896183
 30
0.0
 10
-5.2513991869
 20
-15.0372135895
 30
0.0
 10
-5.4286887427
 20
-15.0766031434
 30
0.0
 10
-5.6222870265
 20
-15.0668156726
 30
0.0
 10
-5.8261203803
 20
-15.0099502887
 30
0.0
 10
-5.9589436655
 20
-14.9453940564
 30
0.0
 10
-6.0256890557
 20
-14.9068561047
 30
0.0
  0
SPLINE
  5
43A
100
AcDbEntity
  8
ASSI
100
AcDbSpline
 62
7
  6
CONTINUOUS
 70
0
 71
3
 72
11
 73
7
 74
0
 42
0.0000001
 43
0.0000001
 44
0.0000000001
 40
0.0
 40
0.0
 40
0.0
 40
0.0
 40
0.2874005416
 40
0.5470442777
 40
0.7819664603
 40
1.0
 40
1.0
 40
1.0
 40
1.0
 10
15.9653318392
 20
-15.0305142396
 30
0.0
 10
15.9653318391
 20
-14.9745031354
 30
0.0
 10
15.9731764672
 20
-14.8675927969
 30
0.0
 10
16.0126922582
 20
-14.7192909142
 30
0.0
 10
16.078907157
 20
-14.5955715094
 30
0.0
 10
16.141740277
 20
-14.5313539047
 30
0.0
 10
16.1759079839
 20
-14.5060920719
 30
0.0
  0
SPLINE
  5
43B
100
AcDbEntity
  8
ASSI
100
AcDbSpline
 62
7
  6
CONTINUOUS
 70
0
 71
3
 72
15
 73
11
 74
0
 42
0.0000001
 43
0.0000001
 44
0.0000000001
 40
0.0
 40
0.0
 40
0.0
 40
0.0
 40
0.1488004662
 40
0.2836513623
 40
0.4059596111
 40
0.5193362141
 40
0.6294430627
 40
0.7428240144
 40
0.8651398379
 40
1.0
 40
1.0
 40
1.0
 40
1.0
 10
-32.4714826721
 20
12.52802081
 30
0.0
 10
-32.4714826719
 20
12.6050890081
 30
0.0
 10
-32.4609738369
 20
12.7523873881
 30
0.0
 10
-32.4082955006
 20
12.9573316267
 30
0.0
 10
-32.3199625785
 20
13.1298717324
 30
0.0
 10
-32.1971944163
 20
13.2636977751
 30
0.0
 10
-32.0436727779
 20
13.3523208727
 30
0.0
 10
-31.8663665318
 20
13.3916980765
 30
0.0
 10
-31.6728263021
 20
13.3819259309
 30
0.0
 10
-31.5435417404
 20
13.3458425084
 30
0.0
 10
-31.4781169272
 20
13.3213812994
 30
0.0
  0
SPLINE
  5
43C
100
AcDbEntity
  8
ASSI
100
AcDbSpline
 62
7
  6
CONTINUOUS
 70
0
 71
3
 72
11
 73
7
 74
0
 42
0.0000001
 43
0.0000001
 44
0.0000000001
 40
0.0
 40
0.0
 40
0.0
 40
0.0
 40
0.2372223749
 40
0.5000061065
 40
0.762786514
 40
1.0
 40
1.0
 40
1.0
 40
1.0
 10
16.8138599766
 20
-27.2776157374
 30
0.0
 10
16.6934040403
 20
-27.2080659898
 30
0.0
 10
16.4654330694
 20
-27.0162012301
 30
0.0
 10
16.1993525825
 20
-26.6525950486
 30
0.0
 10
16.0175021021
 20
-26.2403645745
 30
0.0
 10
15.9653318391
 20
-25.9470094561
 30
0.0
 10
15.9653318392
 20
-25.8079218933
 30
0.0
  0
SPLINE
  5
43D
100
AcDbEntity
  8
ASSI
100
AcDbSpline
 62
7
  6
CONTINUOUS
 70
0
 71
3
 72
13
 73
9
 74
0
 42
0.0000001
 43
0.0000001
 44
0.0000000001
 40
0.0
 40
0.0
 40
0.0
 40
0.0
 40
0.1142615865
 40
0.2375404667
 40
0.5000060664
 40
0.7624683449
 40
0.8857433485
 40
1.0
 40
1.0
 40
1.0
 40
1.0
 10
-31.2694011441
 20
-0.3314531229
 30
0.0
 10
-31.3516951306
 20
-0.2839376062
 30
0.0
 10
-31.5142568825
 20
-0.1699967311
 30
0.0
 10
-31.8185616732
 20
0.1148649143
 30
0.0
 10
-32.1400408206
 20
0.5539422244
 30
0.0
 10
-32.3595529729
 20
1.0518870256
 30
0.0
 10
-32.4540922568
 20
1.4578446143
 30
0.0
 10
-32.4714826721
 20
1.6555908193
 30
0.0
 10
-32.4714826721
 20
1.7506131563
 30
0.0
  0
SPLINE
  5
43E
100
AcDbEntity
  8
ASSI
100
AcDbSpline
 62
7
  6
CONTINUOUS
 70
0
 71
3
 72
11
 73
7
 74
0
 42
0.0000001
 43
0.0000001
 44
0.0000000001
 40
0.0
 40
0.0
 40
0.0
 40
0.0
 40
0.2874005571
 40
0.5470442903
 40
0.7819664638
 40
1.0
 40
1.0
 40
1.0
 40
1.0
 10
-31.7643758909
 20
29.2656614842
 30
0.0
 10
-31.7643758909
 20
29.3216726111
 30
0.0
 10
-31.7565312565
 20
29.4285829899
 30
0.0
 10
-31.7170154338
 20
29.5768849217
 30
0.0
 10
-31.65080048
 20
29.7006043516
 30
0.0
 10
-31.5879673111
 20
29.7648219514
 30
0.0
 10
-31.5537995798
 20
29.7900837751
 30
0.0
  0
SPLINE
  5
43F
100
AcDbEntity
  8
ASSI
100
AcDbSpline
 62
7
  6
CONTINUOUS
 70
0
 71
3
 72
11
 73
7
 74
0
 42
0.0000001
 43
0.0000001
 44
0.0000000001
 40
0.0
 40
0.0
 40
0.0
 40
0.0
 40
0.2372223756
 40
0.5000061071
 40
0.7627865148
 40
1.0
 40
1.0
 40
1.0
 40
1.0
 10
-30.9158477535
 20
17.0185599864
 30
0.0
 10
-31.0363036901
 20
17.0881097345
 30
0.0
 10
-31.2642746613
 20
17.2799744943
 30
0.0
 10
-31.5303551482
 20
17.6435806764
 30
0.0
 10
-31.7122056281
 20
18.0558111502
 30
0.0
 10
-31.7643758912
 20
18.3491662682
 30
0.0
 10
-31.7643758909
 20
18.4882538306
 30
0.0
  0
SPLINE
  5
440
100
AcDbEntity
  8
ASSI
100
AcDbSpline
 62
7
  6
CONTINUOUS
 70
0
 71
3
 72
9
 73
5
 74
0
 42
0.0000001
 43
0.0000001
 44
0.0000000001
 40
0.0
 40
0.0
 40
0.0
 40
0.0
 40
0.2556065818
 40
1.0
 40
1.0
 40
1.0
 40
1.0
 10
-20.7335101044
 20
-5.0267450929
 30
0.0
 10
-20.7335101044
 20
-5.0401230902
 30
0.0
 10
-20.7341689261
 20
-5.0924579521
 30
0.0
 10
-20.7375065803
 20
-5.1447692525
 30
0.0
 10
-20.7416784111
 20
-5.1835054879
 30
0.0
  0
SPLINE
  5
441
100
AcDbEntity
  8
ASSI
100
AcDbSpline
 62
7
  6
CONTINUOUS
 70
0
 71
3
 72
15
 73
11
 74
0
 42
0.0000001
 43
0.0000001
 44
0.0000000001
 40
0.0
 40
0.0
 40
0.0
 40
0.0
 40
0.1348515522
 40
0.2571602425
 40
0.3705367715
 40
0.4806427731
 40
0.5940220486
 40
0.716335528
 40
0.8511929212
 40
1.0
 40
1.0
 40
1.0
 40
1.0
 10
-20.7517684211
 20
-5.2572003352
 30
0.0
 10
-20.7632993045
 20
-5.3260860606
 30
0.0
 10
-20.7966978641
 20
-5.4560828494
 30
0.0
 10
-20.8850150089
 20
-5.6285647687
 30
0.0
 10
-21.0077807337
 20
-5.7624112684
 30
0.0
 10
-21.1613017636
 20
-5.8510352397
 30
0.0
 10
-21.3385913194
 20
-5.8904247935
 30
0.0
 10
-21.5321896032
 20
-5.8806373227
 30
0.0
 10
-21.736022957
 20
-5.8237719389
 30
0.0
 10
-21.8688462422
 20
-5.7592157066
 30
0.0
 10
-21.9355916324
 20
-5.7206777548
 30
0.0
  0
SPLINE
  5
442
100
AcDbEntity
  8
ASSI
100
AcDbSpline
 62
7
  6
CONTINUOUS
 70
0
 71
3
 72
11
 73
7
 74
0
 42
0.0000001
 43
0.0000001
 44
0.0000000001
 40
0.0
 40
0.0
 40
0.0
 40
0.0
 40
0.2874005416
 40
0.5470442777
 40
0.7819664603
 40
1.0
 40
1.0
 40
1.0
 40
1.0
 10
0.0554292625
 20
-5.8443358898
 30
0.0
 10
0.0554292624
 20
-5.7883247855
 30
0.0
 10
0.0632738905
 20
-5.681414447
 30
0.0
 10
0.1027896815
 20
-5.5331125644
 30
0.0
 10
0.1690045803
 20
-5.4093931595
 30
0.0
 10
0.2318377003
 20
-5.3451755548
 30
0.0
 10
0.2660054072
 20
-5.3199137221
 30
0.0
  0
SPLINE
  5
443
100
AcDbEntity
  8
ASSI
100
AcDbSpline
 62
7
  6
CONTINUOUS
 70
0
 71
3
 72
11
 73
7
 74
0
 42
0.0000001
 43
0.0000001
 44
0.0000000001
 40
0.0
 40
0.0
 40
0.0
 40
0.0
 40
0.2372223749
 40
0.5000061065
 40
0.762786514
 40
1.0
 40
1.0
 40
1.0
 40
1.0
 10
0.9039573999
 20
-18.0914373876
 30
0.0
 10
0.7835014636
 20
-18.0218876399
 30
0.0
 10
0.5555304927
 20
-17.8300228802
 30
0.0
 10
0.2894500058
 20
-17.4664166987
 30
0.0
 10
0.1075995254
 20
-17.0541862246
 30
0.0
 10
0.0554292624
 20
-16.7608311063
 30
0.0
 10
0.0554292625
 20
-16.6217435434
 30
0.0
  0
SPLINE
  5
444
100
AcDbEntity
  8
ASSI
100
AcDbSpline
 62
7
  6
CONTINUOUS
 70
0
 71
3
 72
11
 73
7
 74
0
 42
0.0000001
 43
0.0000001
 44
0.0000000001
 40
0.0
 40
0.0
 40
0.0
 40
0.0
 40
0.2874005416
 40
0.5470442777
 40
0.7819664603
 40
1.0
 40
1.0
 40
1.0
 40
1.0
 10
-15.8544733142
 20
3.3418424601
 30
0.0
 10
-15.8544733143
 20
3.3978535643
 30
0.0
 10
-15.8466286862
 20
3.5047639029
 30
0.0
 10
-15.8071128952
 20
3.6530657855
 30
0.0
 10
-15.7408979963
 20
3.7767851903
 30
0.0
 10
-15.6780648764
 20
3.8410027951
 30
0.0
 10
-15.6438971695
 20
3.8662646278
 30
0.0
  0
SPLINE
  5
445
100
AcDbEntity
  8
ASSI
100
AcDbSpline
 62
7
  6
CONTINUOUS
 70
0
 71
3
 72
11
 73
7
 74
0
 42
0.0000001
 43
0.0000001
 44
0.0000000001
 40
0.0
 40
0.0
 40
0.0
 40
0.0
 40
0.2372223749
 40
0.5000061065
 40
0.762786514
 40
1.0
 40
1.0
 40
1.0
 40
1.0
 10
-15.0059451768
 20
-8.9052590377
 30
0.0
 10
-15.1264011131
 20
-8.8357092901
 30
0.0
 10
-15.354372084
 20
-8.6438445303
 30
0.0
 10
-15.6204525709
 20
-8.2802383488
 30
0.0
 10
-15.8023030513
 20
-7.8680078747
 30
0.0
 10
-15.8544733143
 20
-7.5746527564
 30
0.0
 10
-15.8544733142
 20
-7.4355651936
 30
0.0
  0
SPLINE
  5
446
100
AcDbEntity
  8
ASSI
100
AcDbSpline
 62
7
  6
CONTINUOUS
 70
0
 71
3
 72
15
 73
11
 74
0
 42
0.0000001
 43
0.0000001
 44
0.0000000001
 40
0.0
 40
0.0
 40
0.0
 40
0.0
 40
0.1488004778
 40
0.2836513917
 40
0.4059596616
 40
0.5193362816
 40
0.6294431371
 40
0.7428240803
 40
0.8651398772
 40
1.0
 40
1.0
 40
1.0
 40
1.0
 10
15.258225058
 20
1.7071264346
 30
0.0
 10
15.258225058
 20
1.7841945975
 30
0.0
 10
15.2687338839
 20
1.9314929137
 30
0.0
 10
15.321412171
 20
2.1364370737
 30
0.0
 10
15.4097450095
 20
2.3089771357
 30
0.0
 10
15.5325130559
 20
2.4428031803
 30
0.0
 10
15.6860345576
 20
2.5314263359
 30
0.0
 10
15.8633406637
 20
2.5708036515
 30
0.0
 10
16.0568807591
 20
2.5610316613
 30
0.0
 10
16.1861652452
 20
2.52494836
 30
0.0
 10
16.2515900212
 20
2.5004872162
 30
0.0
  0
SPLINE
  5
447
100
AcDbEntity
  8
ASSI
100
AcDbSpline
 62
7
  6
CONTINUOUS
 70
0
 71
3
 72
9
 73
5
 74
0
 42
0.0000001
 43
0.0000001
 44
0.0000000001
 40
0.0
 40
0.0
 40
0.0
 40
0.0
 40
0.2474995002
 40
1.0
 40
1.0
 40
1.0
 40
1.0
 10
-20.9820092497
 20
11.5698859413
 30
0.0
 10
-20.9918326974
 20
11.5642140024
 30
0.0
 10
-21.0324849487
 20
11.5429856144
 30
0.0
 10
-21.0767543984
 20
11.5288398553
 30
0.0
 10
-21.1106106972
 20
11.5222672162
 30
0.0
  0
SPLINE
  5
448
100
AcDbEntity
  8
ASSI
100
AcDbSpline
 62
7
  6
CONTINUOUS
 70
0
 71
3
 72
10
 73
6
 74
0
 42
0.0000001
 43
0.0000001
 44
0.0000000001
 40
0.0
 40
0.0
 40
0.0
 40
0.0
 40
0.4579074902
 40
0.7178898928
 40
1.0
 40
1.0
 40
1.0
 40
1.0
 10
-21.1106106972
 20
11.5222672162
 30
0.0
 10
-21.1843036572
 20
11.5079609496
 30
0.0
 10
-21.3061505607
 20
11.515364708
 30
0.0
 10
-21.4620578746
 20
11.5664036118
 30
0.0
 10
-21.5419862714
 20
11.6062098486
 30
0.0
 10
-21.5820382418
 20
11.6293353545
 30
0.0
  0
SPLINE
  5
449
100
AcDbEntity
  8
ASSI
100
AcDbSpline
 62
7
  6
CONTINUOUS
 70
0
 71
3
 72
13
 73
9
 74
0
 42
0.0000001
 43
0.0000001
 44
0.0000000001
 40
0.0
 40
0.0
 40
0.0
 40
0.0
 40
0.1142615855
 40
0.2375404653
 40
0.5000060639
 40
0.7624683436
 40
0.8857433475
 40
1.0
 40
1.0
 40
1.0
 40
1.0
 10
16.460306586
 20
-11.1523474983
 30
0.0
 10
16.3780126002
 20
-11.1048319822
 30
0.0
 10
16.2154508493
 20
-10.9908911075
 30
0.0
 10
15.9111460597
 20
-10.7060294641
 30
0.0
 10
15.5896669117
 20
-10.2669521547
 30
0.0
 10
15.3701547584
 20
-9.7690073536
 30
0.0
 10
15.2756154734
 20
-9.363049763
 30
0.0
 10
15.2582250582
 20
-9.1653035569
 30
0.0
 10
15.258225058
 20
-9.070281219
 30
0.0
  0
SPLINE
  5
44A
100
AcDbEntity
  8
ASSI
100
AcDbSpline
 62
7
  6
CONTINUOUS
 70
0
 71
3
 72
11
 73
7
 74
0
 42
0.0000001
 43
0.0000001
 44
0.0000000001
 40
0.0
 40
0.0
 40
0.0
 40
0.0
 40
0.2874005571
 40
0.5470442903
 40
0.7819664638
 40
1.0
 40
1.0
 40
1.0
 40
1.0
 10
-15.8544733142
 20
20.0794831344
 30
0.0
 10
-15.8544733142
 20
20.1354942613
 30
0.0
 10
-15.8466286798
 20
20.24240464
 30
0.0
 10
-15.8071128571
 20
20.3907065719
 30
0.0
 10
-15.7408979033
 20
20.5144260017
 30
0.0
 10
-15.6780647344
 20
20.5786436015
 30
0.0
 10
-15.6438970031
 20
20.6039054252
 30
0.0
  0
SPLINE
  5
44B
100
AcDbEntity
  8
ASSI
100
AcDbSpline
 62
7
  6
CONTINUOUS
 70
0
 71
3
 72
11
 73
7
 74
0
 42
0.0000001
 43
0.0000001
 44
0.0000000001
 40
0.0
 40
0.0
 40
0.0
 40
0.0
 40
0.2372223756
 40
0.5000061071
 40
0.7627865148
 40
1.0
 40
1.0
 40
1.0
 40
1.0
 10
-15.0059451768
 20
7.8323816366
 30
0.0
 10
-15.1264011134
 20
7.9019313846
 30
0.0
 10
-15.3543720846
 20
8.0937961444
 30
0.0
 10
-15.6204525715
 20
8.4574023265
 30
0.0
 10
-15.8023030514
 20
8.8696328003
 30
0.0
 10
-15.8544733145
 20
9.1629879183
 30
0.0
 10
-15.8544733142
 20
9.3020754807
 30
0.0
  0
SPLINE
  5
44C
100
AcDbEntity
  8
ASSI
100
AcDbSpline
 62
7
  6
CONTINUOUS
 70
0
 71
3
 72
9
 73
5
 74
0
 42
0.0000001
 43
0.0000001
 44
0.0000000001
 40
0.0
 40
0.0
 40
0.0
 40
0.0
 40
0.2474995002
 40
1.0
 40
1.0
 40
1.0
 40
1.0
 10
-5.072106673
 20
2.3837075914
 30
0.0
 10
-5.0819301207
 20
2.3780356525
 30
0.0
 10
-5.122582372
 20
2.3568072645
 30
0.0
 10
-5.1668518217
 20
2.3426615054
 30
0.0
 10
-5.2007081205
 20
2.3360888663
 30
0.0
  0
SPLINE
  5
44D
100
AcDbEntity
  8
ASSI
100
AcDbSpline
 62
7
  6
CONTINUOUS
 70
0
 71
3
 72
10
 73
6
 74
0
 42
0.0000001
 43
0.0000001
 44
0.0000000001
 40
0.0
 40
0.0
 40
0.0
 40
0.0
 40
0.4579074902
 40
0.7178898928
 40
1.0
 40
1.0
 40
1.0
 40
1.0
 10
-5.2007081205
 20
2.3360888663
 30
0.0
 10
-5.2744010805
 20
2.3217825998
 30
0.0
 10
-5.396247984
 20
2.3291863582
 30
0.0
 10
-5.5521552979
 20
2.380225262
 30
0.0
 10
-5.6320836947
 20
2.4200314987
 30
0.0
 10
-5.6721356651
 20
2.4431570046
 30
0.0
  0
SPLINE
  5
44E
100
AcDbEntity
  8
ASSI
100
AcDbSpline
 62
7
  6
CONTINUOUS
 70
0
 71
3
 72
9
 73
5
 74
0
 42
0.0000001
 43
0.0000001
 44
0.0000000001
 40
0.0
 40
0.0
 40
0.0
 40
0.0
 40
0.2556065575
 40
1.0
 40
1.0
 40
1.0
 40
1.0
 10
26.9961976257
 20
-15.8476394683
 30
0.0
 10
26.9961976257
 20
-15.8610174093
 30
0.0
 10
26.9955388096
 20
-15.9133520557
 30
0.0
 10
26.9922011835
 20
-15.965663141
 30
0.0
 10
26.9880293884
 20
-16.0043992203
 30
0.0
  0
SPLINE
  5
44F
100
AcDbEntity
  8
ASSI
100
AcDbSpline
 62
7
  6
CONTINUOUS
 70
0
 71
3
 72
15
 73
11
 74
0
 42
0.0000001
 43
0.0000001
 44
0.0000000001
 40
0.0
 40
0.0
 40
0.0
 40
0.0
 40
0.1348515915
 40
0.2571603084
 40
0.3705368459
 40
0.4806428405
 40
0.5940220991
 40
0.7163355574
 40
0.8511929327
 40
1.0
 40
1.0
 40
1.0
 40
1.0
 10
26.9779394468
 20
-16.0780938876
 30
0.0
 10
26.9664086013
 20
-16.1469796777
 30
0.0
 10
26.9330101088
 20
-16.2769765926
 30
0.0
 10
26.8446930315
 20
-16.449458706
 30
0.0
 10
26.7219273336
 20
-16.5833053828
 30
0.0
 10
26.5684062855
 20
-16.6719295015
 30
0.0
 10
26.3911166735
 20
-16.7113191565
 30
0.0
 10
26.19751831
 20
-16.7015317362
 30
0.0
 10
25.9936848635
 20
-16.6446663557
 30
0.0
 10
25.8608615184
 20
-16.5801100994
 30
0.0
 10
25.7941160977
 20
-16.5415721302
 30
0.0
  0
SPLINE
  5
450
100
AcDbEntity
  8
ASSI
100
AcDbSpline
 62
7
  6
CONTINUOUS
 70
0
 71
3
 72
11
 73
7
 74
0
 42
0.0000001
 43
0.0000001
 44
0.0000000001
 40
0.0
 40
0.0
 40
0.0
 40
0.0
 40
0.2874005416
 40
0.5470442777
 40
0.7819664603
 40
1.0
 40
1.0
 40
1.0
 40
1.0
 10
-31.7643758909
 20
12.52802081
 30
0.0
 10
-31.764375891
 20
12.5840319142
 30
0.0
 10
-31.7565312629
 20
12.6909422528
 30
0.0
 10
-31.7170154719
 20
12.8392441354
 30
0.0
 10
-31.650800573
 20
12.9629635402
 30
0.0
 10
-31.5879674531
 20
13.0271811449
 30
0.0
 10
-31.5537997462
 20
13.0524429777
 30
0.0
  0
SPLINE
  5
451
100
AcDbEntity
  8
ASSI
100
AcDbSpline
 62
7
  6
CONTINUOUS
 70
0
 71
3
 72
15
 73
11
 74
0
 42
0.0000001
 43
0.0000001
 44
0.0000000001
 40
0.0
 40
0.0
 40
0.0
 40
0.0
 40
0.1488004662
 40
0.2836513623
 40
0.4059596111
 40
0.5193362141
 40
0.6294430627
 40
0.7428240144
 40
0.8651398379
 40
1.0
 40
1.0
 40
1.0
 40
1.0
 10
15.258225058
 20
-15.0305142396
 30
0.0
 10
15.2582250582
 20
-14.9534460416
 30
0.0
 10
15.2687338932
 20
-14.8061476615
 30
0.0
 10
15.3214122295
 20
-14.6012034229
 30
0.0
 10
15.4097451516
 20
-14.4286633172
 30
0.0
 10
15.5325133138
 20
-14.2948372745
 30
0.0
 10
15.6860349521
 20
-14.2062141769
 30
0.0
 10
15.8633411983
 20
-14.1668369731
 30
0.0
 10
16.056881428
 20
-14.1766091188
 30
0.0
 10
16.1861659897
 20
-14.2126925412
 30
0.0
 10
16.2515908029
 20
-14.2371537502
 30
0.0
  0
SPLINE
  5
452
100
AcDbEntity
  8
ASSI
100
AcDbSpline
 62
7
  6
CONTINUOUS
 70
0
 71
3
 72
9
 73
5
 74
0
 42
0.0000001
 43
0.0000001
 44
0.0000000001
 40
0.0
 40
0.0
 40
0.0
 40
0.0
 40
0.2474995002
 40
1.0
 40
1.0
 40
1.0
 40
1.0
 10
10.8377959037
 20
-6.8024707585
 30
0.0
 10
10.827972456
 20
-6.8081426974
 30
0.0
 10
10.7873202047
 20
-6.8293710854
 30
0.0
 10
10.743050755
 20
-6.8435168444
 30
0.0
 10
10.7091944562
 20
-6.8500894836
 30
0.0
  0
SPLINE
  5
453
100
AcDbEntity
  8
ASSI
100
AcDbSpline
 62
7
  6
CONTINUOUS
 70
0
 71
3
 72
10
 73
6
 74
0
 42
0.0000001
 43
0.0000001
 44
0.0000000001
 40
0.0
 40
0.0
 40
0.0
 40
0.0
 40
0.4579074902
 40
0.7178898928
 40
1.0
 40
1.0
 40
1.0
 40
1.0
 10
10.7091944562
 20
-6.8500894836
 30
0.0
 10
10.6355014962
 20
-6.8643957501
 30
0.0
 10
10.5136545927
 20
-6.8569919917
 30
0.0
 10
10.3577472788
 20
-6.8059530879
 30
0.0
 10
10.277818882
 20
-6.7661468511
 30
0.0
 10
10.2377669116
 20
-6.7430213452
 30
0.0
  0
SPLINE
  5
454
100
AcDbEntity
  8
ASSI
100
AcDbSpline
 62
7
  6
CONTINUOUS
 70
0
 71
3
 72
11
 73
7
 74
0
 42
0.0000001
 43
0.0000001
 44
0.0000000001
 40
0.0
 40
0.0
 40
0.0
 40
0.0
 40
0.2372223749
 40
0.5000061065
 40
0.762786514
 40
1.0
 40
1.0
 40
1.0
 40
1.0
 10
-30.9158477535
 20
0.2809193122
 30
0.0
 10
-31.0363036898
 20
0.3504690598
 30
0.0
 10
-31.2642746607
 20
0.5423338196
 30
0.0
 10
-31.5303551476
 20
0.9059400011
 30
0.0
 10
-31.712205628
 20
1.3181704751
 30
0.0
 10
-31.764375891
 20
1.6115255935
 30
0.0
 10
-31.7643758909
 20
1.7506131563
 30
0.0
  0
SPLINE
  5
455
100
AcDbEntity
  8
ASSI
100
AcDbSpline
 62
7
  6
CONTINUOUS
 70
0
 71
3
 72
13
 73
9
 74
0
 42
0.0000001
 43
0.0000001
 44
0.0000000001
 40
0.0
 40
0.0
 40
0.0
 40
0.0
 40
0.1142615865
 40
0.2375404667
 40
0.5000060664
 40
0.7624683449
 40
0.8857433485
 40
1.0
 40
1.0
 40
1.0
 40
1.0
 10
16.460306586
 20
-27.8899881725
 30
0.0
 10
16.3780125995
 20
-27.8424726558
 30
0.0
 10
16.2154508476
 20
-27.7285317807
 30
0.0
 10
15.9111460569
 20
-27.4436701353
 30
0.0
 10
15.5896669095
 20
-27.0045928252
 30
0.0
 10
15.3701547572
 20
-26.506648024
 30
0.0
 10
15.2756154733
 20
-26.1006904353
 30
0.0
 10
15.258225058
 20
-25.9029442303
 30
0.0
 10
15.258225058
 20
-25.8079218933
 30
0.0
  0
SPLINE
  5
456
100
AcDbEntity
  8
ASSI
100
AcDbSpline
 62
7
  6
CONTINUOUS
 70
0
 71
3
 72
9
 73
5
 74
0
 42
0.0000001
 43
0.0000001
 44
0.0000000001
 40
0.0
 40
0.0
 40
0.0
 40
0.0
 40
0.2474995002
 40
1.0
 40
1.0
 40
1.0
 40
1.0
 10
26.7476984804
 20
-15.9886491083
 30
0.0
 10
26.7378750327
 20
-15.9943210473
 30
0.0
 10
26.6972227814
 20
-16.0155494352
 30
0.0
 10
26.6529533317
 20
-16.0296951943
 30
0.0
 10
26.6190970329
 20
-16.0362678335
 30
0.0
  0
SPLINE
  5
457
100
AcDbEntity
  8
ASSI
100
AcDbSpline
 62
7
  6
CONTINUOUS
 70
0
 71
3
 72
10
 73
6
 74
0
 42
0.0000001
 43
0.0000001
 44
0.0000000001
 40
0.0
 40
0.0
 40
0.0
 40
0.0
 40
0.4579074902
 40
0.7178898928
 40
1.0
 40
1.0
 40
1.0
 40
1.0
 10
26.6190970329
 20
-16.0362678335
 30
0.0
 10
26.5454040729
 20
-16.0505741
 30
0.0
 10
26.4235571694
 20
-16.0431703416
 30
0.0
 10
26.2676498555
 20
-15.9921314378
 30
0.0
 10
26.1877214587
 20
-15.952325201
 30
0.0
 10
26.1476694883
 20
-15.9291996951
 30
0.0
  0
SPLINE
  5
458
100
AcDbEntity
  8
ASSI
100
AcDbSpline
 62
7
  6
CONTINUOUS
 70
0
 71
3
 72
9
 73
5
 74
0
 42
0.0000001
 43
0.0000001
 44
0.0000000001
 40
0.0
 40
0.0
 40
0.0
 40
0.0
 40
0.2474995089
 40
1.0
 40
1.0
 40
1.0
 40
1.0
 10
-20.9820092497
 20
-5.167754733
 30
0.0
 10
-20.9918326799
 20
-5.1734266618
 30
0.0
 10
-21.0324848557
 20
-5.1946550143
 30
0.0
 10
-21.0767542176
 20
-5.2088007642
 30
0.0
 10
-21.110610451
 20
-5.2153734103
 30
0.0
  0
SPLINE
  5
459
100
AcDbEntity
  8
ASSI
100
AcDbSpline
 62
7
  6
CONTINUOUS
 70
0
 71
3
 72
10
 73
6
 74
0
 42
0.0000001
 43
0.0000001
 44
0.0000000001
 40
0.0
 40
0.0
 40
0.0
 40
0.0
 40
0.4579074641
 40
0.7178898709
 40
1.0
 40
1.0
 40
1.0
 40
1.0
 10
-21.110610451
 20
-5.2153734103
 30
0.0
 10
-21.1843034357
 20
-5.2296797243
 30
0.0
 10
-21.3061504067
 20
-5.2222760048
 30
0.0
 10
-21.4620578052
 20
-5.1712370944
 30
0.0
 10
-21.5419862481
 20
-5.131430839
 30
0.0
 10
-21.5820382418
 20
-5.1083053198
 30
0.0
  0
SPLINE
  5
45A
100
AcDbEntity
  8
ASSI
100
AcDbSpline
 62
7
  6
CONTINUOUS
 70
0
 71
3
 72
15
 73
11
 74
0
 42
0.0000001
 43
0.0000001
 44
0.0000000001
 40
0.0
 40
0.0
 40
0.0
 40
0.0
 40
0.1488004778
 40
0.2836513917
 40
0.4059596616
 40
0.5193362816
 40
0.6294431371
 40
0.7428240803
 40
0.8651398772
 40
1.0
 40
1.0
 40
1.0
 40
1.0
 10
-0.6516775187
 20
10.8933047845
 30
0.0
 10
-0.6516775187
 20
10.9703729474
 30
0.0
 10
-0.6411686928
 20
11.1176712636
 30
0.0
 10
-0.5884904057
 20
11.3226154236
 30
0.0
 10
-0.5001575672
 20
11.4951554856
 30
0.0
 10
-0.3773895208
 20
11.6289815301
 30
0.0
 10
-0.2238680191
 20
11.7176046857
 30
0.0
 10
-0.046561913
 20
11.7569820014
 30
0.0
 10
0.1469781824
 20
11.7472100112
 30
0.0
 10
0.2762626685
 20
11.7111267099
 30
0.0
 10
0.3416874445
 20
11.6866655661
 30
0.0
  0
SPLINE
  5
45B
100
AcDbEntity
  8
ASSI
100
AcDbSpline
 62
7
  6
CONTINUOUS
 70
0
 71
3
 72
9
 73
5
 74
0
 42
0.0000001
 43
0.0000001
 44
0.0000000001
 40
0.0
 40
0.0
 40
0.0
 40
0.0
 40
0.2474995089
 40
1.0
 40
1.0
 40
1.0
 40
1.0
 10
-5.072106673
 20
-14.3539330828
 30
0.0
 10
-5.0819301032
 20
-14.3596050117
 30
0.0
 10
-5.122582279
 20
-14.3808333642
 30
0.0
 10
-5.1668516409
 20
-14.3949791141
 30
0.0
 10
-5.2007078743
 20
-14.4015517602
 30
0.0
  0
SPLINE
  5
45C
100
AcDbEntity
  8
ASSI
100
AcDbSpline
 62
7
  6
CONTINUOUS
 70
0
 71
3
 72
10
 73
6
 74
0
 42
0.0000001
 43
0.0000001
 44
0.0000000001
 40
0.0
 40
0.0
 40
0.0
 40
0.0
 40
0.4579074641
 40
0.7178898709
 40
1.0
 40
1.0
 40
1.0
 40
1.0
 10
-5.2007078743
 20
-14.4015517602
 30
0.0
 10
-5.274400859
 20
-14.4158580742
 30
0.0
 10
-5.39624783
 20
-14.4084543547
 30
0.0
 10
-5.5521552285
 20
-14.3574154443
 30
0.0
 10
-5.6320836714
 20
-14.3176091888
 30
0.0
 10
-5.6721356651
 20
-14.2944836696
 30
0.0
  0
SPLINE
  5
45D
100
AcDbEntity
  8
ASSI
100
AcDbSpline
 62
7
  6
CONTINUOUS
 70
0
 71
3
 72
13
 73
9
 74
0
 42
0.0000001
 43
0.0000001
 44
0.0000000001
 40
0.0
 40
0.0
 40
0.0
 40
0.0
 40
0.1142615855
 40
0.2375404653
 40
0.5000060639
 40
0.7624683436
 40
0.8857433475
 40
1.0
 40
1.0
 40
1.0
 40
1.0
 10
0.5504040093
 20
-1.9661691484
 30
0.0
 10
0.4681100235
 20
-1.9186536323
 30
0.0
 10
0.3055482726
 20
-1.8047127577
 30
0.0
 10
0.001243483
 20
-1.5198511142
 30
0.0
 10
-0.320235665
 20
-1.0807738048
 30
0.0
 10
-0.5397478183
 20
-0.5828290037
 30
0.0
 10
-0.6342871033
 20
-0.1768714132
 30
0.0
 10
-0.6516775185
 20
0.020874793
 30
0.0
 10
-0.6516775187
 20
0.1158971308
 30
0.0
  0
SPLINE
  5
45E
100
AcDbEntity
  8
ASSI
100
AcDbSpline
 62
7
  6
CONTINUOUS
 70
0
 71
3
 72
11
 73
7
 74
0
 42
0.0000001
 43
0.0000001
 44
0.0000000001
 40
0.0
 40
0.0
 40
0.0
 40
0.0
 40
0.2372223756
 40
0.5000061071
 40
0.7627865148
 40
1.0
 40
1.0
 40
1.0
 40
1.0
 10
16.8138599766
 20
-10.5399750632
 30
0.0
 10
16.69340404
 20
-10.4704253151
 30
0.0
 10
16.4654330687
 20
-10.2785605553
 30
0.0
 10
16.1993525819
 20
-9.9149543732
 30
0.0
 10
16.017502102
 20
-9.5027238995
 30
0.0
 10
15.9653318389
 20
-9.2093687815
 30
0.0
 10
15.9653318392
 20
-9.070281219
 30
0.0
  0
SPLINE
  5
45F
100
AcDbEntity
  8
ASSI
100
AcDbSpline
 62
7
  6
CONTINUOUS
 70
0
 71
3
 72
9
 73
5
 74
0
 42
0.0000001
 43
0.0000001
 44
0.0000000001
 40
0.0
 40
0.0
 40
0.0
 40
0.0
 40
0.2474995089
 40
1.0
 40
1.0
 40
1.0
 40
1.0
 10
10.8377959037
 20
-23.5401114327
 30
0.0
 10
10.8279724735
 20
-23.5457833616
 30
0.0
 10
10.7873202977
 20
-23.5670117141
 30
0.0
 10
10.7430509358
 20
-23.581157464
 30
0.0
 10
10.7091947024
 20
-23.58773011
 30
0.0
  0
SPLINE
  5
460
100
AcDbEntity
  8
ASSI
100
AcDbSpline
 62
7
  6
CONTINUOUS
 70
0
 71
3
 72
10
 73
6
 74
0
 42
0.0000001
 43
0.0000001
 44
0.0000000001
 40
0.0
 40
0.0
 40
0.0
 40
0.0
 40
0.4579074641
 40
0.7178898709
 40
1.0
 40
1.0
 40
1.0
 40
1.0
 10
10.7091947024
 20
-23.58773011
 30
0.0
 10
10.6355017177
 20
-23.6020364241
 30
0.0
 10
10.5136547467
 20
-23.5946327046
 30
0.0
 10
10.3577473482
 20
-23.5435937941
 30
0.0
 10
10.2778189053
 20
-23.5037875387
 30
0.0
 10
10.2377669116
 20
-23.4806620195
 30
0.0
  0
SPLINE
  5
461
100
AcDbEntity
  8
ASSI
100
AcDbSpline
 62
7
  6
CONTINUOUS
 70
0
 71
3
 72
9
 73
5
 74
0
 42
0.0000001
 43
0.0000001
 44
0.0000000001
 40
0.0
 40
0.0
 40
0.0
 40
0.0
 40
0.2556065575
 40
1.0
 40
1.0
 40
1.0
 40
1.0
 10
11.086295049
 20
-6.6614611184
 30
0.0
 10
11.086295049
 20
-6.6748390594
 30
0.0
 10
11.0856362329
 20
-6.7271737059
 30
0.0
 10
11.0822986068
 20
-6.7794847911
 30
0.0
 10
11.0781268118
 20
-6.8182208704
 30
0.0
  0
SPLINE
  5
462
100
AcDbEntity
  8
ASSI
100
AcDbSpline
 62
7
  6
CONTINUOUS
 70
0
 71
3
 72
15
 73
11
 74
0
 42
0.0000001
 43
0.0000001
 44
0.0000000001
 40
0.0
 40
0.0
 40
0.0
 40
0.0
 40
0.1348515915
 40
0.2571603084
 40
0.3705368459
 40
0.4806428405
 40
0.5940220991
 40
0.7163355574
 40
0.8511929327
 40
1.0
 40
1.0
 40
1.0
 40
1.0
 10
11.0680368701
 20
-6.8919155377
 30
0.0
 10
11.0565060246
 20
-6.9608013279
 30
0.0
 10
11.0231075321
 20
-7.0907982427
 30
0.0
 10
10.9347904548
 20
-7.2632803561
 30
0.0
 10
10.8120247569
 20
-7.397127033
 30
0.0
 10
10.6585037088
 20
-7.4857511516
 30
0.0
 10
10.4812140968
 20
-7.5251408066
 30
0.0
 10
10.2876157333
 20
-7.5153533864
 30
0.0
 10
10.0837822868
 20
-7.4584880059
 30
0.0
 10
9.9509589417
 20
-7.3939317495
 30
0.0
 10
9.884213521
 20
-7.3553937803
 30
0.0
  0
SPLINE
  5
463
100
AcDbEntity
  8
ASSI
100
AcDbSpline
 62
7
  6
CONTINUOUS
 70
0
 71
3
 72
11
 73
7
 74
0
 42
0.0000001
 43
0.0000001
 44
0.0000000001
 40
0.0
 40
0.0
 40
0.0
 40
0.0
 40
0.2874005571
 40
0.5470442903
 40
0.7819664638
 40
1.0
 40
1.0
 40
1.0
 40
1.0
 10
15.9653318392
 20
1.7071264346
 30
0.0
 10
15.9653318392
 20
1.7631375615
 30
0.0
 10
15.9731764736
 20
1.8700479403
 30
0.0
 10
16.0126922963
 20
2.0183498721
 30
0.0
 10
16.0789072501
 20
2.142069302
 30
0.0
 10
16.141740419
 20
2.2062869018
 30
0.0
 10
16.1759081503
 20
2.2315487255
 30
0.0
  0
SPLINE
  5
464
100
AcDbEntity
  8
ASSI
100
AcDbSpline
 62
7
  6
CONTINUOUS
 70
0
 71
3
 72
9
 73
5
 74
0
 42
0.0000001
 43
0.0000001
 44
0.0000000001
 40
0.0
 40
0.0
 40
0.0
 40
0.0
 40
0.2474995089
 40
1.0
 40
1.0
 40
1.0
 40
1.0
 10
26.7476984804
 20
-32.7262897826
 30
0.0
 10
26.7378750502
 20
-32.7319617114
 30
0.0
 10
26.6972228744
 20
-32.7531900639
 30
0.0
 10
26.6529535125
 20
-32.7673358138
 30
0.0
 10
26.6190972791
 20
-32.7739084599
 30
0.0
  0
SPLINE
  5
465
100
AcDbEntity
  8
ASSI
100
AcDbSpline
 62
7
  6
CONTINUOUS
 70
0
 71
3
 72
10
 73
6
 74
0
 42
0.0000001
 43
0.0000001
 44
0.0000000001
 40
0.0
 40
0.0
 40
0.0
 40
0.0
 40
0.4579074641
 40
0.7178898709
 40
1.0
 40
1.0
 40
1.0
 40
1.0
 10
26.6190972791
 20
-32.7739084599
 30
0.0
 10
26.5454042944
 20
-32.788214774
 30
0.0
 10
26.4235573234
 20
-32.7808110544
 30
0.0
 10
26.2676499249
 20
-32.729772144
 30
0.0
 10
26.187721482
 20
-32.6899658886
 30
0.0
 10
26.1476694883
 20
-32.6668403694
 30
0.0
  0
SPLINE
  5
466
100
AcDbEntity
  8
ASSI
100
AcDbSpline
 62
7
  6
CONTINUOUS
 70
0
 71
3
 72
9
 73
5
 74
0
 42
0.0000001
 43
0.0000001
 44
0.0000000001
 40
0.0
 40
0.0
 40
0.0
 40
0.0
 40
0.2556065818
 40
1.0
 40
1.0
 40
1.0
 40
1.0
 10
26.9961976257
 20
-32.5852801425
 30
0.0
 10
26.9961976257
 20
-32.5986581398
 30
0.0
 10
26.995538804
 20
-32.6509930017
 30
0.0
 10
26.9922011498
 20
-32.7033043021
 30
0.0
 10
26.988029319
 20
-32.7420405375
 30
0.0
  0
SPLINE
  5
467
100
AcDbEntity
  8
ASSI
100
AcDbSpline
 62
7
  6
CONTINUOUS
 70
0
 71
3
 72
15
 73
11
 74
0
 42
0.0000001
 43
0.0000001
 44
0.0000000001
 40
0.0
 40
0.0
 40
0.0
 40
0.0
 40
0.1348515522
 40
0.2571602425
 40
0.3705367715
 40
0.4806427731
 40
0.5940220486
 40
0.716335528
 40
0.8511929212
 40
1.0
 40
1.0
 40
1.0
 40
1.0
 10
26.977939309
 20
-32.8157353849
 30
0.0
 10
26.9664084256
 20
-32.8846211102
 30
0.0
 10
26.933009866
 20
-33.014617899
 30
0.0
 10
26.8446927212
 20
-33.1870998184
 30
0.0
 10
26.7219269964
 20
-33.320946318
 30
0.0
 10
26.5684059665
 20
-33.4095702893
 30
0.0
 10
26.3911164107
 20
-33.4489598432
 30
0.0
 10
26.1975181269
 20
-33.4391723723
 30
0.0
 10
25.9936847731
 20
-33.3823069885
 30
0.0
 10
25.8608614879
 20
-33.3177507562
 30
0.0
 10
25.7941160977
 20
-33.2792128044
 30
0.0
  0
SPLINE
  5
468
100
AcDbEntity
  8
ASSI
100
AcDbSpline
 62
7
  6
CONTINUOUS
 70
0
 71
3
 72
11
 73
7
 74
0
 42
0.0000001
 43
0.0000001
 44
0.0000000001
 40
0.0
 40
0.0
 40
0.0
 40
0.0
 40
0.2874005571
 40
0.5470442903
 40
0.7819664638
 40
1.0
 40
1.0
 40
1.0
 40
1.0
 10
0.0554292625
 20
10.8933047845
 30
0.0
 10
0.0554292625
 20
10.9493159114
 30
0.0
 10
0.0632738969
 20
11.0562262901
 30
0.0
 10
0.1027897196
 20
11.204528222
 30
0.0
 10
0.1690046734
 20
11.3282476518
 30
0.0
 10
0.2318378423
 20
11.3924652517
 30
0.0
 10
0.2660055736
 20
11.4177270753
 30
0.0
  0
SPLINE
  5
469
100
AcDbEntity
  8
ASSI
100
AcDbSpline
 62
7
  6
CONTINUOUS
 70
0
 71
3
 72
11
 73
7
 74
0
 42
0.0000001
 43
0.0000001
 44
0.0000000001
 40
0.0
 40
0.0
 40
0.0
 40
0.0
 40
0.2372223756
 40
0.5000061071
 40
0.7627865148
 40
1.0
 40
1.0
 40
1.0
 40
1.0
 10
0.9039573999
 20
-1.3537967133
 30
0.0
 10
0.7835014633
 20
-1.2842469653
 30
0.0
 10
0.555530492
 20
-1.0923822055
 30
0.0
 10
0.2894500052
 20
-0.7287760233
 30
0.0
 10
0.1075995253
 20
-0.3165455496
 30
0.0
 10
0.0554292622
 20
-0.0231904316
 30
0.0
 10
0.0554292625
 20
0.1158971308
 30
0.0
  0
SPLINE
  5
46A
100
AcDbEntity
  8
CURVE
100
AcDbSpline
 62
250
  6
CONTINUOUS
 70
0
 71
3
 72
9
 73
5
 74
0
 42
0.0000001
 43
0.0000001
 44
0.0000000001
 40
0.0
 40
0.0
 40
0.0
 40
0.0
 40
0.2957417834
 40
1.0
 40
1.0
 40
1.0
 40
1.0
 10
50.091998863
 20
-53.9956240342
 30
0.0
 10
50.0602383583
 20
-54.1108677204
 30
0.0
 10
50.0084668427
 20
-54.4915077569
 30
0.0
 10
50.04035281
 20
-54.8289551375
 30
0.0
 10
50.0727508531
 20
-55.0573604741
 30
0.0
  0
SPLINE
  5
46B
100
AcDbEntity
  8
CURVE
100
AcDbSpline
 62
250
  6
CONTINUOUS
 70
0
 71
3
 72
17
 73
13
 74
0
 42
0.0000001
 43
0.0000001
 44
0.0000000001
 40
0.0
 40
0.0
 40
0.0
 40
0.0
 40
0.0559780952
 40
0.1687540387
 40
0.321006234
 40
0.4122750837
 40
0.516613223
 40
0.6013931059
 40
0.6776022439
 40
0.8103422694
 40
0.9200404832
 40
1.0
 40
1.0
 40
1.0
 40
1.0
 10
51.0153960915
 20
-53.4545209894
 30
0.0
 10
51.012676352
 20
-53.4324542753
 30
0.0
 10
50.9704797627
 20
-53.3953608989
 30
0.0
 10
50.8900412917
 20
-53.339477936
 30
0.0
 10
50.7662187542
 20
-53.3331092019
 30
0.0
 10
50.6370438205
 20
-53.3701233287
 30
0.0
 10
50.529831322
 20
-53.4247922075
 30
0.0
 10
50.429695718
 20
-53.4948168599
 30
0.0
 10
50.3232938273
 20
-53.5911496595
 30
0.0
 10
50.2190176548
 20
-53.7206262174
 30
0.0
 10
50.1374709486
 20
-53.8680717628
 30
0.0
 10
50.1023006011
 20
-53.958197749
 30
0.0
 10
50.091998863
 20
-53.9956240342
 30
0.0
  0
SPLINE
  5
46C
100
AcDbEntity
  8
CURVE
100
AcDbSpline
 62
250
  6
CONTINUOUS
 70
0
 71
3
 72
9
 73
5
 74
0
 42
0.0000001
 43
0.0000001
 44
0.0000000001
 40
0.0
 40
0.0
 40
0.0
 40
0.0
 40
0.2426586216
 40
1.0
 40
1.0
 40
1.0
 40
1.0
 10
51.3847686923
 20
-53.0100746935
 30
0.0
 10
51.3515473898
 20
-53.0380655898
 30
0.0
 10
51.2173916743
 20
-53.1488930007
 30
0.0
 10
51.0660022652
 20
-53.3158363946
 30
0.0
 10
51.0261991056
 20
-53.4487044033
 30
0.0
  0
SPLINE
  5
46D
100
AcDbEntity
  8
CURVE
100
AcDbSpline
 62
250
  6
CONTINUOUS
 70
0
 71
3
 72
9
 73
5
 74
0
 42
0.0000001
 43
0.0000001
 44
0.0000000001
 40
0.0
 40
0.0
 40
0.0
 40
0.0
 40
0.1980141723
 40
1.0
 40
1.0
 40
1.0
 40
1.0
 10
51.8795823834
 20
-52.5980140448
 30
0.0
 10
51.8469870713
 20
-52.6254471974
 30
0.0
 10
51.6820060631
 20
-52.7626500461
 30
0.0
 10
51.5167560501
 20
-52.8988654512
 30
0.0
 10
51.3847686923
 20
-53.0100746935
 30
0.0
  0
SPLINE
  5
46E
100
AcDbEntity
  8
CURVE
100
AcDbSpline
 62
250
  6
CONTINUOUS
 70
0
 71
3
 72
9
 73
5
 74
0
 42
0.0000001
 43
0.0000001
 44
0.0000000001
 40
0.0
 40
0.0
 40
0.0
 40
0.0
 40
0.5586214172
 40
1.0
 40
1.0
 40
1.0
 40
1.0
 10
51.3252150205
 20
-53.4925794314
 30
0.0
 10
51.4261339054
 20
-53.3959161078
 30
0.0
 10
51.6130071934
 20
-53.239636443
 30
0.0
 10
51.7977189718
 20
-53.0781561662
 30
0.0
 10
51.8795823834
 20
-53.0078038228
 30
0.0
  0
SPLINE
  5
46F
100
AcDbEntity
  8
CURVE
100
AcDbSpline
 62
250
  6
CONTINUOUS
 70
0
 71
3
 72
9
 73
5
 74
0
 42
0.0000001
 43
0.0000001
 44
0.0000000001
 40
0.0
 40
0.0
 40
0.0
 40
0.0
 40
0.3559141631
 40
1.0
 40
1.0
 40
1.0
 40
1.0
 10
51.1641294674
 20
-53.8169972452
 30
0.0
 10
51.1641294674
 20
-53.7798719462
 30
0.0
 10
51.1842664291
 20
-53.6622302233
 30
0.0
 10
51.2688716315
 20
-53.5465218724
 30
0.0
 10
51.3252150205
 20
-53.4925794314
 30
0.0
  0
SPLINE
  5
470
100
AcDbEntity
  8
CURVE
100
AcDbSpline
 62
250
  6
CONTINUOUS
 70
0
 71
3
 72
9
 73
5
 74
0
 42
0.0000001
 43
0.0000001
 44
0.0000000001
 40
0.0
 40
0.0
 40
0.0
 40
0.0
 40
0.5206208722
 40
1.0
 40
1.0
 40
1.0
 40
1.0
 10
50.5806159014
 20
-53.7993170701
 30
0.0
 10
50.6596496391
 20
-53.7554020811
 30
0.0
 10
50.8322980616
 20
-53.7247758084
 30
0.0
 10
50.8630907542
 20
-53.896933117
 30
0.0
 10
50.8647159796
 20
-53.9772899144
 30
0.0
  0
SPLINE
  5
471
100
AcDbEntity
  8
CURVE
100
AcDbSpline
 62
250
  6
CONTINUOUS
 70
0
 71
3
 72
9
 73
5
 74
0
 42
0.0000001
 43
0.0000001
 44
0.0000000001
 40
0.0
 40
0.0
 40
0.0
 40
0.0
 40
0.5013510385
 40
1.0
 40
1.0
 40
1.0
 40
1.0
 10
50.352080057
 20
-54.1630207984
 30
0.0
 10
50.3585735259
 20
-54.0970852277
 30
0.0
 10
50.4078280827
 20
-53.9442746042
 30
0.0
 10
50.5246204575
 20
-53.8304440016
 30
0.0
 10
50.5806159014
 20
-53.7993170701
 30
0.0
  0
SPLINE
  5
472
100
AcDbEntity
  8
CURVE
100
AcDbSpline
 62
250
  6
CONTINUOUS
 70
0
 71
3
 72
9
 73
5
 74
0
 42
0.0000001
 43
0.0000001
 44
0.0000000001
 40
0.0
 40
0.0
 40
0.0
 40
0.0
 40
0.2703953699
 40
1.0
 40
1.0
 40
1.0
 40
1.0
 10
50.3628419429
 20
-54.490981191
 30
0.0
 10
50.3582970789
 20
-54.463693305
 30
0.0
 10
50.3433493835
 20
-54.3614290331
 30
0.0
 10
50.343673881
 20
-54.2483971608
 30
0.0
 10
50.352080057
 20
-54.1630207984
 30
0.0
  0
ELLIPSE
  5
473
100
AcDbEntity
  8
0
100
AcDbEllipse
 62
7
  6
CONTINUOUS
 10
26.2499231194
 20
-30.9942176494
 30
0.0
 11
0.1998333781
 21
-0.0157785196
 31
0.0
 40
0.5172961965
 41
0.8262203412
 42
2.3446567905
  0
ELLIPSE
  5
474
100
AcDbEntity
  8
0
100
AcDbEllipse
 62
7
  6
CONTINUOUS
 10
-21.4797846107
 20
-3.4356825998
 30
0.0
 11
0.1998333781
 21
-0.0157785196
 31
0.0
 40
0.5172961965
 41
0.8262203412
 42
2.3446567905
  0
ENDSEC
  0
SECTION
  2
OBJECTS
  0
DICTIONARY
  5
C
100
AcDbDictionary
280
0
281
1
  3
ACAD_GROUP
350
D
  3
ACAD_MLINESTYLE
350
17
  3
ACAD_LAYOUT
350
1A
  3
ACAD_PLOTSETTINGS
350
19
  3
ACAD_PLOTSTYLENAME
350
E
  0
DICTIONARY
  5
D
102
{ACAD_REACTORS
330
C
102
}
100
AcDbDictionary
280
0
281
1
  0
ACDBDICTIONARYWDFLT
  5
E
102
{ACAD_REACTORS
330
C
102
}
100
AcDbDictionary
281
1
  3
Normal
350
F
100
AcDbDictionaryWithDefault
340
F
  0
DICTIONARY
  5
17
102
{ACAD_REACTORS
330
C
102
}
100
AcDbDictionary
280
0
281
1
  3
Standard
350
18
  0
DICTIONARY
  5
19
102
{ACAD_REACTORS
330
C
102
}
100
AcDbDictionary
281
1
  0
DICTIONARY
  5
1A
102
{ACAD_REACTORS
330
C
102
}
100
AcDbDictionary
281
1
  3
Model
350
475
  3
Layout1
350
476
  0
ACDBPLACEHOLDER
  5
F
102
{ACAD_REACTORS
330
E
102
}
  0
MLINESTYLE
  5
18
102
{ACAD_REACTORS
330
17
102
}
100
AcDbMlineStyle
  2
STANDARD
 70
0
  3

 62
256
 51
90.0
 52
90.0
 71
2
 49
0.5
 62
256
  6
BYLAYER
 49
-0.5
 62
256
  6
BYLAYER
  0
LAYOUT
  5
475
102
{ACAD_REACTORS
330
1A
102
}
100
AcDbPlotSettings
  1

  2
none_device
  4
ISO_A4_(297.00_x_210.00_MM)
  6

 40
0.0
 41
0.0
 42
0.0
 43
0.0
 44
297.0
 45
210.0
 46
0.0
 47
0.0
 48
0.0
 49
0.0
140
0.0
141
0.0
142
1.0
143
1.0
 70
1024
 72
1
 73
0
 74
0
  7

 75
0
147
1.0
148
0.0
149
0.0
100
AcDbLayout
  1
Model
 70
0
 71
0
 10
0.0
 20
0.0
 11
297.0
 21
210.0
 12
0.0
 22
0.0
 32
0.0
 14
0.0
 24
0.0
 34
0.0
 15
0.0
 25
0.0
 35
0.0
146
0.0
 13
0.0
 23
0.0
 33
0.0
 16
1.0
 26
0.0
 36
0.0
 17
0.0
 27
1.0
 37
0.0
 76
0
330
21E
345
0
346
0
  0
LAYOUT
  5
476
102
{ACAD_REACTORS
330
1A
102
}
100
AcDbPlotSettings
  1

  2
none_device
  4
ISO_A4_(297.00_x_210.00_MM)
  6

 40
0.0
 41
0.0
 42
0.0
 43
0.0
 44
297.0
 45
210.0
 46
0.0
 47
0.0
 48
0.0
 49
0.0
140
0.0
141
0.0
142
1.0
143
1.0
 70
0
 72
1
 73
0
 74
0
  7

 75
0
147
1.0
148
0.0
149
0.0
100
AcDbLayout
  1
Layout1
 70
0
 71
1
 10
0.0
 20
0.0
 11
297.0
 21
210.0
 12
0.0
 22
0.0
 32
0.0
 14
0.0
 24
0.0
 34
0.0
 15
0.0
 25
0.0
 35
0.0
146
0.0
 13
0.0
 23
0.0
 33
0.0
 16
1.0
 26
0.0
 36
0.0
 17
0.0
 27
1.0
 37
0.0
 76
0
330
21F
345
0
346
0
  0
ENDSEC
  0
EOF
